  0
SECTION
  2
HEADER
  9
$ACADVER
  1
AC1012
  9
$DWGCODEPAGE
  3
dos932
  9
$INSBASE
 10
0.0
 20
0.0
 30
0.0
  9
$EXTMIN
 10
66.0
 20
30.0
 30
0.0
  9
$EXTMAX
 10
1716.0
 20
1146.0
 30
0.0
  9
$LIMMIN
 10
0.0
 20
0.0
  9
$LIMMAX
 10
1782.0
 20
1260.0
  9
$ORTHOMODE
 70
     1
  9
$REGENMODE
 70
     1
  9
$FILLMODE
 70
     1
  9
$QTEXTMODE
 70
     0
  9
$MIRRTEXT
 70
     1
  9
$DRAGMODE
 70
     2
  9
$LTSCALE
 40
24.0
  9
$OSMODE
 70
    35
  9
$ATTMODE
 70
     1
  9
$TEXTSIZE
 40
24.0
  9
$TRACEWID
 40
0.05
  9
$TEXTSTYLE
  7
STANDARD
  9
$CLAYER
  8
0
  9
$CELTYPE
  6
BYLAYER
  9
$CECOLOR
 62
   256
  9
$CELTSCALE
 40
1.0
  9
$DELOBJ
 70
     1
  9
$DISPSILH
 70
     0
  9
$DIMSCALE
 40
6.0
  9
$DIMASZ
 40
2.8
  9
$DIMEXO
 40
1.0
  9
$DIMDLI
 40
5.0
  9
$DIMRND
 40
0.1
  9
$DIMDLE
 40
0.0
  9
$DIMEXE
 40
1.0
  9
$DIMTP
 40
0.0
  9
$DIMTM
 40
0.0
  9
$DIMTXT
 40
2.5
  9
$DIMCEN
 40
0.0
  9
$DIMTSZ
 40
0.0
  9
$DIMTOL
 70
     0
  9
$DIMLIM
 70
     0
  9
$DIMTIH
 70
     0
  9
$DIMTOH
 70
     0
  9
$DIMSE1
 70
     0
  9
$DIMSE2
 70
     0
  9
$DIMTAD
 70
     3
  9
$DIMZIN
 70
     8
  9
$DIMBLK
  1

  9
$DIMASO
 70
     1
  9
$DIMSHO
 70
     1
  9
$DIMPOST
  1
 
  9
$DIMAPOST
  1

  9
$DIMALT
 70
     0
  9
$DIMALTD
 70
     2
  9
$DIMALTF
 40
1.0
  9
$DIMLFAC
 40
1.0
  9
$DIMTOFL
 70
     1
  9
$DIMTVP
 40
0.0
  9
$DIMTIX
 70
     0
  9
$DIMSOXD
 70
     0
  9
$DIMSAH
 70
     1
  9
$DIMBLK1
  1
_OPEN
  9
$DIMBLK2
  1
_OPEN
  9
$DIMSTYLE
  2
DIM1
  9
$DIMCLRD
 70
     2
  9
$DIMCLRE
 70
     2
  9
$DIMCLRT
 70
     2
  9
$DIMTFAC
 40
0.7
  9
$DIMGAP
 40
0.85
  9
$DIMJUST
 70
     0
  9
$DIMSD1
 70
     0
  9
$DIMSD2
 70
     0
  9
$DIMTOLJ
 70
     1
  9
$DIMTZIN
 70
     8
  9
$DIMALTZ
 70
     8
  9
$DIMALTTZ
 70
     8
  9
$DIMFIT
 70
     3
  9
$DIMUPT
 70
     0
  9
$DIMUNIT
 70
     2
  9
$DIMDEC
 70
     2
  9
$DIMTDEC
 70
     3
  9
$DIMALTU
 70
     2
  9
$DIMALTTD
 70
     3
  9
$DIMTXSTY
  7
DIM
  9
$DIMAUNIT
 70
     0
  9
$LUNITS
 70
     2
  9
$LUPREC
 70
     4
  9
$SKETCHINC
 40
0.1
  9
$FILLETRAD
 40
3.0
  9
$AUNITS
 70
     0
  9
$AUPREC
 70
     0
  9
$MENU
  1
C:\ACADR13\WIN\SUPPORT\ACAD.mnc
  9
$ELEVATION
 40
0.0
  9
$PELEVATION
 40
0.0
  9
$THICKNESS
 40
0.0
  9
$LIMCHECK
 70
     0
  9
$BLIPMODE
 70
     1
  9
$CHAMFERA
 40
0.0
  9
$CHAMFERB
 40
0.0
  9
$CHAMFERC
 40
0.0
  9
$CHAMFERD
 40
0.0
  9
$SKPOLY
 70
     0
  9
$TDCREATE
 40
2451589.540470243
  9
$TDUPDATE
 40
2451967.653879294
  9
$TDINDWG
 40
0.7330065046
  9
$TDUSRTIMER
 40
0.7330065046
  9
$USRTIMER
 70
     1
  9
$ANGBASE
 50
0.0
  9
$ANGDIR
 70
     0
  9
$PDMODE
 70
     0
  9
$PDSIZE
 40
0.0
  9
$PLINEWID
 40
0.0
  9
$COORDS
 70
     1
  9
$SPLFRAME
 70
     0
  9
$SPLINETYPE
 70
     6
  9
$SPLINESEGS
 70
     8
  9
$ATTDIA
 70
     0
  9
$ATTREQ
 70
     1
  9
$HANDLING
 70
     1
  9
$HANDSEED
  5
219DF
  9
$SURFTAB1
 70
     6
  9
$SURFTAB2
 70
     6
  9
$SURFTYPE
 70
     6
  9
$SURFU
 70
     6
  9
$SURFV
 70
     6
  9
$UCSNAME
  2

  9
$UCSORG
 10
0.0
 20
0.0
 30
0.0
  9
$UCSXDIR
 10
1.0
 20
0.0
 30
0.0
  9
$UCSYDIR
 10
0.0
 20
1.0
 30
0.0
  9
$PUCSNAME
  2

  9
$PUCSORG
 10
0.0
 20
0.0
 30
0.0
  9
$PUCSXDIR
 10
1.0
 20
0.0
 30
0.0
  9
$PUCSYDIR
 10
0.0
 20
1.0
 30
0.0
  9
$USERI1
 70
     0
  9
$USERI2
 70
     0
  9
$USERI3
 70
     0
  9
$USERI4
 70
     0
  9
$USERI5
 70
     0
  9
$USERR1
 40
0.0
  9
$USERR2
 40
0.0
  9
$USERR3
 40
0.0
  9
$USERR4
 40
0.0
  9
$USERR5
 40
0.0
  9
$WORLDVIEW
 70
     1
  9
$SHADEDGE
 70
     3
  9
$SHADEDIF
 70
    70
  9
$TILEMODE
 70
     1
  9
$MAXACTVP
 70
    16
  9
$PINSBASE
 10
0.0
 20
0.0
 30
0.0
  9
$PLIMCHECK
 70
     0
  9
$PEXTMIN
 10
1.000000E+20
 20
1.000000E+20
 30
1.000000E+20
  9
$PEXTMAX
 10
-1.000000E+20
 20
-1.000000E+20
 30
-1.000000E+20
  9
$PLIMMIN
 10
0.0
 20
0.0
  9
$PLIMMAX
 10
20.0
 20
147.0
  9
$UNITMODE
 70
     0
  9
$VISRETAIN
 70
     0
  9
$PLINEGEN
 70
     0
  9
$PSLTSCALE
 70
     1
  9
$TREEDEPTH
 70
  3020
  9
$PICKSTYLE
 70
     1
  9
$CMLSTYLE
  2
STANDARD
  9
$CMLJUST
 70
     0
  9
$CMLSCALE
 40
1.0
  9
$SAVEIMAGES
 70
     1
  0
ENDSEC
  0
SECTION
  2
CLASSES
  0
CLASS
  1
LWPOLYLINE
  2
AcDbPolyline
  3
"AutoCAD"
 90
    32768
280
     0
281
     1
  0
ENDSEC
  0
SECTION
  2
TABLES
  0
TABLE
  2
VPORT
  5
8
100
AcDbSymbolTable
 70
     2
  0
VPORT
  5
219DE
100
AcDbSymbolTableRecord
100
AcDbViewportTableRecord
  2
*ACTIVE
 70
     0
 10
0.0
 20
0.0
 11
1.0
 21
1.0
 12
1154.280822
 22
655.073441
 13
0.0
 23
0.0
 14
1.0
 24
1.0
 15
0.0
 25
0.0
 16
0.0
 26
0.0
 36
1.0
 17
0.0
 27
0.0
 37
0.0
 40
1310.146882
 41
1.762063
 42
50.0
 43
0.0
 44
0.0
 50
0.0
 51
0.0
 71
     0
 72
   100
 73
     1
 74
     1
 75
     0
 76
     0
 77
     0
 78
     0
  0
ENDTAB
  0
TABLE
  2
LTYPE
  5
5
100
AcDbSymbolTable
 70
     5
  0
LTYPE
  5
12
100
AcDbSymbolTableRecord
100
AcDbLinetypeTableRecord
  2
BYBLOCK
 70
     0
  3

 72
    65
 73
     0
 40
0.0
  0
LTYPE
  5
13
100
AcDbSymbolTableRecord
100
AcDbLinetypeTableRecord
  2
BYLAYER
 70
     0
  3

 72
    65
 73
     0
 40
0.0
  0
LTYPE
  5
14
100
AcDbSymbolTableRecord
100
AcDbLinetypeTableRecord
  2
CONTINUOUS
 70
     0
  3
Solid line
 72
    65
 73
     0
 40
0.0
  0
ENDTAB
  0
TABLE
  2
LAYER
  5
2
100
AcDbSymbolTable
 70
     4
  0
LAYER
  5
F
100
AcDbSymbolTableRecord
100
AcDbLayerTableRecord
  2
0
 70
     0
 62
     7
  6
CONTINUOUS
  0
ENDTAB
  0
TABLE
  2
STYLE
  5
3
100
AcDbSymbolTable
 70
     3
  0
STYLE
  5
10
100
AcDbSymbolTableRecord
100
AcDbTextStyleTableRecord
  2
STANDARD
 70
     0
 40
0.0
 41
0.8
 50
0.0
 71
     0
 42
24.0
  3
simplex
  4
extfont
  0
STYLE
  5
237C
100
AcDbSymbolTableRecord
100
AcDbTextStyleTableRecord
  2
PTSH
 70
     0
 40
0.0
 41
0.9
 50
0.0
 71
     0
 42
4.0
  3
SIMPLEX
  4
EXTFONT
  0
STYLE
  5
2592
100
AcDbSymbolTableRecord
100
AcDbTextStyleTableRecord
  2
DIM
 70
     0
 40
0.0
 41
0.8
 50
0.0
 71
     0
 42
4.0
  3
simplex
  4
extfont
  0
ENDTAB
  0
TABLE
  2
VIEW
  5
6
100
AcDbSymbolTable
 70
     0
  0
ENDTAB
  0
TABLE
  2
UCS
  5
7
100
AcDbSymbolTable
 70
     0
  0
ENDTAB
  0
TABLE
  2
APPID
  5
9
100
AcDbSymbolTable
 70
     1
  0
APPID
  5
11
100
AcDbSymbolTableRecord
100
AcDbRegAppTableRecord
  2
ACAD
 70
     0
  0
ENDTAB
  0
TABLE
  2
DIMSTYLE
  5
A
100
AcDbSymbolTable
 70
     1
  0
DIMSTYLE
105
2237
100
AcDbSymbolTableRecord
100
AcDbDimStyleTableRecord
  2
DIM1
 70
     0
  3
 
  4

  5

  6
_OPEN
  7
_OPEN
 40
6.0
 41
2.8
 42
1.0
 43
5.0
 44
1.0
 45
0.1
 46
0.0
 47
0.0
 48
0.0
140
2.5
141
0.0
142
0.0
143
1.0
144
1.0
145
0.0
146
0.7
147
0.85
 71
     0
 72
     0
 73
     0
 74
     0
 75
     0
 76
     0
 77
     3
 78
     8
170
     0
171
     2
172
     1
173
     1
174
     0
175
     0
176
     2
177
     2
178
     2
270
     2
271
     2
272
     3
273
     2
274
     3
340
2592
275
     0
280
     0
281
     0
282
     0
283
     1
284
     8
285
     8
286
     8
287
     3
288
     0
  0
ENDTAB
  0
TABLE
  2
BLOCK_RECORD
  5
1
100
AcDbSymbolTable
 70
     2
  0
BLOCK_RECORD
  5
18
100
AcDbSymbolTableRecord
100
AcDbBlockTableRecord
  2
*MODEL_SPACE
  0
BLOCK_RECORD
  5
15
100
AcDbSymbolTableRecord
100
AcDbBlockTableRecord
  2
*PAPER_SPACE
  0
BLOCK_RECORD
  5
2448
100
AcDbSymbolTableRecord
100
AcDbBlockTableRecord
  2
_OPEN
  0
BLOCK_RECORD
  5
47DB
100
AcDbSymbolTableRecord
100
AcDbBlockTableRecord
  2
YA
  0
ENDTAB
  0
ENDSEC
  0
SECTION
  2
BLOCKS
  0
BLOCK
  5
3C
100
AcDbEntity
  8
0
100
AcDbBlockBegin
  2
*MODEL_SPACE
 70
     0
 10
0.0
 20
0.0
 30
0.0
  3
*MODEL_SPACE
  1

  0
ENDBLK
  5
3D
100
AcDbEntity
  8
0
100
AcDbBlockEnd
  0
BLOCK
  5
3A
100
AcDbEntity
 67
     1
  8
0
100
AcDbBlockBegin
  2
*PAPER_SPACE
 70
     0
 10
0.0
 20
0.0
 30
0.0
  3
*PAPER_SPACE
  1

  0
ENDBLK
  5
3B
100
AcDbEntity
 67
     1
  8
0
100
AcDbBlockEnd
  0
BLOCK
  5
2449
100
AcDbEntity
  8
0
 48
4.0
100
AcDbBlockBegin
  2
_OPEN
 70
     0
 10
0.0
 20
0.0
 30
0.0
  3
_OPEN
  1
H1111.DWG
  0
LINE
  5
244A
100
AcDbEntity
  8
0
  6
BYBLOCK
 62
     0
 48
4.0
100
AcDbLine
 10
-1.0
 20
0.166667
 30
0.0
 11
0.0
 21
0.0
 31
0.0
  0
LINE
  5
244B
100
AcDbEntity
  8
0
  6
BYBLOCK
 62
     0
 48
4.0
100
AcDbLine
 10
0.0
 20
0.0
 30
0.0
 11
-1.0
 21
-0.166667
 31
0.0
  0
LINE
  5
244C
100
AcDbEntity
  8
0
  6
BYBLOCK
 62
     0
 48
4.0
100
AcDbLine
 10
0.0
 20
0.0
 30
0.0
 11
-1.0
 21
0.0
 31
0.0
  0
ENDBLK
  5
244D
100
AcDbEntity
  8
0
 48
4.0
100
AcDbBlockEnd
  0
BLOCK
  5
47E3
100
AcDbEntity
  8
0
100
AcDbBlockBegin
  2
YA
 70
     0
 10
0.0
 20
0.0
 30
0.0
  3
YA
  1

  0
LINE
  5
47DC
100
AcDbEntity
  8
0
100
AcDbLine
 10
-16.8065
 20
2.801
 30
0.0
 11
-8.4035
 21
2.801
 31
0.0
  0
LINE
  5
47DD
100
AcDbEntity
  8
0
100
AcDbLine
 10
-8.4035
 20
2.801
 30
0.0
 11
-7.0025
 21
1.4005
 31
0.0
  0
LINE
  5
47DE
100
AcDbEntity
  8
0
100
AcDbLine
 10
-7.0025
 20
1.4005
 30
0.0
 11
-2.862
 21
1.4005
 31
0.0
  0
LINE
  5
47DF
100
AcDbEntity
  8
0
100
AcDbLine
 10
-2.862
 20
1.4005
 30
0.0
 11
-2.862
 21
2.801
 31
0.0
  0
LINE
  5
47E0
100
AcDbEntity
  8
0
100
AcDbLine
 10
-2.862
 20
2.801
 30
0.0
 11
0.0
 21
0.0
 31
0.0
  0
LINE
  5
47E1
100
AcDbEntity
  8
0
100
AcDbLine
 10
0.0
 20
0.0
 30
0.0
 11
-14.0055
 21
0.0
 31
0.0
  0
LINE
  5
47E2
100
AcDbEntity
  8
0
100
AcDbLine
 10
-14.0055
 20
0.0
 30
0.0
 11
-16.8065
 21
2.801
 31
0.0
  0
ENDBLK
  5
47E4
100
AcDbEntity
  8
0
100
AcDbBlockEnd
  0
ENDSEC
  0
SECTION
  2
ENTITIES
  0
MTEXT
  5
ADA
100
AcDbEntity
  8
0
100
AcDbMText
 10
2280.835679
 20
299.077867
 30
0.0
 40
1.2
 41
283.358789
 71
     1
 72
     1
  1

  0
MTEXT
  5
ADB
100
AcDbEntity
  8
0
100
AcDbMText
 10
2334.299599
 20
347.104762
 30
0.0
 40
1.2
 41
272.666005
 71
     1
 72
     1
  1

  0
MTEXT
  5
ADC
100
AcDbEntity
  8
0
100
AcDbMText
 10
2302.221247
 20
-287.917478
 30
0.0
 40
1.2
 41
310.090749
 71
     1
 72
     1
  1

  0
TEXT
  5
2529
100
AcDbEntity
  8
0
  6
CONTINUOUS
100
AcDbText
 10
1645.885714
 20
42.0
 30
0.0
 40
18.0
  1
FS3
 41
0.9
  7
PTSH
 72
     2
 11
1686.0
 21
51.0
 31
0.0
100
AcDbText
 73
     2
  0
POLYLINE
  5
2563
100
AcDbEntity
  8
0
100
AcDb2dPolyline
 66
     1
 10
0.0
 20
0.0
 30
0.0
 70
     1
  0
VERTEX
  5
218F1
100
AcDbEntity
  8
0
100
AcDbVertex
100
AcDb2dVertex
 10
66.0
 20
30.0
 30
0.0
  0
VERTEX
  5
218F2
100
AcDbEntity
  8
0
100
AcDbVertex
100
AcDb2dVertex
 10
1716.0
 20
30.0
 30
0.0
  0
VERTEX
  5
218F3
100
AcDbEntity
  8
0
100
AcDbVertex
100
AcDb2dVertex
 10
1716.0
 20
1146.0
 30
0.0
  0
VERTEX
  5
218F4
100
AcDbEntity
  8
0
100
AcDbVertex
100
AcDb2dVertex
 10
66.0
 20
1146.0
 30
0.0
  0
SEQEND
  5
218F5
100
AcDbEntity
  8
0
  0
ARC
  5
2098E
100
AcDbEntity
  8
0
100
AcDbCircle
 10
1161.054248
 20
991.735231
 30
0.0
 40
104.0
100
AcDbArc
 50
122.033057
 51
146.254713
  0
ARC
  5
2098F
100
AcDbEntity
  8
0
100
AcDbCircle
 10
1091.852889
 20
1041.327812
 30
0.0
 40
28.434501
100
AcDbArc
 50
206.665926
 51
243.334074
  0
ARC
  5
20990
100
AcDbEntity
  8
0
100
AcDbCircle
 10
1059.418607
 20
1008.89353
 30
0.0
 40
28.434501
100
AcDbArc
 50
26.665926
 51
63.334074
  0
LINE
  5
20991
100
AcDbEntity
  8
0
100
AcDbLine
 10
1066.44336
 20
1042.081234
 30
0.0
 11
1092.606311
 21
1015.918283
 31
0.0
  0
LINE
  5
20992
100
AcDbEntity
  8
0
100
AcDbLine
 10
1058.665186
 20
1034.303059
 30
0.0
 11
1084.828137
 21
1008.140108
 31
0.0
  0
LINE
  5
20993
100
AcDbEntity
  8
0
100
AcDbLine
 10
1093.666971
 20
1016.271836
 30
0.0
 11
1066.796914
 21
1043.141894
 31
0.0
  0
ARC
  5
20994
100
AcDbEntity
  8
0
100
AcDbCircle
 10
1082.438855
 20
725.721637
 30
0.0
 40
8.5
100
AcDbArc
 50
225.0
 51
270.0
  0
LINE
  5
20995
100
AcDbEntity
  8
0
100
AcDbLine
 10
1097.202505
 20
1022.635797
 30
0.0
 11
1073.160875
 21
1046.677428
 31
0.0
  0
LINE
  5
20996
100
AcDbEntity
  8
0
100
AcDbLine
 10
1135.918039
 20
793.221637
 30
0.0
 11
1066.418039
 21
793.221637
 31
0.0
  0
LINE
  5
20997
100
AcDbEntity
  8
0
100
AcDbLine
 10
1075.76442
 20
889.824957
 30
0.0
 11
1126.571659
 21
889.824957
 31
0.0
  0
LINE
  5
20998
100
AcDbEntity
  8
0
100
AcDbLine
 10
1075.76442
 20
965.824957
 30
0.0
 11
1126.571659
 21
965.824957
 31
0.0
  0
TEXT
  5
20999
100
AcDbEntity
  8
0
100
AcDbText
 10
559.405762
 20
670.599692
 30
0.0
 40
15.0
  1
15,20A
 72
     4
 11
595.834333
 21
676.67112
 31
0.0
100
AcDbText
  0
TEXT
  5
2099A
100
AcDbEntity
  8
0
100
AcDbText
 10
758.714164
 20
636.571901
 30
0.0
 40
21.0
  1
TLV  FS3 (PT,SW)
 72
     4
 11
891.114164
 21
645.571901
 31
0.0
100
AcDbText
  0
CIRCLE
  5
2099B
100
AcDbEntity
  8
0
100
AcDbCircle
 10
400.53832
 20
755.221637
 30
0.0
 40
38.0
  0
ARC
  5
2099C
100
AcDbEntity
  8
0
100
AcDbCircle
 10
400.53832
 20
769.221637
 30
0.0
 40
33.5
100
AcDbArc
 50
7.704374
 51
172.295626
  0
TEXT
  5
2099D
100
AcDbEntity
  8
0
100
AcDbText
 10
260.996048
 20
751.089615
 30
0.0
 40
17.5
  1
正面
100
AcDbText
  0
ARC
  5
2099E
100
AcDbEntity
  8
0
100
AcDbCircle
 10
400.53832
 20
769.221637
 30
0.0
 40
34.5
100
AcDbArc
 50
163.15072
 51
176.572665
  0
LINE
  5
2099F
100
AcDbEntity
  8
0
100
AcDbLine
 10
368.565676
 20
779.221637
 30
0.0
 11
367.519386
 21
779.221637
 31
0.0
  0
TEXT
  5
209A0
100
AcDbEntity
  8
0
100
AcDbText
 10
260.996048
 20
923.368436
 30
0.0
 40
17.5
  1
平面
100
AcDbText
  0
LINE
  5
209A2
100
AcDbEntity
  8
0
100
AcDbLine
 10
1066.796914
 20
1044.556107
 30
0.0
 11
1066.796914
 21
1043.141894
 31
0.0
  0
LINE
  5
209A3
100
AcDbEntity
  8
0
100
AcDbLine
 10
686.686381
 20
1067.684239
 30
0.0
 11
686.686381
 21
1036.684239
 31
0.0
  0
LINE
  5
209A4
100
AcDbEntity
  8
0
100
AcDbLine
 10
590.186381
 20
1069.684239
 30
0.0
 11
590.186381
 21
1034.684239
 31
0.0
  0
LINE
  5
209A5
100
AcDbEntity
  8
0
100
AcDbLine
 10
582.336381
 20
1018.684239
 30
0.0
 11
582.336381
 21
1085.684239
 31
0.0
  0
LINE
  5
209A6
100
AcDbEntity
  8
0
100
AcDbLine
 10
552.686381
 20
1032.025042
 30
0.0
 11
552.686381
 21
1072.343436
 31
0.0
  0
LINE
  5
209A7
100
AcDbEntity
  8
0
100
AcDbLine
 10
565.686381
 20
1029.684239
 30
0.0
 11
565.686381
 21
1074.684239
 31
0.0
  0
LINE
  5
209A8
100
AcDbEntity
  8
0
100
AcDbLine
 10
569.336381
 20
1018.684239
 30
0.0
 11
569.336381
 21
1085.684239
 31
0.0
  0
LINE
  5
209A9
100
AcDbEntity
  8
0
100
AcDbLine
 10
569.336381
 20
1067.684239
 30
0.0
 11
569.336381
 21
1036.684239
 31
0.0
  0
LINE
  5
209AA
100
AcDbEntity
  8
0
100
AcDbLine
 10
569.336381
 20
1067.684239
 30
0.0
 11
569.336381
 21
1036.684239
 31
0.0
  0
LINE
  5
209AB
100
AcDbEntity
  8
0
100
AcDbLine
 10
598.657545
 20
1067.184239
 30
0.0
 11
598.657545
 21
1037.184239
 31
0.0
  0
LINE
  5
209AC
100
AcDbEntity
  8
0
100
AcDbLine
 10
600.186381
 20
1067.684239
 30
0.0
 11
600.186381
 21
1036.684239
 31
0.0
  0
LINE
  5
209AD
100
AcDbEntity
  8
0
100
AcDbLine
 10
506.270381
 20
1029.918997
 30
0.0
 11
491.421139
 21
1044.768239
 31
0.0
  0
LINE
  5
209AE
100
AcDbEntity
  8
0
100
AcDbLine
 10
491.421139
 20
1046.182453
 30
0.0
 11
507.684595
 21
1029.918997
 31
0.0
  0
LINE
  5
209AF
100
AcDbEntity
  8
0
100
AcDbLine
 10
497.891166
 20
1051.026135
 30
0.0
 11
512.528276
 21
1036.389024
 31
0.0
  0
LINE
  5
209B0
100
AcDbEntity
  8
0
100
AcDbLine
 10
495.257193
 20
1050.83168
 30
0.0
 11
512.333822
 21
1033.755051
 31
0.0
  0
LINE
  5
209B1
100
AcDbEntity
  8
0
100
AcDbLine
 10
510.513022
 20
1029.918997
 30
0.0
 11
491.421139
 21
1049.01088
 31
0.0
  0
ARC
  5
209B2
100
AcDbEntity
  8
0
100
AcDbCircle
 10
489.54854
 20
1041.630584
 30
0.0
 40
3.54367
100
AcDbArc
 50
7.758785
 51
67.758785
  0
LINE
  5
209B3
100
AcDbEntity
  8
0
100
AcDbLine
 10
486.804925
 20
1041.919793
 30
0.0
 11
490.026945
 21
1045.141813
 31
0.0
  0
LINE
  5
209B4
100
AcDbEntity
  8
0
100
AcDbLine
 10
546.286381
 20
1045.034239
 30
0.0
 11
546.924993
 21
1043.92813
 31
0.0
  0
ARC
  5
209B5
100
AcDbEntity
  8
0
100
AcDbCircle
 10
549.941207
 20
1045.992157
 30
0.0
 40
3.654827
100
AcDbArc
 50
145.615753
 51
214.384247
  0
LINE
  5
209B6
100
AcDbEntity
  8
0
100
AcDbLine
 10
736.399519
 20
811.221637
 30
0.0
 11
734.899519
 21
809.721637
 31
0.0
  0
ARC
  5
209B7
100
AcDbEntity
  8
0
100
AcDbCircle
 10
735.900002
 20
803.721291
 30
0.0
 40
1.0
100
AcDbArc
 50
89.990253
 51
180.009747
  0
ARC
  5
209B8
100
AcDbEntity
  8
0
100
AcDbCircle
 10
742.899519
 20
789.035346
 30
0.0
 40
8.0
100
AcDbArc
 50
180.0
 51
225.0
  0
ARC
  5
209B9
100
AcDbEntity
  8
0
100
AcDbCircle
 10
735.900002
 20
795.72111
 30
0.0
 40
1.0
100
AcDbArc
 50
179.990253
 51
270.009747
  0
POLYLINE
  5
209BA
100
AcDbEntity
  8
0
100
AcDb2dPolyline
 66
     1
 10
0.0
 20
0.0
 30
0.0
 70
     1
  0
VERTEX
  5
218F6
100
AcDbEntity
  8
0
100
AcDbVertex
100
AcDb2dVertex
 10
736.050583
 20
773.349154
 30
0.0
  0
VERTEX
  5
218F7
100
AcDbEntity
  8
0
100
AcDbVertex
100
AcDb2dVertex
 10
728.900583
 20
777.477208
 30
0.0
  0
VERTEX
  5
218F8
100
AcDbEntity
  8
0
100
AcDbVertex
100
AcDb2dVertex
 10
721.750583
 20
773.349154
 30
0.0
  0
VERTEX
  5
218F9
100
AcDbEntity
  8
0
100
AcDbVertex
100
AcDb2dVertex
 10
721.750583
 20
765.093045
 30
0.0
  0
VERTEX
  5
218FA
100
AcDbEntity
  8
0
100
AcDbVertex
100
AcDb2dVertex
 10
728.900583
 20
760.964991
 30
0.0
  0
VERTEX
  5
218FB
100
AcDbEntity
  8
0
100
AcDbVertex
100
AcDb2dVertex
 10
736.050583
 20
765.093045
 30
0.0
  0
SEQEND
  5
218FC
100
AcDbEntity
  8
0
  0
CIRCLE
  5
209BB
100
AcDbEntity
  8
0
100
AcDbCircle
 10
728.900583
 20
769.2211
 30
0.0
 40
6.750069
  0
ARC
  5
209BC
100
AcDbEntity
  8
0
100
AcDbCircle
 10
742.899519
 20
749.407929
 30
0.0
 40
8.0
100
AcDbArc
 50
135.0
 51
180.0
  0
ARC
  5
209BD
100
AcDbEntity
  8
0
100
AcDbCircle
 10
735.900002
 20
738.721983
 30
0.0
 40
1.0
100
AcDbArc
 50
179.990253
 51
270.009747
  0
ARC
  5
209BE
100
AcDbEntity
  8
0
100
AcDbCircle
 10
735.900002
 20
746.722164
 30
0.0
 40
1.0
100
AcDbArc
 50
89.990253
 51
180.009747
  0
LINE
  5
209BF
100
AcDbEntity
  8
0
100
AcDbLine
 10
736.399519
 20
731.221637
 30
0.0
 11
734.899519
 21
732.721637
 31
0.0
  0
ARC
  5
209C0
100
AcDbEntity
  8
0
100
AcDbCircle
 10
754.399519
 20
755.221637
 30
0.0
 40
38.0
100
AcDbArc
 50
155.216022
 51
24.783978
  0
LINE
  5
209C1
100
AcDbEntity
  8
0
100
AcDbLine
 10
554.794518
 20
719.711229
 30
0.0
 11
569.198286
 21
734.114998
 31
0.0
  0
ARC
  5
209C2
100
AcDbEntity
  8
0
100
AcDbCircle
 10
564.804925
 20
784.721637
 30
0.0
 40
8.5
100
AcDbArc
 50
0.0
 51
90.0
  0
LINE
  5
209C3
100
AcDbEntity
  8
0
100
AcDbLine
 10
381.03832
 20
809.721637
 30
0.0
 11
381.03832
 21
796.461314
 31
0.0
  0
LINE
  5
209C4
100
AcDbEntity
  8
0
100
AcDbLine
 10
381.03832
 20
809.721637
 30
0.0
 11
381.03832
 21
796.461314
 31
0.0
  0
LINE
  5
209C5
100
AcDbEntity
  8
0
100
AcDbLine
 10
420.03832
 20
809.721637
 30
0.0
 11
420.03832
 21
796.461314
 31
0.0
  0
LINE
  5
209C6
100
AcDbEntity
  8
0
100
AcDbLine
 10
420.038597
 20
803.721121
 30
0.0
 11
420.038597
 21
796.461116
 31
0.0
  0
CIRCLE
  5
209C7
100
AcDbEntity
  8
0
100
AcDbCircle
 10
400.53832
 20
769.221637
 30
0.0
 40
15.5
  0
ELLIPSE
  5
209C8
100
AcDbEntity
  8
0
100
AcDbEllipse
 10
400.53832
 20
726.913114
 30
0.0
 11
14.0
 21
0.0
 31
0.0
210
0.0
220
0.0
230
-1.0
 40
0.51442
 41
0.0
 42
6.283185307179586
  0
LINE
  5
209C9
100
AcDbEntity
  8
0
100
AcDbLine
 10
435.03832
 20
771.151169
 30
0.0
 11
435.03832
 21
783.221637
 31
0.0
  0
LINE
  5
209CA
100
AcDbEntity
  8
0
100
AcDbLine
 10
435.03832
 20
771.151169
 30
0.0
 11
435.03832
 21
783.221637
 31
0.0
  0
LINE
  5
209CB
100
AcDbEntity
  8
0
100
AcDbLine
 10
434.03832
 20
784.221637
 30
0.0
 11
432.291273
 21
784.221637
 31
0.0
  0
LINE
  5
209CC
100
AcDbEntity
  8
0
100
AcDbLine
 10
434.03832
 20
784.221637
 30
0.0
 11
432.291273
 21
784.221637
 31
0.0
  0
ARC
  5
209CD
100
AcDbEntity
  8
0
100
AcDbCircle
 10
432.291273
 20
787.221637
 30
0.0
 40
3.0
100
AcDbArc
 50
209.547878
 51
270.0
  0
ARC
  5
209CE
100
AcDbEntity
  8
0
100
AcDbCircle
 10
432.291273
 20
787.221637
 30
0.0
 40
3.0
100
AcDbArc
 50
209.547878
 51
270.0
  0
ARC
  5
209CF
100
AcDbEntity
  8
0
100
AcDbCircle
 10
434.03832
 20
783.221637
 30
0.0
 40
1.0
100
AcDbArc
 50
0.0
 51
90.0
  0
ARC
  5
209D0
100
AcDbEntity
  8
0
100
AcDbCircle
 10
434.03832
 20
783.221637
 30
0.0
 40
1.0
100
AcDbArc
 50
0.0
 51
90.0
  0
LINE
  5
209D1
100
AcDbEntity
  8
0
100
AcDbLine
 10
486.804925
 20
784.721637
 30
0.0
 11
486.804925
 21
753.721637
 31
0.0
  0
LINE
  5
209D2
100
AcDbEntity
  8
0
100
AcDbLine
 10
548.78411
 20
717.221637
 30
0.0
 11
511.32574
 21
717.221637
 31
0.0
  0
ARC
  5
209D3
100
AcDbEntity
  8
0
100
AcDbCircle
 10
495.861312
 20
739.064745
 30
0.0
 40
7.0
100
AcDbArc
 50
194.506773
 51
225.0
  0
LINE
  5
209D4
100
AcDbEntity
  8
0
100
AcDbLine
 10
505.315333
 20
719.711229
 30
0.0
 11
490.911564
 21
734.114998
 31
0.0
  0
ARC
  5
209D5
100
AcDbEntity
  8
0
100
AcDbCircle
 10
511.32574
 20
725.721637
 30
0.0
 40
8.5
100
AcDbArc
 50
225.0
 51
270.0
  0
ARC
  5
209D6
100
AcDbEntity
  8
0
100
AcDbCircle
 10
559.591141
 20
755.46886
 30
0.0
 40
72.807184
100
AcDbArc
 50
181.375113
 51
194.441574
  0
ARC
  5
209D7
100
AcDbEntity
  8
0
100
AcDbCircle
 10
548.78411
 20
725.721637
 30
0.0
 40
8.5
100
AcDbArc
 50
270.0
 51
315.0
  0
LINE
  5
209D8
100
AcDbEntity
  8
0
100
AcDbLine
 10
564.804925
 20
793.221637
 30
0.0
 11
495.304925
 21
793.221637
 31
0.0
  0
ARC
  5
209D9
100
AcDbEntity
  8
0
100
AcDbCircle
 10
495.304925
 20
784.721637
 30
0.0
 40
8.5
100
AcDbArc
 50
90.0
 51
180.0
  0
LINE
  5
209DA
100
AcDbEntity
  8
0
100
AcDbLine
 10
418.53832
 20
811.221637
 30
0.0
 11
400.53832
 21
811.221637
 31
0.0
  0
LINE
  5
209DB
100
AcDbEntity
  8
0
100
AcDbLine
 10
383.798391
 20
803.827522
 30
0.0
 11
383.798391
 21
798.2393
 31
0.0
  0
ARC
  5
209DC
100
AcDbEntity
  8
0
100
AcDbCircle
 10
382.799151
 20
805.721291
 30
0.0
 40
1.0
100
AcDbArc
 50
269.990253
 51
0.009747
  0
LINE
  5
209DD
100
AcDbEntity
  8
0
100
AcDbLine
 10
382.798981
 20
804.721291
 30
0.0
 11
382.038974
 21
804.721291
 31
0.0
  0
LINE
  5
209DE
100
AcDbEntity
  8
0
100
AcDbLine
 10
382.53832
 20
811.221637
 30
0.0
 11
381.03832
 21
809.721637
 31
0.0
  0
ARC
  5
209DF
100
AcDbEntity
  8
0
100
AcDbCircle
 10
382.038803
 20
803.721291
 30
0.0
 40
1.0
100
AcDbArc
 50
89.990253
 51
180.009747
  0
LINE
  5
209E0
100
AcDbEntity
  8
0
100
AcDbLine
 10
418.27766
 20
804.721291
 30
0.0
 11
419.037667
 21
804.721291
 31
0.0
  0
ARC
  5
209E1
100
AcDbEntity
  8
0
100
AcDbCircle
 10
418.277489
 20
805.721291
 30
0.0
 40
1.0
100
AcDbArc
 50
179.990253
 51
270.009747
  0
LINE
  5
209E2
100
AcDbEntity
  8
0
100
AcDbLine
 10
417.27825
 20
803.827522
 30
0.0
 11
417.27825
 21
798.2393
 31
0.0
  0
ARC
  5
209E3
100
AcDbEntity
  8
0
100
AcDbCircle
 10
419.037837
 20
803.721291
 30
0.0
 40
1.0
100
AcDbArc
 50
359.990253
 51
90.009747
  0
LINE
  5
209E4
100
AcDbEntity
  8
0
100
AcDbLine
 10
418.53832
 20
811.221637
 30
0.0
 11
420.03832
 21
809.721637
 31
0.0
  0
LINE
  5
209E5
100
AcDbEntity
  8
0
100
AcDbLine
 10
734.899242
 20
803.721121
 30
0.0
 11
734.899242
 21
795.721281
 31
0.0
  0
LINE
  5
209E6
100
AcDbEntity
  8
0
100
AcDbLine
 10
734.899519
 20
809.721637
 30
0.0
 11
734.899519
 21
789.035346
 31
0.0
  0
LINE
  5
209E7
100
AcDbEntity
  8
0
100
AcDbLine
 10
591.154925
 20
735.721637
 30
0.0
 11
591.154925
 21
802.721637
 31
0.0
  0
LINE
  5
209E8
100
AcDbEntity
  8
0
100
AcDbLine
 10
604.154925
 20
735.721637
 30
0.0
 11
604.154925
 21
802.721637
 31
0.0
  0
LINE
  5
209E9
100
AcDbEntity
  8
0
100
AcDbLine
 10
591.154925
 20
786.721637
 30
0.0
 11
591.154925
 21
802.721637
 31
0.0
  0
LINE
  5
209EA
100
AcDbEntity
  8
0
100
AcDbLine
 10
611.304925
 20
809.721637
 30
0.0
 11
611.304925
 21
793.721637
 31
0.0
  0
LINE
  5
209EB
100
AcDbEntity
  8
0
100
AcDbLine
 10
611.304925
 20
807.221637
 30
0.0
 11
611.304925
 21
793.721637
 31
0.0
  0
LINE
  5
209EC
100
AcDbEntity
  8
0
100
AcDbLine
 10
622.804925
 20
804.721637
 30
0.0
 11
622.804925
 21
794.721637
 31
0.0
  0
LINE
  5
209ED
100
AcDbEntity
  8
0
100
AcDbLine
 10
638.804925
 20
804.721637
 30
0.0
 11
638.804925
 21
794.721637
 31
0.0
  0
LINE
  5
209EE
100
AcDbEntity
  8
0
100
AcDbLine
 10
650.304925
 20
809.721637
 30
0.0
 11
650.304925
 21
794.985093
 31
0.0
  0
ARC
  5
209EF
100
AcDbEntity
  8
0
100
AcDbCircle
 10
654.304925
 20
752.801327
 30
0.0
 40
4.0
100
AcDbArc
 50
45.0
 51
180.0
  0
LINE
  5
209F0
100
AcDbEntity
  8
0
100
AcDbLine
 10
650.304925
 20
794.985093
 30
0.0
 11
676.413313
 21
768.876706
 31
0.0
  0
LINE
  5
209F1
100
AcDbEntity
  8
0
100
AcDbLine
 10
583.304925
 20
786.721637
 30
0.0
 11
583.304925
 21
751.721637
 31
0.0
  0
LINE
  5
209F2
100
AcDbEntity
  8
0
100
AcDbLine
 10
620.804925
 20
749.06244
 30
0.0
 11
620.804925
 21
789.380834
 31
0.0
  0
LINE
  5
209F3
100
AcDbEntity
  8
0
100
AcDbLine
 10
607.804925
 20
746.721637
 30
0.0
 11
607.804925
 21
791.721637
 31
0.0
  0
LINE
  5
209F4
100
AcDbEntity
  8
0
100
AcDbLine
 10
604.154925
 20
784.721637
 30
0.0
 11
604.154925
 21
753.721637
 31
0.0
  0
LINE
  5
209F5
100
AcDbEntity
  8
0
100
AcDbLine
 10
604.154925
 20
784.721637
 30
0.0
 11
604.154925
 21
753.721637
 31
0.0
  0
LINE
  5
209F6
100
AcDbEntity
  8
0
100
AcDbLine
 10
574.83376
 20
784.221637
 30
0.0
 11
574.83376
 21
754.221637
 31
0.0
  0
LINE
  5
209F7
100
AcDbEntity
  8
0
100
AcDbLine
 10
573.304925
 20
784.721637
 30
0.0
 11
573.304925
 21
753.721637
 31
0.0
  0
LINE
  5
209F8
100
AcDbEntity
  8
0
100
AcDbLine
 10
607.804925
 20
751.721637
 30
0.0
 11
604.154925
 21
751.721637
 31
0.0
  0
ARC
  5
209F9
100
AcDbEntity
  8
0
100
AcDbCircle
 10
564.248539
 20
739.064745
 30
0.0
 40
7.0
100
AcDbArc
 50
315.0
 51
345.493227
  0
LINE
  5
209FA
100
AcDbEntity
  8
0
100
AcDbLine
 10
591.154925
 20
735.721637
 30
0.0
 11
604.154925
 21
735.721637
 31
0.0
  0
LINE
  5
209FB
100
AcDbEntity
  8
0
100
AcDbLine
 10
591.154925
 20
751.721637
 30
0.0
 11
583.304925
 21
751.721637
 31
0.0
  0
ARC
  5
209FC
100
AcDbEntity
  8
0
100
AcDbCircle
 10
572.325737
 20
754.500602
 30
0.0
 40
2.52349
100
AcDbArc
 50
291.213175
 51
353.653128
  0
ARC
  5
209FD
100
AcDbEntity
  8
0
100
AcDbCircle
 10
500.518709
 20
755.46886
 30
0.0
 40
72.807184
100
AcDbArc
 50
345.558426
 51
358.624887
  0
LINE
  5
209FE
100
AcDbEntity
  8
0
100
AcDbLine
 10
583.304925
 20
754.221637
 30
0.0
 11
574.83376
 21
754.221637
 31
0.0
  0
LINE
  5
209FF
100
AcDbEntity
  8
0
100
AcDbLine
 10
650.304925
 20
752.801327
 30
0.0
 11
650.304925
 21
732.721637
 31
0.0
  0
LINE
  5
20A00
100
AcDbEntity
  8
0
100
AcDbLine
 10
611.304925
 20
744.721637
 30
0.0
 11
611.304925
 21
732.721637
 31
0.0
  0
LINE
  5
20A01
100
AcDbEntity
  8
0
100
AcDbLine
 10
630.804925
 20
731.221637
 30
0.0
 11
612.804925
 21
731.221637
 31
0.0
  0
LINE
  5
20A02
100
AcDbEntity
  8
0
100
AcDbLine
 10
611.304925
 20
732.721637
 30
0.0
 11
612.804925
 21
731.221637
 31
0.0
  0
LINE
  5
20A03
100
AcDbEntity
  8
0
100
AcDbLine
 10
648.804925
 20
731.221637
 30
0.0
 11
650.304925
 21
732.721637
 31
0.0
  0
LINE
  5
20A04
100
AcDbEntity
  8
0
100
AcDbLine
 10
648.804925
 20
731.221637
 30
0.0
 11
630.804925
 21
731.221637
 31
0.0
  0
LINE
  5
20A05
100
AcDbEntity
  8
0
100
AcDbLine
 10
638.804925
 20
747.721637
 30
0.0
 11
622.804925
 21
747.721637
 31
0.0
  0
LINE
  5
20A06
100
AcDbEntity
  8
0
100
AcDbLine
 10
638.804925
 20
737.721637
 30
0.0
 11
622.804925
 21
737.721637
 31
0.0
  0
LINE
  5
20A07
100
AcDbEntity
  8
0
100
AcDbLine
 10
622.804925
 20
737.721637
 30
0.0
 11
622.804925
 21
747.721637
 31
0.0
  0
LINE
  5
20A08
100
AcDbEntity
  8
0
100
AcDbLine
 10
607.804925
 20
746.721637
 30
0.0
 11
609.304925
 21
746.721637
 31
0.0
  0
LINE
  5
20A09
100
AcDbEntity
  8
0
100
AcDbLine
 10
607.804925
 20
749.06244
 30
0.0
 11
620.804925
 21
749.06244
 31
0.0
  0
LINE
  5
20A0A
100
AcDbEntity
  8
0
100
AcDbLine
 10
611.304925
 20
746.721637
 30
0.0
 11
620.804925
 21
749.06244
 31
0.0
  0
ARC
  5
20A0B
100
AcDbEntity
  8
0
100
AcDbCircle
 10
609.304925
 20
744.721637
 30
0.0
 40
2.0
100
AcDbArc
 50
0.0
 51
90.0
  0
LINE
  5
20A0C
100
AcDbEntity
  8
0
100
AcDbLine
 10
638.804925
 20
737.721637
 30
0.0
 11
638.804925
 21
747.721637
 31
0.0
  0
LINE
  5
20A0D
100
AcDbEntity
  8
0
100
AcDbLine
 10
607.804925
 20
786.721637
 30
0.0
 11
604.154925
 21
786.721637
 31
0.0
  0
LINE
  5
20A0E
100
AcDbEntity
  8
0
100
AcDbLine
 10
607.804925
 20
764.459137
 30
0.0
 11
604.154925
 21
764.459137
 31
0.0
  0
LINE
  5
20A0F
100
AcDbEntity
  8
0
100
AcDbLine
 10
607.804925
 20
773.984137
 30
0.0
 11
604.154925
 21
773.984137
 31
0.0
  0
LINE
  5
20A10
100
AcDbEntity
  8
0
100
AcDbLine
 10
589.018438
 20
773.124137
 30
0.0
 11
589.514959
 21
773.984137
 31
0.0
  0
LINE
  5
20A11
100
AcDbEntity
  8
0
100
AcDbLine
 10
589.018438
 20
765.319137
 30
0.0
 11
589.514959
 21
764.459137
 31
0.0
  0
LINE
  5
20A12
100
AcDbEntity
  8
0
100
AcDbLine
 10
589.018438
 20
765.319137
 30
0.0
 11
589.018438
 21
773.124137
 31
0.0
  0
LINE
  5
20A13
100
AcDbEntity
  8
0
100
AcDbLine
 10
589.514959
 20
773.984137
 30
0.0
 11
591.054925
 21
773.984137
 31
0.0
  0
LINE
  5
20A14
100
AcDbEntity
  8
0
100
AcDbLine
 10
589.514959
 20
764.459137
 30
0.0
 11
591.054925
 21
764.459137
 31
0.0
  0
LINE
  5
20A15
100
AcDbEntity
  8
0
100
AcDbLine
 10
591.154925
 20
786.721637
 30
0.0
 11
583.304925
 21
786.721637
 31
0.0
  0
ARC
  5
20A16
100
AcDbEntity
  8
0
100
AcDbCircle
 10
572.325737
 20
783.942672
 30
0.0
 40
2.52349
100
AcDbArc
 50
6.346872
 51
68.786825
  0
LINE
  5
20A17
100
AcDbEntity
  8
0
100
AcDbLine
 10
583.304925
 20
784.221637
 30
0.0
 11
574.83376
 21
784.221637
 31
0.0
  0
LINE
  5
20A18
100
AcDbEntity
  8
0
100
AcDbLine
 10
628.104925
 20
777.221637
 30
0.0
 11
637.304925
 21
777.221637
 31
0.0
  0
ARC
  5
20A19
100
AcDbEntity
  8
0
100
AcDbCircle
 10
623.550099
 20
775.413719
 30
0.0
 40
3.654827
100
AcDbArc
 50
325.615753
 51
34.384247
  0
LINE
  5
20A1A
100
AcDbEntity
  8
0
100
AcDbLine
 10
627.204925
 20
762.071637
 30
0.0
 11
627.204925
 21
776.371637
 31
0.0
  0
LINE
  5
20A1B
100
AcDbEntity
  8
0
100
AcDbLine
 10
627.204925
 20
762.071637
 30
0.0
 11
626.566313
 21
760.965528
 31
0.0
  0
ARC
  5
20A1C
100
AcDbEntity
  8
0
100
AcDbCircle
 10
623.550099
 20
763.029555
 30
0.0
 40
3.654827
100
AcDbArc
 50
325.615753
 51
34.384247
  0
ARC
  5
20A1D
100
AcDbEntity
  8
0
100
AcDbCircle
 10
613.543537
 20
769.221637
 30
0.0
 40
13.661388
100
AcDbArc
 50
342.412046
 51
17.587954
  0
LINE
  5
20A1E
100
AcDbEntity
  8
0
100
AcDbLine
 10
626.566313
 20
773.349692
 30
0.0
 11
620.804925
 21
773.349692
 31
0.0
  0
LINE
  5
20A1F
100
AcDbEntity
  8
0
100
AcDbLine
 10
626.566313
 20
760.965528
 30
0.0
 11
620.804925
 21
760.965528
 31
0.0
  0
LINE
  5
20A20
100
AcDbEntity
  8
0
100
AcDbLine
 10
626.566313
 20
765.093583
 30
0.0
 11
620.804925
 21
765.093583
 31
0.0
  0
LINE
  5
20A21
100
AcDbEntity
  8
0
100
AcDbLine
 10
627.204925
 20
776.371637
 30
0.0
 11
626.566313
 21
777.477746
 31
0.0
  0
LINE
  5
20A22
100
AcDbEntity
  8
0
100
AcDbLine
 10
626.566313
 20
777.477746
 30
0.0
 11
620.804925
 21
777.477746
 31
0.0
  0
LINE
  5
20A23
100
AcDbEntity
  8
0
100
AcDbLine
 10
629.604925
 20
761.221637
 30
0.0
 11
644.804925
 21
761.221637
 31
0.0
  0
LINE
  5
20A24
100
AcDbEntity
  8
0
100
AcDbLine
 10
638.804925
 20
794.721637
 30
0.0
 11
622.804925
 21
794.721637
 31
0.0
  0
LINE
  5
20A25
100
AcDbEntity
  8
0
100
AcDbLine
 10
607.804925
 20
791.721637
 30
0.0
 11
609.304925
 21
791.721637
 31
0.0
  0
LINE
  5
20A26
100
AcDbEntity
  8
0
100
AcDbLine
 10
607.804925
 20
789.380834
 30
0.0
 11
620.804925
 21
789.380834
 31
0.0
  0
LINE
  5
20A27
100
AcDbEntity
  8
0
100
AcDbLine
 10
611.304925
 20
791.721637
 30
0.0
 11
620.804925
 21
789.380834
 31
0.0
  0
ARC
  5
20A28
100
AcDbEntity
  8
0
100
AcDbCircle
 10
609.304925
 20
793.721637
 30
0.0
 40
2.0
100
AcDbArc
 50
270.0
 51
0.0
  0
ARC
  5
20A29
100
AcDbEntity
  8
0
100
AcDbCircle
 10
754.399519
 20
769.221637
 30
0.0
 40
33.5
100
AcDbArc
 50
125.597645
 51
234.402355
  0
LINE
  5
20A2A
100
AcDbEntity
  8
0
100
AcDbLine
 10
719.899519
 20
755.221637
 30
0.0
 11
719.899519
 21
783.221637
 31
0.0
  0
LINE
  5
20A2B
100
AcDbEntity
  8
0
100
AcDbLine
 10
719.899519
 20
755.221637
 30
0.0
 11
719.899519
 21
783.221637
 31
0.0
  0
LINE
  5
20A2C
100
AcDbEntity
  8
0
100
AcDbLine
 10
671.463565
 20
742.713755
 30
0.0
 11
686.312807
 21
757.562997
 31
0.0
  0
ARC
  5
20A2D
100
AcDbEntity
  8
0
100
AcDbCircle
 10
683.259585
 20
745.766978
 30
0.0
 40
12.182091
100
AcDbArc
 50
115.179294
 51
154.820706
  0
LINE
  5
20A2E
100
AcDbEntity
  8
0
100
AcDbLine
 10
667.220924
 20
746.956395
 30
0.0
 11
682.070167
 21
761.805638
 31
0.0
  0
LINE
  5
20A2F
100
AcDbEntity
  8
0
100
AcDbLine
 10
682.070167
 20
763.219851
 30
0.0
 11
665.806711
 21
746.956395
 31
0.0
  0
LINE
  5
20A30
100
AcDbEntity
  8
0
100
AcDbLine
 10
675.60014
 20
768.063533
 30
0.0
 11
660.963029
 21
753.426423
 31
0.0
  0
LINE
  5
20A31
100
AcDbEntity
  8
0
100
AcDbLine
 10
678.234113
 20
767.869079
 30
0.0
 11
661.157484
 21
750.79245
 31
0.0
  0
LINE
  5
20A32
100
AcDbEntity
  8
0
100
AcDbLine
 10
662.978284
 20
746.956395
 30
0.0
 11
682.070167
 21
766.048279
 31
0.0
  0
LINE
  5
20A33
100
AcDbEntity
  8
0
100
AcDbLine
 10
683.653558
 20
755.924368
 30
0.0
 11
680.431538
 21
759.146388
 31
0.0
  0
LINE
  5
20A34
100
AcDbEntity
  8
0
100
AcDbLine
 10
678.076686
 20
756.791537
 30
0.0
 11
680.431538
 21
759.146388
 31
0.0
  0
ARC
  5
20A35
100
AcDbEntity
  8
0
100
AcDbCircle
 10
683.175152
 20
759.435597
 30
0.0
 40
3.54367
100
AcDbArc
 50
277.758785
 51
337.758785
  0
LINE
  5
20A36
100
AcDbEntity
  8
0
100
AcDbLine
 10
669.880174
 20
748.595025
 30
0.0
 11
672.235026
 21
750.949876
 31
0.0
  0
LINE
  5
20A37
100
AcDbEntity
  8
0
100
AcDbLine
 10
673.102194
 20
745.373005
 30
0.0
 11
669.880174
 21
748.595025
 31
0.0
  0
ARC
  5
20A38
100
AcDbEntity
  8
0
100
AcDbCircle
 10
669.590966
 20
745.85141
 30
0.0
 40
3.54367
100
AcDbArc
 50
292.241215
 51
352.241215
  0
LINE
  5
20A39
100
AcDbEntity
  8
0
100
AcDbLine
 10
657.133352
 20
755.629754
 30
0.0
 11
660.149857
 21
752.61325
 31
0.0
  0
ARC
  5
20A3A
100
AcDbEntity
  8
0
100
AcDbCircle
 10
670.35858
 20
745.083796
 30
0.0
 40
3.54367
100
AcDbArc
 50
97.758785
 51
157.758785
  0
LINE
  5
20A3B
100
AcDbEntity
  8
0
100
AcDbLine
 10
667.220924
 20
746.956395
 30
0.0
 11
666.513818
 21
747.663502
 31
0.0
  0
LINE
  5
20A3C
100
AcDbEntity
  8
0
100
AcDbLine
 10
667.220924
 20
746.956395
 30
0.0
 11
666.847351
 21
745.562202
 31
0.0
  0
LINE
  5
20A3D
100
AcDbEntity
  8
0
100
AcDbLine
 10
671.463565
 20
742.713755
 30
0.0
 11
670.069371
 21
742.340182
 31
0.0
  0
LINE
  5
20A3E
100
AcDbEntity
  8
0
100
AcDbLine
 10
670.069371
 20
742.340182
 30
0.0
 11
666.847351
 21
745.562202
 31
0.0
  0
ARC
  5
20A3F
100
AcDbEntity
  8
0
100
AcDbCircle
 10
658.735643
 20
751.199036
 30
0.0
 40
2.0
100
AcDbArc
 50
315.0
 51
45.0
  0
LINE
  5
20A40
100
AcDbEntity
  8
0
100
AcDbLine
 10
660.149857
 20
749.784823
 30
0.0
 11
662.978284
 21
746.956395
 31
0.0
  0
LINE
  5
20A41
100
AcDbEntity
  8
0
100
AcDbLine
 10
665.806711
 20
746.956395
 30
0.0
 11
662.978284
 21
746.956395
 31
0.0
  0
LINE
  5
20A42
100
AcDbEntity
  8
0
100
AcDbLine
 10
681.298706
 20
753.569517
 30
0.0
 11
678.076686
 21
756.791537
 31
0.0
  0
LINE
  5
20A43
100
AcDbEntity
  8
0
100
AcDbLine
 10
681.298706
 20
753.569517
 30
0.0
 11
683.653558
 21
755.924368
 31
0.0
  0
ARC
  5
20A44
100
AcDbEntity
  8
0
100
AcDbCircle
 10
670.274147
 20
758.752415
 30
0.0
 40
12.182091
100
AcDbArc
 50
295.179294
 51
334.820706
  0
LINE
  5
20A45
100
AcDbEntity
  8
0
100
AcDbLine
 10
675.457046
 20
747.727856
 30
0.0
 11
672.235026
 21
750.949876
 31
0.0
  0
LINE
  5
20A46
100
AcDbEntity
  8
0
100
AcDbLine
 10
673.102194
 20
745.373005
 30
0.0
 11
675.457046
 21
747.727856
 31
0.0
  0
LINE
  5
20A47
100
AcDbEntity
  8
0
100
AcDbLine
 10
734.899519
 20
732.721637
 30
0.0
 11
734.899519
 21
749.407929
 31
0.0
  0
LINE
  5
20A48
100
AcDbEntity
  8
0
100
AcDbLine
 10
734.899242
 20
738.722153
 30
0.0
 11
734.899242
 21
746.721994
 31
0.0
  0
LINE
  5
20A49
100
AcDbEntity
  8
0
100
AcDbLine
 10
720.899519
 20
754.221637
 30
0.0
 11
722.646566
 21
754.221637
 31
0.0
  0
LINE
  5
20A4A
100
AcDbEntity
  8
0
100
AcDbLine
 10
720.899519
 20
754.221637
 30
0.0
 11
722.646566
 21
754.221637
 31
0.0
  0
ARC
  5
20A4B
100
AcDbEntity
  8
0
100
AcDbCircle
 10
722.646566
 20
751.221637
 30
0.0
 40
3.0
100
AcDbArc
 50
29.547878
 51
90.0
  0
ARC
  5
20A4C
100
AcDbEntity
  8
0
100
AcDbCircle
 10
722.646566
 20
751.221637
 30
0.0
 40
3.0
100
AcDbArc
 50
29.547878
 51
90.0
  0
ARC
  5
20A4F
100
AcDbEntity
  8
0
100
AcDbCircle
 10
720.899519
 20
755.221637
 30
0.0
 40
1.0
100
AcDbArc
 50
180.0
 51
270.0
  0
ARC
  5
20A50
100
AcDbEntity
  8
0
100
AcDbCircle
 10
720.899519
 20
755.221637
 30
0.0
 40
1.0
100
AcDbArc
 50
180.0
 51
270.0
  0
LINE
  5
20A52
100
AcDbEntity
  8
0
100
AcDbLine
 10
686.312807
 20
757.562997
 30
0.0
 11
686.686381
 21
758.957191
 31
0.0
  0
LINE
  5
20A53
100
AcDbEntity
  8
0
100
AcDbLine
 10
682.070167
 20
761.805638
 30
0.0
 11
683.464361
 21
762.179211
 31
0.0
  0
LINE
  5
20A54
100
AcDbEntity
  8
0
100
AcDbLine
 10
682.070167
 20
761.805638
 30
0.0
 11
681.36306
 21
762.512745
 31
0.0
  0
LINE
  5
20A55
100
AcDbEntity
  8
0
100
AcDbLine
 10
682.070167
 20
763.219851
 30
0.0
 11
682.070167
 21
766.048279
 31
0.0
  0
LINE
  5
20A56
100
AcDbEntity
  8
0
100
AcDbLine
 10
682.070167
 20
766.048279
 30
0.0
 11
679.24174
 21
768.876706
 31
0.0
  0
ARC
  5
20A57
100
AcDbEntity
  8
0
100
AcDbCircle
 10
677.827526
 20
770.290919
 30
0.0
 40
2.0
100
AcDbArc
 50
225.0
 51
315.0
  0
ARC
  5
20A58
100
AcDbEntity
  8
0
100
AcDbCircle
 10
683.942766
 20
758.667982
 30
0.0
 40
3.54367
100
AcDbArc
 50
112.241215
 51
172.241215
  0
LINE
  5
20A59
100
AcDbEntity
  8
0
100
AcDbLine
 10
686.686381
 20
758.957191
 30
0.0
 11
683.464361
 21
762.179211
 31
0.0
  0
LINE
  5
20A5A
100
AcDbEntity
  8
0
100
AcDbLine
 10
720.899519
 20
784.221637
 30
0.0
 11
722.646566
 21
784.221637
 31
0.0
  0
ARC
  5
20A5B
100
AcDbEntity
  8
0
100
AcDbCircle
 10
720.899519
 20
783.221637
 30
0.0
 40
1.0
100
AcDbArc
 50
90.0
 51
180.0
  0
LINE
  5
20A5C
100
AcDbEntity
  8
0
100
AcDbLine
 10
720.899519
 20
784.221637
 30
0.0
 11
722.646566
 21
784.221637
 31
0.0
  0
ARC
  5
20A5D
100
AcDbEntity
  8
0
100
AcDbCircle
 10
720.899519
 20
783.221637
 30
0.0
 40
1.0
100
AcDbArc
 50
90.0
 51
180.0
  0
ARC
  5
20A5E
100
AcDbEntity
  8
0
100
AcDbCircle
 10
722.646566
 20
787.221637
 30
0.0
 40
3.0
100
AcDbArc
 50
270.0
 51
330.452122
  0
ARC
  5
20A5F
100
AcDbEntity
  8
0
100
AcDbCircle
 10
722.646566
 20
787.221637
 30
0.0
 40
3.0
100
AcDbArc
 50
270.0
 51
330.452122
  0
INSERT
  5
20A63
100
AcDbEntity
  8
0
100
AcDbBlockReference
  2
YA
 10
630.804925
 20
817.124575
 30
0.0
 41
-1.630435
 42
1.630435
 43
1.630435
 50
90.0
  0
LINE
  5
20A64
100
AcDbEntity
  8
0
100
AcDbLine
 10
591.154925
 20
802.721637
 30
0.0
 11
604.154925
 21
802.721637
 31
0.0
  0
LINE
  5
20A65
100
AcDbEntity
  8
0
100
AcDbLine
 10
630.804925
 20
811.221637
 30
0.0
 11
612.804925
 21
811.221637
 31
0.0
  0
LINE
  5
20A66
100
AcDbEntity
  8
0
100
AcDbLine
 10
638.804925
 20
804.721637
 30
0.0
 11
622.804925
 21
804.721637
 31
0.0
  0
LINE
  5
20A67
100
AcDbEntity
  8
0
100
AcDbLine
 10
612.804925
 20
811.221637
 30
0.0
 11
611.304925
 21
809.721637
 31
0.0
  0
LINE
  5
20A68
100
AcDbEntity
  8
0
100
AcDbLine
 10
650.304925
 20
809.721637
 30
0.0
 11
648.804925
 21
811.221637
 31
0.0
  0
LINE
  5
20A69
100
AcDbEntity
  8
0
100
AcDbLine
 10
648.804925
 20
811.221637
 30
0.0
 11
630.804925
 21
811.221637
 31
0.0
  0
LINE
  5
20A6A
100
AcDbEntity
  8
0
100
AcDbLine
 10
565.686381
 20
1029.684239
 30
0.0
 11
564.186381
 21
1029.684239
 31
0.0
  0
LINE
  5
20A6B
100
AcDbEntity
  8
0
100
AcDbLine
 10
565.686381
 20
1032.025042
 30
0.0
 11
552.686381
 21
1032.025042
 31
0.0
  0
ARC
  5
20A6C
100
AcDbEntity
  8
0
100
AcDbCircle
 10
555.458544
 20
901.324957
 30
0.0
 40
11.5
100
AcDbArc
 50
270.0
 51
333.064225
  0
ARC
  5
20A6D
100
AcDbEntity
  8
0
100
AcDbCircle
 10
555.458544
 20
954.324957
 30
0.0
 40
11.5
100
AcDbArc
 50
26.935775
 51
90.0
  0
ARC
  5
20A6E
100
AcDbEntity
  8
0
100
AcDbCircle
 10
504.651306
 20
954.324957
 30
0.0
 40
11.5
100
AcDbArc
 50
90.0
 51
153.064225
  0
ARC
  5
20A6F
100
AcDbEntity
  8
0
100
AcDbCircle
 10
556.804925
 20
927.824957
 30
0.0
 40
70.0
100
AcDbArc
 50
153.064225
 51
206.935775
  0
LINE
  5
20A70
100
AcDbEntity
  8
0
100
AcDbLine
 10
504.651306
 20
889.824957
 30
0.0
 11
555.458544
 21
889.824957
 31
0.0
  0
ARC
  5
20A71
100
AcDbEntity
  8
0
100
AcDbCircle
 10
504.651306
 20
901.324957
 30
0.0
 40
11.5
100
AcDbArc
 50
206.935775
 51
270.0
  0
LINE
  5
20A72
100
AcDbEntity
  8
0
100
AcDbLine
 10
504.651306
 20
965.824957
 30
0.0
 11
555.458544
 21
965.824957
 31
0.0
  0
ARC
  5
20A73
100
AcDbEntity
  8
0
100
AcDbCircle
 10
519.186381
 20
1035.763929
 30
0.0
 40
4.0
100
AcDbArc
 50
0.0
 51
135.0
  0
LINE
  5
20A74
100
AcDbEntity
  8
0
100
AcDbLine
 10
500.389111
 20
1028.335606
 30
0.0
 11
503.611131
 21
1031.557626
 31
0.0
  0
ARC
  5
20A75
100
AcDbEntity
  8
0
100
AcDbCircle
 10
503.90034
 20
1028.814012
 30
0.0
 40
3.54367
100
AcDbArc
 50
187.758785
 51
247.758785
  0
LINE
  5
20A76
100
AcDbEntity
  8
0
100
AcDbLine
 10
502.027741
 20
1025.676356
 30
0.0
 11
487.178498
 21
1040.525599
 31
0.0
  0
ARC
  5
20A77
100
AcDbEntity
  8
0
100
AcDbCircle
 10
490.231721
 20
1028.729579
 30
0.0
 40
12.182091
100
AcDbArc
 50
25.179294
 51
64.820706
  0
LINE
  5
20A78
100
AcDbEntity
  8
0
100
AcDbLine
 10
498.03426
 20
1030.690458
 30
0.0
 11
501.25628
 21
1033.912478
 31
0.0
  0
LINE
  5
20A79
100
AcDbEntity
  8
0
100
AcDbLine
 10
487.178498
 20
1040.525599
 30
0.0
 11
486.804925
 21
1041.919793
 31
0.0
  0
LINE
  5
20A7A
100
AcDbEntity
  8
0
100
AcDbLine
 10
489.837748
 20
1038.88697
 30
0.0
 11
493.059768
 21
1042.10899
 31
0.0
  0
LINE
  5
20A7B
100
AcDbEntity
  8
0
100
AcDbLine
 10
495.414619
 20
1039.754138
 30
0.0
 11
493.059768
 21
1042.10899
 31
0.0
  0
LINE
  5
20A7C
100
AcDbEntity
  8
0
100
AcDbLine
 10
492.192599
 20
1036.532118
 30
0.0
 11
495.414619
 21
1039.754138
 31
0.0
  0
LINE
  5
20A7D
100
AcDbEntity
  8
0
100
AcDbLine
 10
492.192599
 20
1036.532118
 30
0.0
 11
489.837748
 21
1038.88697
 31
0.0
  0
ARC
  5
20A7E
100
AcDbEntity
  8
0
100
AcDbCircle
 10
503.217158
 20
1041.715017
 30
0.0
 40
12.182091
100
AcDbArc
 50
205.179294
 51
244.820706
  0
ARC
  5
20A7F
100
AcDbEntity
  8
0
100
AcDbCircle
 10
490.316154
 20
1042.398198
 30
0.0
 40
3.54367
100
AcDbArc
 50
202.241215
 51
262.241215
  0
LINE
  5
20A80
100
AcDbEntity
  8
0
100
AcDbLine
 10
500.389111
 20
1028.335606
 30
0.0
 11
498.03426
 21
1030.690458
 31
0.0
  0
LINE
  5
20A81
100
AcDbEntity
  8
0
100
AcDbLine
 10
516.357953
 20
1038.592356
 30
0.0
 11
513.341449
 21
1035.575851
 31
0.0
  0
LINE
  5
20A82
100
AcDbEntity
  8
0
100
AcDbLine
 10
506.270381
 20
1029.918997
 30
0.0
 11
506.977488
 21
1030.626104
 31
0.0
  0
LINE
  5
20A83
100
AcDbEntity
  8
0
100
AcDbLine
 10
506.270381
 20
1029.918997
 30
0.0
 11
506.643954
 21
1028.524803
 31
0.0
  0
ARC
  5
20A84
100
AcDbEntity
  8
0
100
AcDbCircle
 10
514.755663
 20
1034.161638
 30
0.0
 40
2.0
100
AcDbArc
 50
135.0
 51
225.0
  0
LINE
  5
20A85
100
AcDbEntity
  8
0
100
AcDbLine
 10
513.341449
 20
1032.747424
 30
0.0
 11
510.513022
 21
1029.918997
 31
0.0
  0
LINE
  5
20A86
100
AcDbEntity
  8
0
100
AcDbLine
 10
507.684595
 20
1029.918997
 30
0.0
 11
510.513022
 21
1029.918997
 31
0.0
  0
LINE
  5
20A87
100
AcDbEntity
  8
0
100
AcDbLine
 10
503.611131
 20
1031.557626
 30
0.0
 11
501.25628
 21
1033.912478
 31
0.0
  0
LINE
  5
20A88
100
AcDbEntity
  8
0
100
AcDbLine
 10
502.027741
 20
1025.676356
 30
0.0
 11
503.421935
 21
1025.302783
 31
0.0
  0
ARC
  5
20A89
100
AcDbEntity
  8
0
100
AcDbCircle
 10
503.132726
 20
1028.046398
 30
0.0
 40
3.54367
100
AcDbArc
 50
22.241215
 51
82.241215
  0
LINE
  5
20A8A
100
AcDbEntity
  8
0
100
AcDbLine
 10
503.421935
 20
1025.302783
 30
0.0
 11
506.643954
 21
1028.524803
 31
0.0
  0
LINE
  5
20A8B
100
AcDbEntity
  8
0
100
AcDbLine
 10
562.186381
 20
1027.684239
 30
0.0
 11
562.186381
 21
1015.684239
 31
0.0
  0
LINE
  5
20A8C
100
AcDbEntity
  8
0
100
AcDbLine
 10
550.686381
 20
1020.684239
 30
0.0
 11
550.686381
 21
1030.684239
 31
0.0
  0
LINE
  5
20A8D
100
AcDbEntity
  8
0
100
AcDbLine
 10
534.686381
 20
1020.684239
 30
0.0
 11
534.686381
 21
1030.684239
 31
0.0
  0
LINE
  5
20A8E
100
AcDbEntity
  8
0
100
AcDbLine
 10
523.186381
 20
1035.763929
 30
0.0
 11
523.186381
 21
1015.684239
 31
0.0
  0
LINE
  5
20A8F
100
AcDbEntity
  8
0
100
AcDbLine
 10
542.686381
 20
1014.184239
 30
0.0
 11
560.686381
 21
1014.184239
 31
0.0
  0
LINE
  5
20A90
100
AcDbEntity
  8
0
100
AcDbLine
 10
534.686381
 20
1020.684239
 30
0.0
 11
550.686381
 21
1020.684239
 31
0.0
  0
LINE
  5
20A91
100
AcDbEntity
  8
0
100
AcDbLine
 10
524.686381
 20
1014.184239
 30
0.0
 11
523.186381
 21
1015.684239
 31
0.0
  0
LINE
  5
20A92
100
AcDbEntity
  8
0
100
AcDbLine
 10
524.686381
 20
1014.184239
 30
0.0
 11
542.686381
 21
1014.184239
 31
0.0
  0
LINE
  5
20A93
100
AcDbEntity
  8
0
100
AcDbLine
 10
562.186381
 20
1015.684239
 30
0.0
 11
560.686381
 21
1014.184239
 31
0.0
  0
LINE
  5
20A94
100
AcDbEntity
  8
0
100
AcDbLine
 10
534.686381
 20
1030.684239
 30
0.0
 11
550.686381
 21
1030.684239
 31
0.0
  0
LINE
  5
20A95
100
AcDbEntity
  8
0
100
AcDbLine
 10
562.186381
 20
1029.684239
 30
0.0
 11
552.686381
 21
1032.025042
 31
0.0
  0
ARC
  5
20A96
100
AcDbEntity
  8
0
100
AcDbCircle
 10
564.186381
 20
1027.684239
 30
0.0
 40
2.0
100
AcDbArc
 50
90.0
 51
180.0
  0
LINE
  5
20A97
100
AcDbEntity
  8
0
100
AcDbLine
 10
546.924993
 20
1043.92813
 30
0.0
 11
552.686381
 21
1043.92813
 31
0.0
  0
LINE
  5
20A98
100
AcDbEntity
  8
0
100
AcDbLine
 10
609.804925
 20
961.324957
 30
0.0
 11
609.804925
 21
962.324957
 31
0.0
  0
LINE
  5
20A99
100
AcDbEntity
  8
0
100
AcDbLine
 10
617.804925
 20
961.324957
 30
0.0
 11
617.804925
 21
962.324957
 31
0.0
  0
LINE
  5
20A9A
100
AcDbEntity
  8
0
100
AcDbLine
 10
646.552941
 20
916.324957
 30
0.0
 11
668.281585
 21
916.324957
 31
0.0
  0
LINE
  5
20A9B
100
AcDbEntity
  8
0
100
AcDbLine
 10
646.552941
 20
939.324957
 30
0.0
 11
668.281585
 21
939.324957
 31
0.0
  0
LINE
  5
20A9C
100
AcDbEntity
  8
0
100
AcDbLine
 10
591.154925
 20
894.324957
 30
0.0
 11
591.154925
 21
961.324957
 31
0.0
  0
LINE
  5
20A9D
100
AcDbEntity
  8
0
100
AcDbLine
 10
604.154925
 20
961.324957
 30
0.0
 11
604.154925
 21
894.324957
 31
0.0
  0
LINE
  5
20A9E
100
AcDbEntity
  8
0
100
AcDbLine
 10
607.804925
 20
961.324957
 30
0.0
 11
607.804925
 21
894.324957
 31
0.0
  0
CIRCLE
  5
20A9F
100
AcDbEntity
  8
0
100
AcDbCircle
 10
630.804925
 20
927.824957
 30
0.0
 40
19.5
  0
LINE
  5
20AA0
100
AcDbEntity
  8
0
100
AcDbLine
 10
583.304925
 20
945.324957
 30
0.0
 11
583.304925
 21
910.324957
 31
0.0
  0
LINE
  5
20AA1
100
AcDbEntity
  8
0
100
AcDbLine
 10
574.83376
 20
942.824957
 30
0.0
 11
574.83376
 21
912.824957
 31
0.0
  0
ARC
  5
20AA2
100
AcDbEntity
  8
0
100
AcDbCircle
 10
503.304925
 20
927.824957
 30
0.0
 40
70.0
100
AcDbArc
 50
333.064225
 51
26.935775
  0
LINE
  5
20AA3
100
AcDbEntity
  8
0
100
AcDbLine
 10
607.804925
 20
907.087457
 30
0.0
 11
604.154925
 21
907.087457
 31
0.0
  0
LINE
  5
20AA4
100
AcDbEntity
  8
0
100
AcDbLine
 10
607.804925
 20
910.324957
 30
0.0
 11
604.154925
 21
910.324957
 31
0.0
  0
LINE
  5
20AA5
100
AcDbEntity
  8
0
100
AcDbLine
 10
607.804925
 20
897.562457
 30
0.0
 11
604.154925
 21
897.562457
 31
0.0
  0
LINE
  5
20AA6
100
AcDbEntity
  8
0
100
AcDbLine
 10
589.118438
 20
898.422457
 30
0.0
 11
589.118438
 21
906.227457
 31
0.0
  0
LINE
  5
20AA7
100
AcDbEntity
  8
0
100
AcDbLine
 10
604.154925
 20
894.324957
 30
0.0
 11
591.154925
 21
894.324957
 31
0.0
  0
LINE
  5
20AA8
100
AcDbEntity
  8
0
100
AcDbLine
 10
589.118438
 20
898.422457
 30
0.0
 11
589.614959
 21
897.562457
 31
0.0
  0
LINE
  5
20AA9
100
AcDbEntity
  8
0
100
AcDbLine
 10
589.614959
 20
897.562457
 30
0.0
 11
591.154925
 21
897.562457
 31
0.0
  0
LINE
  5
20AAA
100
AcDbEntity
  8
0
100
AcDbLine
 10
591.154925
 20
910.324957
 30
0.0
 11
583.304925
 21
910.324957
 31
0.0
  0
ARC
  5
20AAB
100
AcDbEntity
  8
0
100
AcDbCircle
 10
572.325737
 20
913.103923
 30
0.0
 40
2.52349
100
AcDbArc
 50
243.830572
 51
353.653128
  0
LINE
  5
20AAC
100
AcDbEntity
  8
0
100
AcDbLine
 10
583.304925
 20
912.824957
 30
0.0
 11
574.83376
 21
912.824957
 31
0.0
  0
LINE
  5
20AAD
100
AcDbEntity
  8
0
100
AcDbLine
 10
589.118438
 20
906.227457
 30
0.0
 11
589.614959
 21
907.087457
 31
0.0
  0
LINE
  5
20AAE
100
AcDbEntity
  8
0
100
AcDbLine
 10
589.614959
 20
907.087457
 30
0.0
 11
591.154925
 21
907.087457
 31
0.0
  0
ARC
  5
20AAF
100
AcDbEntity
  8
0
100
AcDbCircle
 10
618.390248
 20
898.749957
 30
0.0
 40
8.814677
100
AcDbArc
 50
336.072926
 51
23.927074
  0
LINE
  5
20AB0
100
AcDbEntity
  8
0
100
AcDbLine
 10
620.804925
 20
894.324957
 30
0.0
 11
620.804925
 21
911.084288
 31
0.0
  0
LINE
  5
20AB1
100
AcDbEntity
  8
0
100
AcDbLine
 10
627.204925
 20
896.487007
 30
0.0
 11
627.204925
 21
908.162908
 31
0.0
  0
LINE
  5
20AB2
100
AcDbEntity
  8
0
100
AcDbLine
 10
627.204925
 20
896.487007
 30
0.0
 11
626.447413
 21
895.174957
 31
0.0
  0
LINE
  5
20AB3
100
AcDbEntity
  8
0
100
AcDbLine
 10
617.804925
 20
896.870826
 30
0.0
 11
617.804925
 21
893.324957
 31
0.0
  0
ARC
  5
20AB4
100
AcDbEntity
  8
0
100
AcDbCircle
 10
618.804925
 20
896.870826
 30
0.0
 40
1.0
100
AcDbArc
 50
90.0
 51
180.0
  0
LINE
  5
20AB5
100
AcDbEntity
  8
0
100
AcDbLine
 10
617.804925
 20
894.324957
 30
0.0
 11
620.804925
 21
894.324957
 31
0.0
  0
LINE
  5
20AB6
100
AcDbEntity
  8
0
100
AcDbLine
 10
626.447413
 20
895.174957
 30
0.0
 11
620.804925
 21
895.174957
 31
0.0
  0
LINE
  5
20AB7
100
AcDbEntity
  8
0
100
AcDbLine
 10
609.804925
 20
896.870826
 30
0.0
 11
609.804925
 21
893.324957
 31
0.0
  0
ARC
  5
20AB8
100
AcDbEntity
  8
0
100
AcDbCircle
 10
608.804925
 20
896.870826
 30
0.0
 40
1.0
100
AcDbArc
 50
0.0
 51
90.0
  0
LINE
  5
20AB9
100
AcDbEntity
  8
0
100
AcDbLine
 10
607.804925
 20
894.324957
 30
0.0
 11
609.804925
 21
894.324957
 31
0.0
  0
LINE
  5
20ABA
100
AcDbEntity
  8
0
100
AcDbLine
 10
617.804925
 20
897.870826
 30
0.0
 11
609.804925
 21
897.870826
 31
0.0
  0
LINE
  5
20ABB
100
AcDbEntity
  8
0
100
AcDbLine
 10
617.804925
 20
893.324957
 30
0.0
 11
609.804925
 21
893.324957
 31
0.0
  0
LINE
  5
20ABC
100
AcDbEntity
  8
0
100
AcDbLine
 10
638.804925
 20
908.324957
 30
0.0
 11
622.804925
 21
908.324957
 31
0.0
  0
LINE
  5
20ABD
100
AcDbEntity
  8
0
100
AcDbLine
 10
622.804925
 20
910.041538
 30
0.0
 11
622.804925
 21
908.324957
 31
0.0
  0
ARC
  5
20ABE
100
AcDbEntity
  8
0
100
AcDbCircle
 10
618.390248
 20
905.899957
 30
0.0
 40
8.814677
100
AcDbArc
 50
336.072926
 51
15.96853
  0
LINE
  5
20ABF
100
AcDbEntity
  8
0
100
AcDbLine
 10
627.204925
 20
908.162908
 30
0.0
 11
627.111366
 21
908.324957
 31
0.0
  0
ARC
  5
20AC0
100
AcDbEntity
  8
0
100
AcDbCircle
 10
626.447413
 20
902.324957
 30
0.0
 40
0.0
100
AcDbArc
 50
90.0
 51
137.854147
  0
LINE
  5
20AC1
100
AcDbEntity
  8
0
100
AcDbLine
 10
620.804925
 20
902.324957
 30
0.0
 11
626.447413
 21
902.324957
 31
0.0
  0
LINE
  5
20AC2
100
AcDbEntity
  8
0
100
AcDbLine
 10
626.447413
 20
902.324957
 30
0.0
 11
620.804925
 21
902.324957
 31
0.0
  0
LINE
  5
20AC3
100
AcDbEntity
  8
0
100
AcDbLine
 10
622.804925
 20
909.474957
 30
0.0
 11
620.804925
 21
909.474957
 31
0.0
  0
LINE
  5
20AC4
100
AcDbEntity
  8
0
100
AcDbLine
 10
608.454925
 20
901.069457
 30
0.0
 11
620.154925
 21
901.069457
 31
0.0
  0
LINE
  5
20AC5
100
AcDbEntity
  8
0
100
AcDbLine
 10
638.804925
 20
910.041538
 30
0.0
 11
638.804925
 21
908.324957
 31
0.0
  0
LINE
  5
20AC6
100
AcDbEntity
  8
0
100
AcDbLine
 10
607.804925
 20
958.087457
 30
0.0
 11
604.154925
 21
958.087457
 31
0.0
  0
LINE
  5
20AC7
100
AcDbEntity
  8
0
100
AcDbLine
 10
607.804925
 20
948.562457
 30
0.0
 11
604.154925
 21
948.562457
 31
0.0
  0
LINE
  5
20AC8
100
AcDbEntity
  8
0
100
AcDbLine
 10
607.804925
 20
945.324957
 30
0.0
 11
604.154925
 21
945.324957
 31
0.0
  0
LINE
  5
20AC9
100
AcDbEntity
  8
0
100
AcDbLine
 10
591.154925
 20
945.324957
 30
0.0
 11
583.304925
 21
945.324957
 31
0.0
  0
ARC
  5
20ACA
100
AcDbEntity
  8
0
100
AcDbCircle
 10
572.325737
 20
942.545992
 30
0.0
 40
2.52349
100
AcDbArc
 50
6.346872
 51
116.169428
  0
LINE
  5
20ACB
100
AcDbEntity
  8
0
100
AcDbLine
 10
583.304925
 20
942.824957
 30
0.0
 11
574.83376
 21
942.824957
 31
0.0
  0
LINE
  5
20ACC
100
AcDbEntity
  8
0
100
AcDbLine
 10
591.154925
 20
958.087457
 30
0.0
 11
591.154925
 21
948.562457
 31
0.0
  0
LINE
  5
20ACD
100
AcDbEntity
  8
0
100
AcDbLine
 10
604.154925
 20
961.324957
 30
0.0
 11
591.154925
 21
961.324957
 31
0.0
  0
LINE
  5
20ACE
100
AcDbEntity
  8
0
100
AcDbLine
 10
589.118438
 20
957.227457
 30
0.0
 11
589.614959
 21
958.087457
 31
0.0
  0
LINE
  5
20ACF
100
AcDbEntity
  8
0
100
AcDbLine
 10
589.118438
 20
949.422457
 30
0.0
 11
589.614959
 21
948.562457
 31
0.0
  0
LINE
  5
20AD0
100
AcDbEntity
  8
0
100
AcDbLine
 10
589.118438
 20
949.422457
 30
0.0
 11
589.118438
 21
957.227457
 31
0.0
  0
LINE
  5
20AD1
100
AcDbEntity
  8
0
100
AcDbLine
 10
589.614959
 20
958.087457
 30
0.0
 11
591.154925
 21
958.087457
 31
0.0
  0
LINE
  5
20AD2
100
AcDbEntity
  8
0
100
AcDbLine
 10
589.614959
 20
948.562457
 30
0.0
 11
591.154925
 21
948.562457
 31
0.0
  0
LINE
  5
20AD3
100
AcDbEntity
  8
0
100
AcDbLine
 10
638.804925
 20
947.324957
 30
0.0
 11
622.804925
 21
947.324957
 31
0.0
  0
ARC
  5
20AD4
100
AcDbEntity
  8
0
100
AcDbCircle
 10
618.390248
 20
956.899957
 30
0.0
 40
8.814677
100
AcDbArc
 50
336.072926
 51
23.927074
  0
LINE
  5
20AD5
100
AcDbEntity
  8
0
100
AcDbLine
 10
627.204925
 20
959.162908
 30
0.0
 11
626.447413
 21
960.474957
 31
0.0
  0
LINE
  5
20AD6
100
AcDbEntity
  8
0
100
AcDbLine
 10
620.804925
 20
961.324957
 30
0.0
 11
620.804925
 21
944.565626
 31
0.0
  0
LINE
  5
20AD7
100
AcDbEntity
  8
0
100
AcDbLine
 10
622.804925
 20
945.608377
 30
0.0
 11
622.804925
 21
947.324957
 31
0.0
  0
LINE
  5
20AD8
100
AcDbEntity
  8
0
100
AcDbLine
 10
622.804925
 20
945.608377
 30
0.0
 11
622.804925
 21
947.324957
 31
0.0
  0
LINE
  5
20AD9
100
AcDbEntity
  8
0
100
AcDbLine
 10
627.204925
 20
959.162908
 30
0.0
 11
627.204925
 21
947.487007
 31
0.0
  0
ARC
  5
20ADA
100
AcDbEntity
  8
0
100
AcDbCircle
 10
626.447413
 20
953.324957
 30
0.0
 40
0.0
100
AcDbArc
 50
222.145853
 51
270.0
  0
LINE
  5
20ADB
100
AcDbEntity
  8
0
100
AcDbLine
 10
627.204925
 20
947.487007
 30
0.0
 11
627.111366
 21
947.324957
 31
0.0
  0
ARC
  5
20ADC
100
AcDbEntity
  8
0
100
AcDbCircle
 10
618.390248
 20
949.749957
 30
0.0
 40
8.814677
100
AcDbArc
 50
344.03147
 51
23.927074
  0
LINE
  5
20ADD
100
AcDbEntity
  8
0
100
AcDbLine
 10
626.447413
 20
953.324957
 30
0.0
 11
620.804925
 21
953.324957
 31
0.0
  0
LINE
  5
20ADE
100
AcDbEntity
  8
0
100
AcDbLine
 10
620.804925
 20
953.324957
 30
0.0
 11
626.447413
 21
953.324957
 31
0.0
  0
LINE
  5
20ADF
100
AcDbEntity
  8
0
100
AcDbLine
 10
622.804925
 20
946.174957
 30
0.0
 11
620.804925
 21
946.174957
 31
0.0
  0
LINE
  5
20AE0
100
AcDbEntity
  8
0
100
AcDbLine
 10
626.447413
 20
960.474957
 30
0.0
 11
620.804925
 21
960.474957
 31
0.0
  0
LINE
  5
20AE1
100
AcDbEntity
  8
0
100
AcDbLine
 10
607.804925
 20
961.324957
 30
0.0
 11
620.804925
 21
961.324957
 31
0.0
  0
LINE
  5
20AE2
100
AcDbEntity
  8
0
100
AcDbLine
 10
608.454925
 20
954.580457
 30
0.0
 11
620.154925
 21
954.580457
 31
0.0
  0
LINE
  5
20AE3
100
AcDbEntity
  8
0
100
AcDbLine
 10
638.804925
 20
945.608377
 30
0.0
 11
638.804925
 21
947.324957
 31
0.0
  0
ELLIPSE
  5
20AE4
100
AcDbEntity
  8
0
100
AcDbEllipse
 10
672.524225
 20
927.824957
 30
0.0
 11
-0.0000000000000025
 21
-13.5
 31
0.0
210
0.0
220
0.0
230
-1.0
 40
0.707107
 41
3.141592653589793
 42
6.283185307179586
  0
ELLIPSE
  5
20AE5
100
AcDbEntity
  8
0
100
AcDbEllipse
 10
668.281585
 20
927.824957
 30
0.0
 11
-0.0000000000000021
 21
-11.5
 31
0.0
210
0.0
220
0.0
230
-1.0
 40
0.707107
 41
3.141592653589793
 42
6.283185307179586
  0
ELLIPSE
  5
20AE6
100
AcDbEntity
  8
0
100
AcDbEllipse
 10
669.695798
 20
927.824957
 30
0.0
 11
-0.0000000000000025
 21
-13.5
 31
0.0
210
0.0
220
0.0
230
-1.0
 40
0.707107
 41
2.590307055156976
 42
6.834470905611832
  0
POLYLINE
  5
20AE7
100
AcDbEntity
  8
0
100
AcDb2dPolyline
 66
     1
 10
0.0
 20
0.0
 30
0.0
  0
VERTEX
  5
218FD
100
AcDbEntity
  8
0
100
AcDbVertex
100
AcDb2dVertex
 10
678.888186
 20
938.824957
 30
0.0
 42
-0.133256
  0
VERTEX
  5
218FE
100
AcDbEntity
  8
0
100
AcDbVertex
100
AcDb2dVertex
 10
681.713231
 20
938.058437
 30
0.0
 42
-0.106756
  0
VERTEX
  5
218FF
100
AcDbEntity
  8
0
100
AcDbVertex
100
AcDb2dVertex
 10
684.388186
 20
935.603132
 30
0.0
 42
-0.082828
  0
VERTEX
  5
21900
100
AcDbEntity
  8
0
100
AcDbVertex
100
AcDb2dVertex
 10
686.041321
 20
932.182646
 30
0.0
 42
-0.071352
  0
VERTEX
  5
21901
100
AcDbEntity
  8
0
100
AcDbVertex
100
AcDb2dVertex
 10
686.666361
 20
927.824957
 30
0.0
 42
-0.071352
  0
VERTEX
  5
21902
100
AcDbEntity
  8
0
100
AcDbVertex
100
AcDb2dVertex
 10
686.041321
 20
923.467269
 30
0.0
 42
-0.082828
  0
VERTEX
  5
21903
100
AcDbEntity
  8
0
100
AcDbVertex
100
AcDb2dVertex
 10
684.388186
 20
920.046783
 30
0.0
 42
-0.106756
  0
VERTEX
  5
21904
100
AcDbEntity
  8
0
100
AcDbVertex
100
AcDb2dVertex
 10
681.713231
 20
917.591478
 30
0.0
 42
-0.133256
  0
VERTEX
  5
21905
100
AcDbEntity
  8
0
100
AcDbVertex
100
AcDb2dVertex
 10
678.888186
 20
916.824957
 30
0.0
 42
-0.097633
  0
SEQEND
  5
21906
100
AcDbEntity
  8
0
  0
LINE
  5
20AE8
100
AcDbEntity
  8
0
100
AcDbLine
 10
682.85839
 20
925.902229
 30
0.0
 11
679.937559
 21
918.747685
 31
0.0
  0
LINE
  5
20AE9
100
AcDbEntity
  8
0
100
AcDbLine
 10
669.695798
 20
914.324957
 30
0.0
 11
672.524225
 21
914.324957
 31
0.0
  0
ARC
  5
20AEA
100
AcDbEntity
  8
0
100
AcDbCircle
 10
673.749204
 20
923.955926
 30
0.0
 40
8.088356
100
AcDbArc
 50
308.201734
 51
319.915384
  0
LINE
  5
20AEB
100
AcDbEntity
  8
0
100
AcDbLine
 10
678.888186
 20
916.824957
 30
0.0
 11
678.034155
 21
916.824957
 31
0.0
  0
LINE
  5
20AEC
100
AcDbEntity
  8
0
100
AcDbLine
 10
679.937559
 20
918.747685
 30
0.0
 11
683.258545
 21
918.747685
 31
0.0
  0
LINE
  5
20AED
100
AcDbEntity
  8
0
100
AcDbLine
 10
669.695798
 20
941.324957
 30
0.0
 11
672.524225
 21
941.324957
 31
0.0
  0
LINE
  5
20AEE
100
AcDbEntity
  8
0
100
AcDbLine
 10
682.85839
 20
929.747685
 30
0.0
 11
679.937559
 21
936.902229
 31
0.0
  0
ARC
  5
20AEF
100
AcDbEntity
  8
0
100
AcDbCircle
 10
663.583302
 20
927.824957
 30
0.0
 40
19.370748
100
AcDbArc
 50
354.303478
 51
5.696522
  0
LINE
  5
20AF0
100
AcDbEntity
  8
0
100
AcDbLine
 10
679.937559
 20
936.902229
 30
0.0
 11
683.258545
 21
936.902229
 31
0.0
  0
LINE
  5
20AF1
100
AcDbEntity
  8
0
100
AcDbLine
 10
678.888186
 20
938.824957
 30
0.0
 11
678.034155
 21
938.824957
 31
0.0
  0
ARC
  5
20AF2
100
AcDbEntity
  8
0
100
AcDbCircle
 10
673.749204
 20
931.693989
 30
0.0
 40
8.088356
100
AcDbArc
 50
40.084616
 51
51.798266
  0
LINE
  5
20AF3
100
AcDbEntity
  8
0
100
AcDbLine
 10
682.85839
 20
925.902229
 30
0.0
 11
686.546669
 21
925.902229
 31
0.0
  0
LINE
  5
20AF4
100
AcDbEntity
  8
0
100
AcDbLine
 10
682.85839
 20
929.747685
 30
0.0
 11
686.546669
 21
929.747685
 31
0.0
  0
LINE
  5
20AF5
100
AcDbEntity
  8
0
100
AcDbLine
 10
624.707196
 20
1000.184239
 30
0.0
 11
662.165565
 21
1000.184239
 31
0.0
  0
LINE
  5
20AF6
100
AcDbEntity
  8
0
100
AcDbLine
 10
618.696788
 20
1002.673831
 30
0.0
 11
604.29302
 21
1017.0776
 31
0.0
  0
LINE
  5
20AF7
100
AcDbEntity
  8
0
100
AcDbLine
 10
617.804925
 20
962.324957
 30
0.0
 11
609.804925
 21
962.324957
 31
0.0
  0
ARC
  5
20AF8
100
AcDbEntity
  8
0
100
AcDbCircle
 10
624.707196
 20
1008.684239
 30
0.0
 40
8.5
100
AcDbArc
 50
225.0
 51
270.0
  0
ARC
  5
20AF9
100
AcDbEntity
  8
0
100
AcDbCircle
 10
672.972596
 20
1038.431461
 30
0.0
 40
72.807184
100
AcDbArc
 50
181.375113
 51
194.441574
  0
LINE
  5
20AFA
100
AcDbEntity
  8
0
100
AcDbLine
 10
582.336381
 20
1018.684239
 30
0.0
 11
569.336381
 21
1018.684239
 31
0.0
  0
ARC
  5
20AFB
100
AcDbEntity
  8
0
100
AcDbCircle
 10
609.242767
 20
1022.027347
 30
0.0
 40
7.0
100
AcDbArc
 50
194.506773
 51
225.0
  0
LINE
  5
20AFC
100
AcDbEntity
  8
0
100
AcDbLine
 10
582.336381
 20
1034.684239
 30
0.0
 11
590.186381
 21
1034.684239
 31
0.0
  0
LINE
  5
20AFD
100
AcDbEntity
  8
0
100
AcDbLine
 10
565.686381
 20
1034.684239
 30
0.0
 11
569.336381
 21
1034.684239
 31
0.0
  0
ARC
  5
20AFE
100
AcDbEntity
  8
0
100
AcDbCircle
 10
601.165568
 20
1037.463204
 30
0.0
 40
2.52349
100
AcDbArc
 50
186.346872
 51
248.786825
  0
LINE
  5
20AFF
100
AcDbEntity
  8
0
100
AcDbLine
 10
590.186381
 20
1037.184239
 30
0.0
 11
598.657545
 21
1037.184239
 31
0.0
  0
LINE
  5
20B00
100
AcDbEntity
  8
0
100
AcDbLine
 10
668.175973
 20
1002.673831
 30
0.0
 11
682.579741
 21
1017.0776
 31
0.0
  0
ARC
  5
20B01
100
AcDbEntity
  8
0
100
AcDbCircle
 10
662.165565
 20
1008.684239
 30
0.0
 40
8.5
100
AcDbArc
 50
270.0
 51
315.0
  0
ARC
  5
20B02
100
AcDbEntity
  8
0
100
AcDbCircle
 10
613.900165
 20
1038.431461
 30
0.0
 40
72.807184
100
AcDbArc
 50
345.558426
 51
358.624887
  0
ARC
  5
20B03
100
AcDbEntity
  8
0
100
AcDbCircle
 10
677.629994
 20
1022.027347
 30
0.0
 40
7.0
100
AcDbArc
 50
315.0
 51
345.493227
  0
LINE
  5
20B04
100
AcDbEntity
  8
0
100
AcDbLine
 10
773.899796
 20
803.721121
 30
0.0
 11
773.899796
 21
795.721281
 31
0.0
  0
LINE
  5
20B05
100
AcDbEntity
  8
0
100
AcDbLine
 10
771.139448
 20
803.827522
 30
0.0
 11
771.139448
 21
795.729641
 31
0.0
  0
LINE
  5
20B06
100
AcDbEntity
  8
0
100
AcDbLine
 10
773.899519
 20
809.721637
 30
0.0
 11
773.899519
 21
789.035346
 31
0.0
  0
LINE
  5
20B07
100
AcDbEntity
  8
0
100
AcDbLine
 10
737.65959
 20
803.827522
 30
0.0
 11
737.65959
 21
795.729641
 31
0.0
  0
POLYLINE
  5
20B08
100
AcDbEntity
  8
0
100
AcDb2dPolyline
 66
     1
 10
0.0
 20
0.0
 30
0.0
  0
VERTEX
  5
21907
100
AcDbEntity
  8
0
100
AcDbVertex
100
AcDb2dVertex
 10
762.353274
 20
756.253941
 30
0.0
  0
VERTEX
  5
21908
100
AcDbEntity
  8
0
100
AcDbVertex
100
AcDb2dVertex
 10
756.718258
 20
758.283496
 30
0.0
  0
SEQEND
  5
21909
100
AcDbEntity
  8
0
  0
LINE
  5
20B09
100
AcDbEntity
  8
0
100
AcDbLine
 10
767.899519
 20
758.721637
 30
0.0
 11
771.556373
 21
755.064783
 31
0.0
  0
LINE
  5
20B0A
100
AcDbEntity
  8
0
100
AcDbLine
 10
767.899519
 20
759.330764
 30
0.0
 11
767.899519
 21
756.502337
 31
0.0
  0
LINE
  5
20B0B
100
AcDbEntity
  8
0
100
AcDbLine
 10
762.353274
 20
758.375262
 30
0.0
 11
762.353274
 21
756.253941
 31
0.0
  0
ELLIPSE
  5
20B0C
100
AcDbEntity
  8
0
100
AcDbEllipse
 10
754.399519
 20
752.259696
 30
0.0
 11
11.75
 21
0.0
 31
0.0
210
0.0
220
0.0
230
1.0
 40
0.707107
 41
0.359223129284924
 42
0.827232605862334
  0
ARC
  5
20B0D
100
AcDbEntity
  8
0
100
AcDbCircle
 10
754.399519
 20
769.221637
 30
0.0
 40
33.5
100
AcDbArc
 50
305.597645
 51
54.402355
  0
POLYLINE
  5
20B0E
100
AcDbEntity
  8
0
100
AcDb2dPolyline
 66
     1
 10
0.0
 20
0.0
 30
0.0
  0
VERTEX
  5
2190A
100
AcDbEntity
  8
0
100
AcDbVertex
100
AcDb2dVertex
 10
752.08078
 20
758.283496
 30
0.0
  0
VERTEX
  5
2190B
100
AcDbEntity
  8
0
100
AcDbVertex
100
AcDb2dVertex
 10
746.445764
 20
756.253941
 30
0.0
  0
SEQEND
  5
2190C
100
AcDbEntity
  8
0
  0
POLYLINE
  5
20B0F
100
AcDbEntity
  8
0
100
AcDb2dPolyline
 66
     1
 10
0.0
 20
0.0
 30
0.0
  0
VERTEX
  5
2190D
100
AcDbEntity
  8
0
100
AcDbVertex
100
AcDb2dVertex
 10
746.445764
 20
756.253941
 30
0.0
  0
VERTEX
  5
2190E
100
AcDbEntity
  8
0
100
AcDbVertex
100
AcDb2dVertex
 10
752.08078
 20
758.283496
 30
0.0
  0
SEQEND
  5
2190F
100
AcDbEntity
  8
0
  0
LINE
  5
20B10
100
AcDbEntity
  8
0
100
AcDbLine
 10
746.445764
 20
758.375262
 30
0.0
 11
746.445764
 21
756.253941
 31
0.0
  0
LINE
  5
20B11
100
AcDbEntity
  8
0
100
AcDbLine
 10
740.899519
 20
759.330764
 30
0.0
 11
740.899519
 21
756.502337
 31
0.0
  0
LINE
  5
20B12
100
AcDbEntity
  8
0
100
AcDbLine
 10
740.899519
 20
758.721637
 30
0.0
 11
737.242665
 21
755.064783
 31
0.0
  0
ELLIPSE
  5
20B13
100
AcDbEntity
  8
0
100
AcDbEllipse
 10
754.399519
 20
752.259696
 30
0.0
 11
11.75
 21
0.0
 31
0.0
210
0.0
220
0.0
230
1.0
 40
0.707107
 41
2.314360047727349
 42
2.782369524304982
  0
ELLIPSE
  5
20B14
100
AcDbEntity
  8
0
100
AcDbEllipse
 10
754.399519
 20
756.502337
 30
0.0
 11
-13.5
 21
0.0
 31
0.0
210
0.0
220
0.0
230
1.0
 40
0.707107
 41
2.5232060117038
 42
6.901571949065703
  0
ELLIPSE
  5
20B15
100
AcDbEntity
  8
0
100
AcDbEllipse
 10
754.399519
 20
750.138376
 30
0.0
 11
-10.5
 21
0.0
 31
0.0
210
0.0
220
0.0
230
1.0
 40
0.707107
 41
0.0
 42
6.283185307179586
  0
ELLIPSE
  5
20B16
100
AcDbEntity
  8
0
100
AcDbEllipse
 10
754.399519
 20
755.088123
 30
0.0
 11
11.5
 21
0.0
 31
0.0
210
0.0
220
0.0
230
-1.0
 40
0.707107
 41
2.845629732092404
 42
6.579148228677147
  0
LINE
  5
20B18
100
AcDbEntity
  8
0
100
AcDbLine
 10
773.899519
 20
732.721637
 30
0.0
 11
773.899519
 21
746.06244
 31
0.0
  0
LINE
  5
20B19
100
AcDbEntity
  8
0
100
AcDbLine
 10
773.899519
 20
732.721637
 30
0.0
 11
773.899519
 21
749.407929
 31
0.0
  0
LINE
  5
20B1A
100
AcDbEntity
  8
0
100
AcDbLine
 10
736.399519
 20
731.221637
 30
0.0
 11
754.399519
 21
731.221637
 31
0.0
  0
LINE
  5
20B1B
100
AcDbEntity
  8
0
100
AcDbLine
 10
772.399519
 20
731.221637
 30
0.0
 11
773.899519
 21
732.721637
 31
0.0
  0
POLYLINE
  5
20B1C
100
AcDbEntity
  8
0
100
AcDb2dPolyline
 66
     1
 10
0.0
 20
0.0
 30
0.0
  0
VERTEX
  5
21910
100
AcDbEntity
  8
0
100
AcDbVertex
100
AcDb2dVertex
 10
756.718258
 20
741.993256
 30
0.0
  0
VERTEX
  5
21911
100
AcDbEntity
  8
0
100
AcDbVertex
100
AcDb2dVertex
 10
762.353274
 20
744.022811
 30
0.0
  0
SEQEND
  5
21912
100
AcDbEntity
  8
0
  0
LINE
  5
20B1D
100
AcDbEntity
  8
0
100
AcDbLine
 10
736.66018
 20
737.721983
 30
0.0
 11
735.900172
 21
737.721983
 31
0.0
  0
LINE
  5
20B1E
100
AcDbEntity
  8
0
100
AcDbLine
 10
736.66018
 20
747.722164
 30
0.0
 11
735.900172
 21
747.722164
 31
0.0
  0
LINE
  5
20B1F
100
AcDbEntity
  8
0
100
AcDbLine
 10
735.900172
 20
747.722164
 30
0.0
 11
736.66018
 21
747.722164
 31
0.0
  0
POLYLINE
  5
20B20
100
AcDbEntity
  8
0
100
AcDb2dPolyline
 66
     1
 10
0.0
 20
0.0
 30
0.0
  0
VERTEX
  5
21913
100
AcDbEntity
  8
0
100
AcDbVertex
100
AcDb2dVertex
 10
746.445764
 20
744.022811
 30
0.0
  0
VERTEX
  5
21914
100
AcDbEntity
  8
0
100
AcDbVertex
100
AcDb2dVertex
 10
752.08078
 20
741.993256
 30
0.0
  0
SEQEND
  5
21915
100
AcDbEntity
  8
0
  0
LINE
  5
20B21
100
AcDbEntity
  8
0
100
AcDbLine
 10
737.65959
 20
738.615752
 30
0.0
 11
737.65959
 21
746.713634
 31
0.0
  0
ARC
  5
20B22
100
AcDbEntity
  8
0
100
AcDbCircle
 10
736.66035
 20
736.721983
 30
0.0
 40
1.0
100
AcDbArc
 50
359.990253
 51
90.009747
  0
ARC
  5
20B23
100
AcDbEntity
  8
0
100
AcDbCircle
 10
736.66035
 20
748.722164
 30
0.0
 40
1.0
100
AcDbArc
 50
269.990253
 51
0.009747
  0
ELLIPSE
  5
20B24
100
AcDbEntity
  8
0
100
AcDbEllipse
 10
754.399519
 20
750.138376
 30
0.0
 11
11.75
 21
0.0
 31
0.0
210
0.0
220
0.0
230
1.0
 40
0.707107
 41
3.500815782874589
 42
3.968825259452236
  0
POLYLINE
  5
20B25
100
AcDbEntity
  8
0
100
AcDb2dPolyline
 66
     1
 10
0.0
 20
0.0
 30
0.0
  0
VERTEX
  5
21916
100
AcDbEntity
  8
0
100
AcDbVertex
100
AcDb2dVertex
 10
743.399519
 20
755.180527
 30
0.0
  0
VERTEX
  5
21917
100
AcDbEntity
  8
0
100
AcDbVertex
100
AcDb2dVertex
 10
743.399519
 20
747.217546
 30
0.0
  0
SEQEND
  5
21918
100
AcDbEntity
  8
0
  0
ELLIPSE
  5
20B26
100
AcDbEntity
  8
0
100
AcDbEllipse
 10
754.399519
 20
750.138376
 30
0.0
 11
11.75
 21
0.0
 31
0.0
210
0.0
220
0.0
230
1.0
 40
0.707107
 41
2.314360047727349
 42
2.782369524304982
  0
ELLIPSE
  5
20B27
100
AcDbEntity
  8
0
100
AcDbEllipse
 10
754.399519
 20
750.138376
 30
0.0
 11
11.75
 21
0.0
 31
0.0
210
0.0
220
0.0
230
1.0
 40
0.707107
 41
4.513745654064261
 42
4.911032306705117
  0
ELLIPSE
  5
20B29
100
AcDbEntity
  8
0
100
AcDbEllipse
 10
754.399519
 20
750.138376
 30
0.0
 11
11.75
 21
0.0
 31
0.0
210
0.0
220
0.0
230
1.0
 40
0.707107
 41
5.455952701317142
 42
5.923962177894978
  0
ARC
  5
20B2A
100
AcDbEntity
  8
0
100
AcDbCircle
 10
772.899036
 20
746.722164
 30
0.0
 40
1.0
100
AcDbArc
 50
359.990253
 51
90.009747
  0
LINE
  5
20B2B
100
AcDbEntity
  8
0
100
AcDbLine
 10
772.898866
 20
747.722164
 30
0.0
 11
772.138858
 21
747.722164
 31
0.0
  0
ARC
  5
20B2C
100
AcDbEntity
  8
0
100
AcDbCircle
 10
772.138688
 20
748.722164
 30
0.0
 40
1.0
100
AcDbArc
 50
179.990253
 51
270.009747
  0
LINE
  5
20B2D
100
AcDbEntity
  8
0
100
AcDbLine
 10
772.138858
 20
747.722164
 30
0.0
 11
772.898866
 21
747.722164
 31
0.0
  0
LINE
  5
20B2E
100
AcDbEntity
  8
0
100
AcDbLine
 10
772.138858
 20
737.721983
 30
0.0
 11
772.898866
 21
737.721983
 31
0.0
  0
ARC
  5
20B2F
100
AcDbEntity
  8
0
100
AcDbCircle
 10
772.138688
 20
736.721983
 30
0.0
 40
1.0
100
AcDbArc
 50
89.990253
 51
180.009747
  0
LINE
  5
20B30
100
AcDbEntity
  8
0
100
AcDbLine
 10
771.139448
 20
738.615752
 30
0.0
 11
771.139448
 21
746.713634
 31
0.0
  0
LINE
  5
20B31
100
AcDbEntity
  8
0
100
AcDbLine
 10
773.899796
 20
738.722153
 30
0.0
 11
773.899796
 21
746.721994
 31
0.0
  0
ARC
  5
20B32
100
AcDbEntity
  8
0
100
AcDbCircle
 10
772.899036
 20
738.721983
 30
0.0
 40
1.0
100
AcDbArc
 50
269.990253
 51
0.009747
  0
POLYLINE
  5
20B33
100
AcDbEntity
  8
0
100
AcDb2dPolyline
 66
     1
 10
0.0
 20
0.0
 30
0.0
  0
VERTEX
  5
21919
100
AcDbEntity
  8
0
100
AcDbVertex
100
AcDb2dVertex
 10
765.399519
 20
747.217546
 30
0.0
  0
VERTEX
  5
2191A
100
AcDbEntity
  8
0
100
AcDbVertex
100
AcDb2dVertex
 10
765.399519
 20
755.180527
 30
0.0
  0
SEQEND
  5
2191B
100
AcDbEntity
  8
0
  0
ELLIPSE
  5
20B34
100
AcDbEntity
  8
0
100
AcDbEllipse
 10
754.399519
 20
750.138376
 30
0.0
 11
11.75
 21
0.0
 31
0.0
210
0.0
220
0.0
230
1.0
 40
0.707107
 41
0.359223129284924
 42
0.827232605862334
  0
ARC
  5
20B35
100
AcDbEntity
  8
0
100
AcDbCircle
 10
765.899519
 20
749.407929
 30
0.0
 40
8.0
100
AcDbArc
 50
0.0
 51
45.0
  0
CIRCLE
  5
20B38
100
AcDbEntity
  8
0
100
AcDbCircle
 10
779.898455
 20
769.2211
 30
0.0
 40
6.750069
  0
POLYLINE
  5
20B39
100
AcDbEntity
  8
0
100
AcDb2dPolyline
 66
     1
 10
0.0
 20
0.0
 30
0.0
 70
     1
  0
VERTEX
  5
2191C
100
AcDbEntity
  8
0
100
AcDbVertex
100
AcDb2dVertex
 10
787.048455
 20
765.093045
 30
0.0
  0
VERTEX
  5
2191D
100
AcDbEntity
  8
0
100
AcDbVertex
100
AcDb2dVertex
 10
779.898455
 20
760.964991
 30
0.0
  0
VERTEX
  5
2191E
100
AcDbEntity
  8
0
100
AcDbVertex
100
AcDb2dVertex
 10
772.748455
 20
765.093045
 30
0.0
  0
VERTEX
  5
2191F
100
AcDbEntity
  8
0
100
AcDbVertex
100
AcDb2dVertex
 10
772.748455
 20
773.349154
 30
0.0
  0
VERTEX
  5
21920
100
AcDbEntity
  8
0
100
AcDbVertex
100
AcDb2dVertex
 10
779.898455
 20
777.477208
 30
0.0
  0
VERTEX
  5
21921
100
AcDbEntity
  8
0
100
AcDbVertex
100
AcDb2dVertex
 10
787.048455
 20
773.349154
 30
0.0
  0
SEQEND
  5
21922
100
AcDbEntity
  8
0
  0
ARC
  5
20B3A
100
AcDbEntity
  8
0
100
AcDbCircle
 10
771.899519
 20
775.236356
 30
0.0
 40
6.0
100
AcDbArc
 50
135.0
 51
180.0
  0
LINE
  5
20B3B
100
AcDbEntity
  8
0
100
AcDbLine
 10
765.899519
 20
764.330764
 30
0.0
 11
765.899519
 21
786.853365
 31
0.0
  0
ARC
  5
20B3C
100
AcDbEntity
  8
0
100
AcDbCircle
 10
736.899519
 20
775.236356
 30
0.0
 40
6.0
100
AcDbArc
 50
0.0
 51
45.0
  0
LINE
  5
20B3D
100
AcDbEntity
  8
0
100
AcDbLine
 10
742.899519
 20
764.330764
 30
0.0
 11
742.899519
 21
786.853365
 31
0.0
  0
POLYLINE
  5
20B3E
100
AcDbEntity
  8
0
100
AcDb2dPolyline
 66
     1
 10
0.0
 20
0.0
 30
0.0
  0
VERTEX
  5
21923
100
AcDbEntity
  8
0
100
AcDbVertex
100
AcDb2dVertex
 10
762.353274
 20
758.375262
 30
0.0
  0
VERTEX
  5
21924
100
AcDbEntity
  8
0
100
AcDbVertex
100
AcDb2dVertex
 10
756.718258
 20
760.404816
 30
0.0
  0
SEQEND
  5
21925
100
AcDbEntity
  8
0
  0
ELLIPSE
  5
20B3F
100
AcDbEntity
  8
0
100
AcDbEllipse
 10
754.399519
 20
759.330764
 30
0.0
 11
-13.5
 21
0.0
 31
0.0
210
0.0
220
0.0
230
1.0
 40
0.707107
 41
3.141592653589793
 42
6.283185307179586
  0
LINE
  5
20B40
100
AcDbEntity
  8
0
100
AcDbLine
 10
756.718258
 20
760.404816
 30
0.0
 11
756.718258
 21
758.283496
 31
0.0
  0
POLYLINE
  5
20B41
100
AcDbEntity
  8
0
100
AcDb2dPolyline
 66
     1
 10
0.0
 20
0.0
 30
0.0
  0
VERTEX
  5
21926
100
AcDbEntity
  8
0
100
AcDbVertex
100
AcDb2dVertex
 10
752.08078
 20
760.404816
 30
0.0
  0
VERTEX
  5
21927
100
AcDbEntity
  8
0
100
AcDbVertex
100
AcDb2dVertex
 10
746.445764
 20
758.375262
 30
0.0
  0
SEQEND
  5
21928
100
AcDbEntity
  8
0
  0
POLYLINE
  5
20B42
100
AcDbEntity
  8
0
100
AcDb2dPolyline
 66
     1
 10
0.0
 20
0.0
 30
0.0
  0
VERTEX
  5
21929
100
AcDbEntity
  8
0
100
AcDbVertex
100
AcDb2dVertex
 10
746.445764
 20
758.375262
 30
0.0
  0
VERTEX
  5
2192A
100
AcDbEntity
  8
0
100
AcDbVertex
100
AcDb2dVertex
 10
752.08078
 20
760.404816
 30
0.0
  0
SEQEND
  5
2192B
100
AcDbEntity
  8
0
  0
LINE
  5
20B43
100
AcDbEntity
  8
0
100
AcDbLine
 10
752.08078
 20
760.404816
 30
0.0
 11
752.08078
 21
758.283496
 31
0.0
  0
ELLIPSE
  5
20B44
100
AcDbEntity
  8
0
100
AcDbEllipse
 10
754.399519
 20
750.138376
 30
0.0
 11
11.75
 21
0.0
 31
0.0
210
0.0
220
0.0
230
1.0
 40
0.707107
 41
1.372153000474518
 42
1.769439653115324
  0
ELLIPSE
  5
20B45
100
AcDbEntity
  8
0
100
AcDbEllipse
 10
754.399519
 20
752.259696
 30
0.0
 11
11.75
 21
0.0
 31
0.0
210
0.0
220
0.0
230
1.0
 40
0.707107
 41
1.372153000474518
 42
1.769439653115324
  0
ELLIPSE
  5
20B46
100
AcDbEntity
  8
0
100
AcDbEllipse
 10
754.399519
 20
786.853365
 30
0.0
 11
-11.5
 21
0.0
 31
0.0
210
0.0
220
0.0
230
1.0
 40
0.707107
 41
3.141592653589793
 42
6.283185307179586
  0
LINE
  5
20B47
100
AcDbEntity
  8
0
100
AcDbLine
 10
735.900172
 20
794.72111
 30
0.0
 11
736.66018
 21
794.72111
 31
0.0
  0
LINE
  5
20B48
100
AcDbEntity
  8
0
100
AcDbLine
 10
736.66018
 20
794.72111
 30
0.0
 11
735.900172
 21
794.72111
 31
0.0
  0
ARC
  5
20B49
100
AcDbEntity
  8
0
100
AcDbCircle
 10
736.66035
 20
793.72111
 30
0.0
 40
1.0
100
AcDbArc
 50
359.990253
 51
90.009747
  0
LINE
  5
20B4A
100
AcDbEntity
  8
0
100
AcDbLine
 10
741.14216
 20
779.478996
 30
0.0
 11
737.242665
 21
783.378491
 31
0.0
  0
LINE
  5
20B4C
100
AcDbEntity
  8
0
100
AcDbLine
 10
767.656878
 20
779.478996
 30
0.0
 11
771.556373
 21
783.378491
 31
0.0
  0
LINE
  5
20B4D
100
AcDbEntity
  8
0
100
AcDbLine
 10
772.138858
 20
794.72111
 30
0.0
 11
772.898866
 21
794.72111
 31
0.0
  0
ARC
  5
20B4E
100
AcDbEntity
  8
0
100
AcDbCircle
 10
772.138688
 20
793.72111
 30
0.0
 40
1.0
100
AcDbArc
 50
89.990253
 51
180.009747
  0
LINE
  5
20B4F
100
AcDbEntity
  8
0
100
AcDbLine
 10
772.898866
 20
794.72111
 30
0.0
 11
772.138858
 21
794.72111
 31
0.0
  0
ARC
  5
20B50
100
AcDbEntity
  8
0
100
AcDbCircle
 10
765.899519
 20
789.035346
 30
0.0
 40
8.0
100
AcDbArc
 50
315.0
 51
0.0
  0
ARC
  5
20B51
100
AcDbEntity
  8
0
100
AcDbCircle
 10
772.899036
 20
795.72111
 30
0.0
 40
1.0
100
AcDbArc
 50
269.990253
 51
0.009747
  0
ARC
  5
20B53
100
AcDbEntity
  8
0
100
AcDbCircle
 10
754.399519
 20
769.221637
 30
0.0
 40
34.5
100
AcDbArc
 50
343.15072
 51
16.84928
  0
LINE
  5
20B54
100
AcDbEntity
  8
0
100
AcDbLine
 10
786.372163
 20
759.221637
 30
0.0
 11
787.418453
 21
759.221637
 31
0.0
  0
LINE
  5
20B55
100
AcDbEntity
  8
0
100
AcDbLine
 10
786.372163
 20
779.221637
 30
0.0
 11
787.418453
 21
779.221637
 31
0.0
  0
LINE
  5
20B56
100
AcDbEntity
  8
0
100
AcDbLine
 10
754.399519
 20
811.221637
 30
0.0
 11
772.399519
 21
811.221637
 31
0.0
  0
LINE
  5
20B57
100
AcDbEntity
  8
0
100
AcDbLine
 10
736.66018
 20
804.721291
 30
0.0
 11
735.900172
 21
804.721291
 31
0.0
  0
ARC
  5
20B58
100
AcDbEntity
  8
0
100
AcDbCircle
 10
736.66035
 20
805.721291
 30
0.0
 40
1.0
100
AcDbArc
 50
269.990253
 51
0.009747
  0
LINE
  5
20B59
100
AcDbEntity
  8
0
100
AcDbLine
 10
772.399519
 20
811.221637
 30
0.0
 11
773.899519
 21
809.721637
 31
0.0
  0
ARC
  5
20B5A
100
AcDbEntity
  8
0
100
AcDbCircle
 10
772.899036
 20
803.721291
 30
0.0
 40
1.0
100
AcDbArc
 50
359.990253
 51
90.009747
  0
ARC
  5
20B5B
100
AcDbEntity
  8
0
100
AcDbCircle
 10
772.138688
 20
805.721291
 30
0.0
 40
1.0
100
AcDbArc
 50
179.990253
 51
270.009747
  0
LINE
  5
20B5C
100
AcDbEntity
  8
0
100
AcDbLine
 10
772.138858
 20
804.721291
 30
0.0
 11
772.898866
 21
804.721291
 31
0.0
  0
LINE
  5
20B5D
100
AcDbEntity
  8
0
100
AcDbLine
 10
1005.070882
 20
793.578361
 30
0.0
 11
1005.070882
 21
821.221637
 31
0.0
  0
LINE
  5
20B5E
100
AcDbEntity
  8
0
100
AcDbLine
 10
959.070882
 20
793.578361
 30
0.0
 11
959.070882
 21
821.221637
 31
0.0
  0
ARC
  5
20B5F
100
AcDbEntity
  8
0
100
AcDbCircle
 10
982.070882
 20
769.221637
 30
0.0
 40
33.5
100
AcDbArc
 50
7.704374
 51
172.295626
  0
ELLIPSE
  5
20B60
100
AcDbEntity
  8
0
100
AcDbEllipse
 10
982.070882
 20
726.913114
 30
0.0
 11
14.0
 21
0.0
 31
0.0
210
0.0
220
0.0
230
-1.0
 40
0.51442
 41
0.0
 42
6.283185307179586
  0
CIRCLE
  5
20B61
100
AcDbEntity
  8
0
100
AcDbCircle
 10
982.070882
 20
769.221637
 30
0.0
 40
15.5
  0
CIRCLE
  5
20B62
100
AcDbEntity
  8
0
100
AcDbCircle
 10
982.070882
 20
755.221637
 30
0.0
 40
38.0
  0
ARC
  5
20B63
100
AcDbEntity
  8
0
100
AcDbCircle
 10
982.070882
 20
769.221637
 30
0.0
 40
34.5
100
AcDbArc
 50
163.15072
 51
176.572665
  0
LINE
  5
20B64
100
AcDbEntity
  8
0
100
AcDbLine
 10
950.098238
 20
779.221637
 30
0.0
 11
949.051948
 21
779.221637
 31
0.0
  0
LINE
  5
20B65
100
AcDbEntity
  8
0
100
AcDbLine
 10
1057.918039
 20
784.721637
 30
0.0
 11
1057.918039
 21
753.721637
 31
0.0
  0
ARC
  5
20B66
100
AcDbEntity
  8
0
100
AcDbCircle
 10
1066.974426
 20
739.064745
 30
0.0
 40
7.0
100
AcDbArc
 50
194.506773
 51
225.0
  0
LINE
  5
20B67
100
AcDbEntity
  8
0
100
AcDbLine
 10
1076.428447
 20
719.711229
 30
0.0
 11
1062.024679
 21
734.114998
 31
0.0
  0
ARC
  5
20B68
100
AcDbEntity
  8
0
100
AcDbCircle
 10
1130.704255
 20
755.46886
 30
0.0
 40
72.807184
100
AcDbArc
 50
181.375113
 51
194.441574
  0
LINE
  5
20B69
100
AcDbEntity
  8
0
100
AcDbLine
 10
1016.570882
 20
771.151169
 30
0.0
 11
1016.570882
 21
783.221637
 31
0.0
  0
LINE
  5
20B6A
100
AcDbEntity
  8
0
100
AcDbLine
 10
1016.570882
 20
771.151169
 30
0.0
 11
1016.570882
 21
783.221637
 31
0.0
  0
ARC
  5
20B6B
100
AcDbEntity
  8
0
100
AcDbCircle
 10
1013.823835
 20
787.221637
 30
0.0
 40
3.0
100
AcDbArc
 50
209.547878
 51
270.0
  0
ARC
  5
20B6C
100
AcDbEntity
  8
0
100
AcDbCircle
 10
1013.823835
 20
787.221637
 30
0.0
 40
3.0
100
AcDbArc
 50
209.547878
 51
270.0
  0
ARC
  5
20B6D
100
AcDbEntity
  8
0
100
AcDbCircle
 10
1015.570882
 20
783.221637
 30
0.0
 40
1.0
100
AcDbArc
 50
0.0
 51
90.0
  0
LINE
  5
20B6E
100
AcDbEntity
  8
0
100
AcDbLine
 10
1015.570882
 20
784.221637
 30
0.0
 11
1013.823835
 21
784.221637
 31
0.0
  0
ARC
  5
20B6F
100
AcDbEntity
  8
0
100
AcDbCircle
 10
1015.570882
 20
783.221637
 30
0.0
 40
1.0
100
AcDbArc
 50
0.0
 51
90.0
  0
LINE
  5
20B70
100
AcDbEntity
  8
0
100
AcDbLine
 10
1015.570882
 20
784.221637
 30
0.0
 11
1013.823835
 21
784.221637
 31
0.0
  0
ARC
  5
20B71
100
AcDbEntity
  8
0
100
AcDbCircle
 10
1066.418039
 20
784.721637
 30
0.0
 40
8.5
100
AcDbArc
 50
90.0
 51
180.0
  0
LINE
  5
20B72
100
AcDbEntity
  8
0
100
AcDbLine
 10
982.070882
 20
822.221637
 30
0.0
 11
1004.070882
 21
822.221637
 31
0.0
  0
ARC
  5
20B73
100
AcDbEntity
  8
0
100
AcDbCircle
 10
961.358567
 20
799.221637
 30
0.0
 40
2.0
100
AcDbArc
 50
45.0
 51
90.0
  0
ARC
  5
20B74
100
AcDbEntity
  8
0
100
AcDbCircle
 10
961.358567
 20
817.221637
 30
0.0
 40
2.0
100
AcDbArc
 50
270.0
 51
315.0
  0
LINE
  5
20B75
100
AcDbEntity
  8
0
100
AcDbLine
 10
961.070882
 20
801.221637
 30
0.0
 11
961.358567
 21
801.221637
 31
0.0
  0
ARC
  5
20B76
100
AcDbEntity
  8
0
100
AcDbCircle
 10
961.070882
 20
803.221637
 30
0.0
 40
2.0
100
AcDbArc
 50
180.0
 51
270.0
  0
ARC
  5
20B77
100
AcDbEntity
  8
0
100
AcDbCircle
 10
961.070882
 20
813.221637
 30
0.0
 40
2.0
100
AcDbArc
 50
90.0
 51
180.0
  0
LINE
  5
20B78
100
AcDbEntity
  8
0
100
AcDbLine
 10
961.070882
 20
815.221637
 30
0.0
 11
961.358567
 21
815.221637
 31
0.0
  0
LINE
  5
20B79
100
AcDbEntity
  8
0
100
AcDbLine
 10
961.358567
 20
814.086623
 30
0.0
 11
961.358567
 21
802.356651
 31
0.0
  0
LINE
  5
20B7A
100
AcDbEntity
  8
0
100
AcDbLine
 10
982.070882
 20
822.221637
 30
0.0
 11
960.070882
 21
822.221637
 31
0.0
  0
LINE
  5
20B7B
100
AcDbEntity
  8
0
100
AcDbLine
 10
960.070882
 20
822.221637
 30
0.0
 11
959.070882
 21
821.221637
 31
0.0
  0
LINE
  5
20B7C
100
AcDbEntity
  8
0
100
AcDbLine
 10
960.070882
 20
822.221637
 30
0.0
 11
959.070882
 21
821.221637
 31
0.0
  0
ARC
  5
20B7D
100
AcDbEntity
  8
0
100
AcDbCircle
 10
1002.783198
 20
817.221637
 30
0.0
 40
2.0
100
AcDbArc
 50
225.0
 51
270.0
  0
LINE
  5
20B7E
100
AcDbEntity
  8
0
100
AcDbLine
 10
1002.783198
 20
814.086623
 30
0.0
 11
1002.783198
 21
802.356651
 31
0.0
  0
LINE
  5
20B7F
100
AcDbEntity
  8
0
100
AcDbLine
 10
1003.070882
 20
815.221637
 30
0.0
 11
1002.783198
 21
815.221637
 31
0.0
  0
ARC
  5
20B80
100
AcDbEntity
  8
0
100
AcDbCircle
 10
1003.070882
 20
813.221637
 30
0.0
 40
2.0
100
AcDbArc
 50
360.0
 51
90.0
  0
ARC
  5
20B81
100
AcDbEntity
  8
0
100
AcDbCircle
 10
1003.070882
 20
803.221637
 30
0.0
 40
2.0
100
AcDbArc
 50
270.0
 51
0.0
  0
ARC
  5
20B82
100
AcDbEntity
  8
0
100
AcDbCircle
 10
1002.783198
 20
799.221637
 30
0.0
 40
2.0
100
AcDbArc
 50
90.0
 51
135.0
  0
LINE
  5
20B83
100
AcDbEntity
  8
0
100
AcDbLine
 10
1003.070882
 20
801.221637
 30
0.0
 11
1002.783198
 21
801.221637
 31
0.0
  0
LINE
  5
20B84
100
AcDbEntity
  8
0
100
AcDbLine
 10
1004.070882
 20
822.221637
 30
0.0
 11
1005.070882
 21
821.221637
 31
0.0
  0
ARC
  5
20B85
100
AcDbEntity
  8
0
100
AcDbCircle
 10
1075.76442
 20
954.324957
 30
0.0
 40
11.5
100
AcDbArc
 50
90.0
 51
153.064225
  0
ARC
  5
20B86
100
AcDbEntity
  8
0
100
AcDbCircle
 10
1127.918039
 20
927.824957
 30
0.0
 40
70.0
100
AcDbArc
 50
153.064225
 51
206.935775
  0
ARC
  5
20B87
100
AcDbEntity
  8
0
100
AcDbCircle
 10
1075.76442
 20
901.324957
 30
0.0
 40
11.5
100
AcDbArc
 50
206.935775
 51
270.0
  0
LINE
  5
20B88
100
AcDbEntity
  8
0
100
AcDbLine
 10
1063.654973
 20
1042.82838
 30
0.0
 11
1066.44336
 21
1042.081234
 31
0.0
  0
LINE
  5
20B89
100
AcDbEntity
  8
0
100
AcDbLine
 10
1068.211127
 20
1040.313467
 30
0.0
 11
1068.918234
 21
1041.020574
 31
0.0
  0
LINE
  5
20B8A
100
AcDbEntity
  8
0
100
AcDbLine
 10
1064.294483
 20
1030.715003
 30
0.0
 11
1066.442726
 21
1028.56676
 31
0.0
  0
LINE
  5
20B8B
100
AcDbEntity
  8
0
100
AcDbLine
 10
1070.031416
 20
1036.451936
 30
0.0
 11
1064.294483
 21
1030.715003
 31
0.0
  0
LINE
  5
20B8C
100
AcDbEntity
  8
0
100
AcDbLine
 10
1070.031416
 20
1036.451936
 30
0.0
 11
1072.17966
 21
1034.303693
 31
0.0
  0
LINE
  5
20B8D
100
AcDbEntity
  8
0
100
AcDbLine
 10
1072.17966
 20
1034.303693
 30
0.0
 11
1066.442726
 21
1028.56676
 31
0.0
  0
ARC
  5
20B8E
100
AcDbEntity
  8
0
100
AcDbCircle
 10
1062.37381
 20
1035.170774
 30
0.0
 40
7.764039
100
AcDbArc
 50
9.497951
 51
69.497951
  0
LINE
  5
20B8F
100
AcDbEntity
  8
0
100
AcDbLine
 10
1057.918039
 20
1037.091447
 30
0.0
 11
1058.665186
 21
1034.303059
 31
0.0
  0
ARC
  5
20B90
100
AcDbEntity
  8
0
100
AcDbCircle
 10
1065.575645
 20
1038.372609
 30
0.0
 40
7.764039
100
AcDbArc
 50
200.502049
 51
260.502049
  0
LINE
  5
20B91
100
AcDbEntity
  8
0
100
AcDbLine
 10
1063.654973
 20
1042.82838
 30
0.0
 11
1057.918039
 21
1037.091447
 31
0.0
  0
LINE
  5
20B92
100
AcDbEntity
  8
0
100
AcDbLine
 10
565.686381
 20
1074.684239
 30
0.0
 11
564.186381
 21
1074.684239
 31
0.0
  0
LINE
  5
20B93
100
AcDbEntity
  8
0
100
AcDbLine
 10
565.686381
 20
1072.343436
 30
0.0
 11
552.686381
 21
1072.343436
 31
0.0
  0
INSERT
  5
20B94
100
AcDbEntity
  8
0
100
AcDbBlockReference
  2
YA
 10
542.686381
 20
1100.087177
 30
0.0
 41
-1.630435
 42
1.630435
 43
1.630435
 50
90.0
  0
LINE
  5
20B95
100
AcDbEntity
  8
0
100
AcDbLine
 10
523.186381
 20
1092.684239
 30
0.0
 11
523.186381
 21
1077.947695
 31
0.0
  0
LINE
  5
20B96
100
AcDbEntity
  8
0
100
AcDbLine
 10
550.686381
 20
1087.684239
 30
0.0
 11
550.686381
 21
1077.684239
 31
0.0
  0
LINE
  5
20B97
100
AcDbEntity
  8
0
100
AcDbLine
 10
534.686381
 20
1087.684239
 30
0.0
 11
534.686381
 21
1077.684239
 31
0.0
  0
LINE
  5
20B98
100
AcDbEntity
  8
0
100
AcDbLine
 10
562.186381
 20
1092.684239
 30
0.0
 11
562.186381
 21
1076.684239
 31
0.0
  0
LINE
  5
20B99
100
AcDbEntity
  8
0
100
AcDbLine
 10
562.186381
 20
1090.184239
 30
0.0
 11
562.186381
 21
1076.684239
 31
0.0
  0
LINE
  5
20B9A
100
AcDbEntity
  8
0
100
AcDbLine
 10
523.186381
 20
1077.947695
 30
0.0
 11
497.077993
 21
1051.839307
 31
0.0
  0
LINE
  5
20B9B
100
AcDbEntity
  8
0
100
AcDbLine
 10
491.421139
 20
1044.768239
 30
0.0
 11
490.026945
 21
1045.141813
 31
0.0
  0
LINE
  5
20B9C
100
AcDbEntity
  8
0
100
AcDbLine
 10
491.421139
 20
1044.768239
 30
0.0
 11
492.128246
 21
1045.475346
 31
0.0
  0
LINE
  5
20B9D
100
AcDbEntity
  8
0
100
AcDbLine
 10
491.421139
 20
1046.182453
 30
0.0
 11
491.421139
 21
1049.01088
 31
0.0
  0
LINE
  5
20B9E
100
AcDbEntity
  8
0
100
AcDbLine
 10
491.421139
 20
1049.01088
 30
0.0
 11
494.249566
 21
1051.839307
 31
0.0
  0
ARC
  5
20B9F
100
AcDbEntity
  8
0
100
AcDbCircle
 10
495.66378
 20
1053.253521
 30
0.0
 40
2.0
100
AcDbArc
 50
225.0
 51
315.0
  0
LINE
  5
20BA0
100
AcDbEntity
  8
0
100
AcDbLine
 10
543.886381
 20
1044.184239
 30
0.0
 11
528.686381
 21
1044.184239
 31
0.0
  0
LINE
  5
20BA1
100
AcDbEntity
  8
0
100
AcDbLine
 10
545.386381
 20
1060.184239
 30
0.0
 11
536.186381
 21
1060.184239
 31
0.0
  0
ARC
  5
20BA2
100
AcDbEntity
  8
0
100
AcDbCircle
 10
549.941207
 20
1058.37632
 30
0.0
 40
3.654827
100
AcDbArc
 50
145.615753
 51
214.384247
  0
LINE
  5
20BA3
100
AcDbEntity
  8
0
100
AcDbLine
 10
546.286381
 20
1045.034239
 30
0.0
 11
546.286381
 21
1059.334239
 31
0.0
  0
ARC
  5
20BA4
100
AcDbEntity
  8
0
100
AcDbCircle
 10
559.947768
 20
1052.184239
 30
0.0
 40
13.661388
100
AcDbArc
 50
162.412046
 51
197.587954
  0
LINE
  5
20BA5
100
AcDbEntity
  8
0
100
AcDbLine
 10
546.286381
 20
1059.334239
 30
0.0
 11
546.924993
 21
1060.440348
 31
0.0
  0
LINE
  5
20BA6
100
AcDbEntity
  8
0
100
AcDbLine
 10
546.924993
 20
1056.312293
 30
0.0
 11
552.686381
 21
1056.312293
 31
0.0
  0
LINE
  5
20BA7
100
AcDbEntity
  8
0
100
AcDbLine
 10
546.924993
 20
1048.056184
 30
0.0
 11
552.686381
 21
1048.056184
 31
0.0
  0
LINE
  5
20BA8
100
AcDbEntity
  8
0
100
AcDbLine
 10
546.924993
 20
1060.440348
 30
0.0
 11
552.686381
 21
1060.440348
 31
0.0
  0
LINE
  5
20BA9
100
AcDbEntity
  8
0
100
AcDbLine
 10
534.686381
 20
1077.684239
 30
0.0
 11
550.686381
 21
1077.684239
 31
0.0
  0
LINE
  5
20BAA
100
AcDbEntity
  8
0
100
AcDbLine
 10
562.186381
 20
1074.684239
 30
0.0
 11
552.686381
 21
1072.343436
 31
0.0
  0
ARC
  5
20BAB
100
AcDbEntity
  8
0
100
AcDbCircle
 10
564.186381
 20
1076.684239
 30
0.0
 40
2.0
100
AcDbArc
 50
180.0
 51
270.0
  0
LINE
  5
20BAC
100
AcDbEntity
  8
0
100
AcDbLine
 10
542.686381
 20
1094.184239
 30
0.0
 11
560.686381
 21
1094.184239
 31
0.0
  0
LINE
  5
20BAD
100
AcDbEntity
  8
0
100
AcDbLine
 10
534.686381
 20
1087.684239
 30
0.0
 11
550.686381
 21
1087.684239
 31
0.0
  0
LINE
  5
20BAE
100
AcDbEntity
  8
0
100
AcDbLine
 10
523.186381
 20
1092.684239
 30
0.0
 11
524.686381
 21
1094.184239
 31
0.0
  0
LINE
  5
20BAF
100
AcDbEntity
  8
0
100
AcDbLine
 10
524.686381
 20
1094.184239
 30
0.0
 11
542.686381
 21
1094.184239
 31
0.0
  0
LINE
  5
20BB0
100
AcDbEntity
  8
0
100
AcDbLine
 10
560.686381
 20
1094.184239
 30
0.0
 11
562.186381
 21
1092.684239
 31
0.0
  0
LINE
  5
20BB1
100
AcDbEntity
  8
0
100
AcDbLine
 10
608.686381
 20
1076.184239
 30
0.0
 11
678.186381
 21
1076.184239
 31
0.0
  0
LINE
  5
20BB2
100
AcDbEntity
  8
0
100
AcDbLine
 10
582.336381
 20
1069.684239
 30
0.0
 11
582.336381
 21
1085.684239
 31
0.0
  0
ARC
  5
20BB3
100
AcDbEntity
  8
0
100
AcDbCircle
 10
608.686381
 20
1067.684239
 30
0.0
 40
8.5
100
AcDbArc
 50
90.0
 51
180.0
  0
LINE
  5
20BB4
100
AcDbEntity
  8
0
100
AcDbLine
 10
584.472868
 20
1056.086739
 30
0.0
 11
583.976346
 21
1056.946739
 31
0.0
  0
LINE
  5
20BB5
100
AcDbEntity
  8
0
100
AcDbLine
 10
584.472868
 20
1048.281739
 30
0.0
 11
583.976346
 21
1047.421739
 31
0.0
  0
LINE
  5
20BB6
100
AcDbEntity
  8
0
100
AcDbLine
 10
584.472868
 20
1048.281739
 30
0.0
 11
584.472868
 21
1056.086739
 31
0.0
  0
LINE
  5
20BB7
100
AcDbEntity
  8
0
100
AcDbLine
 10
583.976346
 20
1056.946739
 30
0.0
 11
582.436381
 21
1056.946739
 31
0.0
  0
LINE
  5
20BB8
100
AcDbEntity
  8
0
100
AcDbLine
 10
583.976346
 20
1047.421739
 30
0.0
 11
582.436381
 21
1047.421739
 31
0.0
  0
LINE
  5
20BB9
100
AcDbEntity
  8
0
100
AcDbLine
 10
565.686381
 20
1047.421739
 30
0.0
 11
569.336381
 21
1047.421739
 31
0.0
  0
LINE
  5
20BBA
100
AcDbEntity
  8
0
100
AcDbLine
 10
565.686381
 20
1056.946739
 30
0.0
 11
569.336381
 21
1056.946739
 31
0.0
  0
LINE
  5
20BBB
100
AcDbEntity
  8
0
100
AcDbLine
 10
582.336381
 20
1069.684239
 30
0.0
 11
590.186381
 21
1069.684239
 31
0.0
  0
LINE
  5
20BBC
100
AcDbEntity
  8
0
100
AcDbLine
 10
565.686381
 20
1069.684239
 30
0.0
 11
569.336381
 21
1069.684239
 31
0.0
  0
ARC
  5
20BBD
100
AcDbEntity
  8
0
100
AcDbCircle
 10
601.165568
 20
1066.905273
 30
0.0
 40
2.52349
100
AcDbArc
 50
111.213175
 51
173.653128
  0
LINE
  5
20BBE
100
AcDbEntity
  8
0
100
AcDbLine
 10
590.186381
 20
1067.184239
 30
0.0
 11
598.657545
 21
1067.184239
 31
0.0
  0
LINE
  5
20BBF
100
AcDbEntity
  8
0
100
AcDbLine
 10
582.336381
 20
1085.684239
 30
0.0
 11
569.336381
 21
1085.684239
 31
0.0
  0
ARC
  5
20BC0
100
AcDbEntity
  8
0
100
AcDbCircle
 10
678.186381
 20
1067.684239
 30
0.0
 40
8.5
100
AcDbArc
 50
0.0
 51
90.0
  0
LINE
  5
20BC1
100
AcDbEntity
  8
0
100
AcDbLine
 10
1066.796914
 20
1044.556107
 30
0.0
 11
1070.332448
 21
1048.091641
 31
0.0
  0
LINE
  5
20BC2
100
AcDbEntity
  8
0
100
AcDbLine
 10
1070.332448
 20
1048.091641
 30
0.0
 11
1071.918234
 21
1048.091641
 31
0.0
  0
LINE
  5
20BC3
100
AcDbEntity
  8
0
100
AcDbLine
 10
1074.039554
 20
1048.970321
 30
0.0
 11
1074.576656
 21
1049.507422
 31
0.0
  0
ARC
  5
20BC4
100
AcDbEntity
  8
0
100
AcDbCircle
 10
1071.918234
 20
1051.091641
 30
0.0
 40
3.0
100
AcDbArc
 50
270.0
 51
315.0
  0
TEXT
  5
20BC5
100
AcDbEntity
  8
0
100
AcDbText
 10
1181.264322
 20
669.17112
 30
0.0
 40
15.0
  1
25A
 72
     4
 11
1201.264322
 21
676.67112
 31
0.0
100
AcDbText
  0
LINE
  5
20BC6
100
AcDbEntity
  8
0
100
AcDbLine
 10
1138.309316
 20
1045.034239
 30
0.0
 11
1138.947928
 21
1043.92813
 31
0.0
  0
ARC
  5
20BC7
100
AcDbEntity
  8
0
100
AcDbCircle
 10
1141.964143
 20
1045.992157
 30
0.0
 40
3.654827
100
AcDbArc
 50
145.615753
 51
214.384247
  0
LINE
  5
20BC8
100
AcDbEntity
  8
0
100
AcDbLine
 10
1175.359316
 20
1018.684239
 30
0.0
 11
1175.359316
 21
1085.684239
 31
0.0
  0
LINE
  5
20BC9
100
AcDbEntity
  8
0
100
AcDbLine
 10
1183.209316
 20
1069.684239
 30
0.0
 11
1183.209316
 21
1034.684239
 31
0.0
  0
LINE
  5
20BCA
100
AcDbEntity
  8
0
100
AcDbLine
 10
1193.209316
 20
1067.684239
 30
0.0
 11
1193.209316
 21
1036.684239
 31
0.0
  0
LINE
  5
20BCB
100
AcDbEntity
  8
0
100
AcDbLine
 10
1191.680481
 20
1067.184239
 30
0.0
 11
1191.680481
 21
1037.184239
 31
0.0
  0
LINE
  5
20BCC
100
AcDbEntity
  8
0
100
AcDbLine
 10
1158.709316
 20
1029.684239
 30
0.0
 11
1158.709316
 21
1074.684239
 31
0.0
  0
LINE
  5
20BCD
100
AcDbEntity
  8
0
100
AcDbLine
 10
1162.359316
 20
1018.684239
 30
0.0
 11
1162.359316
 21
1085.684239
 31
0.0
  0
LINE
  5
20BCE
100
AcDbEntity
  8
0
100
AcDbLine
 10
1144.709316
 20
1032.025042
 30
0.0
 11
1144.709316
 21
1072.343436
 31
0.0
  0
LINE
  5
20BCF
100
AcDbEntity
  8
0
100
AcDbLine
 10
1279.709316
 20
1067.684239
 30
0.0
 11
1279.709316
 21
1036.684239
 31
0.0
  0
LINE
  5
20BD0
100
AcDbEntity
  8
0
100
AcDbLine
 10
1244.273898
 20
730.167294
 30
0.0
 11
1250.010831
 21
724.43036
 31
0.0
  0
ARC
  5
20BD1
100
AcDbEntity
  8
0
100
AcDbCircle
 10
1251.931504
 20
728.886131
 30
0.0
 40
7.764039
100
AcDbArc
 50
99.497951
 51
159.497951
  0
LINE
  5
20BD2
100
AcDbEntity
  8
0
100
AcDbLine
 10
1240.42485
 20
739.673196
 30
0.0
 11
1264.466481
 21
763.714826
 31
0.0
  0
LINE
  5
20BD3
100
AcDbEntity
  8
0
100
AcDbLine
 10
1271.183995
 20
759.118632
 30
0.0
 11
1245.021044
 21
732.955681
 31
0.0
  0
LINE
  5
20BD4
100
AcDbEntity
  8
0
100
AcDbLine
 10
1243.960384
 20
733.309235
 30
0.0
 11
1270.830442
 21
760.179292
 31
0.0
  0
ARC
  5
20BD5
100
AcDbEntity
  8
0
100
AcDbCircle
 10
1176.573108
 20
708.772629
 30
0.0
 40
104.0
100
AcDbArc
 50
33.745287
 51
57.966943
  0
LINE
  5
20BD6
100
AcDbEntity
  8
0
100
AcDbLine
 10
1162.268039
 20
786.721637
 30
0.0
 11
1162.268039
 21
802.721637
 31
0.0
  0
LINE
  5
20BD7
100
AcDbEntity
  8
0
100
AcDbLine
 10
1162.268039
 20
735.721637
 30
0.0
 11
1162.268039
 21
802.721637
 31
0.0
  0
LINE
  5
20BD8
100
AcDbEntity
  8
0
100
AcDbLine
 10
1175.268039
 20
735.721637
 30
0.0
 11
1175.268039
 21
802.721637
 31
0.0
  0
LINE
  5
20BD9
100
AcDbEntity
  8
0
100
AcDbLine
 10
1182.918039
 20
793.721637
 30
0.0
 11
1182.918039
 21
821.221637
 31
0.0
  0
ARC
  5
20BDA
100
AcDbEntity
  8
0
100
AcDbCircle
 10
1234.918039
 20
802.024273
 30
0.0
 40
6.0
100
AcDbArc
 50
180.0
 51
237.966943
  0
LINE
  5
20BDB
100
AcDbEntity
  8
0
100
AcDbLine
 10
1162.268039
 20
786.721637
 30
0.0
 11
1154.418039
 21
786.721637
 31
0.0
  0
LINE
  5
20BDC
100
AcDbEntity
  8
0
100
AcDbLine
 10
1161.628074
 20
773.984137
 30
0.0
 11
1162.268039
 21
773.984137
 31
0.0
  0
LINE
  5
20BDD
100
AcDbEntity
  8
0
100
AcDbLine
 10
1161.628074
 20
764.459137
 30
0.0
 11
1162.268039
 21
764.459137
 31
0.0
  0
LINE
  5
20BDE
100
AcDbEntity
  8
0
100
AcDbLine
 10
1162.268039
 20
751.721637
 30
0.0
 11
1154.418039
 21
751.721637
 31
0.0
  0
LINE
  5
20BDF
100
AcDbEntity
  8
0
100
AcDbLine
 10
1154.418039
 20
786.721637
 30
0.0
 11
1154.418039
 21
751.721637
 31
0.0
  0
LINE
  5
20BE0
100
AcDbEntity
  8
0
100
AcDbLine
 10
1144.418039
 20
784.721637
 30
0.0
 11
1144.418039
 21
753.721637
 31
0.0
  0
LINE
  5
20BE1
100
AcDbEntity
  8
0
100
AcDbLine
 10
1145.946875
 20
784.221637
 30
0.0
 11
1145.946875
 21
754.221637
 31
0.0
  0
LINE
  5
20BE2
100
AcDbEntity
  8
0
100
AcDbLine
 10
1119.897224
 20
717.221637
 30
0.0
 11
1082.438855
 21
717.221637
 31
0.0
  0
ARC
  5
20BE3
100
AcDbEntity
  8
0
100
AcDbCircle
 10
1135.361653
 20
739.064745
 30
0.0
 40
7.0
100
AcDbArc
 50
315.0
 51
345.493227
  0
LINE
  5
20BE4
100
AcDbEntity
  8
0
100
AcDbLine
 10
1125.907632
 20
719.711229
 30
0.0
 11
1140.3114
 21
734.114998
 31
0.0
  0
ARC
  5
20BE5
100
AcDbEntity
  8
0
100
AcDbCircle
 10
1119.897224
 20
725.721637
 30
0.0
 40
8.5
100
AcDbArc
 50
270.0
 51
315.0
  0
LINE
  5
20BE6
100
AcDbEntity
  8
0
100
AcDbLine
 10
1154.418039
 20
754.221637
 30
0.0
 11
1145.946875
 21
754.221637
 31
0.0
  0
ARC
  5
20BE7
100
AcDbEntity
  8
0
100
AcDbCircle
 10
1071.631824
 20
755.46886
 30
0.0
 40
72.807184
100
AcDbArc
 50
345.558426
 51
358.624887
  0
ARC
  5
20BE8
100
AcDbEntity
  8
0
100
AcDbCircle
 10
1143.438852
 20
754.500602
 30
0.0
 40
2.52349
100
AcDbArc
 50
291.213175
 51
353.653128
  0
LINE
  5
20BE9
100
AcDbEntity
  8
0
100
AcDbLine
 10
1161.131552
 20
773.124137
 30
0.0
 11
1161.628074
 21
773.984137
 31
0.0
  0
LINE
  5
20BEA
100
AcDbEntity
  8
0
100
AcDbLine
 10
1161.131552
 20
765.319137
 30
0.0
 11
1161.628074
 21
764.459137
 31
0.0
  0
LINE
  5
20BEB
100
AcDbEntity
  8
0
100
AcDbLine
 10
1161.131552
 20
765.319137
 30
0.0
 11
1161.131552
 21
773.124137
 31
0.0
  0
ARC
  5
20BEC
100
AcDbEntity
  8
0
100
AcDbCircle
 10
1135.918039
 20
784.721637
 30
0.0
 40
8.5
100
AcDbArc
 50
0.0
 51
90.0
  0
LINE
  5
20BED
100
AcDbEntity
  8
0
100
AcDbLine
 10
1154.418039
 20
784.221637
 30
0.0
 11
1145.946875
 21
784.221637
 31
0.0
  0
ARC
  5
20BEE
100
AcDbEntity
  8
0
100
AcDbCircle
 10
1143.438852
 20
783.942672
 30
0.0
 40
2.52349
100
AcDbArc
 50
6.346872
 51
68.786825
  0
LINE
  5
20BEF
100
AcDbEntity
  8
0
100
AcDbLine
 10
1178.918039
 20
746.721637
 30
0.0
 11
1178.918039
 21
791.721637
 31
0.0
  0
LINE
  5
20BF0
100
AcDbEntity
  8
0
100
AcDbLine
 10
1192.918039
 20
749.06244
 30
0.0
 11
1192.918039
 21
789.380834
 31
0.0
  0
LINE
  5
20BF1
100
AcDbEntity
  8
0
100
AcDbLine
 10
1183.918039
 20
726.221637
 30
0.0
 11
1205.918039
 21
726.221637
 31
0.0
  0
LINE
  5
20BF2
100
AcDbEntity
  8
0
100
AcDbLine
 10
1195.918039
 20
733.221637
 30
0.0
 11
1215.918039
 21
733.221637
 31
0.0
  0
LINE
  5
20BF3
100
AcDbEntity
  8
0
100
AcDbLine
 10
1195.918039
 20
747.221637
 30
0.0
 11
1215.918039
 21
747.221637
 31
0.0
  0
LINE
  5
20BF4
100
AcDbEntity
  8
0
100
AcDbLine
 10
1221.877298
 20
755.451332
 30
0.0
 11
1194.16075
 21
755.451332
 31
0.0
  0
LINE
  5
20BF5
100
AcDbEntity
  8
0
100
AcDbLine
 10
1195.918039
 20
747.221637
 30
0.0
 11
1195.918039
 21
733.221637
 31
0.0
  0
LINE
  5
20BF6
100
AcDbEntity
  8
0
100
AcDbLine
 10
1182.918039
 20
727.221637
 30
0.0
 11
1182.918039
 21
744.721637
 31
0.0
  0
LINE
  5
20BF7
100
AcDbEntity
  8
0
100
AcDbLine
 10
1182.918039
 20
727.221637
 30
0.0
 11
1183.918039
 21
726.221637
 31
0.0
  0
LINE
  5
20BF8
100
AcDbEntity
  8
0
100
AcDbLine
 10
1162.268039
 20
735.721637
 30
0.0
 11
1175.268039
 21
735.721637
 31
0.0
  0
ARC
  5
20BF9
100
AcDbEntity
  8
0
100
AcDbCircle
 10
1180.918039
 20
744.721637
 30
0.0
 40
2.0
100
AcDbArc
 50
0.0
 51
90.0
  0
LINE
  5
20BFA
100
AcDbEntity
  8
0
100
AcDbLine
 10
1182.418039
 20
746.557176
 30
0.0
 11
1192.918039
 21
749.06244
 31
0.0
  0
LINE
  5
20BFB
100
AcDbEntity
  8
0
100
AcDbLine
 10
1178.918039
 20
749.06244
 30
0.0
 11
1192.918039
 21
749.06244
 31
0.0
  0
LINE
  5
20BFC
100
AcDbEntity
  8
0
100
AcDbLine
 10
1180.918039
 20
746.721637
 30
0.0
 11
1178.918039
 21
746.721637
 31
0.0
  0
LINE
  5
20BFD
100
AcDbEntity
  8
0
100
AcDbLine
 10
1178.918039
 20
751.721637
 30
0.0
 11
1175.268039
 21
751.721637
 31
0.0
  0
LINE
  5
20BFE
100
AcDbEntity
  8
0
100
AcDbLine
 10
1242.546171
 20
733.309235
 30
0.0
 11
1239.010637
 21
736.844769
 31
0.0
  0
LINE
  5
20BFF
100
AcDbEntity
  8
0
100
AcDbLine
 10
1215.918039
 20
747.221637
 30
0.0
 11
1215.918039
 21
733.221637
 31
0.0
  0
LINE
  5
20C00
100
AcDbEntity
  8
0
100
AcDbLine
 10
1228.918039
 20
741.408438
 30
0.0
 11
1228.918039
 21
727.221637
 31
0.0
  0
LINE
  5
20C01
100
AcDbEntity
  8
0
100
AcDbLine
 10
1205.918039
 20
726.221637
 30
0.0
 11
1227.918039
 21
726.221637
 31
0.0
  0
LINE
  5
20C02
100
AcDbEntity
  8
0
100
AcDbLine
 10
1246.788811
 20
734.723448
 30
0.0
 11
1246.081705
 21
735.430555
 31
0.0
  0
LINE
  5
20C03
100
AcDbEntity
  8
0
100
AcDbLine
 10
1244.273898
 20
730.167294
 30
0.0
 11
1245.021044
 21
732.955681
 31
0.0
  0
LINE
  5
20C04
100
AcDbEntity
  8
0
100
AcDbLine
 10
1242.546171
 20
733.309235
 30
0.0
 11
1243.960384
 21
733.309235
 31
0.0
  0
LINE
  5
20C05
100
AcDbEntity
  8
0
100
AcDbLine
 10
1228.918039
 20
727.221637
 30
0.0
 11
1227.918039
 21
726.221637
 31
0.0
  0
ARC
  5
20C06
100
AcDbEntity
  8
0
100
AcDbCircle
 10
1295.367047
 20
827.566569
 30
0.0
 40
104.0
100
AcDbArc
 50
233.631137
 51
236.307687
  0
ARC
  5
20C07
100
AcDbEntity
  8
0
100
AcDbCircle
 10
1236.010637
 20
738.539513
 30
0.0
 40
3.0
100
AcDbArc
 50
0.0
 51
56.307687
  0
LINE
  5
20C08
100
AcDbEntity
  8
0
100
AcDbLine
 10
1239.010637
 20
736.844769
 30
0.0
 11
1239.010637
 21
738.539513
 31
0.0
  0
ARC
  5
20C09
100
AcDbEntity
  8
0
100
AcDbCircle
 10
1231.918039
 20
741.408438
 30
0.0
 40
3.0
100
AcDbArc
 50
53.631137
 51
180.0
  0
LINE
  5
20C0A
100
AcDbEntity
  8
0
100
AcDbLine
 10
1217.675329
 20
782.991942
 30
0.0
 11
1194.16075
 21
782.991942
 31
0.0
  0
LINE
  5
20C0B
100
AcDbEntity
  8
0
100
AcDbLine
 10
1178.918039
 20
773.984137
 30
0.0
 11
1175.268039
 21
773.984137
 31
0.0
  0
LINE
  5
20C0C
100
AcDbEntity
  8
0
100
AcDbLine
 10
1178.918039
 20
764.459137
 30
0.0
 11
1175.268039
 21
764.459137
 31
0.0
  0
LINE
  5
20C0D
100
AcDbEntity
  8
0
100
AcDbLine
 10
1199.318039
 20
776.371637
 30
0.0
 11
1198.679427
 21
777.477746
 31
0.0
  0
LINE
  5
20C0E
100
AcDbEntity
  8
0
100
AcDbLine
 10
1198.679427
 20
777.477746
 30
0.0
 11
1192.918039
 21
777.477746
 31
0.0
  0
LINE
  5
20C0F
100
AcDbEntity
  8
0
100
AcDbLine
 10
1199.318039
 20
762.071637
 30
0.0
 11
1198.679427
 21
760.965528
 31
0.0
  0
ARC
  5
20C10
100
AcDbEntity
  8
0
100
AcDbCircle
 10
1195.663213
 20
763.029555
 30
0.0
 40
3.654827
100
AcDbArc
 50
325.615753
 51
34.384247
  0
ARC
  5
20C11
100
AcDbEntity
  8
0
100
AcDbCircle
 10
1185.656652
 20
769.221637
 30
0.0
 40
13.661388
100
AcDbArc
 50
342.412046
 51
17.587954
  0
LINE
  5
20C12
100
AcDbEntity
  8
0
100
AcDbLine
 10
1198.679427
 20
773.349692
 30
0.0
 11
1192.918039
 21
773.349692
 31
0.0
  0
LINE
  5
20C13
100
AcDbEntity
  8
0
100
AcDbLine
 10
1198.679427
 20
760.965528
 30
0.0
 11
1192.918039
 21
760.965528
 31
0.0
  0
LINE
  5
20C14
100
AcDbEntity
  8
0
100
AcDbLine
 10
1198.679427
 20
765.093583
 30
0.0
 11
1192.918039
 21
765.093583
 31
0.0
  0
ARC
  5
20C15
100
AcDbEntity
  8
0
100
AcDbCircle
 10
1195.663213
 20
775.413719
 30
0.0
 40
3.654827
100
AcDbArc
 50
325.615753
 51
34.384247
  0
LINE
  5
20C16
100
AcDbEntity
  8
0
100
AcDbLine
 10
1199.318039
 20
762.071637
 30
0.0
 11
1199.318039
 21
776.371637
 31
0.0
  0
ARC
  5
20C17
100
AcDbEntity
  8
0
100
AcDbCircle
 10
1180.918039
 20
793.721637
 30
0.0
 40
2.0
100
AcDbArc
 50
270.0
 51
0.0
  0
LINE
  5
20C19
100
AcDbEntity
  8
0
100
AcDbLine
 10
1178.918039
 20
789.380834
 30
0.0
 11
1192.918039
 21
789.380834
 31
0.0
  0
LINE
  5
20C1A
100
AcDbEntity
  8
0
100
AcDbLine
 10
1180.918039
 20
791.721637
 30
0.0
 11
1178.918039
 21
791.721637
 31
0.0
  0
LINE
  5
20C1B
100
AcDbEntity
  8
0
100
AcDbLine
 10
1178.918039
 20
786.721637
 30
0.0
 11
1175.268039
 21
786.721637
 31
0.0
  0
INSERT
  5
20C1C
100
AcDbEntity
  8
0
100
AcDbBlockReference
  2
YA
 10
1205.918039
 20
828.124575
 30
0.0
 41
-1.630435
 42
1.630435
 43
1.630435
 50
90.0
  0
LINE
  5
20C1D
100
AcDbEntity
  8
0
100
AcDbLine
 10
1205.918039
 20
822.221637
 30
0.0
 11
1183.918039
 21
822.221637
 31
0.0
  0
LINE
  5
20C1E
100
AcDbEntity
  8
0
100
AcDbLine
 10
1195.918039
 20
815.221637
 30
0.0
 11
1215.918039
 21
815.221637
 31
0.0
  0
LINE
  5
20C1F
100
AcDbEntity
  8
0
100
AcDbLine
 10
1195.918039
 20
801.221637
 30
0.0
 11
1215.918039
 21
801.221637
 31
0.0
  0
LINE
  5
20C20
100
AcDbEntity
  8
0
100
AcDbLine
 10
1162.268039
 20
802.721637
 30
0.0
 11
1175.268039
 21
802.721637
 31
0.0
  0
LINE
  5
20C21
100
AcDbEntity
  8
0
100
AcDbLine
 10
1195.918039
 20
801.221637
 30
0.0
 11
1195.918039
 21
815.221637
 31
0.0
  0
LINE
  5
20C22
100
AcDbEntity
  8
0
100
AcDbLine
 10
1183.918039
 20
822.221637
 30
0.0
 11
1182.918039
 21
821.221637
 31
0.0
  0
LINE
  5
20C23
100
AcDbEntity
  8
0
100
AcDbLine
 10
1228.918039
 20
802.024273
 30
0.0
 11
1228.918039
 21
821.221637
 31
0.0
  0
LINE
  5
20C24
100
AcDbEntity
  8
0
100
AcDbLine
 10
1215.918039
 20
801.221637
 30
0.0
 11
1215.918039
 21
815.221637
 31
0.0
  0
LINE
  5
20C25
100
AcDbEntity
  8
0
100
AcDbLine
 10
1205.918039
 20
822.221637
 30
0.0
 11
1227.918039
 21
822.221637
 31
0.0
  0
LINE
  5
20C26
100
AcDbEntity
  8
0
100
AcDbLine
 10
1227.918039
 20
822.221637
 30
0.0
 11
1228.918039
 21
821.221637
 31
0.0
  0
LINE
  5
20C27
100
AcDbEntity
  8
0
100
AcDbLine
 10
1376.445631
 20
790.340439
 30
0.0
 11
1376.445631
 21
821.221637
 31
0.0
  0
LINE
  5
20C28
100
AcDbEntity
  8
0
100
AcDbLine
 10
1330.445631
 20
790.340439
 30
0.0
 11
1330.445631
 21
821.221637
 31
0.0
  0
ELLIPSE
  5
20C29
100
AcDbEntity
  8
0
100
AcDbEllipse
 10
1353.445631
 20
787.679141
 30
0.0
 11
-17.52291503460766
 21
0.0000000000000166
 31
0.0
210
0.0
220
0.0
230
1.0
 40
0.81865
 41
3.494035181711411
 42
5.930742779057948
  0
ARC
  5
20C2A
100
AcDbEntity
  8
0
100
AcDbCircle
 10
1338.445631
 20
790.340439
 30
0.0
 40
8.0
100
AcDbArc
 50
180.0
 51
240.0
  0
POLYLINE
  5
20C2B
100
AcDbEntity
  8
0
100
AcDb2dPolyline
 66
     1
 10
0.0
 20
0.0
 30
0.0
  0
VERTEX
  5
2192C
100
AcDbEntity
  8
0
100
AcDbVertex
100
AcDb2dVertex
 10
1334.434319
 20
773.731577
 30
0.0
  0
VERTEX
  5
2192D
100
AcDbEntity
  8
0
100
AcDbVertex
100
AcDb2dVertex
 10
1327.946695
 20
777.477208
 30
0.0
  0
VERTEX
  5
2192E
100
AcDbEntity
  8
0
100
AcDbVertex
100
AcDb2dVertex
 10
1320.796695
 20
773.349154
 30
0.0
  0
VERTEX
  5
2192F
100
AcDbEntity
  8
0
100
AcDbVertex
100
AcDb2dVertex
 10
1320.796695
 20
765.093045
 30
0.0
  0
VERTEX
  5
21930
100
AcDbEntity
  8
0
100
AcDbVertex
100
AcDb2dVertex
 10
1327.946695
 20
760.964991
 30
0.0
  0
VERTEX
  5
21931
100
AcDbEntity
  8
0
100
AcDbVertex
100
AcDb2dVertex
 10
1334.552643
 20
764.778936
 30
0.0
  0
SEQEND
  5
21932
100
AcDbEntity
  8
0
  0
ARC
  5
20C2C
100
AcDbEntity
  8
0
100
AcDbCircle
 10
1327.946695
 20
769.2211
 30
0.0
 40
6.750069
100
AcDbArc
 50
17.511975
 51
343.944189
  0
ARC
  5
20C2D
100
AcDbEntity
  8
0
100
AcDbCircle
 10
1338.445631
 20
748.102835
 30
0.0
 40
8.0
100
AcDbArc
 50
124.643441
 51
180.0
  0
ARC
  5
20C2E
100
AcDbEntity
  8
0
100
AcDbCircle
 10
1332.445631
 20
745.221637
 30
0.0
 40
2.0
100
AcDbArc
 50
90.0
 51
180.0
  0
ARC
  5
20C2F
100
AcDbEntity
  8
0
100
AcDbCircle
 10
1332.445631
 20
735.221637
 30
0.0
 40
2.0
100
AcDbArc
 50
180.0
 51
270.0
  0
ARC
  5
20C30
100
AcDbEntity
  8
0
100
AcDbCircle
 10
1353.445631
 20
755.221637
 30
0.0
 40
38.0
100
AcDbArc
 50
155.216022
 51
25.005001
  0
LINE
  5
20C31
100
AcDbEntity
  8
0
100
AcDbLine
 10
1331.445631
 20
726.221637
 30
0.0
 11
1347.469282
 21
726.221637
 31
0.0
  0
LINE
  5
20C32
100
AcDbEntity
  8
0
100
AcDbLine
 10
1318.945631
 20
755.221637
 30
0.0
 11
1318.945631
 21
783.221637
 31
0.0
  0
LINE
  5
20C33
100
AcDbEntity
  8
0
100
AcDbLine
 10
1318.945631
 20
755.221637
 30
0.0
 11
1318.945631
 21
783.221637
 31
0.0
  0
ARC
  5
20C34
100
AcDbEntity
  8
0
100
AcDbCircle
 10
1353.445631
 20
769.221637
 30
0.0
 40
33.5
100
AcDbArc
 50
133.358981
 51
226.641019
  0
ARC
  5
20C35
100
AcDbEntity
  8
0
100
AcDbCircle
 10
1275.253545
 20
752.208172
 30
0.0
 40
7.764039
100
AcDbArc
 50
110.502049
 51
170.502049
  0
LINE
  5
20C36
100
AcDbEntity
  8
0
100
AcDbLine
 10
1273.972383
 20
759.865778
 30
0.0
 11
1279.709316
 21
754.128845
 31
0.0
  0
LINE
  5
20C37
100
AcDbEntity
  8
0
100
AcDbLine
 10
1252.798585
 20
738.691981
 30
0.0
 11
1258.535518
 21
732.955047
 31
0.0
  0
LINE
  5
20C38
100
AcDbEntity
  8
0
100
AcDbLine
 10
1278.96217
 20
751.340458
 30
0.0
 11
1252.799219
 21
725.177507
 31
0.0
  0
ARC
  5
20C39
100
AcDbEntity
  8
0
100
AcDbCircle
 10
1245.774466
 20
758.36521
 30
0.0
 40
28.434501
100
AcDbArc
 50
296.665926
 51
333.334074
  0
LINE
  5
20C3A
100
AcDbEntity
  8
0
100
AcDbLine
 10
1250.650342
 20
736.543737
 30
0.0
 11
1256.387275
 21
730.806804
 31
0.0
  0
LINE
  5
20C3B
100
AcDbEntity
  8
0
100
AcDbLine
 10
1256.387275
 20
730.806804
 30
0.0
 11
1258.535518
 21
732.955047
 31
0.0
  0
ARC
  5
20C3C
100
AcDbEntity
  8
0
100
AcDbCircle
 10
1248.729669
 20
732.087966
 30
0.0
 40
7.764039
100
AcDbArc
 50
290.502049
 51
350.502049
  0
LINE
  5
20C3D
100
AcDbEntity
  8
0
100
AcDbLine
 10
1250.010831
 20
724.43036
 30
0.0
 11
1252.799219
 21
725.177507
 31
0.0
  0
LINE
  5
20C3E
100
AcDbEntity
  8
0
100
AcDbLine
 10
1265.447696
 20
751.341091
 30
0.0
 11
1271.184629
 21
745.604158
 31
0.0
  0
LINE
  5
20C3F
100
AcDbEntity
  8
0
100
AcDbLine
 10
1267.595939
 20
753.489335
 30
0.0
 11
1273.332872
 21
747.752401
 31
0.0
  0
ARC
  5
20C40
100
AcDbEntity
  8
0
100
AcDbCircle
 10
1278.208748
 20
725.930928
 30
0.0
 40
28.434501
100
AcDbArc
 50
116.665926
 51
153.334074
  0
LINE
  5
20C41
100
AcDbEntity
  8
0
100
AcDbLine
 10
1267.595939
 20
753.489335
 30
0.0
 11
1265.447696
 21
751.341091
 31
0.0
  0
LINE
  5
20C42
100
AcDbEntity
  8
0
100
AcDbLine
 10
1250.650342
 20
736.543737
 30
0.0
 11
1252.798585
 21
738.691981
 31
0.0
  0
ARC
  5
20C43
100
AcDbEntity
  8
0
100
AcDbCircle
 10
1272.05171
 20
755.410007
 30
0.0
 40
7.764039
100
AcDbArc
 50
279.497951
 51
339.497951
  0
LINE
  5
20C44
100
AcDbEntity
  8
0
100
AcDbLine
 10
1279.709316
 20
754.128845
 30
0.0
 11
1278.96217
 21
751.340458
 31
0.0
  0
LINE
  5
20C45
100
AcDbEntity
  8
0
100
AcDbLine
 10
1273.332872
 20
747.752401
 30
0.0
 11
1271.184629
 21
745.604158
 31
0.0
  0
LINE
  5
20C46
100
AcDbEntity
  8
0
100
AcDbLine
 10
1330.445631
 20
748.102835
 30
0.0
 11
1330.445631
 21
727.221637
 31
0.0
  0
LINE
  5
20C47
100
AcDbEntity
  8
0
100
AcDbLine
 10
1330.445631
 20
727.221637
 30
0.0
 11
1331.445631
 21
726.221637
 31
0.0
  0
ARC
  5
20C4A
100
AcDbEntity
  8
0
100
AcDbCircle
 10
1319.945631
 20
755.221637
 30
0.0
 40
1.0
100
AcDbArc
 50
180.0
 51
270.0
  0
ARC
  5
20C4B
100
AcDbEntity
  8
0
100
AcDbCircle
 10
1319.945631
 20
755.221637
 30
0.0
 40
1.0
100
AcDbArc
 50
180.0
 51
270.0
  0
LINE
  5
20C4C
100
AcDbEntity
  8
0
100
AcDbLine
 10
1319.945631
 20
754.221637
 30
0.0
 11
1321.692678
 21
754.221637
 31
0.0
  0
LINE
  5
20C4D
100
AcDbEntity
  8
0
100
AcDbLine
 10
1319.945631
 20
754.221637
 30
0.0
 11
1321.692678
 21
754.221637
 31
0.0
  0
ARC
  5
20C4E
100
AcDbEntity
  8
0
100
AcDbCircle
 10
1321.692678
 20
751.221637
 30
0.0
 40
3.0
100
AcDbArc
 50
29.547878
 51
90.0
  0
ARC
  5
20C4F
100
AcDbEntity
  8
0
100
AcDbCircle
 10
1321.692678
 20
751.221637
 30
0.0
 40
3.0
100
AcDbArc
 50
29.547878
 51
90.0
  0
LINE
  5
20C50
100
AcDbEntity
  8
0
100
AcDbLine
 10
1270.830442
 20
761.593506
 30
0.0
 11
1267.294908
 21
765.12904
 31
0.0
  0
LINE
  5
20C51
100
AcDbEntity
  8
0
100
AcDbLine
 10
1267.294908
 20
765.12904
 30
0.0
 11
1265.709122
 21
765.12904
 31
0.0
  0
LINE
  5
20C52
100
AcDbEntity
  8
0
100
AcDbLine
 10
1263.587801
 20
766.007719
 30
0.0
 11
1263.0507
 21
766.544821
 31
0.0
  0
ARC
  5
20C53
100
AcDbEntity
  8
0
100
AcDbCircle
 10
1265.709122
 20
768.12904
 30
0.0
 40
3.0
100
AcDbArc
 50
225.0
 51
270.0
  0
LINE
  5
20C54
100
AcDbEntity
  8
0
100
AcDbLine
 10
1269.416228
 20
757.350865
 30
0.0
 11
1268.709122
 21
758.057972
 31
0.0
  0
LINE
  5
20C55
100
AcDbEntity
  8
0
100
AcDbLine
 10
1270.830442
 20
761.593506
 30
0.0
 11
1270.830442
 21
760.179292
 31
0.0
  0
LINE
  5
20C56
100
AcDbEntity
  8
0
100
AcDbLine
 10
1273.972383
 20
759.865778
 30
0.0
 11
1271.183995
 21
759.118632
 31
0.0
  0
LINE
  5
20C59
100
AcDbEntity
  8
0
100
AcDbLine
 10
1319.945631
 20
784.221637
 30
0.0
 11
1321.692678
 21
784.221637
 31
0.0
  0
ARC
  5
20C5A
100
AcDbEntity
  8
0
100
AcDbCircle
 10
1319.945631
 20
783.221637
 30
0.0
 40
1.0
100
AcDbArc
 50
90.0
 51
180.0
  0
LINE
  5
20C5B
100
AcDbEntity
  8
0
100
AcDbLine
 10
1319.945631
 20
784.221637
 30
0.0
 11
1321.692678
 21
784.221637
 31
0.0
  0
ARC
  5
20C5C
100
AcDbEntity
  8
0
100
AcDbCircle
 10
1319.945631
 20
783.221637
 30
0.0
 40
1.0
100
AcDbArc
 50
90.0
 51
180.0
  0
ARC
  5
20C5D
100
AcDbEntity
  8
0
100
AcDbCircle
 10
1321.692678
 20
787.221637
 30
0.0
 40
3.0
100
AcDbArc
 50
270.0
 51
330.452122
  0
ARC
  5
20C5E
100
AcDbEntity
  8
0
100
AcDbCircle
 10
1321.692678
 20
787.221637
 30
0.0
 40
3.0
100
AcDbArc
 50
270.0
 51
330.452122
  0
ARC
  5
20C5F
100
AcDbEntity
  8
0
100
AcDbCircle
 10
1353.445631
 20
769.221637
 30
0.0
 40
33.5
100
AcDbArc
 50
313.358981
 51
46.641019
  0
LINE
  5
20C60
100
AcDbEntity
  8
0
100
AcDbLine
 10
1351.753245
 20
759.817479
 30
0.0
 11
1351.753245
 21
754.080546
 31
0.0
  0
LINE
  5
20C61
100
AcDbEntity
  8
0
100
AcDbLine
 10
1355.138017
 20
759.817479
 30
0.0
 11
1355.138017
 21
754.080546
 31
0.0
  0
POLYLINE
  5
20C62
100
AcDbEntity
  8
0
100
AcDb2dPolyline
 66
     1
 10
0.0
 20
0.0
 30
0.0
  0
VERTEX
  5
21933
100
AcDbEntity
  8
0
100
AcDbVertex
100
AcDb2dVertex
 10
1355.138017
 20
759.817479
 30
0.0
  0
VERTEX
  5
21934
100
AcDbEntity
  8
0
100
AcDbVertex
100
AcDb2dVertex
 10
1370.691598
 20
753.489335
 30
0.0
  0
SEQEND
  5
21935
100
AcDbEntity
  8
0
  0
ELLIPSE
  5
20C63
100
AcDbEntity
  8
0
100
AcDbEllipse
 10
1353.445631
 20
746.721637
 30
0.0
 11
-20.0
 21
0.0
 31
0.0
210
0.0
220
0.0
230
1.0
 40
0.707107
 41
2.82403222429789
 42
6.600745736470893
  0
ELLIPSE
  5
20C64
100
AcDbEntity
  8
0
100
AcDbEllipse
 10
1353.445631
 20
751.694011
 30
0.0
 11
-20.0
 21
0.0
 31
0.0
210
0.0
220
0.0
230
1.0
 40
0.707107
 41
3.141592653589793
 42
6.283185307179586
  0
POLYLINE
  5
20C65
100
AcDbEntity
  8
0
100
AcDb2dPolyline
 66
     1
 10
0.0
 20
0.0
 30
0.0
  0
VERTEX
  5
21936
100
AcDbEntity
  8
0
100
AcDbVertex
100
AcDb2dVertex
 10
1351.753245
 20
759.817479
 30
0.0
  0
VERTEX
  5
21937
100
AcDbEntity
  8
0
100
AcDbVertex
100
AcDb2dVertex
 10
1336.199664
 20
753.489335
 30
0.0
  0
SEQEND
  5
21938
100
AcDbEntity
  8
0
  0
ARC
  5
20C66
100
AcDbEntity
  8
0
100
AcDbCircle
 10
1368.445631
 20
748.102835
 30
0.0
 40
8.0
100
AcDbArc
 50
360.0
 51
55.356559
  0
ARC
  5
20C67
100
AcDbEntity
  8
0
100
AcDbCircle
 10
1374.445631
 20
745.221637
 30
0.0
 40
2.0
100
AcDbArc
 50
360.0
 51
90.0
  0
ARC
  5
20C68
100
AcDbEntity
  8
0
100
AcDbCircle
 10
1374.445631
 20
735.221637
 30
0.0
 40
2.0
100
AcDbArc
 50
270.0
 51
0.0
  0
LINE
  5
20C69
100
AcDbEntity
  8
0
100
AcDbLine
 10
1359.42198
 20
726.221637
 30
0.0
 11
1375.445631
 21
726.221637
 31
0.0
  0
POLYLINE
  5
20C6A
100
AcDbEntity
  8
0
100
AcDb2dPolyline
 66
     1
 10
0.0
 20
0.0
 30
0.0
  0
VERTEX
  5
21939
100
AcDbEntity
  8
0
100
AcDbVertex
100
AcDb2dVertex
 10
1372.445631
 20
732.955047
 30
0.0
  0
VERTEX
  5
2193A
100
AcDbEntity
  8
0
100
AcDbVertex
100
AcDb2dVertex
 10
1372.445631
 20
751.341091
 30
0.0
  0
SEQEND
  5
2193B
100
AcDbEntity
  8
0
  0
LINE
  5
20C6B
100
AcDbEntity
  8
0
100
AcDbLine
 10
1374.157946
 20
734.356651
 30
0.0
 11
1374.157946
 21
746.086623
 31
0.0
  0
POLYLINE
  5
20C6C
100
AcDbEntity
  8
0
100
AcDb2dPolyline
 66
     1
 10
0.0
 20
0.0
 30
0.0
  0
VERTEX
  5
2193C
100
AcDbEntity
  8
0
100
AcDbVertex
100
AcDb2dVertex
 10
1334.445631
 20
751.341091
 30
0.0
  0
VERTEX
  5
2193D
100
AcDbEntity
  8
0
100
AcDbVertex
100
AcDb2dVertex
 10
1334.445631
 20
732.955047
 30
0.0
  0
SEQEND
  5
2193E
100
AcDbEntity
  8
0
  0
LINE
  5
20C6D
100
AcDbEntity
  8
0
100
AcDbLine
 10
1332.733316
 20
734.356651
 30
0.0
 11
1332.733316
 21
746.086623
 31
0.0
  0
ELLIPSE
  5
20C6E
100
AcDbEntity
  8
0
100
AcDbEllipse
 10
1353.445631
 20
739.279603
 30
0.0
 11
-18.5
 21
0.0
 31
0.0
210
0.0
220
0.0
230
1.0
 40
0.707107
 41
0.0
 42
6.283185307179586
  0
ELLIPSE
  5
20C6F
100
AcDbEntity
  8
0
100
AcDbEllipse
 10
1353.445631
 20
739.279603
 30
0.0
 11
-21.0
 21
0.0
 31
0.0
210
0.0
220
0.0
230
-1.0
 40
0.707107
 41
4.631711697362801
 42
4.793066263406571
  0
ELLIPSE
  5
20C70
100
AcDbEntity
  8
0
100
AcDbEllipse
 10
1353.445631
 20
739.279603
 30
0.0
 11
-21.0
 21
0.0
 31
0.0
210
0.0
220
0.0
230
-1.0
 40
0.707107
 41
5.675963710774241
 42
5.843209352388812
  0
LINE
  5
20C71
100
AcDbEntity
  8
0
100
AcDbLine
 10
1332.445631
 20
733.221637
 30
0.0
 11
1332.733316
 21
733.221637
 31
0.0
  0
ARC
  5
20C72
100
AcDbEntity
  8
0
100
AcDbCircle
 10
1332.733316
 20
731.221637
 30
0.0
 40
2.0
100
AcDbArc
 50
45.0
 51
90.0
  0
POLYLINE
  5
20C73
100
AcDbEntity
  8
0
100
AcDb2dPolyline
 66
     1
 10
0.0
 20
0.0
 30
0.0
  0
VERTEX
  5
2193F
100
AcDbEntity
  8
0
100
AcDbVertex
100
AcDb2dVertex
 10
1351.753245
 20
724.47866
 30
0.0
  0
VERTEX
  5
21940
100
AcDbEntity
  8
0
100
AcDbVertex
100
AcDb2dVertex
 10
1336.199664
 20
730.806804
 30
0.0
  0
SEQEND
  5
21941
100
AcDbEntity
  8
0
  0
ELLIPSE
  5
20C74
100
AcDbEntity
  8
0
100
AcDbEllipse
 10
1353.445631
 20
739.279603
 30
0.0
 11
-21.0
 21
0.0
 31
0.0
210
0.0
220
0.0
230
-1.0
 40
0.707107
 41
3.581568608380711
 42
3.748814249995137
  0
ARC
  5
20C75
100
AcDbEntity
  8
0
100
AcDbCircle
 10
1374.157946
 20
731.221637
 30
0.0
 40
2.0
100
AcDbArc
 50
90.0
 51
135.0
  0
LINE
  5
20C76
100
AcDbEntity
  8
0
100
AcDbLine
 10
1374.445631
 20
733.221637
 30
0.0
 11
1374.157946
 21
733.221637
 31
0.0
  0
POLYLINE
  5
20C77
100
AcDbEntity
  8
0
100
AcDb2dPolyline
 66
     1
 10
0.0
 20
0.0
 30
0.0
  0
VERTEX
  5
21942
100
AcDbEntity
  8
0
100
AcDbVertex
100
AcDb2dVertex
 10
1355.138017
 20
724.47866
 30
0.0
  0
VERTEX
  5
21943
100
AcDbEntity
  8
0
100
AcDbVertex
100
AcDb2dVertex
 10
1370.691598
 20
730.806804
 30
0.0
  0
SEQEND
  5
21944
100
AcDbEntity
  8
0
  0
ELLIPSE
  5
20C78
100
AcDbEntity
  8
0
100
AcDbEllipse
 10
1353.445631
 20
739.279603
 30
0.0
 11
-21.0
 21
0.0
 31
0.0
210
0.0
220
0.0
230
1.0
 40
0.707107
 41
4.631711697362801
 42
4.793066263406571
  0
LINE
  5
20C79
100
AcDbEntity
  8
0
100
AcDbLine
 10
1336.199664
 20
753.489335
 30
0.0
 11
1336.199664
 21
747.752401
 31
0.0
  0
ELLIPSE
  5
20C7A
100
AcDbEntity
  8
0
100
AcDbEllipse
 10
1353.445631
 20
745.016536
 30
0.0
 11
-21.0
 21
0.0
 31
0.0
210
0.0
220
0.0
230
1.0
 40
0.707107
 41
5.675963710774241
 42
5.843209352388812
  0
ELLIPSE
  5
20C7B
100
AcDbEntity
  8
0
100
AcDbEllipse
 10
1353.445631
 20
739.279603
 30
0.0
 11
-21.0
 21
0.0
 31
0.0
210
0.0
220
0.0
230
1.0
 40
0.707107
 41
5.675963710774241
 42
5.843209352388812
  0
LINE
  5
20C7C
100
AcDbEntity
  8
0
100
AcDbLine
 10
1332.445631
 20
747.221637
 30
0.0
 11
1332.733316
 21
747.221637
 31
0.0
  0
ARC
  5
20C7D
100
AcDbEntity
  8
0
100
AcDbCircle
 10
1332.733316
 20
749.221637
 30
0.0
 40
2.0
100
AcDbArc
 50
270.0
 51
291.492096
  0
LINE
  5
20C7E
100
AcDbEntity
  8
0
100
AcDbLine
 10
1333.445631
 20
751.694011
 30
0.0
 11
1333.445631
 21
746.721637
 31
0.0
  0
POLYLINE
  5
20C7F
100
AcDbEntity
  8
0
100
AcDb2dPolyline
 66
     1
 10
0.0
 20
0.0
 30
0.0
  0
VERTEX
  5
21945
100
AcDbEntity
  8
0
100
AcDbVertex
100
AcDb2dVertex
 10
1351.753245
 20
754.080546
 30
0.0
  0
VERTEX
  5
21946
100
AcDbEntity
  8
0
100
AcDbVertex
100
AcDb2dVertex
 10
1336.199664
 20
747.752401
 30
0.0
  0
SEQEND
  5
21947
100
AcDbEntity
  8
0
  0
LINE
  5
20C80
100
AcDbEntity
  8
0
100
AcDbLine
 10
1370.691598
 20
753.489335
 30
0.0
 11
1370.691598
 21
747.752401
 31
0.0
  0
ELLIPSE
  5
20C81
100
AcDbEntity
  8
0
100
AcDbEllipse
 10
1353.445631
 20
745.016536
 30
0.0
 11
-21.0
 21
0.0
 31
0.0
210
0.0
220
0.0
230
1.0
 40
0.707107
 41
3.581568608380711
 42
3.748814249995137
  0
ELLIPSE
  5
20C82
100
AcDbEntity
  8
0
100
AcDbEllipse
 10
1353.445631
 20
739.279603
 30
0.0
 11
-21.0
 21
0.0
 31
0.0
210
0.0
220
0.0
230
1.0
 40
0.707107
 41
3.581568608380711
 42
3.748814249995137
  0
LINE
  5
20C83
100
AcDbEntity
  8
0
100
AcDbLine
 10
1374.445631
 20
747.221637
 30
0.0
 11
1374.157946
 21
747.221637
 31
0.0
  0
ARC
  5
20C84
100
AcDbEntity
  8
0
100
AcDbCircle
 10
1374.157946
 20
749.221637
 30
0.0
 40
2.0
100
AcDbArc
 50
248.507904
 51
270.0
  0
LINE
  5
20C85
100
AcDbEntity
  8
0
100
AcDbLine
 10
1373.445631
 20
751.694011
 30
0.0
 11
1373.445631
 21
746.721637
 31
0.0
  0
POLYLINE
  5
20C86
100
AcDbEntity
  8
0
100
AcDb2dPolyline
 66
     1
 10
0.0
 20
0.0
 30
0.0
  0
VERTEX
  5
21948
100
AcDbEntity
  8
0
100
AcDbVertex
100
AcDb2dVertex
 10
1355.138017
 20
754.080546
 30
0.0
  0
VERTEX
  5
21949
100
AcDbEntity
  8
0
100
AcDbVertex
100
AcDb2dVertex
 10
1370.691598
 20
747.752401
 30
0.0
  0
SEQEND
  5
2194A
100
AcDbEntity
  8
0
  0
LINE
  5
20C87
100
AcDbEntity
  8
0
100
AcDbLine
 10
1376.445631
 20
748.102835
 30
0.0
 11
1376.445631
 21
727.221637
 31
0.0
  0
LINE
  5
20C88
100
AcDbEntity
  8
0
100
AcDbLine
 10
1376.445631
 20
727.221637
 30
0.0
 11
1375.445631
 21
726.221637
 31
0.0
  0
LINE
  5
20C89
100
AcDbEntity
  8
0
100
AcDbLine
 10
1376.445631
 20
727.221637
 30
0.0
 11
1375.445631
 21
726.221637
 31
0.0
  0
ARC
  5
20C8C
100
AcDbEntity
  8
0
100
AcDbCircle
 10
1368.445631
 20
790.340439
 30
0.0
 40
8.0
100
AcDbArc
 50
300.0
 51
0.0
  0
POLYLINE
  5
20C8D
100
AcDbEntity
  8
0
100
AcDb2dPolyline
 66
     1
 10
0.0
 20
0.0
 30
0.0
  0
VERTEX
  5
2194B
100
AcDbEntity
  8
0
100
AcDbVertex
100
AcDb2dVertex
 10
1372.456943
 20
773.731577
 30
0.0
  0
VERTEX
  5
2194C
100
AcDbEntity
  8
0
100
AcDbVertex
100
AcDb2dVertex
 10
1378.944567
 20
777.477208
 30
0.0
  0
VERTEX
  5
2194D
100
AcDbEntity
  8
0
100
AcDbVertex
100
AcDb2dVertex
 10
1386.094567
 20
773.349154
 30
0.0
  0
VERTEX
  5
2194E
100
AcDbEntity
  8
0
100
AcDbVertex
100
AcDb2dVertex
 10
1386.094567
 20
765.093045
 30
0.0
  0
VERTEX
  5
2194F
100
AcDbEntity
  8
0
100
AcDbVertex
100
AcDb2dVertex
 10
1378.944567
 20
760.964991
 30
0.0
  0
VERTEX
  5
21950
100
AcDbEntity
  8
0
100
AcDbVertex
100
AcDb2dVertex
 10
1372.338619
 20
764.778936
 30
0.0
  0
SEQEND
  5
21951
100
AcDbEntity
  8
0
  0
ARC
  5
20C8E
100
AcDbEntity
  8
0
100
AcDbCircle
 10
1378.944567
 20
769.2211
 30
0.0
 40
6.750069
100
AcDbArc
 50
196.055811
 51
162.488025
  0
ARC
  5
20C8F
100
AcDbEntity
  8
0
100
AcDbCircle
 10
1275.952755
 20
770.529931
 30
0.0
 40
96.557283
100
AcDbArc
 50
352.28739
 51
11.988228
  0
ARC
  5
20C90
100
AcDbEntity
  8
0
100
AcDbCircle
 10
1430.938507
 20
770.529931
 30
0.0
 40
96.557283
100
AcDbArc
 50
168.011772
 51
187.71261
  0
ELLIPSE
  5
20C91
100
AcDbEntity
  8
0
100
AcDbEllipse
 10
1353.445631
 20
745.016536
 30
0.0
 11
-21.0
 21
0.0
 31
0.0
210
0.0
220
0.0
230
1.0
 40
0.707107
 41
4.631711697362801
 42
4.793066263406571
  0
ARC
  5
20C92
100
AcDbEntity
  8
0
100
AcDbCircle
 10
1342.472821
 20
790.172066
 30
0.0
 40
6.0
100
AcDbArc
 50
155.806806
 51
176.044902
  0
ARC
  5
20C93
100
AcDbEntity
  8
0
100
AcDbCircle
 10
1342.472821
 20
790.172066
 30
0.0
 40
6.0
100
AcDbArc
 50
155.806806
 51
176.044902
  0
LINE
  5
20C94
100
AcDbEntity
  8
0
100
AcDbLine
 10
1334.445631
 20
783.412236
 30
0.0
 11
1335.187735
 21
782.983782
 31
0.0
  0
LINE
  5
20C95
100
AcDbEntity
  8
0
100
AcDbLine
 10
1372.445631
 20
783.412236
 30
0.0
 11
1371.703527
 21
782.983782
 31
0.0
  0
ARC
  5
20C96
100
AcDbEntity
  8
0
100
AcDbCircle
 10
1364.418441
 20
790.172066
 30
0.0
 40
6.0
100
AcDbArc
 50
3.955098
 51
24.193194
  0
ARC
  5
20C97
100
AcDbEntity
  8
0
100
AcDbCircle
 10
1364.418441
 20
790.172066
 30
0.0
 40
6.0
100
AcDbArc
 50
3.955098
 51
24.193194
  0
ARC
  5
20C98
100
AcDbEntity
  8
0
100
AcDbCircle
 10
1353.445631
 20
769.221637
 30
0.0
 40
34.5
100
AcDbArc
 50
343.15072
 51
16.84928
  0
LINE
  5
20C99
100
AcDbEntity
  8
0
100
AcDbLine
 10
1385.418276
 20
759.221637
 30
0.0
 11
1386.464565
 21
759.221637
 31
0.0
  0
LINE
  5
20C9A
100
AcDbEntity
  8
0
100
AcDbLine
 10
1385.418276
 20
779.221637
 30
0.0
 11
1386.464565
 21
779.221637
 31
0.0
  0
ARC
  5
20C9D
100
AcDbEntity
  8
0
100
AcDbCircle
 10
1332.445631
 20
803.221637
 30
0.0
 40
2.0
100
AcDbArc
 50
180.0
 51
270.0
  0
ARC
  5
20C9E
100
AcDbEntity
  8
0
100
AcDbCircle
 10
1332.445631
 20
813.221637
 30
0.0
 40
2.0
100
AcDbArc
 50
90.0
 51
180.0
  0
LINE
  5
20C9F
100
AcDbEntity
  8
0
100
AcDbLine
 10
1353.445631
 20
822.221637
 30
0.0
 11
1331.445631
 21
822.221637
 31
0.0
  0
LINE
  5
20CA0
100
AcDbEntity
  8
0
100
AcDbLine
 10
1331.445631
 20
822.221637
 30
0.0
 11
1330.445631
 21
821.221637
 31
0.0
  0
LINE
  5
20CA1
100
AcDbEntity
  8
0
100
AcDbLine
 10
1353.445631
 20
822.221637
 30
0.0
 11
1375.445631
 21
822.221637
 31
0.0
  0
ARC
  5
20CA2
100
AcDbEntity
  8
0
100
AcDbCircle
 10
1374.445631
 20
813.221637
 30
0.0
 40
2.0
100
AcDbArc
 50
360.0
 51
90.0
  0
ARC
  5
20CA3
100
AcDbEntity
  8
0
100
AcDbCircle
 10
1374.445631
 20
803.221637
 30
0.0
 40
2.0
100
AcDbArc
 50
270.0
 51
0.0
  0
LINE
  5
20CA4
100
AcDbEntity
  8
0
100
AcDbLine
 10
1332.445631
 20
801.221637
 30
0.0
 11
1332.733316
 21
801.221637
 31
0.0
  0
LINE
  5
20CA5
100
AcDbEntity
  8
0
100
AcDbLine
 10
1332.445631
 20
815.221637
 30
0.0
 11
1332.733316
 21
815.221637
 31
0.0
  0
LINE
  5
20CA6
100
AcDbEntity
  8
0
100
AcDbLine
 10
1332.733316
 20
814.086623
 30
0.0
 11
1332.733316
 21
802.356651
 31
0.0
  0
ARC
  5
20CA7
100
AcDbEntity
  8
0
100
AcDbCircle
 10
1332.733316
 20
817.221637
 30
0.0
 40
2.0
100
AcDbArc
 50
270.0
 51
315.0
  0
ARC
  5
20CA8
100
AcDbEntity
  8
0
100
AcDbCircle
 10
1332.733316
 20
799.221637
 30
0.0
 40
2.0
100
AcDbArc
 50
45.0
 51
90.0
  0
LINE
  5
20CA9
100
AcDbEntity
  8
0
100
AcDbLine
 10
1374.157946
 20
814.086623
 30
0.0
 11
1374.157946
 21
802.356651
 31
0.0
  0
LINE
  5
20CAA
100
AcDbEntity
  8
0
100
AcDbLine
 10
1374.445631
 20
815.221637
 30
0.0
 11
1374.157946
 21
815.221637
 31
0.0
  0
LINE
  5
20CAB
100
AcDbEntity
  8
0
100
AcDbLine
 10
1374.445631
 20
801.221637
 30
0.0
 11
1374.157946
 21
801.221637
 31
0.0
  0
ARC
  5
20CAC
100
AcDbEntity
  8
0
100
AcDbCircle
 10
1374.157946
 20
817.221637
 30
0.0
 40
2.0
100
AcDbArc
 50
225.0
 51
270.0
  0
ARC
  5
20CAD
100
AcDbEntity
  8
0
100
AcDbCircle
 10
1374.157946
 20
799.221637
 30
0.0
 40
2.0
100
AcDbArc
 50
90.0
 51
135.0
  0
LINE
  5
20CAE
100
AcDbEntity
  8
0
100
AcDbLine
 10
1375.445631
 20
822.221637
 30
0.0
 11
1376.445631
 21
821.221637
 31
0.0
  0
LINE
  5
20CAF
100
AcDbEntity
  8
0
100
AcDbLine
 10
1375.445631
 20
822.221637
 30
0.0
 11
1376.445631
 21
821.221637
 31
0.0
  0
LINE
  5
20CB0
100
AcDbEntity
  8
0
100
AcDbLine
 10
1217.730131
 20
1000.184239
 30
0.0
 11
1255.188501
 21
1000.184239
 31
0.0
  0
ARC
  5
20CB1
100
AcDbEntity
  8
0
100
AcDbCircle
 10
1231.556359
 20
850.332081
 30
0.0
 40
96.557283
100
AcDbArc
 50
78.011772
 51
96.998713
  0
ARC
  5
20CB2
100
AcDbEntity
  8
0
100
AcDbCircle
 10
1231.556359
 20
1005.317833
 30
0.0
 40
96.557283
100
AcDbArc
 50
263.001287
 51
281.988228
  0
ELLIPSE
  5
20CB3
100
AcDbEntity
  8
0
100
AcDbEllipse
 10
1253.152772
 20
927.824957
 30
0.0
 11
0.0000000000000012
 21
-20.0
 31
0.0
210
0.0
220
0.0
230
-1.0
 40
0.707107
 41
2.674352144222319
 42
6.750425816556282
  0
LINE
  5
20CB4
100
AcDbEntity
  8
0
100
AcDbLine
 10
1181.918039
 20
961.324957
 30
0.0
 11
1181.918039
 21
962.324957
 31
0.0
  0
LINE
  5
20CB5
100
AcDbEntity
  8
0
100
AcDbLine
 10
1189.918039
 20
961.324957
 30
0.0
 11
1189.918039
 21
962.324957
 31
0.0
  0
ARC
  5
20CB6
100
AcDbEntity
  8
0
100
AcDbCircle
 10
1126.571659
 20
954.324957
 30
0.0
 40
11.5
100
AcDbArc
 50
26.935775
 51
90.0
  0
LINE
  5
20CB7
100
AcDbEntity
  8
0
100
AcDbLine
 10
1161.728074
 20
948.562457
 30
0.0
 11
1162.268039
 21
948.562457
 31
0.0
  0
LINE
  5
20CB8
100
AcDbEntity
  8
0
100
AcDbLine
 10
1161.728074
 20
958.087457
 30
0.0
 11
1162.268039
 21
958.087457
 31
0.0
  0
LINE
  5
20CB9
100
AcDbEntity
  8
0
100
AcDbLine
 10
1162.268039
 20
945.324957
 30
0.0
 11
1154.418039
 21
945.324957
 31
0.0
  0
LINE
  5
20CBA
100
AcDbEntity
  8
0
100
AcDbLine
 10
1161.728074
 20
907.087457
 30
0.0
 11
1162.268039
 21
907.087457
 31
0.0
  0
LINE
  5
20CBB
100
AcDbEntity
  8
0
100
AcDbLine
 10
1162.268039
 20
910.324957
 30
0.0
 11
1154.418039
 21
910.324957
 31
0.0
  0
LINE
  5
20CBC
100
AcDbEntity
  8
0
100
AcDbLine
 10
1161.728074
 20
897.562457
 30
0.0
 11
1162.268039
 21
897.562457
 31
0.0
  0
LINE
  5
20CBD
100
AcDbEntity
  8
0
100
AcDbLine
 10
1154.418039
 20
945.324957
 30
0.0
 11
1154.418039
 21
910.324957
 31
0.0
  0
LINE
  5
20CBE
100
AcDbEntity
  8
0
100
AcDbLine
 10
1145.946875
 20
942.824957
 30
0.0
 11
1145.946875
 21
912.824957
 31
0.0
  0
ARC
  5
20CBF
100
AcDbEntity
  8
0
100
AcDbCircle
 10
1074.418039
 20
927.824957
 30
0.0
 40
70.0
100
AcDbArc
 50
333.064225
 51
26.935775
  0
LINE
  5
20CC0
100
AcDbEntity
  8
0
100
AcDbLine
 10
1161.231552
 20
898.422457
 30
0.0
 11
1161.231552
 21
906.227457
 31
0.0
  0
ARC
  5
20CC1
100
AcDbEntity
  8
0
100
AcDbCircle
 10
1126.571659
 20
901.324957
 30
0.0
 40
11.5
100
AcDbArc
 50
270.0
 51
333.064225
  0
LINE
  5
20CC2
100
AcDbEntity
  8
0
100
AcDbLine
 10
1161.231552
 20
898.422457
 30
0.0
 11
1161.728074
 21
897.562457
 31
0.0
  0
LINE
  5
20CC3
100
AcDbEntity
  8
0
100
AcDbLine
 10
1154.418039
 20
912.824957
 30
0.0
 11
1145.946875
 21
912.824957
 31
0.0
  0
LINE
  5
20CC4
100
AcDbEntity
  8
0
100
AcDbLine
 10
1161.231552
 20
906.227457
 30
0.0
 11
1161.728074
 21
907.087457
 31
0.0
  0
ARC
  5
20CC5
100
AcDbEntity
  8
0
100
AcDbCircle
 10
1143.438852
 20
913.103923
 30
0.0
 40
2.52349
100
AcDbArc
 50
243.830572
 51
353.653128
  0
LINE
  5
20CC6
100
AcDbEntity
  8
0
100
AcDbLine
 10
1154.418039
 20
942.824957
 30
0.0
 11
1145.946875
 21
942.824957
 31
0.0
  0
LINE
  5
20CC7
100
AcDbEntity
  8
0
100
AcDbLine
 10
1161.231552
 20
949.422457
 30
0.0
 11
1161.231552
 21
957.227457
 31
0.0
  0
LINE
  5
20CC8
100
AcDbEntity
  8
0
100
AcDbLine
 10
1161.231552
 20
949.422457
 30
0.0
 11
1161.728074
 21
948.562457
 31
0.0
  0
LINE
  5
20CC9
100
AcDbEntity
  8
0
100
AcDbLine
 10
1161.231552
 20
957.227457
 30
0.0
 11
1161.728074
 21
958.087457
 31
0.0
  0
ARC
  5
20CCA
100
AcDbEntity
  8
0
100
AcDbCircle
 10
1143.438852
 20
942.545992
 30
0.0
 40
2.52349
100
AcDbArc
 50
6.346872
 51
116.169428
  0
LINE
  5
20CCB
100
AcDbEntity
  8
0
100
AcDbLine
 10
1162.268039
 20
894.324957
 30
0.0
 11
1162.268039
 21
961.324957
 31
0.0
  0
LINE
  5
20CCC
100
AcDbEntity
  8
0
100
AcDbLine
 10
1175.268039
 20
961.324957
 30
0.0
 11
1175.268039
 21
894.324957
 31
0.0
  0
LINE
  5
20CCD
100
AcDbEntity
  8
0
100
AcDbLine
 10
1178.918039
 20
961.324957
 30
0.0
 11
1178.918039
 21
894.324957
 31
0.0
  0
CIRCLE
  5
20CCE
100
AcDbEntity
  8
0
100
AcDbCircle
 10
1205.918039
 20
927.824957
 30
0.0
 40
23.0
  0
LINE
  5
20CCF
100
AcDbEntity
  8
0
100
AcDbLine
 10
1195.918039
 20
904.824957
 30
0.0
 11
1215.918039
 21
904.824957
 31
0.0
  0
LINE
  5
20CD0
100
AcDbEntity
  8
0
100
AcDbLine
 10
1199.318039
 20
896.487007
 30
0.0
 11
1199.318039
 21
904.824957
 31
0.0
  0
LINE
  5
20CD1
100
AcDbEntity
  8
0
100
AcDbLine
 10
1192.918039
 20
894.324957
 30
0.0
 11
1192.918039
 21
908.851291
 31
0.0
  0
ARC
  5
20CD2
100
AcDbEntity
  8
0
100
AcDbCircle
 10
1190.503362
 20
898.749957
 30
0.0
 40
8.814677
100
AcDbArc
 50
336.072926
 51
23.927074
  0
LINE
  5
20CD3
100
AcDbEntity
  8
0
100
AcDbLine
 10
1189.918039
 20
893.324957
 30
0.0
 11
1181.918039
 21
893.324957
 31
0.0
  0
LINE
  5
20CD4
100
AcDbEntity
  8
0
100
AcDbLine
 10
1189.918039
 20
897.870826
 30
0.0
 11
1181.918039
 21
897.870826
 31
0.0
  0
LINE
  5
20CD5
100
AcDbEntity
  8
0
100
AcDbLine
 10
1178.918039
 20
894.324957
 30
0.0
 11
1181.918039
 21
894.324957
 31
0.0
  0
ARC
  5
20CD6
100
AcDbEntity
  8
0
100
AcDbCircle
 10
1180.918039
 20
896.870826
 30
0.0
 40
1.0
100
AcDbArc
 50
0.0
 51
90.0
  0
LINE
  5
20CD7
100
AcDbEntity
  8
0
100
AcDbLine
 10
1181.918039
 20
896.870826
 30
0.0
 11
1181.918039
 21
893.324957
 31
0.0
  0
LINE
  5
20CD8
100
AcDbEntity
  8
0
100
AcDbLine
 10
1178.918039
 20
897.562457
 30
0.0
 11
1175.268039
 21
897.562457
 31
0.0
  0
LINE
  5
20CD9
100
AcDbEntity
  8
0
100
AcDbLine
 10
1175.268039
 20
894.324957
 30
0.0
 11
1162.268039
 21
894.324957
 31
0.0
  0
LINE
  5
20CDA
100
AcDbEntity
  8
0
100
AcDbLine
 10
1189.918039
 20
894.324957
 30
0.0
 11
1192.918039
 21
894.324957
 31
0.0
  0
ARC
  5
20CDB
100
AcDbEntity
  8
0
100
AcDbCircle
 10
1190.918039
 20
896.870826
 30
0.0
 40
1.0
100
AcDbArc
 50
90.0
 51
180.0
  0
LINE
  5
20CDC
100
AcDbEntity
  8
0
100
AcDbLine
 10
1189.918039
 20
896.870826
 30
0.0
 11
1189.918039
 21
893.324957
 31
0.0
  0
LINE
  5
20CDD
100
AcDbEntity
  8
0
100
AcDbLine
 10
1199.318039
 20
896.487007
 30
0.0
 11
1198.560527
 21
895.174957
 31
0.0
  0
LINE
  5
20CDE
100
AcDbEntity
  8
0
100
AcDbLine
 10
1198.560527
 20
895.174957
 30
0.0
 11
1192.918039
 21
895.174957
 31
0.0
  0
LINE
  5
20CDF
100
AcDbEntity
  8
0
100
AcDbLine
 10
1180.568039
 20
901.069457
 30
0.0
 11
1191.268039
 21
901.069457
 31
0.0
  0
LINE
  5
20CE0
100
AcDbEntity
  8
0
100
AcDbLine
 10
1178.918039
 20
907.087457
 30
0.0
 11
1175.268039
 21
907.087457
 31
0.0
  0
LINE
  5
20CE1
100
AcDbEntity
  8
0
100
AcDbLine
 10
1178.918039
 20
910.324957
 30
0.0
 11
1175.268039
 21
910.324957
 31
0.0
  0
ARC
  5
20CE2
100
AcDbEntity
  8
0
100
AcDbCircle
 10
1190.503362
 20
905.899957
 30
0.0
 40
8.814677
100
AcDbArc
 50
336.072926
 51
352.995016
  0
LINE
  5
20CE3
100
AcDbEntity
  8
0
100
AcDbLine
 10
1195.918039
 20
907.112642
 30
0.0
 11
1195.918039
 21
904.824957
 31
0.0
  0
ARC
  5
20CE4
100
AcDbEntity
  8
0
100
AcDbCircle
 10
1198.560527
 20
902.324957
 30
0.0
 40
0.0
100
AcDbArc
 50
90.0
 51
137.854147
  0
LINE
  5
20CE5
100
AcDbEntity
  8
0
100
AcDbLine
 10
1198.560527
 20
902.324957
 30
0.0
 11
1192.918039
 21
902.324957
 31
0.0
  0
LINE
  5
20CE6
100
AcDbEntity
  8
0
100
AcDbLine
 10
1192.918039
 20
902.324957
 30
0.0
 11
1198.560527
 21
902.324957
 31
0.0
  0
LINE
  5
20CE7
100
AcDbEntity
  8
0
100
AcDbLine
 10
1215.918039
 20
907.112642
 30
0.0
 11
1215.918039
 21
904.824957
 31
0.0
  0
LINE
  5
20CE8
100
AcDbEntity
  8
0
100
AcDbLine
 10
1195.918039
 20
950.824957
 30
0.0
 11
1215.918039
 21
950.824957
 31
0.0
  0
LINE
  5
20CE9
100
AcDbEntity
  8
0
100
AcDbLine
 10
1178.918039
 20
961.324957
 30
0.0
 11
1192.918039
 21
961.324957
 31
0.0
  0
LINE
  5
20CEA
100
AcDbEntity
  8
0
100
AcDbLine
 10
1180.568039
 20
954.580457
 30
0.0
 11
1191.268039
 21
954.580457
 31
0.0
  0
LINE
  5
20CEB
100
AcDbEntity
  8
0
100
AcDbLine
 10
1178.918039
 20
958.087457
 30
0.0
 11
1175.268039
 21
958.087457
 31
0.0
  0
LINE
  5
20CEC
100
AcDbEntity
  8
0
100
AcDbLine
 10
1178.918039
 20
948.562457
 30
0.0
 11
1175.268039
 21
948.562457
 31
0.0
  0
LINE
  5
20CED
100
AcDbEntity
  8
0
100
AcDbLine
 10
1178.918039
 20
945.324957
 30
0.0
 11
1175.268039
 21
945.324957
 31
0.0
  0
LINE
  5
20CEE
100
AcDbEntity
  8
0
100
AcDbLine
 10
1175.268039
 20
961.324957
 30
0.0
 11
1162.268039
 21
961.324957
 31
0.0
  0
LINE
  5
20CEF
100
AcDbEntity
  8
0
100
AcDbLine
 10
1198.560527
 20
960.474957
 30
0.0
 11
1192.918039
 21
960.474957
 31
0.0
  0
ARC
  5
20CF0
100
AcDbEntity
  8
0
100
AcDbCircle
 10
1190.503362
 20
949.749957
 30
0.0
 40
8.814677
100
AcDbArc
 50
7.004984
 51
23.927074
  0
LINE
  5
20CF1
100
AcDbEntity
  8
0
100
AcDbLine
 10
1199.318039
 20
959.162908
 30
0.0
 11
1199.318039
 21
950.824957
 31
0.0
  0
LINE
  5
20CF2
100
AcDbEntity
  8
0
100
AcDbLine
 10
1195.918039
 20
948.537273
 30
0.0
 11
1195.918039
 21
950.824957
 31
0.0
  0
ARC
  5
20CF3
100
AcDbEntity
  8
0
100
AcDbCircle
 10
1198.560527
 20
953.324957
 30
0.0
 40
0.0
100
AcDbArc
 50
222.145853
 51
270.0
  0
LINE
  5
20CF4
100
AcDbEntity
  8
0
100
AcDbLine
 10
1192.918039
 20
953.324957
 30
0.0
 11
1198.560527
 21
953.324957
 31
0.0
  0
LINE
  5
20CF5
100
AcDbEntity
  8
0
100
AcDbLine
 10
1198.560527
 20
953.324957
 30
0.0
 11
1192.918039
 21
953.324957
 31
0.0
  0
LINE
  5
20CF6
100
AcDbEntity
  8
0
100
AcDbLine
 10
1199.318039
 20
959.162908
 30
0.0
 11
1198.560527
 21
960.474957
 31
0.0
  0
ARC
  5
20CF7
100
AcDbEntity
  8
0
100
AcDbCircle
 10
1190.503362
 20
956.899957
 30
0.0
 40
8.814677
100
AcDbArc
 50
336.072926
 51
23.927074
  0
LINE
  5
20CF8
100
AcDbEntity
  8
0
100
AcDbLine
 10
1192.918039
 20
961.324957
 30
0.0
 11
1192.918039
 21
946.798623
 31
0.0
  0
LINE
  5
20CF9
100
AcDbEntity
  8
0
100
AcDbLine
 10
1215.918039
 20
948.537273
 30
0.0
 11
1215.918039
 21
950.824957
 31
0.0
  0
LINE
  5
20CFA
100
AcDbEntity
  8
0
100
AcDbLine
 10
1158.709316
 20
1034.684239
 30
0.0
 11
1162.359316
 21
1034.684239
 31
0.0
  0
LINE
  5
20CFB
100
AcDbEntity
  8
0
100
AcDbLine
 10
1131.709316
 20
1009.184239
 30
0.0
 11
1109.709316
 21
1009.184239
 31
0.0
  0
LINE
  5
20CFC
100
AcDbEntity
  8
0
100
AcDbLine
 10
1115.750058
 20
1038.413933
 30
0.0
 11
1143.466606
 21
1038.413933
 31
0.0
  0
ARC
  5
20CFD
100
AcDbEntity
  8
0
100
AcDbCircle
 10
1101.616719
 20
1021.502115
 30
0.0
 40
3.0
100
AcDbArc
 50
123.692313
 51
180.0
  0
LINE
  5
20CFE
100
AcDbEntity
  8
0
100
AcDbLine
 10
1108.709316
 20
1024.37104
 30
0.0
 11
1108.709316
 21
1010.184239
 31
0.0
  0
LINE
  5
20CFF
100
AcDbEntity
  8
0
100
AcDbLine
 10
1095.081185
 20
1016.271836
 30
0.0
 11
1098.616719
 21
1019.80737
 31
0.0
  0
LINE
  5
20D00
100
AcDbEntity
  8
0
100
AcDbLine
 10
1086.977014
 20
1019.506339
 30
0.0
 11
1081.24008
 21
1013.769406
 31
0.0
  0
LINE
  5
20D01
100
AcDbEntity
  8
0
100
AcDbLine
 10
1090.838544
 20
1017.68605
 30
0.0
 11
1091.545651
 21
1018.393157
 31
0.0
  0
LINE
  5
20D02
100
AcDbEntity
  8
0
100
AcDbLine
 10
1087.616524
 20
1007.392962
 30
0.0
 11
1084.828137
 21
1008.140108
 31
0.0
  0
LINE
  5
20D03
100
AcDbEntity
  8
0
100
AcDbLine
 10
1093.353457
 20
1013.129895
 30
0.0
 11
1087.616524
 21
1007.392962
 31
0.0
  0
LINE
  5
20D04
100
AcDbEntity
  8
0
100
AcDbLine
 10
1093.353457
 20
1013.129895
 30
0.0
 11
1092.606311
 21
1015.918283
 31
0.0
  0
LINE
  5
20D05
100
AcDbEntity
  8
0
100
AcDbLine
 10
1095.081185
 20
1016.271836
 30
0.0
 11
1093.666971
 21
1016.271836
 31
0.0
  0
ARC
  5
20D06
100
AcDbEntity
  8
0
100
AcDbCircle
 10
1085.695851
 20
1011.848733
 30
0.0
 40
7.764039
100
AcDbArc
 50
20.502049
 51
80.502049
  0
LINE
  5
20D07
100
AcDbEntity
  8
0
100
AcDbLine
 10
1086.977014
 20
1019.506339
 30
0.0
 11
1084.82877
 21
1021.654582
 31
0.0
  0
ARC
  5
20D08
100
AcDbEntity
  8
0
100
AcDbCircle
 10
1088.897686
 20
1015.050568
 30
0.0
 40
7.764039
100
AcDbArc
 50
189.497951
 51
249.497951
  0
LINE
  5
20D09
100
AcDbEntity
  8
0
100
AcDbLine
 10
1084.82877
 20
1021.654582
 30
0.0
 11
1079.091837
 21
1015.917649
 31
0.0
  0
LINE
  5
20D0A
100
AcDbEntity
  8
0
100
AcDbLine
 10
1081.24008
 20
1013.769406
 30
0.0
 11
1079.091837
 21
1015.917649
 31
0.0
  0
LINE
  5
20D0B
100
AcDbEntity
  8
0
100
AcDbLine
 10
1108.709316
 20
1010.184239
 30
0.0
 11
1109.709316
 21
1009.184239
 31
0.0
  0
LINE
  5
20D0C
100
AcDbEntity
  8
0
100
AcDbLine
 10
1098.616719
 20
1019.80737
 30
0.0
 11
1098.616719
 21
1021.502115
 31
0.0
  0
ARC
  5
20D0D
100
AcDbEntity
  8
0
100
AcDbCircle
 10
1105.709316
 20
1024.37104
 30
0.0
 40
3.0
100
AcDbArc
 50
0.0
 51
126.368863
  0
ARC
  5
20D0E
100
AcDbEntity
  8
0
100
AcDbCircle
 10
1042.260308
 20
1110.52917
 30
0.0
 40
104.0
100
AcDbArc
 50
303.692313
 51
306.368863
  0
LINE
  5
20D0F
100
AcDbEntity
  8
0
100
AcDbLine
 10
1141.709316
 20
1030.184239
 30
0.0
 11
1141.709316
 21
1016.184239
 31
0.0
  0
LINE
  5
20D10
100
AcDbEntity
  8
0
100
AcDbLine
 10
1154.709316
 20
1010.184239
 30
0.0
 11
1154.709316
 21
1027.684239
 31
0.0
  0
LINE
  5
20D11
100
AcDbEntity
  8
0
100
AcDbLine
 10
1121.709316
 20
1030.184239
 30
0.0
 11
1121.709316
 21
1016.184239
 31
0.0
  0
LINE
  5
20D12
100
AcDbEntity
  8
0
100
AcDbLine
 10
1153.709316
 20
1009.184239
 30
0.0
 11
1131.709316
 21
1009.184239
 31
0.0
  0
LINE
  5
20D13
100
AcDbEntity
  8
0
100
AcDbLine
 10
1141.709316
 20
1016.184239
 30
0.0
 11
1121.709316
 21
1016.184239
 31
0.0
  0
LINE
  5
20D14
100
AcDbEntity
  8
0
100
AcDbLine
 10
1154.709316
 20
1010.184239
 30
0.0
 11
1153.709316
 21
1009.184239
 31
0.0
  0
LINE
  5
20D15
100
AcDbEntity
  8
0
100
AcDbLine
 10
1138.947928
 20
1043.92813
 30
0.0
 11
1144.709316
 21
1043.92813
 31
0.0
  0
LINE
  5
20D16
100
AcDbEntity
  8
0
100
AcDbLine
 10
1141.709316
 20
1030.184239
 30
0.0
 11
1121.709316
 21
1030.184239
 31
0.0
  0
ARC
  5
20D17
100
AcDbEntity
  8
0
100
AcDbCircle
 10
1156.709316
 20
1027.684239
 30
0.0
 40
2.0
100
AcDbArc
 50
90.0
 51
180.0
  0
LINE
  5
20D18
100
AcDbEntity
  8
0
100
AcDbLine
 10
1156.709316
 20
1029.684239
 30
0.0
 11
1158.709316
 21
1029.684239
 31
0.0
  0
LINE
  5
20D19
100
AcDbEntity
  8
0
100
AcDbLine
 10
1155.209316
 20
1029.519778
 30
0.0
 11
1144.709316
 21
1032.025042
 31
0.0
  0
LINE
  5
20D1A
100
AcDbEntity
  8
0
100
AcDbLine
 10
1158.709316
 20
1032.025042
 30
0.0
 11
1144.709316
 21
1032.025042
 31
0.0
  0
LINE
  5
20D1B
100
AcDbEntity
  8
0
100
AcDbLine
 10
1211.719724
 20
1002.673831
 30
0.0
 11
1197.315955
 21
1017.0776
 31
0.0
  0
LINE
  5
20D1C
100
AcDbEntity
  8
0
100
AcDbLine
 10
1189.918039
 20
962.324957
 30
0.0
 11
1181.918039
 21
962.324957
 31
0.0
  0
ARC
  5
20D1D
100
AcDbEntity
  8
0
100
AcDbCircle
 10
1217.730131
 20
1008.684239
 30
0.0
 40
8.5
100
AcDbArc
 50
225.0
 51
270.0
  0
ARC
  5
20D1E
100
AcDbEntity
  8
0
100
AcDbCircle
 10
1265.995532
 20
1038.431461
 30
0.0
 40
72.807184
100
AcDbArc
 50
181.375113
 51
194.441574
  0
LINE
  5
20D1F
100
AcDbEntity
  8
0
100
AcDbLine
 10
1175.359316
 20
1018.684239
 30
0.0
 11
1162.359316
 21
1018.684239
 31
0.0
  0
ARC
  5
20D20
100
AcDbEntity
  8
0
100
AcDbCircle
 10
1202.265703
 20
1022.027347
 30
0.0
 40
7.0
100
AcDbArc
 50
194.506773
 51
225.0
  0
LINE
  5
20D21
100
AcDbEntity
  8
0
100
AcDbLine
 10
1175.359316
 20
1034.684239
 30
0.0
 11
1183.209316
 21
1034.684239
 31
0.0
  0
ARC
  5
20D22
100
AcDbEntity
  8
0
100
AcDbCircle
 10
1194.188504
 20
1037.463204
 30
0.0
 40
2.52349
100
AcDbArc
 50
186.346872
 51
248.786825
  0
LINE
  5
20D23
100
AcDbEntity
  8
0
100
AcDbLine
 10
1183.209316
 20
1037.184239
 30
0.0
 11
1191.680481
 21
1037.184239
 31
0.0
  0
POLYLINE
  5
20D24
100
AcDbEntity
  8
0
100
AcDb2dPolyline
 66
     1
 10
0.0
 20
0.0
 30
0.0
  0
VERTEX
  5
21952
100
AcDbEntity
  8
0
100
AcDbVertex
100
AcDb2dVertex
 10
1273.924084
 20
926.132572
 30
0.0
  0
VERTEX
  5
21953
100
AcDbEntity
  8
0
100
AcDbVertex
100
AcDb2dVertex
 10
1267.595939
 20
910.578991
 30
0.0
  0
SEQEND
  5
21954
100
AcDbEntity
  8
0
  0
POLYLINE
  5
20D25
100
AcDbEntity
  8
0
100
AcDb2dPolyline
 66
     1
 10
0.0
 20
0.0
 30
0.0
  0
VERTEX
  5
21955
100
AcDbEntity
  8
0
100
AcDbVertex
100
AcDb2dVertex
 10
1279.661017
 20
926.132572
 30
0.0
  0
VERTEX
  5
21956
100
AcDbEntity
  8
0
100
AcDbVertex
100
AcDb2dVertex
 10
1273.332872
 20
910.578991
 30
0.0
  0
SEQEND
  5
21957
100
AcDbEntity
  8
0
  0
ELLIPSE
  5
20D26
100
AcDbEntity
  8
0
100
AcDbEllipse
 10
1248.705568
 20
927.824957
 30
0.0
 11
0.0000000000000177
 21
-17.52291503460766
 31
0.0
210
0.0
220
0.0
230
-1.0
 40
0.81865
 41
3.494035181711411
 42
5.930742779057948
  0
ELLIPSE
  5
20D27
100
AcDbEntity
  8
0
100
AcDbEllipse
 10
1256.688306
 20
927.824957
 30
0.0
 11
0.0000000000000012
 21
-20.0
 31
0.0
210
0.0
220
0.0
230
-1.0
 40
0.707107
 41
3.141592653589793
 42
6.283185307179586
  0
POLYLINE
  5
20D28
100
AcDbEntity
  8
0
100
AcDb2dPolyline
 66
     1
 10
0.0
 20
0.0
 30
0.0
  0
VERTEX
  5
21958
100
AcDbEntity
  8
0
100
AcDbVertex
100
AcDb2dVertex
 10
1261.104187
 20
908.824957
 30
0.0
  0
VERTEX
  5
21959
100
AcDbEntity
  8
0
100
AcDbVertex
100
AcDb2dVertex
 10
1271.184629
 20
908.824957
 30
0.0
  0
SEQEND
  5
2195A
100
AcDbEntity
  8
0
  0
LINE
  5
20D29
100
AcDbEntity
  8
0
100
AcDbLine
 10
1267.595939
 20
910.578991
 30
0.0
 11
1273.332872
 21
910.578991
 31
0.0
  0
LINE
  5
20D2A
100
AcDbEntity
  8
0
100
AcDbLine
 10
1256.688306
 20
907.824957
 30
0.0
 11
1253.152772
 21
907.824957
 31
0.0
  0
ARC
  5
20D2B
100
AcDbEntity
  8
0
100
AcDbCircle
 10
1251.198494
 20
916.852147
 30
0.0
 40
6.0
100
AcDbArc
 50
273.955098
 51
294.193194
  0
POLYLINE
  5
20D2C
100
AcDbEntity
  8
0
100
AcDb2dPolyline
 66
     1
 10
0.0
 20
0.0
 30
0.0
  0
VERTEX
  5
2195B
100
AcDbEntity
  8
0
100
AcDbVertex
100
AcDb2dVertex
 10
1261.104187
 20
908.824957
 30
0.0
  0
VERTEX
  5
2195C
100
AcDbEntity
  8
0
100
AcDbVertex
100
AcDb2dVertex
 10
1265.447696
 20
908.824957
 30
0.0
  0
SEQEND
  5
2195D
100
AcDbEntity
  8
0
  0
ELLIPSE
  5
20D2D
100
AcDbEntity
  8
0
100
AcDbEllipse
 10
1259.123141
 20
927.824957
 30
0.0
 11
-0.0000000000000013
 21
-21.0
 31
0.0
210
0.0
220
0.0
230
-1.0
 40
0.707107
 41
5.675963710774241
 42
5.843209352388812
  0
ELLIPSE
  5
20D2E
100
AcDbEntity
  8
0
100
AcDbEllipse
 10
1264.860074
 20
927.824957
 30
0.0
 11
-0.0000000000000013
 21
-21.0
 31
0.0
210
0.0
220
0.0
230
-1.0
 40
0.707107
 41
5.675963710774241
 42
5.843209352388812
  0
POLYLINE
  5
20D2F
100
AcDbEntity
  8
0
100
AcDb2dPolyline
 66
     1
 10
0.0
 20
0.0
 30
0.0
  0
VERTEX
  5
2195E
100
AcDbEntity
  8
0
100
AcDbVertex
100
AcDb2dVertex
 10
1273.924084
 20
929.517343
 30
0.0
  0
VERTEX
  5
2195F
100
AcDbEntity
  8
0
100
AcDbVertex
100
AcDb2dVertex
 10
1267.595939
 20
945.070924
 30
0.0
  0
SEQEND
  5
21960
100
AcDbEntity
  8
0
  0
POLYLINE
  5
20D30
100
AcDbEntity
  8
0
100
AcDb2dPolyline
 66
     1
 10
0.0
 20
0.0
 30
0.0
  0
VERTEX
  5
21961
100
AcDbEntity
  8
0
100
AcDbVertex
100
AcDb2dVertex
 10
1279.661017
 20
929.517343
 30
0.0
  0
VERTEX
  5
21962
100
AcDbEntity
  8
0
100
AcDbVertex
100
AcDb2dVertex
 10
1273.332872
 20
945.070924
 30
0.0
  0
SEQEND
  5
21963
100
AcDbEntity
  8
0
  0
LINE
  5
20D31
100
AcDbEntity
  8
0
100
AcDbLine
 10
1273.924084
 20
926.132572
 30
0.0
 11
1279.661017
 21
926.132572
 31
0.0
  0
LINE
  5
20D32
100
AcDbEntity
  8
0
100
AcDbLine
 10
1273.924084
 20
929.517343
 30
0.0
 11
1279.661017
 21
929.517343
 31
0.0
  0
ELLIPSE
  5
20D33
100
AcDbEntity
  8
0
100
AcDbEllipse
 10
1259.123141
 20
927.824957
 30
0.0
 11
-0.0000000000000013
 21
-21.0
 31
0.0
210
0.0
220
0.0
230
-1.0
 40
0.707107
 41
4.631711697362801
 42
4.793066263406571
  0
ELLIPSE
  5
20D34
100
AcDbEntity
  8
0
100
AcDbEllipse
 10
1264.860074
 20
927.824957
 30
0.0
 11
-0.0000000000000013
 21
-21.0
 31
0.0
210
0.0
220
0.0
230
-1.0
 40
0.707107
 41
4.631711697362801
 42
4.793066263406571
  0
POLYLINE
  5
20D35
100
AcDbEntity
  8
0
100
AcDb2dPolyline
 66
     1
 10
0.0
 20
0.0
 30
0.0
  0
VERTEX
  5
21964
100
AcDbEntity
  8
0
100
AcDbVertex
100
AcDb2dVertex
 10
1271.184629
 20
946.824957
 30
0.0
  0
VERTEX
  5
21965
100
AcDbEntity
  8
0
100
AcDbVertex
100
AcDb2dVertex
 10
1261.104187
 20
946.824957
 30
0.0
  0
SEQEND
  5
21966
100
AcDbEntity
  8
0
  0
LINE
  5
20D36
100
AcDbEntity
  8
0
100
AcDbLine
 10
1267.595939
 20
945.070924
 30
0.0
 11
1273.332872
 21
945.070924
 31
0.0
  0
LINE
  5
20D37
100
AcDbEntity
  8
0
100
AcDbLine
 10
1256.688306
 20
947.824957
 30
0.0
 11
1253.152772
 21
947.824957
 31
0.0
  0
ARC
  5
20D38
100
AcDbEntity
  8
0
100
AcDbCircle
 10
1251.198494
 20
938.797768
 30
0.0
 40
6.0
100
AcDbArc
 50
65.806806
 51
86.044902
  0
POLYLINE
  5
20D39
100
AcDbEntity
  8
0
100
AcDb2dPolyline
 66
     1
 10
0.0
 20
0.0
 30
0.0
  0
VERTEX
  5
21967
100
AcDbEntity
  8
0
100
AcDbVertex
100
AcDb2dVertex
 10
1265.447696
 20
946.824957
 30
0.0
  0
VERTEX
  5
21968
100
AcDbEntity
  8
0
100
AcDbVertex
100
AcDb2dVertex
 10
1261.104187
 20
946.824957
 30
0.0
  0
SEQEND
  5
21969
100
AcDbEntity
  8
0
  0
ELLIPSE
  5
20D3A
100
AcDbEntity
  8
0
100
AcDbEllipse
 10
1259.123141
 20
927.824957
 30
0.0
 11
-0.0000000000000013
 21
-21.0
 31
0.0
210
0.0
220
0.0
230
-1.0
 40
0.707107
 41
3.581568608380711
 42
3.748814249995137
  0
ELLIPSE
  5
20D3B
100
AcDbEntity
  8
0
100
AcDbEllipse
 10
1264.860074
 20
927.824957
 30
0.0
 11
-0.0000000000000013
 21
-21.0
 31
0.0
210
0.0
220
0.0
230
-1.0
 40
0.707107
 41
3.581568608380711
 42
3.748814249995137
  0
LINE
  5
20D3C
100
AcDbEntity
  8
0
100
AcDbLine
 10
1261.198908
 20
1002.673831
 30
0.0
 11
1275.602677
 21
1017.0776
 31
0.0
  0
ARC
  5
20D3D
100
AcDbEntity
  8
0
100
AcDbCircle
 10
1255.188501
 20
1008.684239
 30
0.0
 40
8.5
100
AcDbArc
 50
270.0
 51
315.0
  0
ARC
  5
20D3E
100
AcDbEntity
  8
0
100
AcDbCircle
 10
1206.9231
 20
1038.431461
 30
0.0
 40
72.807184
100
AcDbArc
 50
345.558426
 51
358.624887
  0
ARC
  5
20D3F
100
AcDbEntity
  8
0
100
AcDbCircle
 10
1270.652929
 20
1022.027347
 30
0.0
 40
7.0
100
AcDbArc
 50
315.0
 51
345.493227
  0
LINE
  5
20D40
100
AcDbEntity
  8
0
100
AcDbLine
 10
1201.709316
 20
1076.184239
 30
0.0
 11
1271.209316
 21
1076.184239
 31
0.0
  0
INSERT
  5
20D41
100
AcDbEntity
  8
0
100
AcDbBlockReference
  2
YA
 10
1131.709316
 20
1111.087177
 30
0.0
 41
-1.630435
 42
1.630435
 43
1.630435
 50
90.0
  0
LINE
  5
20D42
100
AcDbEntity
  8
0
100
AcDbLine
 10
1158.709316
 20
1069.684239
 30
0.0
 11
1162.359316
 21
1069.684239
 31
0.0
  0
LINE
  5
20D43
100
AcDbEntity
  8
0
100
AcDbLine
 10
1158.709316
 20
1056.946739
 30
0.0
 11
1162.359316
 21
1056.946739
 31
0.0
  0
LINE
  5
20D44
100
AcDbEntity
  8
0
100
AcDbLine
 10
1158.709316
 20
1047.421739
 30
0.0
 11
1162.359316
 21
1047.421739
 31
0.0
  0
LINE
  5
20D45
100
AcDbEntity
  8
0
100
AcDbLine
 10
1141.709316
 20
1084.184239
 30
0.0
 11
1141.709316
 21
1098.184239
 31
0.0
  0
LINE
  5
20D46
100
AcDbEntity
  8
0
100
AcDbLine
 10
1154.709316
 20
1076.684239
 30
0.0
 11
1154.709316
 21
1104.184239
 31
0.0
  0
LINE
  5
20D47
100
AcDbEntity
  8
0
100
AcDbLine
 10
1121.709316
 20
1084.184239
 30
0.0
 11
1121.709316
 21
1098.184239
 31
0.0
  0
LINE
  5
20D48
100
AcDbEntity
  8
0
100
AcDbLine
 10
1108.709316
 20
1084.986874
 30
0.0
 11
1108.709316
 21
1104.184239
 31
0.0
  0
ARC
  5
20D49
100
AcDbEntity
  8
0
100
AcDbCircle
 10
1102.709316
 20
1084.986874
 30
0.0
 40
6.0
100
AcDbArc
 50
302.033057
 51
0.0
  0
LINE
  5
20D4A
100
AcDbEntity
  8
0
100
AcDbLine
 10
1138.947928
 20
1060.440348
 30
0.0
 11
1144.709316
 21
1060.440348
 31
0.0
  0
LINE
  5
20D4B
100
AcDbEntity
  8
0
100
AcDbLine
 10
1138.947928
 20
1056.312293
 30
0.0
 11
1144.709316
 21
1056.312293
 31
0.0
  0
LINE
  5
20D4C
100
AcDbEntity
  8
0
100
AcDbLine
 10
1138.947928
 20
1048.056184
 30
0.0
 11
1144.709316
 21
1048.056184
 31
0.0
  0
LINE
  5
20D4D
100
AcDbEntity
  8
0
100
AcDbLine
 10
1138.309316
 20
1059.334239
 30
0.0
 11
1138.947928
 21
1060.440348
 31
0.0
  0
ARC
  5
20D4E
100
AcDbEntity
  8
0
100
AcDbCircle
 10
1151.970704
 20
1052.184239
 30
0.0
 40
13.661388
100
AcDbArc
 50
162.412046
 51
197.587954
  0
ARC
  5
20D4F
100
AcDbEntity
  8
0
100
AcDbCircle
 10
1141.964143
 20
1058.37632
 30
0.0
 40
3.654827
100
AcDbArc
 50
145.615753
 51
214.384247
  0
LINE
  5
20D50
100
AcDbEntity
  8
0
100
AcDbLine
 10
1138.309316
 20
1045.034239
 30
0.0
 11
1138.309316
 21
1059.334239
 31
0.0
  0
LINE
  5
20D51
100
AcDbEntity
  8
0
100
AcDbLine
 10
1141.709316
 20
1084.184239
 30
0.0
 11
1121.709316
 21
1084.184239
 31
0.0
  0
LINE
  5
20D52
100
AcDbEntity
  8
0
100
AcDbLine
 10
1119.952026
 20
1065.954544
 30
0.0
 11
1143.466606
 21
1065.954544
 31
0.0
  0
ARC
  5
20D53
100
AcDbEntity
  8
0
100
AcDbCircle
 10
1156.709316
 20
1076.684239
 30
0.0
 40
2.0
100
AcDbArc
 50
180.0
 51
270.0
  0
LINE
  5
20D54
100
AcDbEntity
  8
0
100
AcDbLine
 10
1156.709316
 20
1074.684239
 30
0.0
 11
1158.709316
 21
1074.684239
 31
0.0
  0
LINE
  5
20D56
100
AcDbEntity
  8
0
100
AcDbLine
 10
1158.709316
 20
1072.343436
 30
0.0
 11
1144.709316
 21
1072.343436
 31
0.0
  0
LINE
  5
20D57
100
AcDbEntity
  8
0
100
AcDbLine
 10
1131.709316
 20
1105.184239
 30
0.0
 11
1109.709316
 21
1105.184239
 31
0.0
  0
LINE
  5
20D58
100
AcDbEntity
  8
0
100
AcDbLine
 10
1109.709316
 20
1105.184239
 30
0.0
 11
1108.709316
 21
1104.184239
 31
0.0
  0
LINE
  5
20D59
100
AcDbEntity
  8
0
100
AcDbLine
 10
1131.709316
 20
1105.184239
 30
0.0
 11
1153.709316
 21
1105.184239
 31
0.0
  0
LINE
  5
20D5A
100
AcDbEntity
  8
0
100
AcDbLine
 10
1141.709316
 20
1098.184239
 30
0.0
 11
1121.709316
 21
1098.184239
 31
0.0
  0
LINE
  5
20D5B
100
AcDbEntity
  8
0
100
AcDbLine
 10
1153.709316
 20
1105.184239
 30
0.0
 11
1154.709316
 21
1104.184239
 31
0.0
  0
LINE
  5
20D5C
100
AcDbEntity
  8
0
100
AcDbLine
 10
1175.359316
 20
1069.684239
 30
0.0
 11
1175.359316
 21
1085.684239
 31
0.0
  0
LINE
  5
20D5D
100
AcDbEntity
  8
0
100
AcDbLine
 10
1176.495803
 20
1056.086739
 30
0.0
 11
1175.999282
 21
1056.946739
 31
0.0
  0
LINE
  5
20D5E
100
AcDbEntity
  8
0
100
AcDbLine
 10
1176.495803
 20
1048.281739
 30
0.0
 11
1175.999282
 21
1047.421739
 31
0.0
  0
LINE
  5
20D5F
100
AcDbEntity
  8
0
100
AcDbLine
 10
1176.495803
 20
1048.281739
 30
0.0
 11
1176.495803
 21
1056.086739
 31
0.0
  0
LINE
  5
20D60
100
AcDbEntity
  8
0
100
AcDbLine
 10
1175.999282
 20
1056.946739
 30
0.0
 11
1175.359316
 21
1056.946739
 31
0.0
  0
LINE
  5
20D61
100
AcDbEntity
  8
0
100
AcDbLine
 10
1175.999282
 20
1047.421739
 30
0.0
 11
1175.359316
 21
1047.421739
 31
0.0
  0
LINE
  5
20D62
100
AcDbEntity
  8
0
100
AcDbLine
 10
1175.359316
 20
1069.684239
 30
0.0
 11
1183.209316
 21
1069.684239
 31
0.0
  0
ARC
  5
20D63
100
AcDbEntity
  8
0
100
AcDbCircle
 10
1194.188504
 20
1066.905273
 30
0.0
 40
2.52349
100
AcDbArc
 50
111.213175
 51
173.653128
  0
ARC
  5
20D64
100
AcDbEntity
  8
0
100
AcDbCircle
 10
1201.709316
 20
1067.684239
 30
0.0
 40
8.5
100
AcDbArc
 50
90.0
 51
180.0
  0
LINE
  5
20D65
100
AcDbEntity
  8
0
100
AcDbLine
 10
1183.209316
 20
1067.184239
 30
0.0
 11
1191.680481
 21
1067.184239
 31
0.0
  0
LINE
  5
20D66
100
AcDbEntity
  8
0
100
AcDbLine
 10
1175.359316
 20
1085.684239
 30
0.0
 11
1162.359316
 21
1085.684239
 31
0.0
  0
ARC
  5
20D67
100
AcDbEntity
  8
0
100
AcDbCircle
 10
1271.209316
 20
1067.684239
 30
0.0
 40
8.5
100
AcDbArc
 50
0.0
 51
90.0
  0
TEXT
  5
20D68
100
AcDbEntity
  8
0
100
AcDbText
 10
682.414164
 20
65.648824
 30
0.0
 40
21.0
  1
TLV  FS3 (PT,SW)保温カバー付
 72
     4
 11
891.114164
 21
74.648824
 31
0.0
100
AcDbText
  0
LINE
  5
20D69
100
AcDbEntity
  8
0
100
AcDbLine
 10
591.154925
 20
228.721637
 30
0.0
 11
583.304925
 21
228.721637
 31
0.0
  0
LINE
  5
20D6A
100
AcDbEntity
  8
0
100
AcDbLine
 10
591.154925
 20
193.721637
 30
0.0
 11
583.304925
 21
193.721637
 31
0.0
  0
TEXT
  5
20D6B
100
AcDbEntity
  8
0
100
AcDbText
 10
559.405762
 20
112.599692
 30
0.0
 40
15.0
  1
15,20A
 72
     4
 11
595.834333
 21
118.67112
 31
0.0
100
AcDbText
  0
LINE
  5
20D6C
100
AcDbEntity
  8
0
100
AcDbLine
 10
399.235486
 20
253.221637
 30
0.0
 11
381.235486
 21
253.221637
 31
0.0
  0
ARC
  5
20D6F
100
AcDbEntity
  8
0
100
AcDbCircle
 10
381.235486
 20
211.221637
 30
0.0
 40
33.5
100
AcDbArc
 50
54.234697
 51
125.765303
  0
TEXT
  5
20D71
100
AcDbEntity
  8
0
100
AcDbText
 10
260.996048
 20
193.089615
 30
0.0
 40
17.5
  1
正面
100
AcDbText
  0
ARC
  5
20D74
100
AcDbEntity
  8
0
100
AcDbCircle
 10
362.735969
 20
245.721291
 30
0.0
 40
1.0
100
AcDbArc
 50
89.990253
 51
180.009747
  0
LINE
  5
20D75
100
AcDbEntity
  8
0
100
AcDbLine
 10
363.235486
 20
253.221637
 30
0.0
 11
361.735486
 21
251.721637
 31
0.0
  0
LINE
  5
20D76
100
AcDbEntity
  8
0
100
AcDbLine
 10
363.496147
 20
246.721291
 30
0.0
 11
362.736139
 21
246.721291
 31
0.0
  0
ARC
  5
20D77
100
AcDbEntity
  8
0
100
AcDbCircle
 10
363.496317
 20
247.721291
 30
0.0
 40
1.0
100
AcDbArc
 50
269.990253
 51
0.009747
  0
LINE
  5
20D78
100
AcDbEntity
  8
0
100
AcDbLine
 10
364.495557
 20
245.827522
 30
0.0
 11
364.495557
 21
240.2393
 31
0.0
  0
LINE
  5
20D79
100
AcDbEntity
  8
0
100
AcDbLine
 10
361.735486
 20
251.721637
 30
0.0
 11
361.735486
 21
238.461314
 31
0.0
  0
LINE
  5
20D7A
100
AcDbEntity
  8
0
100
AcDbLine
 10
361.735486
 20
251.721637
 30
0.0
 11
361.735486
 21
238.461314
 31
0.0
  0
LINE
  5
20D7D
100
AcDbEntity
  8
0
100
AcDbLine
 10
583.304925
 20
228.721637
 30
0.0
 11
583.304925
 21
193.721637
 31
0.0
  0
LINE
  5
20D8F
100
AcDbEntity
  8
0
100
AcDbLine
 10
399.235486
 20
253.221637
 30
0.0
 11
400.735486
 21
251.721637
 31
0.0
  0
ARC
  5
20D90
100
AcDbEntity
  8
0
100
AcDbCircle
 10
399.735003
 20
245.721291
 30
0.0
 40
1.0
100
AcDbArc
 50
359.990253
 51
90.009747
  0
LINE
  5
20D91
100
AcDbEntity
  8
0
100
AcDbLine
 10
397.975415
 20
245.827522
 30
0.0
 11
397.975415
 21
240.2393
 31
0.0
  0
ARC
  5
20D92
100
AcDbEntity
  8
0
100
AcDbCircle
 10
398.974655
 20
247.721291
 30
0.0
 40
1.0
100
AcDbArc
 50
179.990253
 51
270.009747
  0
LINE
  5
20D93
100
AcDbEntity
  8
0
100
AcDbLine
 10
398.974825
 20
246.721291
 30
0.0
 11
399.734833
 21
246.721291
 31
0.0
  0
LINE
  5
20D94
100
AcDbEntity
  8
0
100
AcDbLine
 10
400.735763
 20
245.721121
 30
0.0
 11
400.735763
 21
238.461116
 31
0.0
  0
LINE
  5
20D95
100
AcDbEntity
  8
0
100
AcDbLine
 10
400.735486
 20
251.721637
 30
0.0
 11
400.735486
 21
238.461314
 31
0.0
  0
LINE
  5
20D9E
100
AcDbEntity
  8
0
100
AcDbLine
 10
754.399519
 20
253.221637
 30
0.0
 11
772.399519
 21
253.221637
 31
0.0
  0
ELLIPSE
  5
20D9F
100
AcDbEntity
  8
0
100
AcDbEllipse
 10
754.399519
 20
228.853365
 30
0.0
 11
-11.5
 21
0.0
 31
0.0
210
0.0
220
0.0
230
1.0
 40
0.707107
 41
3.141592653589793
 42
6.283185307179586
  0
ELLIPSE
  5
20DA0
100
AcDbEntity
  8
0
100
AcDbEllipse
 10
754.399519
 20
201.330764
 30
0.0
 11
-13.5
 21
0.0
 31
0.0
210
0.0
220
0.0
230
1.0
 40
0.707107
 41
3.141592653589793
 42
6.283185307179586
  0
POLYLINE
  5
20DA1
100
AcDbEntity
  8
0
100
AcDb2dPolyline
 66
     1
 10
0.0
 20
0.0
 30
0.0
  0
VERTEX
  5
2196A
100
AcDbEntity
  8
0
100
AcDbVertex
100
AcDb2dVertex
 10
762.353274
 20
200.375262
 30
0.0
  0
VERTEX
  5
2196B
100
AcDbEntity
  8
0
100
AcDbVertex
100
AcDb2dVertex
 10
756.718258
 20
202.404816
 30
0.0
  0
SEQEND
  5
2196C
100
AcDbEntity
  8
0
  0
POLYLINE
  5
20DA2
100
AcDbEntity
  8
0
100
AcDb2dPolyline
 66
     1
 10
0.0
 20
0.0
 30
0.0
  0
VERTEX
  5
2196D
100
AcDbEntity
  8
0
100
AcDbVertex
100
AcDb2dVertex
 10
756.718258
 20
183.993256
 30
0.0
  0
VERTEX
  5
2196E
100
AcDbEntity
  8
0
100
AcDbVertex
100
AcDb2dVertex
 10
762.353274
 20
186.022811
 30
0.0
  0
SEQEND
  5
2196F
100
AcDbEntity
  8
0
  0
LINE
  5
20DA3
100
AcDbEntity
  8
0
100
AcDbLine
 10
736.399519
 20
173.221637
 30
0.0
 11
754.399519
 21
173.221637
 31
0.0
  0
ELLIPSE
  5
20DA4
100
AcDbEntity
  8
0
100
AcDbEllipse
 10
754.399519
 20
197.088123
 30
0.0
 11
11.5
 21
0.0
 31
0.0
210
0.0
220
0.0
230
-1.0
 40
0.707107
 41
2.845629732092404
 42
6.579148228677147
  0
ELLIPSE
  5
20DA5
100
AcDbEntity
  8
0
100
AcDbEllipse
 10
754.399519
 20
192.138376
 30
0.0
 11
-10.5
 21
0.0
 31
0.0
210
0.0
220
0.0
230
1.0
 40
0.707107
 41
0.0
 42
6.283185307179586
  0
ELLIPSE
  5
20DA6
100
AcDbEntity
  8
0
100
AcDbEllipse
 10
754.399519
 20
198.502337
 30
0.0
 11
-13.5
 21
0.0
 31
0.0
210
0.0
220
0.0
230
1.0
 40
0.707107
 41
2.5232060117038
 42
6.901571949065703
  0
POLYLINE
  5
20DA7
100
AcDbEntity
  8
0
100
AcDb2dPolyline
 66
     1
 10
0.0
 20
0.0
 30
0.0
  0
VERTEX
  5
21970
100
AcDbEntity
  8
0
100
AcDbVertex
100
AcDb2dVertex
 10
762.353274
 20
198.253941
 30
0.0
  0
VERTEX
  5
21971
100
AcDbEntity
  8
0
100
AcDbVertex
100
AcDb2dVertex
 10
756.718258
 20
200.283496
 30
0.0
  0
SEQEND
  5
21972
100
AcDbEntity
  8
0
  0
LINE
  5
20DA9
100
AcDbEntity
  8
0
100
AcDbLine
 10
742.899519
 20
206.330764
 30
0.0
 11
742.899519
 21
228.853365
 31
0.0
  0
LINE
  5
20DAA
100
AcDbEntity
  8
0
100
AcDbLine
 10
719.899519
 20
197.221637
 30
0.0
 11
719.899519
 21
225.221637
 31
0.0
  0
LINE
  5
20DAB
100
AcDbEntity
  8
0
100
AcDbLine
 10
719.899519
 20
197.221637
 30
0.0
 11
719.899519
 21
225.221637
 31
0.0
  0
ARC
  5
20DAC
100
AcDbEntity
  8
0
100
AcDbCircle
 10
754.399519
 20
211.221637
 30
0.0
 40
33.5
100
AcDbArc
 50
125.597645
 51
234.402355
  0
ARC
  5
20DAD
100
AcDbEntity
  8
0
100
AcDbCircle
 10
613.543537
 20
211.221637
 30
0.0
 40
13.661388
100
AcDbArc
 50
342.412046
 51
17.587954
  0
LINE
  5
20DAE
100
AcDbEntity
  8
0
100
AcDbLine
 10
627.204925
 20
204.071637
 30
0.0
 11
627.204925
 21
218.371637
 31
0.0
  0
LINE
  5
20DAF
100
AcDbEntity
  8
0
100
AcDbLine
 10
589.018438
 20
207.319137
 30
0.0
 11
589.018438
 21
215.124137
 31
0.0
  0
LINE
  5
20DB0
100
AcDbEntity
  8
0
100
AcDbLine
 10
604.154925
 20
226.721637
 30
0.0
 11
604.154925
 21
195.721637
 31
0.0
  0
LINE
  5
20DB1
100
AcDbEntity
  8
0
100
AcDbLine
 10
604.154925
 20
226.721637
 30
0.0
 11
604.154925
 21
195.721637
 31
0.0
  0
LINE
  5
20DB2
100
AcDbEntity
  8
0
100
AcDbLine
 10
607.804925
 20
188.721637
 30
0.0
 11
607.804925
 21
233.721637
 31
0.0
  0
LINE
  5
20DB3
100
AcDbEntity
  8
0
100
AcDbLine
 10
620.804925
 20
191.06244
 30
0.0
 11
620.804925
 21
231.380834
 31
0.0
  0
LINE
  5
20DB4
100
AcDbEntity
  8
0
100
AcDbLine
 10
650.304925
 20
236.985093
 30
0.0
 11
676.413313
 21
210.876706
 31
0.0
  0
LINE
  5
20DB5
100
AcDbEntity
  8
0
100
AcDbLine
 10
604.154925
 20
177.721637
 30
0.0
 11
604.154925
 21
244.721637
 31
0.0
  0
LINE
  5
20DB6
100
AcDbEntity
  8
0
100
AcDbLine
 10
591.154925
 20
177.721637
 30
0.0
 11
591.154925
 21
244.721637
 31
0.0
  0
CIRCLE
  5
20DB7
100
AcDbEntity
  8
0
100
AcDbCircle
 10
728.900583
 20
211.2211
 30
0.0
 40
6.750069
  0
POLYLINE
  5
20DB8
100
AcDbEntity
  8
0
100
AcDb2dPolyline
 66
     1
 10
0.0
 20
0.0
 30
0.0
 70
     1
  0
VERTEX
  5
21973
100
AcDbEntity
  8
0
100
AcDbVertex
100
AcDb2dVertex
 10
736.050583
 20
215.349154
 30
0.0
  0
VERTEX
  5
21974
100
AcDbEntity
  8
0
100
AcDbVertex
100
AcDb2dVertex
 10
728.900583
 20
219.477208
 30
0.0
  0
VERTEX
  5
21975
100
AcDbEntity
  8
0
100
AcDbVertex
100
AcDb2dVertex
 10
721.750583
 20
215.349154
 30
0.0
  0
VERTEX
  5
21976
100
AcDbEntity
  8
0
100
AcDbVertex
100
AcDb2dVertex
 10
721.750583
 20
207.093045
 30
0.0
  0
VERTEX
  5
21977
100
AcDbEntity
  8
0
100
AcDbVertex
100
AcDb2dVertex
 10
728.900583
 20
202.964991
 30
0.0
  0
VERTEX
  5
21978
100
AcDbEntity
  8
0
100
AcDbVertex
100
AcDb2dVertex
 10
736.050583
 20
207.093045
 30
0.0
  0
SEQEND
  5
21979
100
AcDbEntity
  8
0
  0
LINE
  5
20DB9
100
AcDbEntity
  8
0
100
AcDbLine
 10
675.457046
 20
189.727856
 30
0.0
 11
672.235026
 21
192.949876
 31
0.0
  0
ARC
  5
20DBA
100
AcDbEntity
  8
0
100
AcDbCircle
 10
669.590966
 20
187.85141
 30
0.0
 40
3.54367
100
AcDbArc
 50
292.241215
 51
352.241215
  0
LINE
  5
20DBB
100
AcDbEntity
  8
0
100
AcDbLine
 10
673.102194
 20
187.373005
 30
0.0
 11
669.880174
 21
190.595025
 31
0.0
  0
LINE
  5
20DBC
100
AcDbEntity
  8
0
100
AcDbLine
 10
662.978284
 20
188.956395
 30
0.0
 11
682.070167
 21
208.048279
 31
0.0
  0
LINE
  5
20DBD
100
AcDbEntity
  8
0
100
AcDbLine
 10
678.234113
 20
209.869079
 30
0.0
 11
661.157484
 21
192.79245
 31
0.0
  0
LINE
  5
20DBE
100
AcDbEntity
  8
0
100
AcDbLine
 10
675.60014
 20
210.063533
 30
0.0
 11
660.963029
 21
195.426423
 31
0.0
  0
LINE
  5
20DBF
100
AcDbEntity
  8
0
100
AcDbLine
 10
682.070167
 20
205.219851
 30
0.0
 11
665.806711
 21
188.956395
 31
0.0
  0
LINE
  5
20DC0
100
AcDbEntity
  8
0
100
AcDbLine
 10
667.220924
 20
188.956395
 30
0.0
 11
682.070167
 21
203.805638
 31
0.0
  0
ARC
  5
20DC1
100
AcDbEntity
  8
0
100
AcDbCircle
 10
683.259585
 20
187.766978
 30
0.0
 40
12.182091
100
AcDbArc
 50
115.179294
 51
154.820706
  0
LINE
  5
20DC2
100
AcDbEntity
  8
0
100
AcDbLine
 10
671.463565
 20
184.713755
 30
0.0
 11
686.312807
 21
199.562997
 31
0.0
  0
LINE
  5
20DC3
100
AcDbEntity
  8
0
100
AcDbLine
 10
629.604925
 20
203.221637
 30
0.0
 11
644.804925
 21
203.221637
 31
0.0
  0
LINE
  5
20DC4
100
AcDbEntity
  8
0
100
AcDbLine
 10
638.804925
 20
179.721637
 30
0.0
 11
622.804925
 21
179.721637
 31
0.0
  0
LINE
  5
20DC5
100
AcDbEntity
  8
0
100
AcDbLine
 10
638.804925
 20
189.721637
 30
0.0
 11
622.804925
 21
189.721637
 31
0.0
  0
LINE
  5
20DC6
100
AcDbEntity
  8
0
100
AcDbLine
 10
630.804925
 20
173.221637
 30
0.0
 11
612.804925
 21
173.221637
 31
0.0
  0
LINE
  5
20DC7
100
AcDbEntity
  8
0
100
AcDbLine
 10
607.804925
 20
191.06244
 30
0.0
 11
620.804925
 21
191.06244
 31
0.0
  0
LINE
  5
20DC8
100
AcDbEntity
  8
0
100
AcDbLine
 10
607.804925
 20
188.721637
 30
0.0
 11
609.304925
 21
188.721637
 31
0.0
  0
LINE
  5
20DC9
100
AcDbEntity
  8
0
100
AcDbLine
 10
591.154925
 20
177.721637
 30
0.0
 11
604.154925
 21
177.721637
 31
0.0
  0
ARC
  5
20DCA
100
AcDbEntity
  8
0
100
AcDbCircle
 10
609.304925
 20
186.721637
 30
0.0
 40
2.0
100
AcDbArc
 50
0.0
 51
90.0
  0
LINE
  5
20DCB
100
AcDbEntity
  8
0
100
AcDbLine
 10
611.304925
 20
188.721637
 30
0.0
 11
620.804925
 21
191.06244
 31
0.0
  0
LINE
  5
20DCC
100
AcDbEntity
  8
0
100
AcDbLine
 10
622.804925
 20
179.721637
 30
0.0
 11
622.804925
 21
189.721637
 31
0.0
  0
LINE
  5
20DCD
100
AcDbEntity
  8
0
100
AcDbLine
 10
611.304925
 20
174.721637
 30
0.0
 11
612.804925
 21
173.221637
 31
0.0
  0
LINE
  5
20DCE
100
AcDbEntity
  8
0
100
AcDbLine
 10
611.304925
 20
186.721637
 30
0.0
 11
611.304925
 21
174.721637
 31
0.0
  0
LINE
  5
20DCF
100
AcDbEntity
  8
0
100
AcDbLine
 10
589.514959
 20
206.459137
 30
0.0
 11
591.054925
 21
206.459137
 31
0.0
  0
LINE
  5
20DD0
100
AcDbEntity
  8
0
100
AcDbLine
 10
589.018438
 20
207.319137
 30
0.0
 11
589.514959
 21
206.459137
 31
0.0
  0
LINE
  5
20DD1
100
AcDbEntity
  8
0
100
AcDbLine
 10
607.804925
 20
206.459137
 30
0.0
 11
604.154925
 21
206.459137
 31
0.0
  0
LINE
  5
20DD2
100
AcDbEntity
  8
0
100
AcDbLine
 10
607.804925
 20
193.721637
 30
0.0
 11
604.154925
 21
193.721637
 31
0.0
  0
LINE
  5
20DD3
100
AcDbEntity
  8
0
100
AcDbLine
 10
626.566313
 20
207.093583
 30
0.0
 11
620.804925
 21
207.093583
 31
0.0
  0
LINE
  5
20DD4
100
AcDbEntity
  8
0
100
AcDbLine
 10
626.566313
 20
202.965528
 30
0.0
 11
620.804925
 21
202.965528
 31
0.0
  0
ARC
  5
20DD5
100
AcDbEntity
  8
0
100
AcDbCircle
 10
623.550099
 20
205.029555
 30
0.0
 40
3.654827
100
AcDbArc
 50
325.615753
 51
34.384247
  0
LINE
  5
20DD6
100
AcDbEntity
  8
0
100
AcDbLine
 10
627.204925
 20
204.071637
 30
0.0
 11
626.566313
 21
202.965528
 31
0.0
  0
ARC
  5
20DD7
100
AcDbEntity
  8
0
100
AcDbCircle
 10
658.735643
 20
193.199036
 30
0.0
 40
2.0
100
AcDbArc
 50
315.0
 51
45.0
  0
LINE
  5
20DD8
100
AcDbEntity
  8
0
100
AcDbLine
 10
669.880174
 20
190.595025
 30
0.0
 11
672.235026
 21
192.949876
 31
0.0
  0
LINE
  5
20DD9
100
AcDbEntity
  8
0
100
AcDbLine
 10
650.304925
 20
194.801327
 30
0.0
 11
650.304925
 21
174.721637
 31
0.0
  0
LINE
  5
20DDA
100
AcDbEntity
  8
0
100
AcDbLine
 10
638.804925
 20
179.721637
 30
0.0
 11
638.804925
 21
189.721637
 31
0.0
  0
LINE
  5
20DDB
100
AcDbEntity
  8
0
100
AcDbLine
 10
648.804925
 20
173.221637
 30
0.0
 11
630.804925
 21
173.221637
 31
0.0
  0
LINE
  5
20DDC
100
AcDbEntity
  8
0
100
AcDbLine
 10
648.804925
 20
173.221637
 30
0.0
 11
650.304925
 21
174.721637
 31
0.0
  0
LINE
  5
20DDD
100
AcDbEntity
  8
0
100
AcDbLine
 10
665.806711
 20
188.956395
 30
0.0
 11
662.978284
 21
188.956395
 31
0.0
  0
LINE
  5
20DDE
100
AcDbEntity
  8
0
100
AcDbLine
 10
660.149857
 20
191.784823
 30
0.0
 11
662.978284
 21
188.956395
 31
0.0
  0
LINE
  5
20DDF
100
AcDbEntity
  8
0
100
AcDbLine
 10
670.069371
 20
184.340182
 30
0.0
 11
666.847351
 21
187.562202
 31
0.0
  0
LINE
  5
20DE0
100
AcDbEntity
  8
0
100
AcDbLine
 10
671.463565
 20
184.713755
 30
0.0
 11
670.069371
 21
184.340182
 31
0.0
  0
LINE
  5
20DE1
100
AcDbEntity
  8
0
100
AcDbLine
 10
667.220924
 20
188.956395
 30
0.0
 11
666.847351
 21
187.562202
 31
0.0
  0
LINE
  5
20DE2
100
AcDbEntity
  8
0
100
AcDbLine
 10
667.220924
 20
188.956395
 30
0.0
 11
666.513818
 21
189.663502
 31
0.0
  0
ARC
  5
20DE3
100
AcDbEntity
  8
0
100
AcDbCircle
 10
670.35858
 20
187.083796
 30
0.0
 40
3.54367
100
AcDbArc
 50
97.758785
 51
157.758785
  0
ARC
  5
20DE4
100
AcDbEntity
  8
0
100
AcDbCircle
 10
654.304925
 20
194.801327
 30
0.0
 40
4.0
100
AcDbArc
 50
45.0
 51
180.0
  0
LINE
  5
20DE5
100
AcDbEntity
  8
0
100
AcDbLine
 10
657.133352
 20
197.629754
 30
0.0
 11
660.149857
 21
194.61325
 31
0.0
  0
ARC
  5
20DE6
100
AcDbEntity
  8
0
100
AcDbCircle
 10
670.274147
 20
200.752415
 30
0.0
 40
12.182091
100
AcDbArc
 50
295.179294
 51
334.820706
  0
LINE
  5
20DE7
100
AcDbEntity
  8
0
100
AcDbLine
 10
673.102194
 20
187.373005
 30
0.0
 11
675.457046
 21
189.727856
 31
0.0
  0
LINE
  5
20DE8
100
AcDbEntity
  8
0
100
AcDbLine
 10
686.686381
 20
200.957191
 30
0.0
 11
683.464361
 21
204.179211
 31
0.0
  0
ARC
  5
20DE9
100
AcDbEntity
  8
0
100
AcDbCircle
 10
683.942766
 20
200.667982
 30
0.0
 40
3.54367
100
AcDbArc
 50
112.241215
 51
172.241215
  0
ARC
  5
20DEA
100
AcDbEntity
  8
0
100
AcDbCircle
 10
677.827526
 20
212.290919
 30
0.0
 40
2.0
100
AcDbArc
 50
225.0
 51
315.0
  0
LINE
  5
20DEB
100
AcDbEntity
  8
0
100
AcDbLine
 10
682.070167
 20
208.048279
 30
0.0
 11
679.24174
 21
210.876706
 31
0.0
  0
LINE
  5
20DEC
100
AcDbEntity
  8
0
100
AcDbLine
 10
682.070167
 20
205.219851
 30
0.0
 11
682.070167
 21
208.048279
 31
0.0
  0
LINE
  5
20DED
100
AcDbEntity
  8
0
100
AcDbLine
 10
682.070167
 20
203.805638
 30
0.0
 11
681.36306
 21
204.512745
 31
0.0
  0
LINE
  5
20DEE
100
AcDbEntity
  8
0
100
AcDbLine
 10
682.070167
 20
203.805638
 30
0.0
 11
683.464361
 21
204.179211
 31
0.0
  0
LINE
  5
20DEF
100
AcDbEntity
  8
0
100
AcDbLine
 10
686.312807
 20
199.562997
 30
0.0
 11
686.686381
 21
200.957191
 31
0.0
  0
LINE
  5
20DF0
100
AcDbEntity
  8
0
100
AcDbLine
 10
681.298706
 20
195.569517
 30
0.0
 11
683.653558
 21
197.924368
 31
0.0
  0
LINE
  5
20DF1
100
AcDbEntity
  8
0
100
AcDbLine
 10
681.298706
 20
195.569517
 30
0.0
 11
678.076686
 21
198.791537
 31
0.0
  0
ARC
  5
20DF2
100
AcDbEntity
  8
0
100
AcDbCircle
 10
683.175152
 20
201.435597
 30
0.0
 40
3.54367
100
AcDbArc
 50
277.758785
 51
337.758785
  0
LINE
  5
20DF3
100
AcDbEntity
  8
0
100
AcDbLine
 10
678.076686
 20
198.791537
 30
0.0
 11
680.431538
 21
201.146388
 31
0.0
  0
LINE
  5
20DF4
100
AcDbEntity
  8
0
100
AcDbLine
 10
683.653558
 20
197.924368
 30
0.0
 11
680.431538
 21
201.146388
 31
0.0
  0
POLYLINE
  5
20DF5
100
AcDbEntity
  8
0
100
AcDb2dPolyline
 66
     1
 10
0.0
 20
0.0
 30
0.0
  0
VERTEX
  5
2197A
100
AcDbEntity
  8
0
100
AcDbVertex
100
AcDb2dVertex
 10
743.399519
 20
197.180527
 30
0.0
  0
VERTEX
  5
2197B
100
AcDbEntity
  8
0
100
AcDbVertex
100
AcDb2dVertex
 10
743.399519
 20
189.217546
 30
0.0
  0
SEQEND
  5
2197C
100
AcDbEntity
  8
0
  0
ARC
  5
20DF6
100
AcDbEntity
  8
0
100
AcDbCircle
 10
742.899519
 20
191.407929
 30
0.0
 40
8.0
100
AcDbArc
 50
135.0
 51
180.0
  0
LINE
  5
20DF7
100
AcDbEntity
  8
0
100
AcDbLine
 10
735.900172
 20
189.722164
 30
0.0
 11
736.66018
 21
189.722164
 31
0.0
  0
LINE
  5
20DF8
100
AcDbEntity
  8
0
100
AcDbLine
 10
736.66018
 20
189.722164
 30
0.0
 11
735.900172
 21
189.722164
 31
0.0
  0
LINE
  5
20DF9
100
AcDbEntity
  8
0
100
AcDbLine
 10
736.66018
 20
179.721983
 30
0.0
 11
735.900172
 21
179.721983
 31
0.0
  0
LINE
  5
20DFA
100
AcDbEntity
  8
0
100
AcDbLine
 10
736.399519
 20
173.221637
 30
0.0
 11
734.899519
 21
174.721637
 31
0.0
  0
LINE
  5
20DFE
100
AcDbEntity
  8
0
100
AcDbLine
 10
734.899242
 20
180.722153
 30
0.0
 11
734.899242
 21
188.721994
 31
0.0
  0
LINE
  5
20DFF
100
AcDbEntity
  8
0
100
AcDbLine
 10
734.899519
 20
174.721637
 30
0.0
 11
734.899519
 21
191.407929
 31
0.0
  0
ARC
  5
20E00
100
AcDbEntity
  8
0
100
AcDbCircle
 10
735.900002
 20
188.722164
 30
0.0
 40
1.0
100
AcDbArc
 50
89.990253
 51
180.009747
  0
ARC
  5
20E01
100
AcDbEntity
  8
0
100
AcDbCircle
 10
735.900002
 20
180.721983
 30
0.0
 40
1.0
100
AcDbArc
 50
179.990253
 51
270.009747
  0
ELLIPSE
  5
20E02
100
AcDbEntity
  8
0
100
AcDbEllipse
 10
754.399519
 20
192.138376
 30
0.0
 11
11.75
 21
0.0
 31
0.0
210
0.0
220
0.0
230
1.0
 40
0.707107
 41
4.513745654064261
 42
4.911032306705117
  0
ELLIPSE
  5
20E03
100
AcDbEntity
  8
0
100
AcDbEllipse
 10
754.399519
 20
192.138376
 30
0.0
 11
11.75
 21
0.0
 31
0.0
210
0.0
220
0.0
230
1.0
 40
0.707107
 41
3.500815782874589
 42
3.968825259452236
  0
ARC
  5
20E04
100
AcDbEntity
  8
0
100
AcDbCircle
 10
736.66035
 20
190.722164
 30
0.0
 40
1.0
100
AcDbArc
 50
269.990253
 51
0.009747
  0
ARC
  5
20E05
100
AcDbEntity
  8
0
100
AcDbCircle
 10
736.66035
 20
178.721983
 30
0.0
 40
1.0
100
AcDbArc
 50
359.990253
 51
90.009747
  0
LINE
  5
20E06
100
AcDbEntity
  8
0
100
AcDbLine
 10
737.65959
 20
180.615752
 30
0.0
 11
737.65959
 21
188.713634
 31
0.0
  0
POLYLINE
  5
20E07
100
AcDbEntity
  8
0
100
AcDb2dPolyline
 66
     1
 10
0.0
 20
0.0
 30
0.0
  0
VERTEX
  5
2197D
100
AcDbEntity
  8
0
100
AcDbVertex
100
AcDb2dVertex
 10
746.445764
 20
186.022811
 30
0.0
  0
VERTEX
  5
2197E
100
AcDbEntity
  8
0
100
AcDbVertex
100
AcDb2dVertex
 10
752.08078
 20
183.993256
 30
0.0
  0
SEQEND
  5
2197F
100
AcDbEntity
  8
0
  0
ARC
  5
20E08
100
AcDbEntity
  8
0
100
AcDbCircle
 10
720.899519
 20
197.221637
 30
0.0
 40
1.0
100
AcDbArc
 50
180.0
 51
270.0
  0
ARC
  5
20E09
100
AcDbEntity
  8
0
100
AcDbCircle
 10
720.899519
 20
197.221637
 30
0.0
 40
1.0
100
AcDbArc
 50
180.0
 51
270.0
  0
ARC
  5
20E0A
100
AcDbEntity
  8
0
100
AcDbCircle
 10
722.646566
 20
193.221637
 30
0.0
 40
3.0
100
AcDbArc
 50
29.547878
 51
90.0
  0
ARC
  5
20E0B
100
AcDbEntity
  8
0
100
AcDbCircle
 10
722.646566
 20
193.221637
 30
0.0
 40
3.0
100
AcDbArc
 50
29.547878
 51
90.0
  0
LINE
  5
20E0C
100
AcDbEntity
  8
0
100
AcDbLine
 10
720.899519
 20
196.221637
 30
0.0
 11
722.646566
 21
196.221637
 31
0.0
  0
LINE
  5
20E0D
100
AcDbEntity
  8
0
100
AcDbLine
 10
720.899519
 20
196.221637
 30
0.0
 11
722.646566
 21
196.221637
 31
0.0
  0
ELLIPSE
  5
20E0E
100
AcDbEntity
  8
0
100
AcDbEllipse
 10
754.399519
 20
194.259696
 30
0.0
 11
11.75
 21
0.0
 31
0.0
210
0.0
220
0.0
230
1.0
 40
0.707107
 41
1.372153000474518
 42
1.769439653115324
  0
ELLIPSE
  5
20E0F
100
AcDbEntity
  8
0
100
AcDbEllipse
 10
754.399519
 20
192.138376
 30
0.0
 11
11.75
 21
0.0
 31
0.0
210
0.0
220
0.0
230
1.0
 40
0.707107
 41
1.372153000474518
 42
1.769439653115324
  0
LINE
  5
20E10
100
AcDbEntity
  8
0
100
AcDbLine
 10
752.08078
 20
202.404816
 30
0.0
 11
752.08078
 21
200.283496
 31
0.0
  0
POLYLINE
  5
20E11
100
AcDbEntity
  8
0
100
AcDb2dPolyline
 66
     1
 10
0.0
 20
0.0
 30
0.0
  0
VERTEX
  5
21980
100
AcDbEntity
  8
0
100
AcDbVertex
100
AcDb2dVertex
 10
746.445764
 20
200.375262
 30
0.0
  0
VERTEX
  5
21981
100
AcDbEntity
  8
0
100
AcDbVertex
100
AcDb2dVertex
 10
752.08078
 20
202.404816
 30
0.0
  0
SEQEND
  5
21982
100
AcDbEntity
  8
0
  0
POLYLINE
  5
20E12
100
AcDbEntity
  8
0
100
AcDb2dPolyline
 66
     1
 10
0.0
 20
0.0
 30
0.0
  0
VERTEX
  5
21983
100
AcDbEntity
  8
0
100
AcDbVertex
100
AcDb2dVertex
 10
752.08078
 20
202.404816
 30
0.0
  0
VERTEX
  5
21984
100
AcDbEntity
  8
0
100
AcDbVertex
100
AcDb2dVertex
 10
746.445764
 20
200.375262
 30
0.0
  0
SEQEND
  5
21985
100
AcDbEntity
  8
0
  0
LINE
  5
20E13
100
AcDbEntity
  8
0
100
AcDbLine
 10
756.718258
 20
202.404816
 30
0.0
 11
756.718258
 21
200.283496
 31
0.0
  0
ELLIPSE
  5
20E14
100
AcDbEntity
  8
0
100
AcDbEllipse
 10
754.399519
 20
192.138376
 30
0.0
 11
11.75
 21
0.0
 31
0.0
210
0.0
220
0.0
230
1.0
 40
0.707107
 41
2.314360047727349
 42
2.782369524304982
  0
ELLIPSE
  5
20E15
100
AcDbEntity
  8
0
100
AcDbEllipse
 10
754.399519
 20
194.259696
 30
0.0
 11
11.75
 21
0.0
 31
0.0
210
0.0
220
0.0
230
1.0
 40
0.707107
 41
2.314360047727349
 42
2.782369524304982
  0
LINE
  5
20E16
100
AcDbEntity
  8
0
100
AcDbLine
 10
740.899519
 20
200.721637
 30
0.0
 11
737.242665
 21
197.064783
 31
0.0
  0
LINE
  5
20E17
100
AcDbEntity
  8
0
100
AcDbLine
 10
740.899519
 20
201.330764
 30
0.0
 11
740.899519
 21
198.502337
 31
0.0
  0
LINE
  5
20E18
100
AcDbEntity
  8
0
100
AcDbLine
 10
746.445764
 20
200.375262
 30
0.0
 11
746.445764
 21
198.253941
 31
0.0
  0
POLYLINE
  5
20E19
100
AcDbEntity
  8
0
100
AcDb2dPolyline
 66
     1
 10
0.0
 20
0.0
 30
0.0
  0
VERTEX
  5
21986
100
AcDbEntity
  8
0
100
AcDbVertex
100
AcDb2dVertex
 10
746.445764
 20
198.253941
 30
0.0
  0
VERTEX
  5
21987
100
AcDbEntity
  8
0
100
AcDbVertex
100
AcDb2dVertex
 10
752.08078
 20
200.283496
 30
0.0
  0
SEQEND
  5
21988
100
AcDbEntity
  8
0
  0
POLYLINE
  5
20E1A
100
AcDbEntity
  8
0
100
AcDb2dPolyline
 66
     1
 10
0.0
 20
0.0
 30
0.0
  0
VERTEX
  5
21989
100
AcDbEntity
  8
0
100
AcDbVertex
100
AcDb2dVertex
 10
752.08078
 20
200.283496
 30
0.0
  0
VERTEX
  5
2198A
100
AcDbEntity
  8
0
100
AcDbVertex
100
AcDb2dVertex
 10
746.445764
 20
198.253941
 30
0.0
  0
SEQEND
  5
2198B
100
AcDbEntity
  8
0
  0
LINE
  5
20E1B
100
AcDbEntity
  8
0
100
AcDbLine
 10
638.804925
 20
246.721637
 30
0.0
 11
622.804925
 21
246.721637
 31
0.0
  0
LINE
  5
20E1C
100
AcDbEntity
  8
0
100
AcDbLine
 10
630.804925
 20
253.221637
 30
0.0
 11
612.804925
 21
253.221637
 31
0.0
  0
LINE
  5
20E1D
100
AcDbEntity
  8
0
100
AcDbLine
 10
638.804925
 20
236.721637
 30
0.0
 11
622.804925
 21
236.721637
 31
0.0
  0
LINE
  5
20E1E
100
AcDbEntity
  8
0
100
AcDbLine
 10
628.104925
 20
219.221637
 30
0.0
 11
637.304925
 21
219.221637
 31
0.0
  0
ARC
  5
20E1F
100
AcDbEntity
  8
0
100
AcDbCircle
 10
609.304925
 20
235.721637
 30
0.0
 40
2.0
100
AcDbArc
 50
270.0
 51
0.0
  0
LINE
  5
20E20
100
AcDbEntity
  8
0
100
AcDbLine
 10
611.304925
 20
233.721637
 30
0.0
 11
620.804925
 21
231.380834
 31
0.0
  0
LINE
  5
20E21
100
AcDbEntity
  8
0
100
AcDbLine
 10
591.154925
 20
228.721637
 30
0.0
 11
591.154925
 21
244.721637
 31
0.0
  0
LINE
  5
20E22
100
AcDbEntity
  8
0
100
AcDbLine
 10
607.804925
 20
231.380834
 30
0.0
 11
620.804925
 21
231.380834
 31
0.0
  0
LINE
  5
20E23
100
AcDbEntity
  8
0
100
AcDbLine
 10
589.514959
 20
215.984137
 30
0.0
 11
591.054925
 21
215.984137
 31
0.0
  0
LINE
  5
20E24
100
AcDbEntity
  8
0
100
AcDbLine
 10
589.018438
 20
215.124137
 30
0.0
 11
589.514959
 21
215.984137
 31
0.0
  0
LINE
  5
20E25
100
AcDbEntity
  8
0
100
AcDbLine
 10
607.804925
 20
215.984137
 30
0.0
 11
604.154925
 21
215.984137
 31
0.0
  0
LINE
  5
20E26
100
AcDbEntity
  8
0
100
AcDbLine
 10
607.804925
 20
228.721637
 30
0.0
 11
604.154925
 21
228.721637
 31
0.0
  0
LINE
  5
20E27
100
AcDbEntity
  8
0
100
AcDbLine
 10
626.566313
 20
219.477746
 30
0.0
 11
620.804925
 21
219.477746
 31
0.0
  0
LINE
  5
20E28
100
AcDbEntity
  8
0
100
AcDbLine
 10
627.204925
 20
218.371637
 30
0.0
 11
626.566313
 21
219.477746
 31
0.0
  0
LINE
  5
20E29
100
AcDbEntity
  8
0
100
AcDbLine
 10
626.566313
 20
215.349692
 30
0.0
 11
620.804925
 21
215.349692
 31
0.0
  0
ARC
  5
20E2A
100
AcDbEntity
  8
0
100
AcDbCircle
 10
623.550099
 20
217.413719
 30
0.0
 40
3.654827
100
AcDbArc
 50
325.615753
 51
34.384247
  0
LINE
  5
20E2B
100
AcDbEntity
  8
0
100
AcDbLine
 10
607.804925
 20
233.721637
 30
0.0
 11
609.304925
 21
233.721637
 31
0.0
  0
LINE
  5
20E2C
100
AcDbEntity
  8
0
100
AcDbLine
 10
591.154925
 20
244.721637
 30
0.0
 11
604.154925
 21
244.721637
 31
0.0
  0
LINE
  5
20E2D
100
AcDbEntity
  8
0
100
AcDbLine
 10
612.804925
 20
253.221637
 30
0.0
 11
611.304925
 21
251.721637
 31
0.0
  0
LINE
  5
20E2E
100
AcDbEntity
  8
0
100
AcDbLine
 10
622.804925
 20
246.721637
 30
0.0
 11
622.804925
 21
236.721637
 31
0.0
  0
LINE
  5
20E2F
100
AcDbEntity
  8
0
100
AcDbLine
 10
611.304925
 20
249.221637
 30
0.0
 11
611.304925
 21
235.721637
 31
0.0
  0
LINE
  5
20E30
100
AcDbEntity
  8
0
100
AcDbLine
 10
611.304925
 20
251.721637
 30
0.0
 11
611.304925
 21
235.721637
 31
0.0
  0
LINE
  5
20E31
100
AcDbEntity
  8
0
100
AcDbLine
 10
648.804925
 20
253.221637
 30
0.0
 11
630.804925
 21
253.221637
 31
0.0
  0
LINE
  5
20E32
100
AcDbEntity
  8
0
100
AcDbLine
 10
650.304925
 20
251.721637
 30
0.0
 11
648.804925
 21
253.221637
 31
0.0
  0
LINE
  5
20E33
100
AcDbEntity
  8
0
100
AcDbLine
 10
650.304925
 20
251.721637
 30
0.0
 11
650.304925
 21
236.985093
 31
0.0
  0
LINE
  5
20E34
100
AcDbEntity
  8
0
100
AcDbLine
 10
638.804925
 20
246.721637
 30
0.0
 11
638.804925
 21
236.721637
 31
0.0
  0
INSERT
  5
20E35
100
AcDbEntity
  8
0
100
AcDbBlockReference
  2
YA
 10
630.804925
 20
259.124575
 30
0.0
 41
-1.630435
 42
1.630435
 43
1.630435
 50
90.0
  0
LINE
  5
20E38
100
AcDbEntity
  8
0
100
AcDbLine
 10
734.899519
 20
251.721637
 30
0.0
 11
734.899519
 21
231.035346
 31
0.0
  0
ARC
  5
20E39
100
AcDbEntity
  8
0
100
AcDbCircle
 10
742.899519
 20
231.035346
 30
0.0
 40
8.0
100
AcDbArc
 50
180.0
 51
225.0
  0
ARC
  5
20E3A
100
AcDbEntity
  8
0
100
AcDbCircle
 10
722.646566
 20
229.221637
 30
0.0
 40
3.0
100
AcDbArc
 50
270.0
 51
330.452122
  0
ARC
  5
20E3B
100
AcDbEntity
  8
0
100
AcDbCircle
 10
722.646566
 20
229.221637
 30
0.0
 40
3.0
100
AcDbArc
 50
270.0
 51
330.452122
  0
ARC
  5
20E3C
100
AcDbEntity
  8
0
100
AcDbCircle
 10
720.899519
 20
225.221637
 30
0.0
 40
1.0
100
AcDbArc
 50
90.0
 51
180.0
  0
LINE
  5
20E3D
100
AcDbEntity
  8
0
100
AcDbLine
 10
720.899519
 20
226.221637
 30
0.0
 11
722.646566
 21
226.221637
 31
0.0
  0
ARC
  5
20E3E
100
AcDbEntity
  8
0
100
AcDbCircle
 10
720.899519
 20
225.221637
 30
0.0
 40
1.0
100
AcDbArc
 50
90.0
 51
180.0
  0
LINE
  5
20E3F
100
AcDbEntity
  8
0
100
AcDbLine
 10
720.899519
 20
226.221637
 30
0.0
 11
722.646566
 21
226.221637
 31
0.0
  0
LINE
  5
20E40
100
AcDbEntity
  8
0
100
AcDbLine
 10
741.14216
 20
221.478996
 30
0.0
 11
737.242665
 21
225.378491
 31
0.0
  0
ARC
  5
20E41
100
AcDbEntity
  8
0
100
AcDbCircle
 10
736.899519
 20
217.236356
 30
0.0
 40
6.0
100
AcDbArc
 50
0.0
 51
45.0
  0
LINE
  5
20E42
100
AcDbEntity
  8
0
100
AcDbLine
 10
736.66018
 20
246.721291
 30
0.0
 11
735.900172
 21
246.721291
 31
0.0
  0
LINE
  5
20E43
100
AcDbEntity
  8
0
100
AcDbLine
 10
736.66018
 20
236.72111
 30
0.0
 11
735.900172
 21
236.72111
 31
0.0
  0
LINE
  5
20E44
100
AcDbEntity
  8
0
100
AcDbLine
 10
735.900172
 20
236.72111
 30
0.0
 11
736.66018
 21
236.72111
 31
0.0
  0
LINE
  5
20E45
100
AcDbEntity
  8
0
100
AcDbLine
 10
736.399519
 20
253.221637
 30
0.0
 11
734.899519
 21
251.721637
 31
0.0
  0
LINE
  5
20E47
100
AcDbEntity
  8
0
100
AcDbLine
 10
734.899242
 20
245.721121
 30
0.0
 11
734.899242
 21
237.721281
 31
0.0
  0
ARC
  5
20E48
100
AcDbEntity
  8
0
100
AcDbCircle
 10
735.900002
 20
237.72111
 30
0.0
 40
1.0
100
AcDbArc
 50
179.990253
 51
270.009747
  0
ARC
  5
20E49
100
AcDbEntity
  8
0
100
AcDbCircle
 10
735.900002
 20
245.721291
 30
0.0
 40
1.0
100
AcDbArc
 50
89.990253
 51
180.009747
  0
ARC
  5
20E4A
100
AcDbEntity
  8
0
100
AcDbCircle
 10
736.66035
 20
247.721291
 30
0.0
 40
1.0
100
AcDbArc
 50
269.990253
 51
0.009747
  0
ARC
  5
20E4B
100
AcDbEntity
  8
0
100
AcDbCircle
 10
736.66035
 20
235.72111
 30
0.0
 40
1.0
100
AcDbArc
 50
359.990253
 51
90.009747
  0
LINE
  5
20E4C
100
AcDbEntity
  8
0
100
AcDbLine
 10
737.65959
 20
245.827522
 30
0.0
 11
737.65959
 21
237.729641
 31
0.0
  0
ARC
  5
20E4D
100
AcDbEntity
  8
0
100
AcDbCircle
 10
754.399519
 20
211.221637
 30
0.0
 40
34.5
100
AcDbArc
 50
343.15072
 51
16.84928
  0
LINE
  5
20E4E
100
AcDbEntity
  8
0
100
AcDbLine
 10
765.899519
 20
206.330764
 30
0.0
 11
765.899519
 21
228.853365
 31
0.0
  0
POLYLINE
  5
20E4F
100
AcDbEntity
  8
0
100
AcDb2dPolyline
 66
     1
 10
0.0
 20
0.0
 30
0.0
 70
     1
  0
VERTEX
  5
2198C
100
AcDbEntity
  8
0
100
AcDbVertex
100
AcDb2dVertex
 10
787.048455
 20
207.093045
 30
0.0
  0
VERTEX
  5
2198D
100
AcDbEntity
  8
0
100
AcDbVertex
100
AcDb2dVertex
 10
779.898455
 20
202.964991
 30
0.0
  0
VERTEX
  5
2198E
100
AcDbEntity
  8
0
100
AcDbVertex
100
AcDb2dVertex
 10
772.748455
 20
207.093045
 30
0.0
  0
VERTEX
  5
2198F
100
AcDbEntity
  8
0
100
AcDbVertex
100
AcDb2dVertex
 10
772.748455
 20
215.349154
 30
0.0
  0
VERTEX
  5
21990
100
AcDbEntity
  8
0
100
AcDbVertex
100
AcDb2dVertex
 10
779.898455
 20
219.477208
 30
0.0
  0
VERTEX
  5
21991
100
AcDbEntity
  8
0
100
AcDbVertex
100
AcDb2dVertex
 10
787.048455
 20
215.349154
 30
0.0
  0
SEQEND
  5
21992
100
AcDbEntity
  8
0
  0
CIRCLE
  5
20E50
100
AcDbEntity
  8
0
100
AcDbCircle
 10
779.898455
 20
211.2211
 30
0.0
 40
6.750069
  0
ARC
  5
20E51
100
AcDbEntity
  8
0
100
AcDbCircle
 10
754.399519
 20
211.221637
 30
0.0
 40
33.5
100
AcDbArc
 50
305.597645
 51
54.402355
  0
ARC
  5
20E52
100
AcDbEntity
  8
0
100
AcDbCircle
 10
765.899519
 20
191.407929
 30
0.0
 40
8.0
100
AcDbArc
 50
0.0
 51
45.0
  0
POLYLINE
  5
20E53
100
AcDbEntity
  8
0
100
AcDb2dPolyline
 66
     1
 10
0.0
 20
0.0
 30
0.0
  0
VERTEX
  5
21993
100
AcDbEntity
  8
0
100
AcDbVertex
100
AcDb2dVertex
 10
765.399519
 20
189.217546
 30
0.0
  0
VERTEX
  5
21994
100
AcDbEntity
  8
0
100
AcDbVertex
100
AcDb2dVertex
 10
765.399519
 20
197.180527
 30
0.0
  0
SEQEND
  5
21995
100
AcDbEntity
  8
0
  0
ARC
  5
20E56
100
AcDbEntity
  8
0
100
AcDbCircle
 10
772.899036
 20
180.721983
 30
0.0
 40
1.0
100
AcDbArc
 50
269.990253
 51
0.009747
  0
LINE
  5
20E57
100
AcDbEntity
  8
0
100
AcDbLine
 10
773.899796
 20
180.722153
 30
0.0
 11
773.899796
 21
188.721994
 31
0.0
  0
LINE
  5
20E58
100
AcDbEntity
  8
0
100
AcDbLine
 10
771.139448
 20
180.615752
 30
0.0
 11
771.139448
 21
188.713634
 31
0.0
  0
ARC
  5
20E59
100
AcDbEntity
  8
0
100
AcDbCircle
 10
772.138688
 20
178.721983
 30
0.0
 40
1.0
100
AcDbArc
 50
89.990253
 51
180.009747
  0
LINE
  5
20E5A
100
AcDbEntity
  8
0
100
AcDbLine
 10
772.138858
 20
179.721983
 30
0.0
 11
772.898866
 21
179.721983
 31
0.0
  0
LINE
  5
20E5B
100
AcDbEntity
  8
0
100
AcDbLine
 10
772.138858
 20
189.722164
 30
0.0
 11
772.898866
 21
189.722164
 31
0.0
  0
ARC
  5
20E5C
100
AcDbEntity
  8
0
100
AcDbCircle
 10
772.138688
 20
190.722164
 30
0.0
 40
1.0
100
AcDbArc
 50
179.990253
 51
270.009747
  0
LINE
  5
20E5D
100
AcDbEntity
  8
0
100
AcDbLine
 10
772.898866
 20
189.722164
 30
0.0
 11
772.138858
 21
189.722164
 31
0.0
  0
ARC
  5
20E5E
100
AcDbEntity
  8
0
100
AcDbCircle
 10
772.899036
 20
188.722164
 30
0.0
 40
1.0
100
AcDbArc
 50
359.990253
 51
90.009747
  0
ELLIPSE
  5
20E5F
100
AcDbEntity
  8
0
100
AcDbEllipse
 10
754.399519
 20
192.138376
 30
0.0
 11
11.75
 21
0.0
 31
0.0
210
0.0
220
0.0
230
1.0
 40
0.707107
 41
5.455952701317142
 42
5.923962177894978
  0
LINE
  5
20E61
100
AcDbEntity
  8
0
100
AcDbLine
 10
772.399519
 20
173.221637
 30
0.0
 11
773.899519
 21
174.721637
 31
0.0
  0
LINE
  5
20E62
100
AcDbEntity
  8
0
100
AcDbLine
 10
773.899519
 20
174.721637
 30
0.0
 11
773.899519
 21
191.407929
 31
0.0
  0
LINE
  5
20E63
100
AcDbEntity
  8
0
100
AcDbLine
 10
773.899519
 20
174.721637
 30
0.0
 11
773.899519
 21
188.06244
 31
0.0
  0
ELLIPSE
  5
20E64
100
AcDbEntity
  8
0
100
AcDbEllipse
 10
754.399519
 20
192.138376
 30
0.0
 11
11.75
 21
0.0
 31
0.0
210
0.0
220
0.0
230
1.0
 40
0.707107
 41
0.359223129284924
 42
0.827232605862334
  0
ELLIPSE
  5
20E65
100
AcDbEntity
  8
0
100
AcDbEllipse
 10
754.399519
 20
194.259696
 30
0.0
 11
11.75
 21
0.0
 31
0.0
210
0.0
220
0.0
230
1.0
 40
0.707107
 41
0.359223129284924
 42
0.827232605862334
  0
LINE
  5
20E66
100
AcDbEntity
  8
0
100
AcDbLine
 10
762.353274
 20
200.375262
 30
0.0
 11
762.353274
 21
198.253941
 31
0.0
  0
LINE
  5
20E67
100
AcDbEntity
  8
0
100
AcDbLine
 10
767.899519
 20
201.330764
 30
0.0
 11
767.899519
 21
198.502337
 31
0.0
  0
LINE
  5
20E68
100
AcDbEntity
  8
0
100
AcDbLine
 10
767.899519
 20
200.721637
 30
0.0
 11
771.556373
 21
197.064783
 31
0.0
  0
LINE
  5
20E69
100
AcDbEntity
  8
0
100
AcDbLine
 10
786.372163
 20
201.221637
 30
0.0
 11
787.418453
 21
201.221637
 31
0.0
  0
LINE
  5
20E6C
100
AcDbEntity
  8
0
100
AcDbLine
 10
773.899519
 20
251.721637
 30
0.0
 11
773.899519
 21
231.035346
 31
0.0
  0
ARC
  5
20E6D
100
AcDbEntity
  8
0
100
AcDbCircle
 10
765.899519
 20
231.035346
 30
0.0
 40
8.0
100
AcDbArc
 50
315.0
 51
0.0
  0
LINE
  5
20E6E
100
AcDbEntity
  8
0
100
AcDbLine
 10
767.656878
 20
221.478996
 30
0.0
 11
771.556373
 21
225.378491
 31
0.0
  0
ARC
  5
20E6F
100
AcDbEntity
  8
0
100
AcDbCircle
 10
771.899519
 20
217.236356
 30
0.0
 40
6.0
100
AcDbArc
 50
135.0
 51
180.0
  0
LINE
  5
20E70
100
AcDbEntity
  8
0
100
AcDbLine
 10
786.372163
 20
221.221637
 30
0.0
 11
787.418453
 21
221.221637
 31
0.0
  0
LINE
  5
20E71
100
AcDbEntity
  8
0
100
AcDbLine
 10
772.138858
 20
246.721291
 30
0.0
 11
772.898866
 21
246.721291
 31
0.0
  0
ARC
  5
20E72
100
AcDbEntity
  8
0
100
AcDbCircle
 10
772.138688
 20
247.721291
 30
0.0
 40
1.0
100
AcDbArc
 50
179.990253
 51
270.009747
  0
ARC
  5
20E73
100
AcDbEntity
  8
0
100
AcDbCircle
 10
772.899036
 20
245.721291
 30
0.0
 40
1.0
100
AcDbArc
 50
359.990253
 51
90.009747
  0
LINE
  5
20E74
100
AcDbEntity
  8
0
100
AcDbLine
 10
772.399519
 20
253.221637
 30
0.0
 11
773.899519
 21
251.721637
 31
0.0
  0
ARC
  5
20E75
100
AcDbEntity
  8
0
100
AcDbCircle
 10
772.899036
 20
237.72111
 30
0.0
 40
1.0
100
AcDbArc
 50
269.990253
 51
0.009747
  0
LINE
  5
20E76
100
AcDbEntity
  8
0
100
AcDbLine
 10
772.898866
 20
236.72111
 30
0.0
 11
772.138858
 21
236.72111
 31
0.0
  0
ARC
  5
20E77
100
AcDbEntity
  8
0
100
AcDbCircle
 10
772.138688
 20
235.72111
 30
0.0
 40
1.0
100
AcDbArc
 50
89.990253
 51
180.009747
  0
LINE
  5
20E78
100
AcDbEntity
  8
0
100
AcDbLine
 10
772.138858
 20
236.72111
 30
0.0
 11
772.898866
 21
236.72111
 31
0.0
  0
LINE
  5
20E7A
100
AcDbEntity
  8
0
100
AcDbLine
 10
771.139448
 20
245.827522
 30
0.0
 11
771.139448
 21
237.729641
 31
0.0
  0
LINE
  5
20E7B
100
AcDbEntity
  8
0
100
AcDbLine
 10
773.899796
 20
245.721121
 30
0.0
 11
773.899796
 21
237.721281
 31
0.0
  0
LINE
  5
20E7E
100
AcDbEntity
  8
0
100
AcDbLine
 10
591.154925
 20
387.324957
 30
0.0
 11
583.304925
 21
387.324957
 31
0.0
  0
LINE
  5
20E7F
100
AcDbEntity
  8
0
100
AcDbLine
 10
591.154925
 20
352.324957
 30
0.0
 11
583.304925
 21
352.324957
 31
0.0
  0
TEXT
  5
20E82
100
AcDbEntity
  8
0
100
AcDbText
 10
260.996048
 20
365.368436
 30
0.0
 40
17.5
  1
平面
100
AcDbText
  0
LINE
  5
20E85
100
AcDbEntity
  8
0
100
AcDbLine
 10
583.304925
 20
387.324957
 30
0.0
 11
583.304925
 21
352.324957
 31
0.0
  0
TEXT
  5
20E95
100
AcDbEntity
  8
0
100
AcDbText
 10
260.996048
 20
519.541117
 30
0.0
 40
17.5
  1
背面
100
AcDbText
  0
LINE
  5
20EF3
100
AcDbEntity
  8
0
100
AcDbLine
 10
682.85839
 20
371.747685
 30
0.0
 11
679.937559
 21
378.902229
 31
0.0
  0
POLYLINE
  5
20EF4
100
AcDbEntity
  8
0
100
AcDb2dPolyline
 66
     1
 10
0.0
 20
0.0
 30
0.0
  0
VERTEX
  5
21996
100
AcDbEntity
  8
0
100
AcDbVertex
100
AcDb2dVertex
 10
678.888186
 20
380.824957
 30
0.0
 42
-0.133256
  0
VERTEX
  5
21997
100
AcDbEntity
  8
0
100
AcDbVertex
100
AcDb2dVertex
 10
681.713231
 20
380.058437
 30
0.0
 42
-0.106756
  0
VERTEX
  5
21998
100
AcDbEntity
  8
0
100
AcDbVertex
100
AcDb2dVertex
 10
684.388186
 20
377.603132
 30
0.0
 42
-0.082828
  0
VERTEX
  5
21999
100
AcDbEntity
  8
0
100
AcDbVertex
100
AcDb2dVertex
 10
686.041321
 20
374.182646
 30
0.0
 42
-0.071352
  0
VERTEX
  5
2199A
100
AcDbEntity
  8
0
100
AcDbVertex
100
AcDb2dVertex
 10
686.666361
 20
369.824957
 30
0.0
 42
-0.071352
  0
VERTEX
  5
2199B
100
AcDbEntity
  8
0
100
AcDbVertex
100
AcDb2dVertex
 10
686.041321
 20
365.467269
 30
0.0
 42
-0.082828
  0
VERTEX
  5
2199C
100
AcDbEntity
  8
0
100
AcDbVertex
100
AcDb2dVertex
 10
684.388186
 20
362.046783
 30
0.0
 42
-0.106756
  0
VERTEX
  5
2199D
100
AcDbEntity
  8
0
100
AcDbVertex
100
AcDb2dVertex
 10
681.713231
 20
359.591478
 30
0.0
 42
-0.133256
  0
VERTEX
  5
2199E
100
AcDbEntity
  8
0
100
AcDbVertex
100
AcDb2dVertex
 10
678.888186
 20
358.824957
 30
0.0
 42
-0.097633
  0
SEQEND
  5
2199F
100
AcDbEntity
  8
0
  0
ELLIPSE
  5
20EF5
100
AcDbEntity
  8
0
100
AcDbEllipse
 10
669.695798
 20
369.824957
 30
0.0
 11
-0.0000000000000025
 21
-13.5
 31
0.0
210
0.0
220
0.0
230
-1.0
 40
0.707107
 41
2.590307055156976
 42
6.834470905611832
  0
ELLIPSE
  5
20EF6
100
AcDbEntity
  8
0
100
AcDbEllipse
 10
668.281585
 20
369.824957
 30
0.0
 11
-0.0000000000000021
 21
-11.5
 31
0.0
210
0.0
220
0.0
230
-1.0
 40
0.707107
 41
3.141592653589793
 42
6.283185307179586
  0
ELLIPSE
  5
20EF7
100
AcDbEntity
  8
0
100
AcDbEllipse
 10
672.524225
 20
369.824957
 30
0.0
 11
-0.0000000000000025
 21
-13.5
 31
0.0
210
0.0
220
0.0
230
-1.0
 40
0.707107
 41
3.141592653589793
 42
6.283185307179586
  0
CIRCLE
  5
20EF8
100
AcDbEntity
  8
0
100
AcDbCircle
 10
630.804925
 20
369.824957
 30
0.0
 40
19.5
  0
LINE
  5
20EF9
100
AcDbEntity
  8
0
100
AcDbLine
 10
607.804925
 20
403.324957
 30
0.0
 11
607.804925
 21
336.324957
 31
0.0
  0
LINE
  5
20EFA
100
AcDbEntity
  8
0
100
AcDbLine
 10
604.154925
 20
403.324957
 30
0.0
 11
604.154925
 21
336.324957
 31
0.0
  0
LINE
  5
20EFB
100
AcDbEntity
  8
0
100
AcDbLine
 10
591.154925
 20
336.324957
 30
0.0
 11
591.154925
 21
403.324957
 31
0.0
  0
LINE
  5
20EFC
100
AcDbEntity
  8
0
100
AcDbLine
 10
669.695798
 20
356.324957
 30
0.0
 11
672.524225
 21
356.324957
 31
0.0
  0
LINE
  5
20EFD
100
AcDbEntity
  8
0
100
AcDbLine
 10
609.804925
 20
338.870826
 30
0.0
 11
609.804925
 21
335.324957
 31
0.0
  0
LINE
  5
20EFE
100
AcDbEntity
  8
0
100
AcDbLine
 10
617.804925
 20
338.870826
 30
0.0
 11
617.804925
 21
335.324957
 31
0.0
  0
LINE
  5
20EFF
100
AcDbEntity
  8
0
100
AcDbLine
 10
617.804925
 20
335.324957
 30
0.0
 11
609.804925
 21
335.324957
 31
0.0
  0
LINE
  5
20F00
100
AcDbEntity
  8
0
100
AcDbLine
 10
638.804925
 20
350.324957
 30
0.0
 11
622.804925
 21
350.324957
 31
0.0
  0
LINE
  5
20F01
100
AcDbEntity
  8
0
100
AcDbLine
 10
607.804925
 20
336.324957
 30
0.0
 11
609.804925
 21
336.324957
 31
0.0
  0
LINE
  5
20F02
100
AcDbEntity
  8
0
100
AcDbLine
 10
589.614959
 20
349.087457
 30
0.0
 11
591.154925
 21
349.087457
 31
0.0
  0
LINE
  5
20F03
100
AcDbEntity
  8
0
100
AcDbLine
 10
589.118438
 20
348.227457
 30
0.0
 11
589.614959
 21
349.087457
 31
0.0
  0
LINE
  5
20F04
100
AcDbEntity
  8
0
100
AcDbLine
 10
589.614959
 20
339.562457
 30
0.0
 11
591.154925
 21
339.562457
 31
0.0
  0
LINE
  5
20F05
100
AcDbEntity
  8
0
100
AcDbLine
 10
589.118438
 20
340.422457
 30
0.0
 11
589.614959
 21
339.562457
 31
0.0
  0
LINE
  5
20F06
100
AcDbEntity
  8
0
100
AcDbLine
 10
604.154925
 20
336.324957
 30
0.0
 11
591.154925
 21
336.324957
 31
0.0
  0
LINE
  5
20F07
100
AcDbEntity
  8
0
100
AcDbLine
 10
589.118438
 20
340.422457
 30
0.0
 11
589.118438
 21
348.227457
 31
0.0
  0
LINE
  5
20F08
100
AcDbEntity
  8
0
100
AcDbLine
 10
607.804925
 20
339.562457
 30
0.0
 11
604.154925
 21
339.562457
 31
0.0
  0
LINE
  5
20F09
100
AcDbEntity
  8
0
100
AcDbLine
 10
607.804925
 20
352.324957
 30
0.0
 11
604.154925
 21
352.324957
 31
0.0
  0
LINE
  5
20F0A
100
AcDbEntity
  8
0
100
AcDbLine
 10
607.804925
 20
349.087457
 30
0.0
 11
604.154925
 21
349.087457
 31
0.0
  0
LINE
  5
20F0B
100
AcDbEntity
  8
0
100
AcDbLine
 10
608.454925
 20
343.069457
 30
0.0
 11
620.154925
 21
343.069457
 31
0.0
  0
LINE
  5
20F0C
100
AcDbEntity
  8
0
100
AcDbLine
 10
622.804925
 20
351.474957
 30
0.0
 11
620.804925
 21
351.474957
 31
0.0
  0
LINE
  5
20F0D
100
AcDbEntity
  8
0
100
AcDbLine
 10
626.447413
 20
344.324957
 30
0.0
 11
620.804925
 21
344.324957
 31
0.0
  0
LINE
  5
20F0E
100
AcDbEntity
  8
0
100
AcDbLine
 10
620.804925
 20
344.324957
 30
0.0
 11
626.447413
 21
344.324957
 31
0.0
  0
ARC
  5
20F0F
100
AcDbEntity
  8
0
100
AcDbCircle
 10
626.447413
 20
344.324957
 30
0.0
 40
0.0
100
AcDbArc
 50
90.0
 51
137.854147
  0
LINE
  5
20F10
100
AcDbEntity
  8
0
100
AcDbLine
 10
627.204925
 20
350.162908
 30
0.0
 11
627.111366
 21
350.324957
 31
0.0
  0
ARC
  5
20F11
100
AcDbEntity
  8
0
100
AcDbCircle
 10
618.390248
 20
347.899957
 30
0.0
 40
8.814677
100
AcDbArc
 50
336.072926
 51
15.96853
  0
LINE
  5
20F12
100
AcDbEntity
  8
0
100
AcDbLine
 10
622.804925
 20
352.041538
 30
0.0
 11
622.804925
 21
350.324957
 31
0.0
  0
LINE
  5
20F13
100
AcDbEntity
  8
0
100
AcDbLine
 10
617.804925
 20
339.870826
 30
0.0
 11
609.804925
 21
339.870826
 31
0.0
  0
ARC
  5
20F14
100
AcDbEntity
  8
0
100
AcDbCircle
 10
608.804925
 20
338.870826
 30
0.0
 40
1.0
100
AcDbArc
 50
0.0
 51
90.0
  0
LINE
  5
20F15
100
AcDbEntity
  8
0
100
AcDbLine
 10
626.447413
 20
337.174957
 30
0.0
 11
620.804925
 21
337.174957
 31
0.0
  0
LINE
  5
20F16
100
AcDbEntity
  8
0
100
AcDbLine
 10
617.804925
 20
336.324957
 30
0.0
 11
620.804925
 21
336.324957
 31
0.0
  0
ARC
  5
20F17
100
AcDbEntity
  8
0
100
AcDbCircle
 10
618.804925
 20
338.870826
 30
0.0
 40
1.0
100
AcDbArc
 50
90.0
 51
180.0
  0
LINE
  5
20F18
100
AcDbEntity
  8
0
100
AcDbLine
 10
627.204925
 20
338.487007
 30
0.0
 11
626.447413
 21
337.174957
 31
0.0
  0
LINE
  5
20F19
100
AcDbEntity
  8
0
100
AcDbLine
 10
627.204925
 20
338.487007
 30
0.0
 11
627.204925
 21
350.162908
 31
0.0
  0
LINE
  5
20F1A
100
AcDbEntity
  8
0
100
AcDbLine
 10
620.804925
 20
336.324957
 30
0.0
 11
620.804925
 21
353.084288
 31
0.0
  0
ARC
  5
20F1B
100
AcDbEntity
  8
0
100
AcDbCircle
 10
618.390248
 20
340.749957
 30
0.0
 40
8.814677
100
AcDbArc
 50
336.072926
 51
23.927074
  0
LINE
  5
20F1C
100
AcDbEntity
  8
0
100
AcDbLine
 10
638.804925
 20
352.041538
 30
0.0
 11
638.804925
 21
350.324957
 31
0.0
  0
LINE
  5
20F1D
100
AcDbEntity
  8
0
100
AcDbLine
 10
646.552941
 20
358.324957
 30
0.0
 11
668.281585
 21
358.324957
 31
0.0
  0
LINE
  5
20F1E
100
AcDbEntity
  8
0
100
AcDbLine
 10
682.85839
 20
371.747685
 30
0.0
 11
686.546669
 21
371.747685
 31
0.0
  0
LINE
  5
20F1F
100
AcDbEntity
  8
0
100
AcDbLine
 10
682.85839
 20
367.902229
 30
0.0
 11
686.546669
 21
367.902229
 31
0.0
  0
ARC
  5
20F20
100
AcDbEntity
  8
0
100
AcDbCircle
 10
663.583302
 20
369.824957
 30
0.0
 40
19.370748
100
AcDbArc
 50
354.303478
 51
5.696522
  0
LINE
  5
20F21
100
AcDbEntity
  8
0
100
AcDbLine
 10
679.937559
 20
360.747685
 30
0.0
 11
683.258545
 21
360.747685
 31
0.0
  0
LINE
  5
20F22
100
AcDbEntity
  8
0
100
AcDbLine
 10
678.888186
 20
358.824957
 30
0.0
 11
678.034155
 21
358.824957
 31
0.0
  0
ARC
  5
20F23
100
AcDbEntity
  8
0
100
AcDbCircle
 10
673.749204
 20
365.955926
 30
0.0
 40
8.088356
100
AcDbArc
 50
308.201734
 51
319.915384
  0
LINE
  5
20F24
100
AcDbEntity
  8
0
100
AcDbLine
 10
682.85839
 20
367.902229
 30
0.0
 11
679.937559
 21
360.747685
 31
0.0
  0
LINE
  5
20F26
100
AcDbEntity
  8
0
100
AcDbLine
 10
669.695798
 20
383.324957
 30
0.0
 11
672.524225
 21
383.324957
 31
0.0
  0
LINE
  5
20F27
100
AcDbEntity
  8
0
100
AcDbLine
 10
638.804925
 20
389.324957
 30
0.0
 11
622.804925
 21
389.324957
 31
0.0
  0
LINE
  5
20F28
100
AcDbEntity
  8
0
100
AcDbLine
 10
627.204925
 20
401.162908
 30
0.0
 11
627.204925
 21
389.487007
 31
0.0
  0
LINE
  5
20F29
100
AcDbEntity
  8
0
100
AcDbLine
 10
620.804925
 20
403.324957
 30
0.0
 11
620.804925
 21
386.565626
 31
0.0
  0
ARC
  5
20F2A
100
AcDbEntity
  8
0
100
AcDbCircle
 10
618.390248
 20
398.899957
 30
0.0
 40
8.814677
100
AcDbArc
 50
336.072926
 51
23.927074
  0
LINE
  5
20F2B
100
AcDbEntity
  8
0
100
AcDbLine
 10
589.118438
 20
391.422457
 30
0.0
 11
589.118438
 21
399.227457
 31
0.0
  0
LINE
  5
20F2C
100
AcDbEntity
  8
0
100
AcDbLine
 10
591.154925
 20
400.087457
 30
0.0
 11
591.154925
 21
390.562457
 31
0.0
  0
LINE
  5
20F2D
100
AcDbEntity
  8
0
100
AcDbLine
 10
589.614959
 20
390.562457
 30
0.0
 11
591.154925
 21
390.562457
 31
0.0
  0
LINE
  5
20F2E
100
AcDbEntity
  8
0
100
AcDbLine
 10
589.118438
 20
391.422457
 30
0.0
 11
589.614959
 21
390.562457
 31
0.0
  0
LINE
  5
20F2F
100
AcDbEntity
  8
0
100
AcDbLine
 10
607.804925
 20
387.324957
 30
0.0
 11
604.154925
 21
387.324957
 31
0.0
  0
LINE
  5
20F30
100
AcDbEntity
  8
0
100
AcDbLine
 10
607.804925
 20
390.562457
 30
0.0
 11
604.154925
 21
390.562457
 31
0.0
  0
LINE
  5
20F31
100
AcDbEntity
  8
0
100
AcDbLine
 10
608.454925
 20
396.580457
 30
0.0
 11
620.154925
 21
396.580457
 31
0.0
  0
LINE
  5
20F32
100
AcDbEntity
  8
0
100
AcDbLine
 10
622.804925
 20
388.174957
 30
0.0
 11
620.804925
 21
388.174957
 31
0.0
  0
LINE
  5
20F33
100
AcDbEntity
  8
0
100
AcDbLine
 10
620.804925
 20
395.324957
 30
0.0
 11
626.447413
 21
395.324957
 31
0.0
  0
LINE
  5
20F34
100
AcDbEntity
  8
0
100
AcDbLine
 10
626.447413
 20
395.324957
 30
0.0
 11
620.804925
 21
395.324957
 31
0.0
  0
ARC
  5
20F35
100
AcDbEntity
  8
0
100
AcDbCircle
 10
618.390248
 20
391.749957
 30
0.0
 40
8.814677
100
AcDbArc
 50
344.03147
 51
23.927074
  0
LINE
  5
20F36
100
AcDbEntity
  8
0
100
AcDbLine
 10
627.204925
 20
389.487007
 30
0.0
 11
627.111366
 21
389.324957
 31
0.0
  0
ARC
  5
20F37
100
AcDbEntity
  8
0
100
AcDbCircle
 10
626.447413
 20
395.324957
 30
0.0
 40
0.0
100
AcDbArc
 50
222.145853
 51
270.0
  0
LINE
  5
20F38
100
AcDbEntity
  8
0
100
AcDbLine
 10
622.804925
 20
387.608377
 30
0.0
 11
622.804925
 21
389.324957
 31
0.0
  0
LINE
  5
20F39
100
AcDbEntity
  8
0
100
AcDbLine
 10
622.804925
 20
387.608377
 30
0.0
 11
622.804925
 21
389.324957
 31
0.0
  0
LINE
  5
20F3A
100
AcDbEntity
  8
0
100
AcDbLine
 10
607.804925
 20
403.324957
 30
0.0
 11
620.804925
 21
403.324957
 31
0.0
  0
LINE
  5
20F3B
100
AcDbEntity
  8
0
100
AcDbLine
 10
589.614959
 20
400.087457
 30
0.0
 11
591.154925
 21
400.087457
 31
0.0
  0
LINE
  5
20F3C
100
AcDbEntity
  8
0
100
AcDbLine
 10
589.118438
 20
399.227457
 30
0.0
 11
589.614959
 21
400.087457
 31
0.0
  0
LINE
  5
20F3D
100
AcDbEntity
  8
0
100
AcDbLine
 10
604.154925
 20
403.324957
 30
0.0
 11
591.154925
 21
403.324957
 31
0.0
  0
LINE
  5
20F3E
100
AcDbEntity
  8
0
100
AcDbLine
 10
607.804925
 20
400.087457
 30
0.0
 11
604.154925
 21
400.087457
 31
0.0
  0
LINE
  5
20F3F
100
AcDbEntity
  8
0
100
AcDbLine
 10
617.804925
 20
404.324957
 30
0.0
 11
609.804925
 21
404.324957
 31
0.0
  0
LINE
  5
20F40
100
AcDbEntity
  8
0
100
AcDbLine
 10
626.447413
 20
402.474957
 30
0.0
 11
620.804925
 21
402.474957
 31
0.0
  0
LINE
  5
20F41
100
AcDbEntity
  8
0
100
AcDbLine
 10
627.204925
 20
401.162908
 30
0.0
 11
626.447413
 21
402.474957
 31
0.0
  0
LINE
  5
20F42
100
AcDbEntity
  8
0
100
AcDbLine
 10
617.804925
 20
403.324957
 30
0.0
 11
617.804925
 21
404.324957
 31
0.0
  0
LINE
  5
20F43
100
AcDbEntity
  8
0
100
AcDbLine
 10
609.804925
 20
403.324957
 30
0.0
 11
609.804925
 21
404.324957
 31
0.0
  0
LINE
  5
20F44
100
AcDbEntity
  8
0
100
AcDbLine
 10
646.552941
 20
381.324957
 30
0.0
 11
668.281585
 21
381.324957
 31
0.0
  0
LINE
  5
20F45
100
AcDbEntity
  8
0
100
AcDbLine
 10
638.804925
 20
387.608377
 30
0.0
 11
638.804925
 21
389.324957
 31
0.0
  0
ARC
  5
20F4A
100
AcDbEntity
  8
0
100
AcDbCircle
 10
673.749204
 20
373.693989
 30
0.0
 40
8.088356
100
AcDbArc
 50
40.084616
 51
51.798266
  0
LINE
  5
20F4B
100
AcDbEntity
  8
0
100
AcDbLine
 10
678.888186
 20
380.824957
 30
0.0
 11
678.034155
 21
380.824957
 31
0.0
  0
LINE
  5
20F4C
100
AcDbEntity
  8
0
100
AcDbLine
 10
679.937559
 20
378.902229
 30
0.0
 11
683.258545
 21
378.902229
 31
0.0
  0
INSERT
  5
20F5A
100
AcDbEntity
  8
0
100
AcDbBlockReference
  2
YA
 10
1236.095317
 20
270.124575
 30
0.0
 41
-1.630435
 42
1.630435
 43
1.630435
 50
90.0
  0
LINE
  5
20F5B
100
AcDbEntity
  8
0
100
AcDbLine
 10
1299.593506
 20
199.350865
 30
0.0
 11
1298.886399
 21
200.057972
 31
0.0
  0
LINE
  5
20F5C
100
AcDbEntity
  8
0
100
AcDbLine
 10
1301.007719
 20
203.593506
 30
0.0
 11
1297.472186
 21
207.12904
 31
0.0
  0
LINE
  5
20F5D
100
AcDbEntity
  8
0
100
AcDbLine
 10
1297.773217
 20
195.489335
 30
0.0
 11
1303.51015
 21
189.752401
 31
0.0
  0
LINE
  5
20F5E
100
AcDbEntity
  8
0
100
AcDbLine
 10
1295.624973
 20
193.341091
 30
0.0
 11
1301.361907
 21
187.604158
 31
0.0
  0
ARC
  5
20F5F
100
AcDbEntity
  8
0
100
AcDbCircle
 10
1275.951744
 20
200.36521
 30
0.0
 40
28.434501
100
AcDbArc
 50
296.665926
 51
333.334074
  0
LINE
  5
20F60
100
AcDbEntity
  8
0
100
AcDbLine
 10
1309.139447
 20
193.340458
 30
0.0
 11
1282.976496
 21
167.177507
 31
0.0
  0
ARC
  5
20F61
100
AcDbEntity
  8
0
100
AcDbCircle
 10
1305.430823
 20
194.208172
 30
0.0
 40
7.764039
100
AcDbArc
 50
110.502049
 51
170.502049
  0
LINE
  5
20F62
100
AcDbEntity
  8
0
100
AcDbLine
 10
1274.137662
 20
175.309235
 30
0.0
 11
1301.007719
 21
202.179292
 31
0.0
  0
LINE
  5
20F63
100
AcDbEntity
  8
0
100
AcDbLine
 10
1301.361273
 20
201.118632
 30
0.0
 11
1275.198322
 21
174.955681
 31
0.0
  0
TEXT
  5
20F64
100
AcDbEntity
  8
0
100
AcDbText
 10
1211.441599
 20
111.17112
 30
0.0
 40
15.0
  1
25A
 72
     4
 11
1231.441599
 21
118.67112
 31
0.0
100
AcDbText
  0
CIRCLE
  5
20F69
100
AcDbEntity
  8
0
100
AcDbCircle
 10
1003.626085
 20
211.221637
 30
0.0
 40
15.5
  0
ARC
  5
20F71
100
AcDbEntity
  8
0
100
AcDbCircle
 10
1003.626085
 20
211.221637
 30
0.0
 40
33.5
100
AcDbArc
 50
54.234697
 51
125.765303
  0
LINE
  5
20F72
100
AcDbEntity
  8
0
100
AcDbLine
 10
1024.3384
 20
256.086623
 30
0.0
 11
1024.3384
 21
244.356651
 31
0.0
  0
LINE
  5
20F73
100
AcDbEntity
  8
0
100
AcDbLine
 10
982.91377
 20
256.086623
 30
0.0
 11
982.91377
 21
244.356651
 31
0.0
  0
LINE
  5
20F74
100
AcDbEntity
  8
0
100
AcDbLine
 10
980.626085
 20
235.578361
 30
0.0
 11
980.626085
 21
263.221637
 31
0.0
  0
LINE
  5
20F75
100
AcDbEntity
  8
0
100
AcDbLine
 10
1026.626085
 20
235.578361
 30
0.0
 11
1026.626085
 21
263.221637
 31
0.0
  0
ARC
  5
20F78
100
AcDbEntity
  8
0
100
AcDbCircle
 10
982.626085
 20
245.221637
 30
0.0
 40
2.0
100
AcDbArc
 50
180.0
 51
270.0
  0
LINE
  5
20F79
100
AcDbEntity
  8
0
100
AcDbLine
 10
982.626085
 20
243.221637
 30
0.0
 11
982.91377
 21
243.221637
 31
0.0
  0
ARC
  5
20F7A
100
AcDbEntity
  8
0
100
AcDbCircle
 10
982.91377
 20
241.221637
 30
0.0
 40
2.0
100
AcDbArc
 50
45.0
 51
90.0
  0
LINE
  5
20F7B
100
AcDbEntity
  8
0
100
AcDbLine
 10
1024.626085
 20
243.221637
 30
0.0
 11
1024.3384
 21
243.221637
 31
0.0
  0
ARC
  5
20F7C
100
AcDbEntity
  8
0
100
AcDbCircle
 10
1024.3384
 20
241.221637
 30
0.0
 40
2.0
100
AcDbArc
 50
90.0
 51
135.0
  0
ARC
  5
20F7D
100
AcDbEntity
  8
0
100
AcDbCircle
 10
1024.626085
 20
245.221637
 30
0.0
 40
2.0
100
AcDbArc
 50
270.0
 51
0.0
  0
LINE
  5
20F7E
100
AcDbEntity
  8
0
100
AcDbLine
 10
1003.626085
 20
264.221637
 30
0.0
 11
981.626085
 21
264.221637
 31
0.0
  0
LINE
  5
20F7F
100
AcDbEntity
  8
0
100
AcDbLine
 10
981.626085
 20
264.221637
 30
0.0
 11
980.626085
 21
263.221637
 31
0.0
  0
LINE
  5
20F80
100
AcDbEntity
  8
0
100
AcDbLine
 10
981.626085
 20
264.221637
 30
0.0
 11
980.626085
 21
263.221637
 31
0.0
  0
LINE
  5
20F81
100
AcDbEntity
  8
0
100
AcDbLine
 10
982.626085
 20
257.221637
 30
0.0
 11
982.91377
 21
257.221637
 31
0.0
  0
ARC
  5
20F82
100
AcDbEntity
  8
0
100
AcDbCircle
 10
982.626085
 20
255.221637
 30
0.0
 40
2.0
100
AcDbArc
 50
90.0
 51
180.0
  0
ARC
  5
20F83
100
AcDbEntity
  8
0
100
AcDbCircle
 10
982.91377
 20
259.221637
 30
0.0
 40
2.0
100
AcDbArc
 50
270.0
 51
315.0
  0
LINE
  5
20F84
100
AcDbEntity
  8
0
100
AcDbLine
 10
1003.626085
 20
264.221637
 30
0.0
 11
1025.626085
 21
264.221637
 31
0.0
  0
LINE
  5
20F85
100
AcDbEntity
  8
0
100
AcDbLine
 10
1025.626085
 20
264.221637
 30
0.0
 11
1026.626085
 21
263.221637
 31
0.0
  0
ARC
  5
20F86
100
AcDbEntity
  8
0
100
AcDbCircle
 10
1024.626085
 20
255.221637
 30
0.0
 40
2.0
100
AcDbArc
 50
360.0
 51
90.0
  0
LINE
  5
20F87
100
AcDbEntity
  8
0
100
AcDbLine
 10
1024.626085
 20
257.221637
 30
0.0
 11
1024.3384
 21
257.221637
 31
0.0
  0
ARC
  5
20F88
100
AcDbEntity
  8
0
100
AcDbCircle
 10
1024.3384
 20
259.221637
 30
0.0
 40
2.0
100
AcDbArc
 50
225.0
 51
270.0
  0
LINE
  5
20F90
100
AcDbEntity
  8
0
100
AcDbLine
 10
1229.495317
 20
204.071637
 30
0.0
 11
1229.495317
 21
218.371637
 31
0.0
  0
ARC
  5
20F91
100
AcDbEntity
  8
0
100
AcDbCircle
 10
1215.833929
 20
211.221637
 30
0.0
 40
13.661388
100
AcDbArc
 50
342.412046
 51
17.587954
  0
LINE
  5
20F92
100
AcDbEntity
  8
0
100
AcDbLine
 10
1223.095317
 20
191.06244
 30
0.0
 11
1223.095317
 21
231.380834
 31
0.0
  0
LINE
  5
20F93
100
AcDbEntity
  8
0
100
AcDbLine
 10
1209.095317
 20
188.721637
 30
0.0
 11
1209.095317
 21
233.721637
 31
0.0
  0
LINE
  5
20F94
100
AcDbEntity
  8
0
100
AcDbLine
 10
1191.30883
 20
207.319137
 30
0.0
 11
1191.30883
 21
215.124137
 31
0.0
  0
LINE
  5
20F97
100
AcDbEntity
  8
0
100
AcDbLine
 10
1184.595317
 20
228.721637
 30
0.0
 11
1184.595317
 21
193.721637
 31
0.0
  0
LINE
  5
20F98
100
AcDbEntity
  8
0
100
AcDbLine
 10
1205.445317
 20
177.721637
 30
0.0
 11
1205.445317
 21
244.721637
 31
0.0
  0
LINE
  5
20F99
100
AcDbEntity
  8
0
100
AcDbLine
 10
1192.445317
 20
177.721637
 30
0.0
 11
1192.445317
 21
244.721637
 31
0.0
  0
ARC
  5
20F9A
100
AcDbEntity
  8
0
100
AcDbCircle
 10
1206.750385
 20
150.772629
 30
0.0
 40
104.0
100
AcDbArc
 50
33.745287
 51
57.966943
  0
LINE
  5
20F9B
100
AcDbEntity
  8
0
100
AcDbLine
 10
1209.095317
 20
191.06244
 30
0.0
 11
1223.095317
 21
191.06244
 31
0.0
  0
LINE
  5
20F9C
100
AcDbEntity
  8
0
100
AcDbLine
 10
1212.595317
 20
188.557176
 30
0.0
 11
1223.095317
 21
191.06244
 31
0.0
  0
LINE
  5
20F9D
100
AcDbEntity
  8
0
100
AcDbLine
 10
1213.095317
 20
169.221637
 30
0.0
 11
1214.095317
 21
168.221637
 31
0.0
  0
LINE
  5
20F9E
100
AcDbEntity
  8
0
100
AcDbLine
 10
1213.095317
 20
169.221637
 30
0.0
 11
1213.095317
 21
186.721637
 31
0.0
  0
LINE
  5
20FA3
100
AcDbEntity
  8
0
100
AcDbLine
 10
1192.445317
 20
177.721637
 30
0.0
 11
1205.445317
 21
177.721637
 31
0.0
  0
LINE
  5
20FA4
100
AcDbEntity
  8
0
100
AcDbLine
 10
1211.095317
 20
188.721637
 30
0.0
 11
1209.095317
 21
188.721637
 31
0.0
  0
ARC
  5
20FA5
100
AcDbEntity
  8
0
100
AcDbCircle
 10
1211.095317
 20
186.721637
 30
0.0
 40
2.0
100
AcDbArc
 50
0.0
 51
90.0
  0
LINE
  5
20FA6
100
AcDbEntity
  8
0
100
AcDbLine
 10
1191.30883
 20
207.319137
 30
0.0
 11
1191.805351
 21
206.459137
 31
0.0
  0
LINE
  5
20FA9
100
AcDbEntity
  8
0
100
AcDbLine
 10
1192.445317
 20
193.721637
 30
0.0
 11
1184.595317
 21
193.721637
 31
0.0
  0
LINE
  5
20FAA
100
AcDbEntity
  8
0
100
AcDbLine
 10
1191.805351
 20
206.459137
 30
0.0
 11
1192.445317
 21
206.459137
 31
0.0
  0
LINE
  5
20FAB
100
AcDbEntity
  8
0
100
AcDbLine
 10
1209.095317
 20
206.459137
 30
0.0
 11
1205.445317
 21
206.459137
 31
0.0
  0
LINE
  5
20FAC
100
AcDbEntity
  8
0
100
AcDbLine
 10
1209.095317
 20
193.721637
 30
0.0
 11
1205.445317
 21
193.721637
 31
0.0
  0
ARC
  5
20FAD
100
AcDbEntity
  8
0
100
AcDbCircle
 10
1278.906947
 20
174.087966
 30
0.0
 40
7.764039
100
AcDbArc
 50
290.502049
 51
350.502049
  0
LINE
  5
20FAE
100
AcDbEntity
  8
0
100
AcDbLine
 10
1259.095317
 20
183.408438
 30
0.0
 11
1259.095317
 21
169.221637
 31
0.0
  0
LINE
  5
20FAF
100
AcDbEntity
  8
0
100
AcDbLine
 10
1274.451176
 20
172.167294
 30
0.0
 11
1280.188109
 21
166.43036
 31
0.0
  0
LINE
  5
20FB0
100
AcDbEntity
  8
0
100
AcDbLine
 10
1236.095317
 20
168.221637
 30
0.0
 11
1258.095317
 21
168.221637
 31
0.0
  0
LINE
  5
20FB1
100
AcDbEntity
  8
0
100
AcDbLine
 10
1214.095317
 20
168.221637
 30
0.0
 11
1236.095317
 21
168.221637
 31
0.0
  0
LINE
  5
20FB2
100
AcDbEntity
  8
0
100
AcDbLine
 10
1259.095317
 20
169.221637
 30
0.0
 11
1258.095317
 21
168.221637
 31
0.0
  0
LINE
  5
20FB3
100
AcDbEntity
  8
0
100
AcDbLine
 10
1280.188109
 20
166.43036
 30
0.0
 11
1282.976496
 21
167.177507
 31
0.0
  0
LINE
  5
20FB4
100
AcDbEntity
  8
0
100
AcDbLine
 10
1226.095317
 20
189.221637
 30
0.0
 11
1246.095317
 21
189.221637
 31
0.0
  0
LINE
  5
20FB5
100
AcDbEntity
  8
0
100
AcDbLine
 10
1226.095317
 20
175.221637
 30
0.0
 11
1246.095317
 21
175.221637
 31
0.0
  0
LINE
  5
20FB6
100
AcDbEntity
  8
0
100
AcDbLine
 10
1226.095317
 20
189.221637
 30
0.0
 11
1226.095317
 21
175.221637
 31
0.0
  0
LINE
  5
20FB7
100
AcDbEntity
  8
0
100
AcDbLine
 10
1246.095317
 20
189.221637
 30
0.0
 11
1246.095317
 21
175.221637
 31
0.0
  0
LINE
  5
20FB8
100
AcDbEntity
  8
0
100
AcDbLine
 10
1252.054575
 20
197.451332
 30
0.0
 11
1224.338027
 21
197.451332
 31
0.0
  0
LINE
  5
20FB9
100
AcDbEntity
  8
0
100
AcDbLine
 10
1228.856705
 20
207.093583
 30
0.0
 11
1223.095317
 21
207.093583
 31
0.0
  0
LINE
  5
20FBA
100
AcDbEntity
  8
0
100
AcDbLine
 10
1228.856705
 20
202.965528
 30
0.0
 11
1223.095317
 21
202.965528
 31
0.0
  0
ARC
  5
20FBB
100
AcDbEntity
  8
0
100
AcDbCircle
 10
1225.84049
 20
205.029555
 30
0.0
 40
3.654827
100
AcDbArc
 50
325.615753
 51
34.384247
  0
LINE
  5
20FBC
100
AcDbEntity
  8
0
100
AcDbLine
 10
1229.495317
 20
204.071637
 30
0.0
 11
1228.856705
 21
202.965528
 31
0.0
  0
ARC
  5
20FBD
100
AcDbEntity
  8
0
100
AcDbCircle
 10
1308.386026
 20
167.930928
 30
0.0
 40
28.434501
100
AcDbArc
 50
116.665926
 51
153.334074
  0
LINE
  5
20FBE
100
AcDbEntity
  8
0
100
AcDbLine
 10
1270.602128
 20
181.673196
 30
0.0
 11
1294.643758
 21
205.714826
 31
0.0
  0
ARC
  5
20FBF
100
AcDbEntity
  8
0
100
AcDbCircle
 10
1282.108782
 20
170.886131
 30
0.0
 40
7.764039
100
AcDbArc
 50
99.497951
 51
159.497951
  0
ARC
  5
20FC0
100
AcDbEntity
  8
0
100
AcDbCircle
 10
1262.095317
 20
183.408438
 30
0.0
 40
3.0
100
AcDbArc
 50
53.631137
 51
180.0
  0
LINE
  5
20FC1
100
AcDbEntity
  8
0
100
AcDbLine
 10
1269.187914
 20
178.844769
 30
0.0
 11
1269.187914
 21
180.539513
 31
0.0
  0
ARC
  5
20FC2
100
AcDbEntity
  8
0
100
AcDbCircle
 10
1266.187914
 20
180.539513
 30
0.0
 40
3.0
100
AcDbArc
 50
0.0
 51
56.307687
  0
ARC
  5
20FC3
100
AcDbEntity
  8
0
100
AcDbCircle
 10
1325.544325
 20
269.566569
 30
0.0
 40
104.0
100
AcDbArc
 50
233.631137
 51
236.307687
  0
LINE
  5
20FC4
100
AcDbEntity
  8
0
100
AcDbLine
 10
1272.723448
 20
175.309235
 30
0.0
 11
1274.137662
 21
175.309235
 31
0.0
  0
LINE
  5
20FC5
100
AcDbEntity
  8
0
100
AcDbLine
 10
1274.451176
 20
172.167294
 30
0.0
 11
1275.198322
 21
174.955681
 31
0.0
  0
LINE
  5
20FC6
100
AcDbEntity
  8
0
100
AcDbLine
 10
1276.966089
 20
176.723448
 30
0.0
 11
1276.258982
 21
177.430555
 31
0.0
  0
LINE
  5
20FC7
100
AcDbEntity
  8
0
100
AcDbLine
 10
1272.723448
 20
175.309235
 30
0.0
 11
1269.187914
 21
178.844769
 31
0.0
  0
LINE
  5
20FC8
100
AcDbEntity
  8
0
100
AcDbLine
 10
1280.827619
 20
178.543737
 30
0.0
 11
1282.975863
 21
180.691981
 31
0.0
  0
LINE
  5
20FC9
100
AcDbEntity
  8
0
100
AcDbLine
 10
1286.564553
 20
172.806804
 30
0.0
 11
1288.712796
 21
174.955047
 31
0.0
  0
LINE
  5
20FCA
100
AcDbEntity
  8
0
100
AcDbLine
 10
1280.827619
 20
178.543737
 30
0.0
 11
1286.564553
 21
172.806804
 31
0.0
  0
LINE
  5
20FCB
100
AcDbEntity
  8
0
100
AcDbLine
 10
1282.975863
 20
180.691981
 30
0.0
 11
1288.712796
 21
174.955047
 31
0.0
  0
ARC
  5
20FCC
100
AcDbEntity
  8
0
100
AcDbCircle
 10
1295.886399
 20
210.12904
 30
0.0
 40
3.0
100
AcDbArc
 50
225.0
 51
270.0
  0
LINE
  5
20FCD
100
AcDbEntity
  8
0
100
AcDbLine
 10
1293.765079
 20
208.007719
 30
0.0
 11
1293.227977
 21
208.544821
 31
0.0
  0
LINE
  5
20FCE
100
AcDbEntity
  8
0
100
AcDbLine
 10
1297.472186
 20
207.12904
 30
0.0
 11
1295.886399
 21
207.12904
 31
0.0
  0
LINE
  5
20FCF
100
AcDbEntity
  8
0
100
AcDbLine
 10
1297.773217
 20
195.489335
 30
0.0
 11
1295.624973
 21
193.341091
 31
0.0
  0
LINE
  5
20FD0
100
AcDbEntity
  8
0
100
AcDbLine
 10
1214.095317
 20
264.221637
 30
0.0
 11
1213.095317
 21
263.221637
 31
0.0
  0
LINE
  5
20FD1
100
AcDbEntity
  8
0
100
AcDbLine
 10
1209.095317
 20
231.380834
 30
0.0
 11
1223.095317
 21
231.380834
 31
0.0
  0
LINE
  5
20FD3
100
AcDbEntity
  8
0
100
AcDbLine
 10
1213.095317
 20
235.721637
 30
0.0
 11
1213.095317
 21
263.221637
 31
0.0
  0
ARC
  5
20FD5
100
AcDbEntity
  8
0
100
AcDbCircle
 10
1211.095317
 20
235.721637
 30
0.0
 40
2.0
100
AcDbArc
 50
270.0
 51
0.0
  0
LINE
  5
20FD6
100
AcDbEntity
  8
0
100
AcDbLine
 10
1192.445317
 20
228.721637
 30
0.0
 11
1192.445317
 21
244.721637
 31
0.0
  0
LINE
  5
20FD9
100
AcDbEntity
  8
0
100
AcDbLine
 10
1191.30883
 20
215.124137
 30
0.0
 11
1191.805351
 21
215.984137
 31
0.0
  0
LINE
  5
20FDA
100
AcDbEntity
  8
0
100
AcDbLine
 10
1191.805351
 20
215.984137
 30
0.0
 11
1192.445317
 21
215.984137
 31
0.0
  0
LINE
  5
20FDB
100
AcDbEntity
  8
0
100
AcDbLine
 10
1192.445317
 20
228.721637
 30
0.0
 11
1184.595317
 21
228.721637
 31
0.0
  0
LINE
  5
20FDC
100
AcDbEntity
  8
0
100
AcDbLine
 10
1209.095317
 20
228.721637
 30
0.0
 11
1205.445317
 21
228.721637
 31
0.0
  0
LINE
  5
20FDD
100
AcDbEntity
  8
0
100
AcDbLine
 10
1209.095317
 20
215.984137
 30
0.0
 11
1205.445317
 21
215.984137
 31
0.0
  0
LINE
  5
20FDE
100
AcDbEntity
  8
0
100
AcDbLine
 10
1192.445317
 20
244.721637
 30
0.0
 11
1205.445317
 21
244.721637
 31
0.0
  0
LINE
  5
20FDF
100
AcDbEntity
  8
0
100
AcDbLine
 10
1211.095317
 20
233.721637
 30
0.0
 11
1209.095317
 21
233.721637
 31
0.0
  0
LINE
  5
20FE0
100
AcDbEntity
  8
0
100
AcDbLine
 10
1246.095317
 20
243.221637
 30
0.0
 11
1246.095317
 21
257.221637
 31
0.0
  0
LINE
  5
20FE1
100
AcDbEntity
  8
0
100
AcDbLine
 10
1259.095317
 20
244.024273
 30
0.0
 11
1259.095317
 21
263.221637
 31
0.0
  0
LINE
  5
20FE2
100
AcDbEntity
  8
0
100
AcDbLine
 10
1226.095317
 20
243.221637
 30
0.0
 11
1226.095317
 21
257.221637
 31
0.0
  0
LINE
  5
20FE3
100
AcDbEntity
  8
0
100
AcDbLine
 10
1247.852607
 20
224.991942
 30
0.0
 11
1224.338027
 21
224.991942
 31
0.0
  0
ARC
  5
20FE4
100
AcDbEntity
  8
0
100
AcDbCircle
 10
1225.84049
 20
217.413719
 30
0.0
 40
3.654827
100
AcDbArc
 50
325.615753
 51
34.384247
  0
LINE
  5
20FE5
100
AcDbEntity
  8
0
100
AcDbLine
 10
1228.856705
 20
215.349692
 30
0.0
 11
1223.095317
 21
215.349692
 31
0.0
  0
LINE
  5
20FE6
100
AcDbEntity
  8
0
100
AcDbLine
 10
1228.856705
 20
219.477746
 30
0.0
 11
1223.095317
 21
219.477746
 31
0.0
  0
LINE
  5
20FE7
100
AcDbEntity
  8
0
100
AcDbLine
 10
1229.495317
 20
218.371637
 30
0.0
 11
1228.856705
 21
219.477746
 31
0.0
  0
LINE
  5
20FE8
100
AcDbEntity
  8
0
100
AcDbLine
 10
1226.095317
 20
243.221637
 30
0.0
 11
1246.095317
 21
243.221637
 31
0.0
  0
ARC
  5
20FE9
100
AcDbEntity
  8
0
100
AcDbCircle
 10
1265.095317
 20
244.024273
 30
0.0
 40
6.0
100
AcDbArc
 50
180.0
 51
237.966943
  0
LINE
  5
20FEA
100
AcDbEntity
  8
0
100
AcDbLine
 10
1236.095317
 20
264.221637
 30
0.0
 11
1258.095317
 21
264.221637
 31
0.0
  0
LINE
  5
20FEB
100
AcDbEntity
  8
0
100
AcDbLine
 10
1226.095317
 20
257.221637
 30
0.0
 11
1246.095317
 21
257.221637
 31
0.0
  0
LINE
  5
20FEC
100
AcDbEntity
  8
0
100
AcDbLine
 10
1236.095317
 20
264.221637
 30
0.0
 11
1214.095317
 21
264.221637
 31
0.0
  0
LINE
  5
20FED
100
AcDbEntity
  8
0
100
AcDbLine
 10
1258.095317
 20
264.221637
 30
0.0
 11
1259.095317
 21
263.221637
 31
0.0
  0
ARC
  5
20FEE
100
AcDbEntity
  8
0
100
AcDbCircle
 10
1383.622908
 20
211.221637
 30
0.0
 40
34.5
100
AcDbArc
 50
343.15072
 51
16.84928
  0
ARC
  5
20FEF
100
AcDbEntity
  8
0
100
AcDbCircle
 10
1461.115785
 20
212.529931
 30
0.0
 40
96.557283
100
AcDbArc
 50
168.011772
 51
187.71261
  0
ARC
  5
20FF0
100
AcDbEntity
  8
0
100
AcDbCircle
 10
1306.130032
 20
212.529931
 30
0.0
 40
96.557283
100
AcDbArc
 50
352.28739
 51
11.988228
  0
ARC
  5
20FF1
100
AcDbEntity
  8
0
100
AcDbCircle
 10
1409.121844
 20
211.2211
 30
0.0
 40
6.750069
100
AcDbArc
 50
196.055811
 51
162.488025
  0
POLYLINE
  5
20FF2
100
AcDbEntity
  8
0
100
AcDb2dPolyline
 66
     1
 10
0.0
 20
0.0
 30
0.0
  0
VERTEX
  5
219A0
100
AcDbEntity
  8
0
100
AcDbVertex
100
AcDb2dVertex
 10
1402.63422
 20
215.731577
 30
0.0
  0
VERTEX
  5
219A1
100
AcDbEntity
  8
0
100
AcDbVertex
100
AcDb2dVertex
 10
1409.121844
 20
219.477208
 30
0.0
  0
VERTEX
  5
219A2
100
AcDbEntity
  8
0
100
AcDbVertex
100
AcDb2dVertex
 10
1416.271844
 20
215.349154
 30
0.0
  0
VERTEX
  5
219A3
100
AcDbEntity
  8
0
100
AcDbVertex
100
AcDb2dVertex
 10
1416.271844
 20
207.093045
 30
0.0
  0
VERTEX
  5
219A4
100
AcDbEntity
  8
0
100
AcDbVertex
100
AcDb2dVertex
 10
1409.121844
 20
202.964991
 30
0.0
  0
VERTEX
  5
219A5
100
AcDbEntity
  8
0
100
AcDbVertex
100
AcDb2dVertex
 10
1402.515897
 20
206.778936
 30
0.0
  0
SEQEND
  5
219A6
100
AcDbEntity
  8
0
  0
ARC
  5
20FF3
100
AcDbEntity
  8
0
100
AcDbCircle
 10
1383.622908
 20
211.221637
 30
0.0
 40
33.5
100
AcDbArc
 50
313.358981
 51
46.641019
  0
ARC
  5
20FF4
100
AcDbEntity
  8
0
100
AcDbCircle
 10
1383.622908
 20
211.221637
 30
0.0
 40
33.5
100
AcDbArc
 50
133.358981
 51
226.641019
  0
LINE
  5
20FF5
100
AcDbEntity
  8
0
100
AcDbLine
 10
1349.122908
 20
197.221637
 30
0.0
 11
1349.122908
 21
225.221637
 31
0.0
  0
LINE
  5
20FF6
100
AcDbEntity
  8
0
100
AcDbLine
 10
1349.122908
 20
197.221637
 30
0.0
 11
1349.122908
 21
225.221637
 31
0.0
  0
ARC
  5
20FF8
100
AcDbEntity
  8
0
100
AcDbCircle
 10
1358.123973
 20
211.2211
 30
0.0
 40
6.750069
100
AcDbArc
 50
17.511975
 51
343.944189
  0
POLYLINE
  5
20FF9
100
AcDbEntity
  8
0
100
AcDb2dPolyline
 66
     1
 10
0.0
 20
0.0
 30
0.0
  0
VERTEX
  5
219A7
100
AcDbEntity
  8
0
100
AcDbVertex
100
AcDb2dVertex
 10
1364.611597
 20
215.731577
 30
0.0
  0
VERTEX
  5
219A8
100
AcDbEntity
  8
0
100
AcDbVertex
100
AcDb2dVertex
 10
1358.123973
 20
219.477208
 30
0.0
  0
VERTEX
  5
219A9
100
AcDbEntity
  8
0
100
AcDbVertex
100
AcDb2dVertex
 10
1350.973973
 20
215.349154
 30
0.0
  0
VERTEX
  5
219AA
100
AcDbEntity
  8
0
100
AcDbVertex
100
AcDb2dVertex
 10
1350.973973
 20
207.093045
 30
0.0
  0
VERTEX
  5
219AB
100
AcDbEntity
  8
0
100
AcDbVertex
100
AcDb2dVertex
 10
1358.123973
 20
202.964991
 30
0.0
  0
VERTEX
  5
219AC
100
AcDbEntity
  8
0
100
AcDbVertex
100
AcDb2dVertex
 10
1364.72992
 20
206.778936
 30
0.0
  0
SEQEND
  5
219AD
100
AcDbEntity
  8
0
  0
ELLIPSE
  5
20FFA
100
AcDbEntity
  8
0
100
AcDbEllipse
 10
1383.622908
 20
187.016536
 30
0.0
 11
-21.0
 21
0.0
 31
0.0
210
0.0
220
0.0
230
1.0
 40
0.707107
 41
4.631711697362801
 42
4.793066263406571
  0
ELLIPSE
  5
20FFB
100
AcDbEntity
  8
0
100
AcDbEllipse
 10
1383.622908
 20
181.279603
 30
0.0
 11
-21.0
 21
0.0
 31
0.0
210
0.0
220
0.0
230
1.0
 40
0.707107
 41
4.631711697362801
 42
4.793066263406571
  0
ELLIPSE
  5
20FFC
100
AcDbEntity
  8
0
100
AcDbEllipse
 10
1383.622908
 20
181.279603
 30
0.0
 11
-21.0
 21
0.0
 31
0.0
210
0.0
220
0.0
230
-1.0
 40
0.707107
 41
4.631711697362801
 42
4.793066263406571
  0
ELLIPSE
  5
20FFD
100
AcDbEntity
  8
0
100
AcDbEllipse
 10
1383.622908
 20
181.279603
 30
0.0
 11
-18.5
 21
0.0
 31
0.0
210
0.0
220
0.0
230
1.0
 40
0.707107
 41
0.0
 42
6.283185307179586
  0
ELLIPSE
  5
20FFE
100
AcDbEntity
  8
0
100
AcDbEllipse
 10
1383.622908
 20
193.694011
 30
0.0
 11
-20.0
 21
0.0
 31
0.0
210
0.0
220
0.0
230
1.0
 40
0.707107
 41
3.141592653589793
 42
6.283185307179586
  0
ELLIPSE
  5
20FFF
100
AcDbEntity
  8
0
100
AcDbEllipse
 10
1383.622908
 20
188.721637
 30
0.0
 11
-20.0
 21
0.0
 31
0.0
210
0.0
220
0.0
230
1.0
 40
0.707107
 41
2.82403222429789
 42
6.600745736470893
  0
POLYLINE
  5
21000
100
AcDbEntity
  8
0
100
AcDb2dPolyline
 66
     1
 10
0.0
 20
0.0
 30
0.0
  0
VERTEX
  5
219AE
100
AcDbEntity
  8
0
100
AcDbVertex
100
AcDb2dVertex
 10
1381.930523
 20
166.47866
 30
0.0
  0
VERTEX
  5
219AF
100
AcDbEntity
  8
0
100
AcDbVertex
100
AcDb2dVertex
 10
1366.376942
 20
172.806804
 30
0.0
  0
SEQEND
  5
219B0
100
AcDbEntity
  8
0
  0
LINE
  5
21001
100
AcDbEntity
  8
0
100
AcDbLine
 10
1360.622908
 20
190.102835
 30
0.0
 11
1360.622908
 21
169.221637
 31
0.0
  0
LINE
  5
21002
100
AcDbEntity
  8
0
100
AcDbLine
 10
1361.622908
 20
168.221637
 30
0.0
 11
1377.646559
 21
168.221637
 31
0.0
  0
LINE
  5
21003
100
AcDbEntity
  8
0
100
AcDbLine
 10
1360.622908
 20
169.221637
 30
0.0
 11
1361.622908
 21
168.221637
 31
0.0
  0
ARC
  5
21004
100
AcDbEntity
  8
0
100
AcDbCircle
 10
1302.228988
 20
197.410007
 30
0.0
 40
7.764039
100
AcDbArc
 50
279.497951
 51
339.497951
  0
LINE
  5
21005
100
AcDbEntity
  8
0
100
AcDbLine
 10
1303.51015
 20
189.752401
 30
0.0
 11
1301.361907
 21
187.604158
 31
0.0
  0
LINE
  5
21006
100
AcDbEntity
  8
0
100
AcDbLine
 10
1304.14966
 20
201.865778
 30
0.0
 11
1301.361273
 21
201.118632
 31
0.0
  0
LINE
  5
21007
100
AcDbEntity
  8
0
100
AcDbLine
 10
1301.007719
 20
203.593506
 30
0.0
 11
1301.007719
 21
202.179292
 31
0.0
  0
LINE
  5
21008
100
AcDbEntity
  8
0
100
AcDbLine
 10
1309.886594
 20
196.128845
 30
0.0
 11
1309.139447
 21
193.340458
 31
0.0
  0
LINE
  5
21009
100
AcDbEntity
  8
0
100
AcDbLine
 10
1304.14966
 20
201.865778
 30
0.0
 11
1309.886594
 21
196.128845
 31
0.0
  0
POLYLINE
  5
2100A
100
AcDbEntity
  8
0
100
AcDb2dPolyline
 66
     1
 10
0.0
 20
0.0
 30
0.0
  0
VERTEX
  5
219B1
100
AcDbEntity
  8
0
100
AcDbVertex
100
AcDb2dVertex
 10
1381.930523
 20
196.080546
 30
0.0
  0
VERTEX
  5
219B2
100
AcDbEntity
  8
0
100
AcDbVertex
100
AcDb2dVertex
 10
1366.376942
 20
189.752401
 30
0.0
  0
SEQEND
  5
219B3
100
AcDbEntity
  8
0
  0
LINE
  5
2100B
100
AcDbEntity
  8
0
100
AcDbLine
 10
1363.622908
 20
193.694011
 30
0.0
 11
1363.622908
 21
188.721637
 31
0.0
  0
LINE
  5
2100C
100
AcDbEntity
  8
0
100
AcDbLine
 10
1366.376942
 20
195.489335
 30
0.0
 11
1366.376942
 21
189.752401
 31
0.0
  0
POLYLINE
  5
2100D
100
AcDbEntity
  8
0
100
AcDb2dPolyline
 66
     1
 10
0.0
 20
0.0
 30
0.0
  0
VERTEX
  5
219B4
100
AcDbEntity
  8
0
100
AcDbVertex
100
AcDb2dVertex
 10
1364.622908
 20
193.341091
 30
0.0
  0
VERTEX
  5
219B5
100
AcDbEntity
  8
0
100
AcDbVertex
100
AcDb2dVertex
 10
1364.622908
 20
174.955047
 30
0.0
  0
SEQEND
  5
219B6
100
AcDbEntity
  8
0
  0
ARC
  5
2100E
100
AcDbEntity
  8
0
100
AcDbCircle
 10
1368.622908
 20
190.102835
 30
0.0
 40
8.0
100
AcDbArc
 50
124.643441
 51
180.0
  0
ARC
  5
2100F
100
AcDbEntity
  8
0
100
AcDbCircle
 10
1362.910593
 20
191.221637
 30
0.0
 40
2.0
100
AcDbArc
 50
270.0
 51
291.492096
  0
ARC
  5
21010
100
AcDbEntity
  8
0
100
AcDbCircle
 10
1362.910593
 20
173.221637
 30
0.0
 40
2.0
100
AcDbArc
 50
45.0
 51
90.0
  0
LINE
  5
21011
100
AcDbEntity
  8
0
100
AcDbLine
 10
1362.622908
 20
189.221637
 30
0.0
 11
1362.910593
 21
189.221637
 31
0.0
  0
LINE
  5
21012
100
AcDbEntity
  8
0
100
AcDbLine
 10
1362.622908
 20
175.221637
 30
0.0
 11
1362.910593
 21
175.221637
 31
0.0
  0
LINE
  5
21013
100
AcDbEntity
  8
0
100
AcDbLine
 10
1362.910593
 20
176.356651
 30
0.0
 11
1362.910593
 21
188.086623
 31
0.0
  0
ARC
  5
21016
100
AcDbEntity
  8
0
100
AcDbCircle
 10
1362.622908
 20
177.221637
 30
0.0
 40
2.0
100
AcDbArc
 50
180.0
 51
270.0
  0
ARC
  5
21017
100
AcDbEntity
  8
0
100
AcDbCircle
 10
1362.622908
 20
187.221637
 30
0.0
 40
2.0
100
AcDbArc
 50
90.0
 51
180.0
  0
ELLIPSE
  5
21018
100
AcDbEntity
  8
0
100
AcDbEllipse
 10
1383.622908
 20
181.279603
 30
0.0
 11
-21.0
 21
0.0
 31
0.0
210
0.0
220
0.0
230
1.0
 40
0.707107
 41
5.675963710774241
 42
5.843209352388812
  0
ELLIPSE
  5
21019
100
AcDbEntity
  8
0
100
AcDbEllipse
 10
1383.622908
 20
181.279603
 30
0.0
 11
-21.0
 21
0.0
 31
0.0
210
0.0
220
0.0
230
-1.0
 40
0.707107
 41
5.675963710774241
 42
5.843209352388812
  0
ARC
  5
2101A
100
AcDbEntity
  8
0
100
AcDbCircle
 10
1351.869956
 20
193.221637
 30
0.0
 40
3.0
100
AcDbArc
 50
29.547878
 51
90.0
  0
ARC
  5
2101B
100
AcDbEntity
  8
0
100
AcDbCircle
 10
1351.869956
 20
193.221637
 30
0.0
 40
3.0
100
AcDbArc
 50
29.547878
 51
90.0
  0
LINE
  5
2101C
100
AcDbEntity
  8
0
100
AcDbLine
 10
1350.122908
 20
196.221637
 30
0.0
 11
1351.869956
 21
196.221637
 31
0.0
  0
LINE
  5
2101D
100
AcDbEntity
  8
0
100
AcDbLine
 10
1350.122908
 20
196.221637
 30
0.0
 11
1351.869956
 21
196.221637
 31
0.0
  0
ARC
  5
2101E
100
AcDbEntity
  8
0
100
AcDbCircle
 10
1350.122908
 20
197.221637
 30
0.0
 40
1.0
100
AcDbArc
 50
180.0
 51
270.0
  0
ARC
  5
2101F
100
AcDbEntity
  8
0
100
AcDbCircle
 10
1350.122908
 20
197.221637
 30
0.0
 40
1.0
100
AcDbArc
 50
180.0
 51
270.0
  0
ELLIPSE
  5
21020
100
AcDbEntity
  8
0
100
AcDbEllipse
 10
1383.622908
 20
187.016536
 30
0.0
 11
-21.0
 21
0.0
 31
0.0
210
0.0
220
0.0
230
1.0
 40
0.707107
 41
5.675963710774241
 42
5.843209352388812
  0
POLYLINE
  5
21021
100
AcDbEntity
  8
0
100
AcDb2dPolyline
 66
     1
 10
0.0
 20
0.0
 30
0.0
  0
VERTEX
  5
219B7
100
AcDbEntity
  8
0
100
AcDbVertex
100
AcDb2dVertex
 10
1381.930523
 20
201.817479
 30
0.0
  0
VERTEX
  5
219B8
100
AcDbEntity
  8
0
100
AcDbVertex
100
AcDb2dVertex
 10
1366.376942
 20
195.489335
 30
0.0
  0
SEQEND
  5
219B9
100
AcDbEntity
  8
0
  0
LINE
  5
21022
100
AcDbEntity
  8
0
100
AcDbLine
 10
1381.930523
 20
201.817479
 30
0.0
 11
1381.930523
 21
196.080546
 31
0.0
  0
LINE
  5
21023
100
AcDbEntity
  8
0
100
AcDbLine
 10
1406.622908
 20
190.102835
 30
0.0
 11
1406.622908
 21
169.221637
 31
0.0
  0
POLYLINE
  5
21024
100
AcDbEntity
  8
0
100
AcDb2dPolyline
 66
     1
 10
0.0
 20
0.0
 30
0.0
  0
VERTEX
  5
219BA
100
AcDbEntity
  8
0
100
AcDbVertex
100
AcDb2dVertex
 10
1385.315294
 20
166.47866
 30
0.0
  0
VERTEX
  5
219BB
100
AcDbEntity
  8
0
100
AcDbVertex
100
AcDb2dVertex
 10
1400.868875
 20
172.806804
 30
0.0
  0
SEQEND
  5
219BC
100
AcDbEntity
  8
0
  0
LINE
  5
21025
100
AcDbEntity
  8
0
100
AcDbLine
 10
1406.622908
 20
169.221637
 30
0.0
 11
1405.622908
 21
168.221637
 31
0.0
  0
LINE
  5
21026
100
AcDbEntity
  8
0
100
AcDbLine
 10
1406.622908
 20
169.221637
 30
0.0
 11
1405.622908
 21
168.221637
 31
0.0
  0
LINE
  5
21027
100
AcDbEntity
  8
0
100
AcDbLine
 10
1389.599258
 20
168.221637
 30
0.0
 11
1405.622908
 21
168.221637
 31
0.0
  0
POLYLINE
  5
21028
100
AcDbEntity
  8
0
100
AcDb2dPolyline
 66
     1
 10
0.0
 20
0.0
 30
0.0
  0
VERTEX
  5
219BD
100
AcDbEntity
  8
0
100
AcDbVertex
100
AcDb2dVertex
 10
1385.315294
 20
196.080546
 30
0.0
  0
VERTEX
  5
219BE
100
AcDbEntity
  8
0
100
AcDbVertex
100
AcDb2dVertex
 10
1400.868875
 20
189.752401
 30
0.0
  0
SEQEND
  5
219BF
100
AcDbEntity
  8
0
  0
LINE
  5
21029
100
AcDbEntity
  8
0
100
AcDbLine
 10
1403.622908
 20
193.694011
 30
0.0
 11
1403.622908
 21
188.721637
 31
0.0
  0
LINE
  5
2102A
100
AcDbEntity
  8
0
100
AcDbLine
 10
1400.868875
 20
195.489335
 30
0.0
 11
1400.868875
 21
189.752401
 31
0.0
  0
POLYLINE
  5
2102B
100
AcDbEntity
  8
0
100
AcDb2dPolyline
 66
     1
 10
0.0
 20
0.0
 30
0.0
  0
VERTEX
  5
219C0
100
AcDbEntity
  8
0
100
AcDbVertex
100
AcDb2dVertex
 10
1402.622908
 20
174.955047
 30
0.0
  0
VERTEX
  5
219C1
100
AcDbEntity
  8
0
100
AcDbVertex
100
AcDb2dVertex
 10
1402.622908
 20
193.341091
 30
0.0
  0
SEQEND
  5
219C2
100
AcDbEntity
  8
0
  0
ARC
  5
2102C
100
AcDbEntity
  8
0
100
AcDbCircle
 10
1398.622908
 20
190.102835
 30
0.0
 40
8.0
100
AcDbArc
 50
360.0
 51
55.356559
  0
ARC
  5
2102D
100
AcDbEntity
  8
0
100
AcDbCircle
 10
1404.622908
 20
177.221637
 30
0.0
 40
2.0
100
AcDbArc
 50
270.0
 51
0.0
  0
ARC
  5
2102E
100
AcDbEntity
  8
0
100
AcDbCircle
 10
1404.622908
 20
187.221637
 30
0.0
 40
2.0
100
AcDbArc
 50
360.0
 51
90.0
  0
ARC
  5
2102F
100
AcDbEntity
  8
0
100
AcDbCircle
 10
1404.335224
 20
191.221637
 30
0.0
 40
2.0
100
AcDbArc
 50
248.507904
 51
270.0
  0
LINE
  5
21030
100
AcDbEntity
  8
0
100
AcDbLine
 10
1404.622908
 20
189.221637
 30
0.0
 11
1404.335224
 21
189.221637
 31
0.0
  0
ELLIPSE
  5
21031
100
AcDbEntity
  8
0
100
AcDbEllipse
 10
1383.622908
 20
181.279603
 30
0.0
 11
-21.0
 21
0.0
 31
0.0
210
0.0
220
0.0
230
1.0
 40
0.707107
 41
3.581568608380711
 42
3.748814249995137
  0
LINE
  5
21032
100
AcDbEntity
  8
0
100
AcDbLine
 10
1404.622908
 20
175.221637
 30
0.0
 11
1404.335224
 21
175.221637
 31
0.0
  0
ARC
  5
21033
100
AcDbEntity
  8
0
100
AcDbCircle
 10
1404.335224
 20
173.221637
 30
0.0
 40
2.0
100
AcDbArc
 50
90.0
 51
135.0
  0
ELLIPSE
  5
21034
100
AcDbEntity
  8
0
100
AcDbEllipse
 10
1383.622908
 20
181.279603
 30
0.0
 11
-21.0
 21
0.0
 31
0.0
210
0.0
220
0.0
230
-1.0
 40
0.707107
 41
3.581568608380711
 42
3.748814249995137
  0
LINE
  5
21035
100
AcDbEntity
  8
0
100
AcDbLine
 10
1404.335224
 20
176.356651
 30
0.0
 11
1404.335224
 21
188.086623
 31
0.0
  0
ELLIPSE
  5
21038
100
AcDbEntity
  8
0
100
AcDbEllipse
 10
1383.622908
 20
187.016536
 30
0.0
 11
-21.0
 21
0.0
 31
0.0
210
0.0
220
0.0
230
1.0
 40
0.707107
 41
3.581568608380711
 42
3.748814249995137
  0
POLYLINE
  5
21039
100
AcDbEntity
  8
0
100
AcDb2dPolyline
 66
     1
 10
0.0
 20
0.0
 30
0.0
  0
VERTEX
  5
219C3
100
AcDbEntity
  8
0
100
AcDbVertex
100
AcDb2dVertex
 10
1385.315294
 20
201.817479
 30
0.0
  0
VERTEX
  5
219C4
100
AcDbEntity
  8
0
100
AcDbVertex
100
AcDb2dVertex
 10
1400.868875
 20
195.489335
 30
0.0
  0
SEQEND
  5
219C5
100
AcDbEntity
  8
0
  0
LINE
  5
2103A
100
AcDbEntity
  8
0
100
AcDbLine
 10
1385.315294
 20
201.817479
 30
0.0
 11
1385.315294
 21
196.080546
 31
0.0
  0
LINE
  5
2103B
100
AcDbEntity
  8
0
100
AcDbLine
 10
1415.595553
 20
201.221637
 30
0.0
 11
1416.641842
 21
201.221637
 31
0.0
  0
LINE
  5
2103C
100
AcDbEntity
  8
0
100
AcDbLine
 10
1383.622908
 20
264.221637
 30
0.0
 11
1405.622908
 21
264.221637
 31
0.0
  0
ELLIPSE
  5
2103D
100
AcDbEntity
  8
0
100
AcDbEllipse
 10
1383.622908
 20
229.679141
 30
0.0
 11
-17.52291503460766
 21
0.0000000000000166
 31
0.0
210
0.0
220
0.0
230
1.0
 40
0.81865
 41
3.494035181711411
 42
5.930742779057948
  0
LINE
  5
2103E
100
AcDbEntity
  8
0
100
AcDbLine
 10
1362.910593
 20
256.086623
 30
0.0
 11
1362.910593
 21
244.356651
 31
0.0
  0
LINE
  5
2103F
100
AcDbEntity
  8
0
100
AcDbLine
 10
1360.622908
 20
232.340439
 30
0.0
 11
1360.622908
 21
263.221637
 31
0.0
  0
ARC
  5
21040
100
AcDbEntity
  8
0
100
AcDbCircle
 10
1372.650098
 20
232.172066
 30
0.0
 40
6.0
100
AcDbArc
 50
155.806806
 51
176.044902
  0
ARC
  5
21041
100
AcDbEntity
  8
0
100
AcDbCircle
 10
1372.650098
 20
232.172066
 30
0.0
 40
6.0
100
AcDbArc
 50
155.806806
 51
176.044902
  0
ARC
  5
21043
100
AcDbEntity
  8
0
100
AcDbCircle
 10
1368.622908
 20
232.340439
 30
0.0
 40
8.0
100
AcDbArc
 50
180.0
 51
240.0
  0
ARC
  5
21044
100
AcDbEntity
  8
0
100
AcDbCircle
 10
1351.869956
 20
229.221637
 30
0.0
 40
3.0
100
AcDbArc
 50
270.0
 51
330.452122
  0
ARC
  5
21045
100
AcDbEntity
  8
0
100
AcDbCircle
 10
1351.869956
 20
229.221637
 30
0.0
 40
3.0
100
AcDbArc
 50
270.0
 51
330.452122
  0
ARC
  5
21046
100
AcDbEntity
  8
0
100
AcDbCircle
 10
1350.122908
 20
225.221637
 30
0.0
 40
1.0
100
AcDbArc
 50
90.0
 51
180.0
  0
LINE
  5
21047
100
AcDbEntity
  8
0
100
AcDbLine
 10
1350.122908
 20
226.221637
 30
0.0
 11
1351.869956
 21
226.221637
 31
0.0
  0
ARC
  5
21048
100
AcDbEntity
  8
0
100
AcDbCircle
 10
1350.122908
 20
225.221637
 30
0.0
 40
1.0
100
AcDbArc
 50
90.0
 51
180.0
  0
LINE
  5
21049
100
AcDbEntity
  8
0
100
AcDbLine
 10
1350.122908
 20
226.221637
 30
0.0
 11
1351.869956
 21
226.221637
 31
0.0
  0
LINE
  5
2104A
100
AcDbEntity
  8
0
100
AcDbLine
 10
1364.622908
 20
225.412236
 30
0.0
 11
1365.365012
 21
224.983782
 31
0.0
  0
ARC
  5
2104B
100
AcDbEntity
  8
0
100
AcDbCircle
 10
1362.910593
 20
241.221637
 30
0.0
 40
2.0
100
AcDbArc
 50
45.0
 51
90.0
  0
LINE
  5
2104C
100
AcDbEntity
  8
0
100
AcDbLine
 10
1362.622908
 20
243.221637
 30
0.0
 11
1362.910593
 21
243.221637
 31
0.0
  0
ARC
  5
2104D
100
AcDbEntity
  8
0
100
AcDbCircle
 10
1362.622908
 20
245.221637
 30
0.0
 40
2.0
100
AcDbArc
 50
180.0
 51
270.0
  0
ARC
  5
2104F
100
AcDbEntity
  8
0
100
AcDbCircle
 10
1362.910593
 20
259.221637
 30
0.0
 40
2.0
100
AcDbArc
 50
270.0
 51
315.0
  0
LINE
  5
21050
100
AcDbEntity
  8
0
100
AcDbLine
 10
1383.622908
 20
264.221637
 30
0.0
 11
1361.622908
 21
264.221637
 31
0.0
  0
LINE
  5
21051
100
AcDbEntity
  8
0
100
AcDbLine
 10
1362.622908
 20
257.221637
 30
0.0
 11
1362.910593
 21
257.221637
 31
0.0
  0
LINE
  5
21052
100
AcDbEntity
  8
0
100
AcDbLine
 10
1361.622908
 20
264.221637
 30
0.0
 11
1360.622908
 21
263.221637
 31
0.0
  0
ARC
  5
21053
100
AcDbEntity
  8
0
100
AcDbCircle
 10
1362.622908
 20
255.221637
 30
0.0
 40
2.0
100
AcDbArc
 50
90.0
 51
180.0
  0
LINE
  5
21054
100
AcDbEntity
  8
0
100
AcDbLine
 10
1404.335224
 20
256.086623
 30
0.0
 11
1404.335224
 21
244.356651
 31
0.0
  0
LINE
  5
21055
100
AcDbEntity
  8
0
100
AcDbLine
 10
1406.622908
 20
232.340439
 30
0.0
 11
1406.622908
 21
263.221637
 31
0.0
  0
ARC
  5
21057
100
AcDbEntity
  8
0
100
AcDbCircle
 10
1394.595719
 20
232.172066
 30
0.0
 40
6.0
100
AcDbArc
 50
3.955098
 51
24.193194
  0
ARC
  5
21058
100
AcDbEntity
  8
0
100
AcDbCircle
 10
1394.595719
 20
232.172066
 30
0.0
 40
6.0
100
AcDbArc
 50
3.955098
 51
24.193194
  0
ARC
  5
21059
100
AcDbEntity
  8
0
100
AcDbCircle
 10
1398.622908
 20
232.340439
 30
0.0
 40
8.0
100
AcDbArc
 50
300.0
 51
0.0
  0
LINE
  5
2105A
100
AcDbEntity
  8
0
100
AcDbLine
 10
1402.622908
 20
225.412236
 30
0.0
 11
1401.880805
 21
224.983782
 31
0.0
  0
LINE
  5
2105B
100
AcDbEntity
  8
0
100
AcDbLine
 10
1415.595553
 20
221.221637
 30
0.0
 11
1416.641842
 21
221.221637
 31
0.0
  0
ARC
  5
2105C
100
AcDbEntity
  8
0
100
AcDbCircle
 10
1404.622908
 20
245.221637
 30
0.0
 40
2.0
100
AcDbArc
 50
270.0
 51
0.0
  0
ARC
  5
2105D
100
AcDbEntity
  8
0
100
AcDbCircle
 10
1404.335224
 20
241.221637
 30
0.0
 40
2.0
100
AcDbArc
 50
90.0
 51
135.0
  0
LINE
  5
2105E
100
AcDbEntity
  8
0
100
AcDbLine
 10
1404.622908
 20
243.221637
 30
0.0
 11
1404.335224
 21
243.221637
 31
0.0
  0
LINE
  5
21060
100
AcDbEntity
  8
0
100
AcDbLine
 10
1405.622908
 20
264.221637
 30
0.0
 11
1406.622908
 21
263.221637
 31
0.0
  0
LINE
  5
21061
100
AcDbEntity
  8
0
100
AcDbLine
 10
1405.622908
 20
264.221637
 30
0.0
 11
1406.622908
 21
263.221637
 31
0.0
  0
ARC
  5
21062
100
AcDbEntity
  8
0
100
AcDbCircle
 10
1404.622908
 20
255.221637
 30
0.0
 40
2.0
100
AcDbArc
 50
360.0
 51
90.0
  0
ARC
  5
21063
100
AcDbEntity
  8
0
100
AcDbCircle
 10
1404.335224
 20
259.221637
 30
0.0
 40
2.0
100
AcDbArc
 50
225.0
 51
270.0
  0
LINE
  5
21064
100
AcDbEntity
  8
0
100
AcDbLine
 10
1404.622908
 20
257.221637
 30
0.0
 11
1404.335224
 21
257.221637
 31
0.0
  0
LINE
  5
21067
100
AcDbEntity
  8
0
100
AcDbLine
 10
1297.773217
 20
387.070924
 30
0.0
 11
1303.51015
 21
387.070924
 31
0.0
  0
POLYLINE
  5
21068
100
AcDbEntity
  8
0
100
AcDb2dPolyline
 66
     1
 10
0.0
 20
0.0
 30
0.0
  0
VERTEX
  5
219C6
100
AcDbEntity
  8
0
100
AcDbVertex
100
AcDb2dVertex
 10
1301.361907
 20
388.824957
 30
0.0
  0
VERTEX
  5
219C7
100
AcDbEntity
  8
0
100
AcDbVertex
100
AcDb2dVertex
 10
1291.281464
 20
388.824957
 30
0.0
  0
SEQEND
  5
219C8
100
AcDbEntity
  8
0
  0
POLYLINE
  5
21069
100
AcDbEntity
  8
0
100
AcDb2dPolyline
 66
     1
 10
0.0
 20
0.0
 30
0.0
  0
VERTEX
  5
219C9
100
AcDbEntity
  8
0
100
AcDbVertex
100
AcDb2dVertex
 10
1304.101361
 20
371.517343
 30
0.0
  0
VERTEX
  5
219CA
100
AcDbEntity
  8
0
100
AcDbVertex
100
AcDb2dVertex
 10
1297.773217
 20
387.070924
 30
0.0
  0
SEQEND
  5
219CB
100
AcDbEntity
  8
0
  0
LINE
  5
2106A
100
AcDbEntity
  8
0
100
AcDbLine
 10
1297.773217
 20
352.578991
 30
0.0
 11
1303.51015
 21
352.578991
 31
0.0
  0
POLYLINE
  5
2106B
100
AcDbEntity
  8
0
100
AcDb2dPolyline
 66
     1
 10
0.0
 20
0.0
 30
0.0
  0
VERTEX
  5
219CC
100
AcDbEntity
  8
0
100
AcDbVertex
100
AcDb2dVertex
 10
1291.281464
 20
350.824957
 30
0.0
  0
VERTEX
  5
219CD
100
AcDbEntity
  8
0
100
AcDbVertex
100
AcDb2dVertex
 10
1301.361907
 20
350.824957
 30
0.0
  0
SEQEND
  5
219CE
100
AcDbEntity
  8
0
  0
ELLIPSE
  5
2106C
100
AcDbEntity
  8
0
100
AcDbEllipse
 10
1286.865584
 20
369.824957
 30
0.0
 11
0.0000000000000012
 21
-20.0
 31
0.0
210
0.0
220
0.0
230
-1.0
 40
0.707107
 41
3.141592653589793
 42
6.283185307179586
  0
POLYLINE
  5
2106D
100
AcDbEntity
  8
0
100
AcDb2dPolyline
 66
     1
 10
0.0
 20
0.0
 30
0.0
  0
VERTEX
  5
219CF
100
AcDbEntity
  8
0
100
AcDbVertex
100
AcDb2dVertex
 10
1304.101361
 20
368.132572
 30
0.0
  0
VERTEX
  5
219D0
100
AcDbEntity
  8
0
100
AcDbVertex
100
AcDb2dVertex
 10
1297.773217
 20
352.578991
 30
0.0
  0
SEQEND
  5
219D1
100
AcDbEntity
  8
0
  0
ELLIPSE
  5
21086
100
AcDbEntity
  8
0
100
AcDbEllipse
 10
1278.882846
 20
369.824957
 30
0.0
 11
0.0000000000000177
 21
-17.52291503460766
 31
0.0
210
0.0
220
0.0
230
-1.0
 40
0.81865
 41
3.494035181711411
 42
5.930742779057948
  0
CIRCLE
  5
21087
100
AcDbEntity
  8
0
100
AcDbCircle
 10
1236.095317
 20
369.824957
 30
0.0
 40
23.0
  0
LINE
  5
21088
100
AcDbEntity
  8
0
100
AcDbLine
 10
1209.095317
 20
403.324957
 30
0.0
 11
1209.095317
 21
336.324957
 31
0.0
  0
LINE
  5
21089
100
AcDbEntity
  8
0
100
AcDbLine
 10
1205.445317
 20
403.324957
 30
0.0
 11
1205.445317
 21
336.324957
 31
0.0
  0
LINE
  5
2108A
100
AcDbEntity
  8
0
100
AcDbLine
 10
1192.445317
 20
336.324957
 30
0.0
 11
1192.445317
 21
403.324957
 31
0.0
  0
LINE
  5
2108D
100
AcDbEntity
  8
0
100
AcDbLine
 10
1184.595317
 20
387.324957
 30
0.0
 11
1184.595317
 21
352.324957
 31
0.0
  0
ELLIPSE
  5
2108E
100
AcDbEntity
  8
0
100
AcDbEllipse
 10
1283.33005
 20
369.824957
 30
0.0
 11
0.0000000000000012
 21
-20.0
 31
0.0
210
0.0
220
0.0
230
-1.0
 40
0.707107
 41
2.674352144222319
 42
6.750425816556282
  0
LINE
  5
2108F
100
AcDbEntity
  8
0
100
AcDbLine
 10
1210.745317
 20
343.069457
 30
0.0
 11
1221.445317
 21
343.069457
 31
0.0
  0
LINE
  5
21090
100
AcDbEntity
  8
0
100
AcDbLine
 10
1220.095317
 20
339.870826
 30
0.0
 11
1212.095317
 21
339.870826
 31
0.0
  0
LINE
  5
21091
100
AcDbEntity
  8
0
100
AcDbLine
 10
1220.095317
 20
335.324957
 30
0.0
 11
1212.095317
 21
335.324957
 31
0.0
  0
LINE
  5
21092
100
AcDbEntity
  8
0
100
AcDbLine
 10
1212.095317
 20
338.870826
 30
0.0
 11
1212.095317
 21
335.324957
 31
0.0
  0
LINE
  5
21094
100
AcDbEntity
  8
0
100
AcDbLine
 10
1205.445317
 20
336.324957
 30
0.0
 11
1192.445317
 21
336.324957
 31
0.0
  0
LINE
  5
21096
100
AcDbEntity
  8
0
100
AcDbLine
 10
1191.40883
 20
348.227457
 30
0.0
 11
1191.905351
 21
349.087457
 31
0.0
  0
LINE
  5
21098
100
AcDbEntity
  8
0
100
AcDbLine
 10
1191.40883
 20
340.422457
 30
0.0
 11
1191.905351
 21
339.562457
 31
0.0
  0
LINE
  5
21099
100
AcDbEntity
  8
0
100
AcDbLine
 10
1191.40883
 20
340.422457
 30
0.0
 11
1191.40883
 21
348.227457
 31
0.0
  0
LINE
  5
2109A
100
AcDbEntity
  8
0
100
AcDbLine
 10
1191.905351
 20
339.562457
 30
0.0
 11
1192.445317
 21
339.562457
 31
0.0
  0
LINE
  5
2109B
100
AcDbEntity
  8
0
100
AcDbLine
 10
1192.445317
 20
352.324957
 30
0.0
 11
1184.595317
 21
352.324957
 31
0.0
  0
LINE
  5
2109C
100
AcDbEntity
  8
0
100
AcDbLine
 10
1191.905351
 20
349.087457
 30
0.0
 11
1192.445317
 21
349.087457
 31
0.0
  0
LINE
  5
2109D
100
AcDbEntity
  8
0
100
AcDbLine
 10
1209.095317
 20
352.324957
 30
0.0
 11
1205.445317
 21
352.324957
 31
0.0
  0
LINE
  5
2109E
100
AcDbEntity
  8
0
100
AcDbLine
 10
1209.095317
 20
349.087457
 30
0.0
 11
1205.445317
 21
349.087457
 31
0.0
  0
LINE
  5
2109F
100
AcDbEntity
  8
0
100
AcDbLine
 10
1209.095317
 20
339.562457
 30
0.0
 11
1205.445317
 21
339.562457
 31
0.0
  0
ARC
  5
210A0
100
AcDbEntity
  8
0
100
AcDbCircle
 10
1211.095317
 20
338.870826
 30
0.0
 40
1.0
100
AcDbArc
 50
0.0
 51
90.0
  0
LINE
  5
210A1
100
AcDbEntity
  8
0
100
AcDbLine
 10
1209.095317
 20
336.324957
 30
0.0
 11
1212.095317
 21
336.324957
 31
0.0
  0
LINE
  5
210A2
100
AcDbEntity
  8
0
100
AcDbLine
 10
1220.095317
 20
338.870826
 30
0.0
 11
1220.095317
 21
335.324957
 31
0.0
  0
ARC
  5
210A3
100
AcDbEntity
  8
0
100
AcDbCircle
 10
1261.733636
 20
447.317833
 30
0.0
 40
96.557283
100
AcDbArc
 50
263.001287
 51
281.988228
  0
LINE
  5
210A4
100
AcDbEntity
  8
0
100
AcDbLine
 10
1226.095317
 20
346.824957
 30
0.0
 11
1246.095317
 21
346.824957
 31
0.0
  0
LINE
  5
210A5
100
AcDbEntity
  8
0
100
AcDbLine
 10
1223.095317
 20
344.324957
 30
0.0
 11
1228.737805
 21
344.324957
 31
0.0
  0
LINE
  5
210A6
100
AcDbEntity
  8
0
100
AcDbLine
 10
1228.737805
 20
344.324957
 30
0.0
 11
1223.095317
 21
344.324957
 31
0.0
  0
ARC
  5
210A7
100
AcDbEntity
  8
0
100
AcDbCircle
 10
1228.737805
 20
344.324957
 30
0.0
 40
0.0
100
AcDbArc
 50
90.0
 51
137.854147
  0
LINE
  5
210A8
100
AcDbEntity
  8
0
100
AcDbLine
 10
1226.095317
 20
349.112642
 30
0.0
 11
1226.095317
 21
346.824957
 31
0.0
  0
ARC
  5
210A9
100
AcDbEntity
  8
0
100
AcDbCircle
 10
1220.68064
 20
347.899957
 30
0.0
 40
8.814677
100
AcDbArc
 50
336.072926
 51
352.995016
  0
LINE
  5
210AA
100
AcDbEntity
  8
0
100
AcDbLine
 10
1228.737805
 20
337.174957
 30
0.0
 11
1223.095317
 21
337.174957
 31
0.0
  0
LINE
  5
210AB
100
AcDbEntity
  8
0
100
AcDbLine
 10
1229.495317
 20
338.487007
 30
0.0
 11
1228.737805
 21
337.174957
 31
0.0
  0
ARC
  5
210AC
100
AcDbEntity
  8
0
100
AcDbCircle
 10
1221.095317
 20
338.870826
 30
0.0
 40
1.0
100
AcDbArc
 50
90.0
 51
180.0
  0
LINE
  5
210AD
100
AcDbEntity
  8
0
100
AcDbLine
 10
1220.095317
 20
336.324957
 30
0.0
 11
1223.095317
 21
336.324957
 31
0.0
  0
ARC
  5
210AE
100
AcDbEntity
  8
0
100
AcDbCircle
 10
1220.68064
 20
340.749957
 30
0.0
 40
8.814677
100
AcDbArc
 50
336.072926
 51
23.927074
  0
LINE
  5
210AF
100
AcDbEntity
  8
0
100
AcDbLine
 10
1223.095317
 20
336.324957
 30
0.0
 11
1223.095317
 21
350.851291
 31
0.0
  0
LINE
  5
210B0
100
AcDbEntity
  8
0
100
AcDbLine
 10
1229.495317
 20
338.487007
 30
0.0
 11
1229.495317
 21
346.824957
 31
0.0
  0
LINE
  5
210B1
100
AcDbEntity
  8
0
100
AcDbLine
 10
1246.095317
 20
349.112642
 30
0.0
 11
1246.095317
 21
346.824957
 31
0.0
  0
ELLIPSE
  5
210B2
100
AcDbEntity
  8
0
100
AcDbEllipse
 10
1289.300418
 20
369.824957
 30
0.0
 11
-0.0000000000000013
 21
-21.0
 31
0.0
210
0.0
220
0.0
230
-1.0
 40
0.707107
 41
5.675963710774241
 42
5.843209352388812
  0
POLYLINE
  5
210B3
100
AcDbEntity
  8
0
100
AcDb2dPolyline
 66
     1
 10
0.0
 20
0.0
 30
0.0
  0
VERTEX
  5
219D2
100
AcDbEntity
  8
0
100
AcDbVertex
100
AcDb2dVertex
 10
1291.281464
 20
350.824957
 30
0.0
  0
VERTEX
  5
219D3
100
AcDbEntity
  8
0
100
AcDbVertex
100
AcDb2dVertex
 10
1295.624973
 20
350.824957
 30
0.0
  0
SEQEND
  5
219D4
100
AcDbEntity
  8
0
  0
ARC
  5
210B4
100
AcDbEntity
  8
0
100
AcDbCircle
 10
1281.375771
 20
358.852147
 30
0.0
 40
6.0
100
AcDbArc
 50
273.955098
 51
294.193194
  0
LINE
  5
210B5
100
AcDbEntity
  8
0
100
AcDbLine
 10
1286.865584
 20
349.824957
 30
0.0
 11
1283.33005
 21
349.824957
 31
0.0
  0
LINE
  5
210B6
100
AcDbEntity
  8
0
100
AcDbLine
 10
1220.095317
 20
404.324957
 30
0.0
 11
1212.095317
 21
404.324957
 31
0.0
  0
LINE
  5
210B7
100
AcDbEntity
  8
0
100
AcDbLine
 10
1210.745317
 20
396.580457
 30
0.0
 11
1221.445317
 21
396.580457
 31
0.0
  0
LINE
  5
210B8
100
AcDbEntity
  8
0
100
AcDbLine
 10
1209.095317
 20
403.324957
 30
0.0
 11
1223.095317
 21
403.324957
 31
0.0
  0
LINE
  5
210BA
100
AcDbEntity
  8
0
100
AcDbLine
 10
1191.40883
 20
391.422457
 30
0.0
 11
1191.40883
 21
399.227457
 31
0.0
  0
LINE
  5
210BC
100
AcDbEntity
  8
0
100
AcDbLine
 10
1191.40883
 20
391.422457
 30
0.0
 11
1191.905351
 21
390.562457
 31
0.0
  0
LINE
  5
210BE
100
AcDbEntity
  8
0
100
AcDbLine
 10
1192.445317
 20
387.324957
 30
0.0
 11
1184.595317
 21
387.324957
 31
0.0
  0
LINE
  5
210BF
100
AcDbEntity
  8
0
100
AcDbLine
 10
1191.905351
 20
390.562457
 30
0.0
 11
1192.445317
 21
390.562457
 31
0.0
  0
LINE
  5
210C0
100
AcDbEntity
  8
0
100
AcDbLine
 10
1209.095317
 20
387.324957
 30
0.0
 11
1205.445317
 21
387.324957
 31
0.0
  0
LINE
  5
210C1
100
AcDbEntity
  8
0
100
AcDbLine
 10
1209.095317
 20
390.562457
 30
0.0
 11
1205.445317
 21
390.562457
 31
0.0
  0
LINE
  5
210C2
100
AcDbEntity
  8
0
100
AcDbLine
 10
1205.445317
 20
403.324957
 30
0.0
 11
1192.445317
 21
403.324957
 31
0.0
  0
LINE
  5
210C3
100
AcDbEntity
  8
0
100
AcDbLine
 10
1191.40883
 20
399.227457
 30
0.0
 11
1191.905351
 21
400.087457
 31
0.0
  0
LINE
  5
210C4
100
AcDbEntity
  8
0
100
AcDbLine
 10
1191.905351
 20
400.087457
 30
0.0
 11
1192.445317
 21
400.087457
 31
0.0
  0
LINE
  5
210C5
100
AcDbEntity
  8
0
100
AcDbLine
 10
1209.095317
 20
400.087457
 30
0.0
 11
1205.445317
 21
400.087457
 31
0.0
  0
LINE
  5
210C6
100
AcDbEntity
  8
0
100
AcDbLine
 10
1212.095317
 20
403.324957
 30
0.0
 11
1212.095317
 21
404.324957
 31
0.0
  0
ARC
  5
210CC
100
AcDbEntity
  8
0
100
AcDbCircle
 10
1261.733636
 20
292.332081
 30
0.0
 40
96.557283
100
AcDbArc
 50
78.011772
 51
96.998713
  0
LINE
  5
210CD
100
AcDbEntity
  8
0
100
AcDbLine
 10
1223.095317
 20
403.324957
 30
0.0
 11
1223.095317
 21
388.798623
 31
0.0
  0
ARC
  5
210CE
100
AcDbEntity
  8
0
100
AcDbCircle
 10
1220.68064
 20
398.899957
 30
0.0
 40
8.814677
100
AcDbArc
 50
336.072926
 51
23.927074
  0
LINE
  5
210CF
100
AcDbEntity
  8
0
100
AcDbLine
 10
1229.495317
 20
401.162908
 30
0.0
 11
1229.495317
 21
392.824957
 31
0.0
  0
LINE
  5
210D0
100
AcDbEntity
  8
0
100
AcDbLine
 10
1226.095317
 20
392.824957
 30
0.0
 11
1246.095317
 21
392.824957
 31
0.0
  0
LINE
  5
210D1
100
AcDbEntity
  8
0
100
AcDbLine
 10
1228.737805
 20
395.324957
 30
0.0
 11
1223.095317
 21
395.324957
 31
0.0
  0
LINE
  5
210D2
100
AcDbEntity
  8
0
100
AcDbLine
 10
1223.095317
 20
395.324957
 30
0.0
 11
1228.737805
 21
395.324957
 31
0.0
  0
ARC
  5
210D3
100
AcDbEntity
  8
0
100
AcDbCircle
 10
1228.737805
 20
395.324957
 30
0.0
 40
0.0
100
AcDbArc
 50
222.145853
 51
270.0
  0
LINE
  5
210D4
100
AcDbEntity
  8
0
100
AcDbLine
 10
1226.095317
 20
390.537273
 30
0.0
 11
1226.095317
 21
392.824957
 31
0.0
  0
ARC
  5
210D5
100
AcDbEntity
  8
0
100
AcDbCircle
 10
1220.68064
 20
391.749957
 30
0.0
 40
8.814677
100
AcDbArc
 50
7.004984
 51
23.927074
  0
LINE
  5
210D6
100
AcDbEntity
  8
0
100
AcDbLine
 10
1246.095317
 20
390.537273
 30
0.0
 11
1246.095317
 21
392.824957
 31
0.0
  0
LINE
  5
210D7
100
AcDbEntity
  8
0
100
AcDbLine
 10
1229.495317
 20
401.162908
 30
0.0
 11
1228.737805
 21
402.474957
 31
0.0
  0
LINE
  5
210D8
100
AcDbEntity
  8
0
100
AcDbLine
 10
1228.737805
 20
402.474957
 30
0.0
 11
1223.095317
 21
402.474957
 31
0.0
  0
LINE
  5
210D9
100
AcDbEntity
  8
0
100
AcDbLine
 10
1220.095317
 20
403.324957
 30
0.0
 11
1220.095317
 21
404.324957
 31
0.0
  0
ELLIPSE
  5
210DA
100
AcDbEntity
  8
0
100
AcDbEllipse
 10
1289.300418
 20
369.824957
 30
0.0
 11
-0.0000000000000013
 21
-21.0
 31
0.0
210
0.0
220
0.0
230
-1.0
 40
0.707107
 41
3.581568608380711
 42
3.748814249995137
  0
POLYLINE
  5
210DB
100
AcDbEntity
  8
0
100
AcDb2dPolyline
 66
     1
 10
0.0
 20
0.0
 30
0.0
  0
VERTEX
  5
219D5
100
AcDbEntity
  8
0
100
AcDbVertex
100
AcDb2dVertex
 10
1295.624973
 20
388.824957
 30
0.0
  0
VERTEX
  5
219D6
100
AcDbEntity
  8
0
100
AcDbVertex
100
AcDb2dVertex
 10
1291.281464
 20
388.824957
 30
0.0
  0
SEQEND
  5
219D7
100
AcDbEntity
  8
0
  0
ARC
  5
210DC
100
AcDbEntity
  8
0
100
AcDbCircle
 10
1281.375771
 20
380.797768
 30
0.0
 40
6.0
100
AcDbArc
 50
65.806806
 51
86.044902
  0
LINE
  5
210DD
100
AcDbEntity
  8
0
100
AcDbLine
 10
1286.865584
 20
389.824957
 30
0.0
 11
1283.33005
 21
389.824957
 31
0.0
  0
POLYLINE
  5
21137
100
AcDbEntity
  8
0
100
AcDb2dPolyline
 66
     1
 10
0.0
 20
0.0
 30
0.0
  0
VERTEX
  5
219D8
100
AcDbEntity
  8
0
100
AcDbVertex
100
AcDb2dVertex
 10
1309.838294
 20
371.517343
 30
0.0
  0
VERTEX
  5
219D9
100
AcDbEntity
  8
0
100
AcDbVertex
100
AcDb2dVertex
 10
1303.51015
 20
387.070924
 30
0.0
  0
SEQEND
  5
219DA
100
AcDbEntity
  8
0
  0
POLYLINE
  5
21138
100
AcDbEntity
  8
0
100
AcDb2dPolyline
 66
     1
 10
0.0
 20
0.0
 30
0.0
  0
VERTEX
  5
219DB
100
AcDbEntity
  8
0
100
AcDbVertex
100
AcDb2dVertex
 10
1309.838294
 20
368.132572
 30
0.0
  0
VERTEX
  5
219DC
100
AcDbEntity
  8
0
100
AcDbVertex
100
AcDb2dVertex
 10
1303.51015
 20
352.578991
 30
0.0
  0
SEQEND
  5
219DD
100
AcDbEntity
  8
0
  0
ELLIPSE
  5
21139
100
AcDbEntity
  8
0
100
AcDbEllipse
 10
1295.037351
 20
369.824957
 30
0.0
 11
-0.0000000000000013
 21
-21.0
 31
0.0
210
0.0
220
0.0
230
-1.0
 40
0.707107
 41
5.675963710774241
 42
5.843209352388812
  0
ELLIPSE
  5
2113A
100
AcDbEntity
  8
0
100
AcDbEllipse
 10
1295.037351
 20
369.824957
 30
0.0
 11
-0.0000000000000013
 21
-21.0
 31
0.0
210
0.0
220
0.0
230
-1.0
 40
0.707107
 41
4.631711697362801
 42
4.793066263406571
  0
ELLIPSE
  5
2113B
100
AcDbEntity
  8
0
100
AcDbEllipse
 10
1289.300418
 20
369.824957
 30
0.0
 11
-0.0000000000000013
 21
-21.0
 31
0.0
210
0.0
220
0.0
230
-1.0
 40
0.707107
 41
4.631711697362801
 42
4.793066263406571
  0
LINE
  5
2113C
100
AcDbEntity
  8
0
100
AcDbLine
 10
1304.101361
 20
371.517343
 30
0.0
 11
1309.838294
 21
371.517343
 31
0.0
  0
LINE
  5
2113D
100
AcDbEntity
  8
0
100
AcDbLine
 10
1304.101361
 20
368.132572
 30
0.0
 11
1309.838294
 21
368.132572
 31
0.0
  0
ELLIPSE
  5
2113E
100
AcDbEntity
  8
0
100
AcDbEllipse
 10
1295.037351
 20
369.824957
 30
0.0
 11
-0.0000000000000013
 21
-21.0
 31
0.0
210
0.0
220
0.0
230
-1.0
 40
0.707107
 41
3.581568608380711
 42
3.748814249995137
  0
LINE
  5
211C8
100
AcDbEntity
  8
0
100
AcDbLine
 10
561.954925
 20
242.821637
 30
0.0
 11
498.154925
 21
242.821637
 31
0.0
  0
LINE
  5
211C9
100
AcDbEntity
  8
0
100
AcDbLine
 10
548.41279
 20
151.621637
 30
0.0
 11
511.697061
 21
151.621637
 31
0.0
  0
LINE
  5
211F9
100
AcDbEntity
  8
0
100
AcDbLine
 10
555.483857
 20
154.550569
 30
0.0
 11
571.964247
 21
171.030959
 31
0.0
  0
ARC
  5
211FA
100
AcDbEntity
  8
0
100
AcDbCircle
 10
548.41279
 20
161.621637
 30
0.0
 40
10.0
100
AcDbArc
 50
270.0
 51
315.0
  0
LINE
  5
211FB
100
AcDbEntity
  8
0
100
AcDbLine
 10
583.304925
 20
226.221637
 30
0.0
 11
577.554925
 21
226.221637
 31
0.0
  0
LINE
  5
211FC
100
AcDbEntity
  8
0
100
AcDbLine
 10
583.304925
 20
196.221637
 30
0.0
 11
577.548675
 21
196.221637
 31
0.0
  0
ARC
  5
21232
100
AcDbEntity
  8
0
100
AcDbCircle
 10
497.554925
 20
197.221637
 30
0.0
 40
80.0
100
AcDbArc
 50
344.148961
 51
360.0
  0
LINE
  5
21233
100
AcDbEntity
  8
0
100
AcDbLine
 10
577.554925
 20
227.221637
 30
0.0
 11
577.554925
 21
197.221637
 31
0.0
  0
ARC
  5
21234
100
AcDbEntity
  8
0
100
AcDbCircle
 10
564.89318
 20
178.102027
 30
0.0
 40
10.0
100
AcDbArc
 50
315.0
 51
344.148961
  0
ARC
  5
21235
100
AcDbEntity
  8
0
100
AcDbCircle
 10
561.954925
 20
227.221637
 30
0.0
 40
15.6
100
AcDbArc
 50
0.0
 51
90.0
  0
LINE
  5
21236
100
AcDbEntity
  8
0
100
AcDbLine
 10
504.625993
 20
154.550569
 30
0.0
 11
488.145603
 21
171.030959
 31
0.0
  0
ARC
  5
21237
100
AcDbEntity
  8
0
100
AcDbCircle
 10
511.697061
 20
161.621637
 30
0.0
 40
10.0
100
AcDbArc
 50
225.0
 51
270.0
  0
LINE
  5
21238
100
AcDbEntity
  8
0
100
AcDbLine
 10
478.804925
 20
226.221637
 30
0.0
 11
475.804925
 21
229.221637
 31
0.0
  0
LINE
  5
21239
100
AcDbEntity
  8
0
100
AcDbLine
 10
470.804925
 20
229.221637
 30
0.0
 11
475.804925
 21
229.221637
 31
0.0
  0
LINE
  5
2123A
100
AcDbEntity
  8
0
100
AcDbLine
 10
478.804925
 20
226.221637
 30
0.0
 11
482.554925
 21
226.221637
 31
0.0
  0
ARC
  5
2123B
100
AcDbEntity
  8
0
100
AcDbCircle
 10
562.554925
 20
197.221637
 30
0.0
 40
80.0
100
AcDbArc
 50
180.0
 51
195.851039
  0
ARC
  5
2123C
100
AcDbEntity
  8
0
100
AcDbCircle
 10
495.216671
 20
178.102027
 30
0.0
 40
10.0
100
AcDbArc
 50
195.851039
 51
225.0
  0
LINE
  5
2123D
100
AcDbEntity
  8
0
100
AcDbLine
 10
478.804925
 20
196.221637
 30
0.0
 11
475.804925
 21
193.221637
 31
0.0
  0
LINE
  5
2123E
100
AcDbEntity
  8
0
100
AcDbLine
 10
470.804925
 20
193.221637
 30
0.0
 11
475.804925
 21
193.221637
 31
0.0
  0
LINE
  5
2123F
100
AcDbEntity
  8
0
100
AcDbLine
 10
478.804925
 20
196.221637
 30
0.0
 11
482.561175
 21
196.221637
 31
0.0
  0
LINE
  5
21240
100
AcDbEntity
  8
0
100
AcDbLine
 10
482.554925
 20
227.221637
 30
0.0
 11
482.554925
 21
197.221637
 31
0.0
  0
LINE
  5
21241
100
AcDbEntity
  8
0
100
AcDbLine
 10
470.804925
 20
193.221637
 30
0.0
 11
470.804925
 21
229.221637
 31
0.0
  0
LINE
  5
21242
100
AcDbEntity
  8
0
100
AcDbLine
 10
475.804925
 20
193.221637
 30
0.0
 11
475.804925
 21
229.221637
 31
0.0
  0
LINE
  5
21243
100
AcDbEntity
  8
0
100
AcDbLine
 10
478.804925
 20
196.221637
 30
0.0
 11
478.804925
 21
226.221637
 31
0.0
  0
ARC
  5
21244
100
AcDbEntity
  8
0
100
AcDbCircle
 10
498.154925
 20
227.221637
 30
0.0
 40
15.6
100
AcDbArc
 50
90.0
 51
180.0
  0
LINE
  5
2132B
100
AcDbEntity
  8
0
100
AcDbLine
 10
505.569313
 20
324.224957
 30
0.0
 11
554.540537
 21
324.224957
 31
0.0
  0
LINE
  5
2132C
100
AcDbEntity
  8
0
100
AcDbLine
 10
505.569313
 20
415.424957
 30
0.0
 11
554.540537
 21
415.424957
 31
0.0
  0
ARC
  5
2132E
100
AcDbEntity
  8
0
100
AcDbCircle
 10
497.554925
 20
369.824957
 30
0.0
 40
80.0
100
AcDbArc
 50
332.235498
 51
27.764502
  0
LINE
  5
21345
100
AcDbEntity
  8
0
100
AcDbLine
 10
583.304925
 20
384.824957
 30
0.0
 11
576.136093
 21
384.824957
 31
0.0
  0
LINE
  5
21346
100
AcDbEntity
  8
0
100
AcDbLine
 10
583.304925
 20
354.824957
 30
0.0
 11
576.136093
 21
354.824957
 31
0.0
  0
ARC
  5
21387
100
AcDbEntity
  8
0
100
AcDbCircle
 10
554.540537
 20
399.824957
 30
0.0
 40
15.6
100
AcDbArc
 50
27.764502
 51
90.0
  0
ARC
  5
21388
100
AcDbEntity
  8
0
100
AcDbCircle
 10
554.540537
 20
339.824957
 30
0.0
 40
15.6
100
AcDbArc
 50
270.0
 51
332.235498
  0
ARC
  5
21389
100
AcDbEntity
  8
0
100
AcDbCircle
 10
562.554925
 20
369.824957
 30
0.0
 40
80.0
100
AcDbArc
 50
152.235498
 51
207.764502
  0
LINE
  5
2138A
100
AcDbEntity
  8
0
100
AcDbLine
 10
478.804925
 20
384.824957
 30
0.0
 11
478.804925
 21
354.824957
 31
0.0
  0
LINE
  5
2138B
100
AcDbEntity
  8
0
100
AcDbLine
 10
475.804925
 20
387.824957
 30
0.0
 11
475.804925
 21
351.824957
 31
0.0
  0
LINE
  5
2138C
100
AcDbEntity
  8
0
100
AcDbLine
 10
470.804925
 20
387.824957
 30
0.0
 11
470.804925
 21
351.824957
 31
0.0
  0
LINE
  5
2138D
100
AcDbEntity
  8
0
100
AcDbLine
 10
470.804925
 20
387.824957
 30
0.0
 11
475.804925
 21
387.824957
 31
0.0
  0
LINE
  5
2138E
100
AcDbEntity
  8
0
100
AcDbLine
 10
478.804925
 20
384.824957
 30
0.0
 11
475.804925
 21
387.824957
 31
0.0
  0
LINE
  5
2138F
100
AcDbEntity
  8
0
100
AcDbLine
 10
478.804925
 20
384.824957
 30
0.0
 11
483.973757
 21
384.824957
 31
0.0
  0
LINE
  5
21390
100
AcDbEntity
  8
0
100
AcDbLine
 10
470.804925
 20
351.824957
 30
0.0
 11
475.804925
 21
351.824957
 31
0.0
  0
LINE
  5
21391
100
AcDbEntity
  8
0
100
AcDbLine
 10
478.804925
 20
354.824957
 30
0.0
 11
475.804925
 21
351.824957
 31
0.0
  0
LINE
  5
21392
100
AcDbEntity
  8
0
100
AcDbLine
 10
478.804925
 20
354.824957
 30
0.0
 11
483.973757
 21
354.824957
 31
0.0
  0
ARC
  5
21393
100
AcDbEntity
  8
0
100
AcDbCircle
 10
505.569313
 20
399.824957
 30
0.0
 40
15.6
100
AcDbArc
 50
90.0
 51
152.235498
  0
ARC
  5
21394
100
AcDbEntity
  8
0
100
AcDbCircle
 10
505.569313
 20
339.824957
 30
0.0
 40
15.6
100
AcDbArc
 50
207.764502
 51
270.0
  0
ARC
  5
21397
100
AcDbEntity
  8
0
100
AcDbCircle
 10
1099.445317
 20
227.221637
 30
0.0
 40
15.6
100
AcDbArc
 50
90.0
 51
180.0
  0
ARC
  5
21398
100
AcDbEntity
  8
0
100
AcDbCircle
 10
1163.245317
 20
227.221637
 30
0.0
 40
15.6
100
AcDbArc
 50
0.0
 51
90.0
  0
LINE
  5
2139A
100
AcDbEntity
  8
0
100
AcDbLine
 10
1072.095317
 20
193.221637
 30
0.0
 11
1077.095317
 21
193.221637
 31
0.0
  0
LINE
  5
2139B
100
AcDbEntity
  8
0
100
AcDbLine
 10
1072.095317
 20
229.221637
 30
0.0
 11
1077.095317
 21
229.221637
 31
0.0
  0
LINE
  5
2139C
100
AcDbEntity
  8
0
100
AcDbLine
 10
1072.095317
 20
193.221637
 30
0.0
 11
1072.095317
 21
229.221637
 31
0.0
  0
LINE
  5
2139D
100
AcDbEntity
  8
0
100
AcDbLine
 10
1149.703181
 20
151.621637
 30
0.0
 11
1112.987453
 21
151.621637
 31
0.0
  0
ARC
  5
2139E
100
AcDbEntity
  8
0
100
AcDbCircle
 10
1163.845317
 20
197.221637
 30
0.0
 40
80.0
100
AcDbArc
 50
180.0
 51
195.851039
  0
ARC
  5
2139F
100
AcDbEntity
  8
0
100
AcDbCircle
 10
1112.987453
 20
161.621637
 30
0.0
 40
10.0
100
AcDbArc
 50
225.0
 51
270.0
  0
LINE
  5
213A0
100
AcDbEntity
  8
0
100
AcDbLine
 10
1105.916385
 20
154.550569
 30
0.0
 11
1089.435995
 21
171.030959
 31
0.0
  0
ARC
  5
213A1
100
AcDbEntity
  8
0
100
AcDbCircle
 10
1096.507062
 20
178.102027
 30
0.0
 40
10.0
100
AcDbArc
 50
195.851039
 51
225.0
  0
LINE
  5
213A2
100
AcDbEntity
  8
0
100
AcDbLine
 10
1080.095317
 20
196.221637
 30
0.0
 11
1080.095317
 21
226.221637
 31
0.0
  0
LINE
  5
213A3
100
AcDbEntity
  8
0
100
AcDbLine
 10
1077.095317
 20
193.221637
 30
0.0
 11
1077.095317
 21
229.221637
 31
0.0
  0
LINE
  5
213A4
100
AcDbEntity
  8
0
100
AcDbLine
 10
1083.845317
 20
227.221637
 30
0.0
 11
1083.845317
 21
197.221637
 31
0.0
  0
LINE
  5
213A5
100
AcDbEntity
  8
0
100
AcDbLine
 10
1080.095317
 20
196.221637
 30
0.0
 11
1083.851567
 21
196.221637
 31
0.0
  0
LINE
  5
213A6
100
AcDbEntity
  8
0
100
AcDbLine
 10
1080.095317
 20
196.221637
 30
0.0
 11
1077.095317
 21
193.221637
 31
0.0
  0
LINE
  5
213A7
100
AcDbEntity
  8
0
100
AcDbLine
 10
1080.095317
 20
226.221637
 30
0.0
 11
1083.845317
 21
226.221637
 31
0.0
  0
LINE
  5
213A8
100
AcDbEntity
  8
0
100
AcDbLine
 10
1080.095317
 20
226.221637
 30
0.0
 11
1077.095317
 21
229.221637
 31
0.0
  0
ARC
  5
213A9
100
AcDbEntity
  8
0
100
AcDbCircle
 10
1098.845317
 20
197.221637
 30
0.0
 40
80.0
100
AcDbArc
 50
344.148961
 51
360.0
  0
LINE
  5
213AA
100
AcDbEntity
  8
0
100
AcDbLine
 10
1156.774249
 20
154.550569
 30
0.0
 11
1173.254639
 21
171.030959
 31
0.0
  0
ARC
  5
213AB
100
AcDbEntity
  8
0
100
AcDbCircle
 10
1149.703181
 20
161.621637
 30
0.0
 40
10.0
100
AcDbArc
 50
270.0
 51
315.0
  0
ARC
  5
213AC
100
AcDbEntity
  8
0
100
AcDbCircle
 10
1166.183571
 20
178.102027
 30
0.0
 40
10.0
100
AcDbArc
 50
315.0
 51
344.148961
  0
LINE
  5
213AD
100
AcDbEntity
  8
0
100
AcDbLine
 10
1184.595317
 20
196.221637
 30
0.0
 11
1178.839067
 21
196.221637
 31
0.0
  0
LINE
  5
213AE
100
AcDbEntity
  8
0
100
AcDbLine
 10
1184.595317
 20
226.221637
 30
0.0
 11
1178.845317
 21
226.221637
 31
0.0
  0
LINE
  5
213AF
100
AcDbEntity
  8
0
100
AcDbLine
 10
1178.845317
 20
227.221637
 30
0.0
 11
1178.845317
 21
197.221637
 31
0.0
  0
LINE
  5
213B0
100
AcDbEntity
  8
0
100
AcDbLine
 10
1072.095317
 20
387.824957
 30
0.0
 11
1077.095317
 21
387.824957
 31
0.0
  0
LINE
  5
213B1
100
AcDbEntity
  8
0
100
AcDbLine
 10
1072.095317
 20
351.824957
 30
0.0
 11
1077.095317
 21
351.824957
 31
0.0
  0
LINE
  5
213B2
100
AcDbEntity
  8
0
100
AcDbLine
 10
1072.095317
 20
387.824957
 30
0.0
 11
1072.095317
 21
351.824957
 31
0.0
  0
ARC
  5
213B3
100
AcDbEntity
  8
0
100
AcDbCircle
 10
1098.845317
 20
369.824957
 30
0.0
 40
80.0
100
AcDbArc
 50
332.235498
 51
27.764502
  0
ARC
  5
213B4
100
AcDbEntity
  8
0
100
AcDbCircle
 10
1163.845317
 20
369.824957
 30
0.0
 40
80.0
100
AcDbArc
 50
152.235498
 51
207.764502
  0
LINE
  5
213B5
100
AcDbEntity
  8
0
100
AcDbLine
 10
1106.859705
 20
324.224957
 30
0.0
 11
1155.830929
 21
324.224957
 31
0.0
  0
LINE
  5
213B6
100
AcDbEntity
  8
0
100
AcDbLine
 10
1163.245317
 20
242.821637
 30
0.0
 11
1099.445317
 21
242.821637
 31
0.0
  0
ARC
  5
213B7
100
AcDbEntity
  8
0
100
AcDbCircle
 10
1106.859705
 20
339.824957
 30
0.0
 40
15.6
100
AcDbArc
 50
207.764502
 51
270.0
  0
ARC
  5
213B8
100
AcDbEntity
  8
0
100
AcDbCircle
 10
1155.830929
 20
339.824957
 30
0.0
 40
15.6
100
AcDbArc
 50
270.0
 51
332.235498
  0
LINE
  5
213B9
100
AcDbEntity
  8
0
100
AcDbLine
 10
1106.859705
 20
415.424957
 30
0.0
 11
1155.830929
 21
415.424957
 31
0.0
  0
LINE
  5
213BA
100
AcDbEntity
  8
0
100
AcDbLine
 10
1080.095317
 20
384.824957
 30
0.0
 11
1080.095317
 21
354.824957
 31
0.0
  0
LINE
  5
213BB
100
AcDbEntity
  8
0
100
AcDbLine
 10
1077.095317
 20
387.824957
 30
0.0
 11
1077.095317
 21
351.824957
 31
0.0
  0
LINE
  5
213BC
100
AcDbEntity
  8
0
100
AcDbLine
 10
1080.095317
 20
354.824957
 30
0.0
 11
1077.095317
 21
351.824957
 31
0.0
  0
LINE
  5
213BD
100
AcDbEntity
  8
0
100
AcDbLine
 10
1080.095317
 20
354.824957
 30
0.0
 11
1085.264149
 21
354.824957
 31
0.0
  0
ARC
  5
213BE
100
AcDbEntity
  8
0
100
AcDbCircle
 10
1106.859705
 20
399.824957
 30
0.0
 40
15.6
100
AcDbArc
 50
90.0
 51
152.235498
  0
LINE
  5
213BF
100
AcDbEntity
  8
0
100
AcDbLine
 10
1080.095317
 20
384.824957
 30
0.0
 11
1077.095317
 21
387.824957
 31
0.0
  0
LINE
  5
213C0
100
AcDbEntity
  8
0
100
AcDbLine
 10
1080.095317
 20
384.824957
 30
0.0
 11
1085.264149
 21
384.824957
 31
0.0
  0
LINE
  5
213C1
100
AcDbEntity
  8
0
100
AcDbLine
 10
1184.595317
 20
354.824957
 30
0.0
 11
1177.426485
 21
354.824957
 31
0.0
  0
LINE
  5
213C2
100
AcDbEntity
  8
0
100
AcDbLine
 10
1184.595317
 20
384.824957
 30
0.0
 11
1177.426485
 21
384.824957
 31
0.0
  0
ARC
  5
213C3
100
AcDbEntity
  8
0
100
AcDbCircle
 10
1155.830929
 20
399.824957
 30
0.0
 40
15.6
100
AcDbArc
 50
27.764502
 51
90.0
  0
CIRCLE
  5
213DE
100
AcDbEntity
  8
0
100
AcDbCircle
 10
381.235486
 20
211.221637
 30
0.0
 40
18.0
  0
CIRCLE
  5
213DF
100
AcDbEntity
  8
0
100
AcDbCircle
 10
381.235486
 20
197.221637
 30
0.0
 40
45.6
  0
ELLIPSE
  5
213EA
100
AcDbEntity
  8
0
100
AcDbEllipse
 10
381.235486
 20
162.790764
 30
0.0
 11
-18.0
 21
0.0
 31
0.0
210
0.0
220
0.0
230
1.0
 40
0.569282
 41
0.0
 42
6.283185307179586
  0
ARC
  5
213EB
100
AcDbEntity
  8
0
100
AcDbCircle
 10
754.399519
 20
197.221637
 30
0.0
 40
45.6
100
AcDbArc
 50
115.428076
 51
64.571924
  0
CIRCLE
  5
213EC
100
AcDbEntity
  8
0
100
AcDbCircle
 10
1003.626085
 20
197.221637
 30
0.0
 40
45.6
  0
ELLIPSE
  5
213ED
100
AcDbEntity
  8
0
100
AcDbEllipse
 10
1003.626085
 20
162.790764
 30
0.0
 11
-18.0
 21
0.0
 31
0.0
210
0.0
220
0.0
230
1.0
 40
0.569282
 41
0.0
 42
6.283185307179586
  0
ARC
  5
213F0
100
AcDbEntity
  8
0
100
AcDbCircle
 10
1383.622908
 20
197.221637
 30
0.0
 40
45.6
100
AcDbArc
 50
120.2906
 51
59.7094
  0
TEXT
  5
213F3
100
AcDbEntity
  8
0
100
AcDbText
 10
260.127503
 20
1038.814717
 30
0.0
 40
17.5
  1
背面
100
AcDbText
  0
ARC
  5
213F9
100
AcDbEntity
  8
0
100
AcDbCircle
 10
659.336381
 20
549.541117
 30
0.0
 40
15.6
100
AcDbArc
 50
0.0
 51
90.0
  0
ARC
  5
213FA
100
AcDbEntity
  8
0
100
AcDbCircle
 10
595.536381
 20
549.541117
 30
0.0
 40
15.6
100
AcDbArc
 50
90.0
 51
180.0
  0
LINE
  5
213FB
100
AcDbEntity
  8
0
100
AcDbLine
 10
546.186381
 20
574.041117
 30
0.0
 11
546.186381
 21
558.041117
 31
0.0
  0
LINE
  5
213FC
100
AcDbEntity
  8
0
100
AcDbLine
 10
546.186381
 20
571.541117
 30
0.0
 11
546.186381
 21
558.041117
 31
0.0
  0
LINE
  5
213FD
100
AcDbEntity
  8
0
100
AcDbLine
 10
566.336381
 20
551.041117
 30
0.0
 11
566.336381
 21
567.041117
 31
0.0
  0
LINE
  5
213FE
100
AcDbEntity
  8
0
100
AcDbLine
 10
566.336381
 20
500.041117
 30
0.0
 11
566.336381
 21
567.041117
 31
0.0
  0
LINE
  5
213FF
100
AcDbEntity
  8
0
100
AcDbLine
 10
553.336381
 20
500.041117
 30
0.0
 11
553.336381
 21
567.041117
 31
0.0
  0
LINE
  5
21400
100
AcDbEntity
  8
0
100
AcDbLine
 10
507.186381
 20
559.304573
 30
0.0
 11
481.077993
 21
533.196185
 31
0.0
  0
LINE
  5
21401
100
AcDbEntity
  8
0
100
AcDbLine
 10
549.686381
 20
553.700314
 30
0.0
 11
536.686381
 21
553.700314
 31
0.0
  0
LINE
  5
21402
100
AcDbEntity
  8
0
100
AcDbLine
 10
546.186381
 20
556.041117
 30
0.0
 11
536.686381
 21
553.700314
 31
0.0
  0
LINE
  5
21403
100
AcDbEntity
  8
0
100
AcDbLine
 10
546.186381
 20
497.041117
 30
0.0
 11
544.686381
 21
495.541117
 31
0.0
  0
LINE
  5
21404
100
AcDbEntity
  8
0
100
AcDbLine
 10
546.186381
 20
511.041117
 30
0.0
 11
536.686381
 21
513.38192
 31
0.0
  0
LINE
  5
21405
100
AcDbEntity
  8
0
100
AcDbLine
 10
549.686381
 20
513.38192
 30
0.0
 11
536.686381
 21
513.38192
 31
0.0
  0
LINE
  5
21406
100
AcDbEntity
  8
0
100
AcDbLine
 10
686.686381
 20
515.541117
 30
0.0
 11
681.686381
 21
515.541117
 31
0.0
  0
LINE
  5
21407
100
AcDbEntity
  8
0
100
AcDbLine
 10
686.686381
 20
551.541117
 30
0.0
 11
681.686381
 21
551.541117
 31
0.0
  0
LINE
  5
21408
100
AcDbEntity
  8
0
100
AcDbLine
 10
686.686381
 20
515.541117
 30
0.0
 11
686.686381
 21
551.541117
 31
0.0
  0
LINE
  5
21409
100
AcDbEntity
  8
0
100
AcDbLine
 10
609.078516
 20
473.941117
 30
0.0
 11
645.794245
 21
473.941117
 31
0.0
  0
ARC
  5
2140A
100
AcDbEntity
  8
0
100
AcDbCircle
 10
594.936381
 20
519.541117
 30
0.0
 40
80.0
100
AcDbArc
 50
344.148961
 51
360.0
  0
ARC
  5
2140B
100
AcDbEntity
  8
0
100
AcDbCircle
 10
645.794245
 20
483.941117
 30
0.0
 40
10.0
100
AcDbArc
 50
270.0
 51
315.0
  0
LINE
  5
2140C
100
AcDbEntity
  8
0
100
AcDbLine
 10
652.865313
 20
476.870049
 30
0.0
 11
669.345703
 21
493.350439
 31
0.0
  0
ARC
  5
2140D
100
AcDbEntity
  8
0
100
AcDbCircle
 10
662.274635
 20
500.421507
 30
0.0
 40
10.0
100
AcDbArc
 50
315.0
 51
344.148961
  0
LINE
  5
2140E
100
AcDbEntity
  8
0
100
AcDbLine
 10
681.686381
 20
515.541117
 30
0.0
 11
681.686381
 21
551.541117
 31
0.0
  0
LINE
  5
2140F
100
AcDbEntity
  8
0
100
AcDbLine
 10
678.686381
 20
518.541117
 30
0.0
 11
678.686381
 21
548.541117
 31
0.0
  0
LINE
  5
21410
100
AcDbEntity
  8
0
100
AcDbLine
 10
674.936381
 20
549.541117
 30
0.0
 11
674.936381
 21
519.541117
 31
0.0
  0
LINE
  5
21411
100
AcDbEntity
  8
0
100
AcDbLine
 10
678.686381
 20
518.541117
 30
0.0
 11
674.93013
 21
518.541117
 31
0.0
  0
LINE
  5
21412
100
AcDbEntity
  8
0
100
AcDbLine
 10
678.686381
 20
518.541117
 30
0.0
 11
681.686381
 21
515.541117
 31
0.0
  0
LINE
  5
21413
100
AcDbEntity
  8
0
100
AcDbLine
 10
678.686381
 20
548.541117
 30
0.0
 11
674.936381
 21
548.541117
 31
0.0
  0
LINE
  5
21414
100
AcDbEntity
  8
0
100
AcDbLine
 10
678.686381
 20
548.541117
 30
0.0
 11
681.686381
 21
551.541117
 31
0.0
  0
ARC
  5
21415
100
AcDbEntity
  8
0
100
AcDbCircle
 10
659.936381
 20
519.541117
 30
0.0
 40
80.0
100
AcDbArc
 50
180.0
 51
195.851039
  0
ARC
  5
21416
100
AcDbEntity
  8
0
100
AcDbCircle
 10
548.186381
 20
509.041117
 30
0.0
 40
2.0
100
AcDbArc
 50
90.0
 51
180.0
  0
LINE
  5
21417
100
AcDbEntity
  8
0
100
AcDbLine
 10
602.007448
 20
476.870049
 30
0.0
 11
585.527058
 21
493.350439
 31
0.0
  0
ARC
  5
21418
100
AcDbEntity
  8
0
100
AcDbCircle
 10
609.078516
 20
483.941117
 30
0.0
 40
10.0
100
AcDbArc
 50
225.0
 51
270.0
  0
ARC
  5
21419
100
AcDbEntity
  8
0
100
AcDbCircle
 10
592.598126
 20
500.421507
 30
0.0
 40
10.0
100
AcDbArc
 50
195.851039
 51
225.0
  0
LINE
  5
2141A
100
AcDbEntity
  8
0
100
AcDbLine
 10
566.336381
 20
500.041117
 30
0.0
 11
553.336381
 21
500.041117
 31
0.0
  0
LINE
  5
2141B
100
AcDbEntity
  8
0
100
AcDbLine
 10
546.186381
 20
509.041117
 30
0.0
 11
546.186381
 21
497.041117
 31
0.0
  0
LINE
  5
2141C
100
AcDbEntity
  8
0
100
AcDbLine
 10
574.186381
 20
518.541117
 30
0.0
 11
579.942631
 21
518.541117
 31
0.0
  0
LINE
  5
2141D
100
AcDbEntity
  8
0
100
AcDbLine
 10
574.186381
 20
548.541117
 30
0.0
 11
579.936381
 21
548.541117
 31
0.0
  0
LINE
  5
2141E
100
AcDbEntity
  8
0
100
AcDbLine
 10
579.936381
 20
549.541117
 30
0.0
 11
579.936381
 21
519.541117
 31
0.0
  0
LINE
  5
2141F
100
AcDbEntity
  8
0
100
AcDbLine
 10
549.686381
 20
511.041117
 30
0.0
 11
549.686381
 21
556.041117
 31
0.0
  0
LINE
  5
21420
100
AcDbEntity
  8
0
100
AcDbLine
 10
553.336381
 20
549.041117
 30
0.0
 11
553.336381
 21
518.041117
 31
0.0
  0
LINE
  5
21421
100
AcDbEntity
  8
0
100
AcDbLine
 10
553.336381
 20
549.041117
 30
0.0
 11
553.336381
 21
518.041117
 31
0.0
  0
LINE
  5
21422
100
AcDbEntity
  8
0
100
AcDbLine
 10
568.472868
 20
529.638617
 30
0.0
 11
568.472868
 21
537.443617
 31
0.0
  0
LINE
  5
21423
100
AcDbEntity
  8
0
100
AcDbLine
 10
574.186381
 20
551.041117
 30
0.0
 11
574.186381
 21
516.041117
 31
0.0
  0
LINE
  5
21424
100
AcDbEntity
  8
0
100
AcDbLine
 10
568.472868
 20
529.638617
 30
0.0
 11
567.976346
 21
528.778617
 31
0.0
  0
LINE
  5
21425
100
AcDbEntity
  8
0
100
AcDbLine
 10
567.976346
 20
528.778617
 30
0.0
 11
566.436381
 21
528.778617
 31
0.0
  0
LINE
  5
21426
100
AcDbEntity
  8
0
100
AcDbLine
 10
566.336381
 20
516.041117
 30
0.0
 11
574.186381
 21
516.041117
 31
0.0
  0
LINE
  5
21427
100
AcDbEntity
  8
0
100
AcDbLine
 10
549.686381
 20
516.041117
 30
0.0
 11
553.336381
 21
516.041117
 31
0.0
  0
LINE
  5
21428
100
AcDbEntity
  8
0
100
AcDbLine
 10
549.686381
 20
528.778617
 30
0.0
 11
553.336381
 21
528.778617
 31
0.0
  0
LINE
  5
21429
100
AcDbEntity
  8
0
100
AcDbLine
 10
549.686381
 20
511.041117
 30
0.0
 11
548.186381
 21
511.041117
 31
0.0
  0
LINE
  5
2142A
100
AcDbEntity
  8
0
100
AcDbLine
 10
568.472868
 20
537.443617
 30
0.0
 11
567.976346
 21
538.303617
 31
0.0
  0
LINE
  5
2142B
100
AcDbEntity
  8
0
100
AcDbLine
 10
567.976346
 20
538.303617
 30
0.0
 11
566.436381
 21
538.303617
 31
0.0
  0
LINE
  5
2142C
100
AcDbEntity
  8
0
100
AcDbLine
 10
566.336381
 20
551.041117
 30
0.0
 11
574.186381
 21
551.041117
 31
0.0
  0
LINE
  5
2142D
100
AcDbEntity
  8
0
100
AcDbLine
 10
549.686381
 20
556.041117
 30
0.0
 11
548.186381
 21
556.041117
 31
0.0
  0
LINE
  5
2142E
100
AcDbEntity
  8
0
100
AcDbLine
 10
549.686381
 20
551.041117
 30
0.0
 11
553.336381
 21
551.041117
 31
0.0
  0
LINE
  5
2142F
100
AcDbEntity
  8
0
100
AcDbLine
 10
549.686381
 20
538.303617
 30
0.0
 11
553.336381
 21
538.303617
 31
0.0
  0
ARC
  5
21430
100
AcDbEntity
  8
0
100
AcDbCircle
 10
548.186381
 20
558.041117
 30
0.0
 40
2.0
100
AcDbArc
 50
180.0
 51
270.0
  0
LINE
  5
21431
100
AcDbEntity
  8
0
100
AcDbLine
 10
473.837748
 20
520.243848
 30
0.0
 11
477.059768
 21
523.465868
 31
0.0
  0
LINE
  5
21432
100
AcDbEntity
  8
0
100
AcDbLine
 10
476.192599
 20
517.888996
 30
0.0
 11
473.837748
 21
520.243848
 31
0.0
  0
LINE
  5
21433
100
AcDbEntity
  8
0
100
AcDbLine
 10
475.421139
 20
526.125118
 30
0.0
 11
474.026945
 21
526.498691
 31
0.0
  0
ARC
  5
21434
100
AcDbEntity
  8
0
100
AcDbCircle
 10
473.54854
 20
522.987462
 30
0.0
 40
3.54367
100
AcDbArc
 50
7.758785
 51
67.758785
  0
LINE
  5
21435
100
AcDbEntity
  8
0
100
AcDbLine
 10
486.027741
 20
507.033234
 30
0.0
 11
471.178498
 21
521.882477
 31
0.0
  0
LINE
  5
21436
100
AcDbEntity
  8
0
100
AcDbLine
 10
487.421935
 20
506.659661
 30
0.0
 11
490.643954
 21
509.881681
 31
0.0
  0
LINE
  5
21437
100
AcDbEntity
  8
0
100
AcDbLine
 10
518.686381
 20
502.041117
 30
0.0
 11
518.686381
 21
512.041117
 31
0.0
  0
LINE
  5
21438
100
AcDbEntity
  8
0
100
AcDbLine
 10
507.186381
 20
517.120807
 30
0.0
 11
507.186381
 21
497.041117
 31
0.0
  0
LINE
  5
21439
100
AcDbEntity
  8
0
100
AcDbLine
 10
534.686381
 20
502.041117
 30
0.0
 11
534.686381
 21
512.041117
 31
0.0
  0
ARC
  5
2143A
100
AcDbEntity
  8
0
100
AcDbCircle
 10
487.90034
 20
510.17089
 30
0.0
 40
3.54367
100
AcDbArc
 50
187.758785
 51
247.758785
  0
LINE
  5
2143B
100
AcDbEntity
  8
0
100
AcDbLine
 10
508.686381
 20
495.541117
 30
0.0
 11
526.686381
 21
495.541117
 31
0.0
  0
LINE
  5
2143C
100
AcDbEntity
  8
0
100
AcDbLine
 10
526.686381
 20
495.541117
 30
0.0
 11
544.686381
 21
495.541117
 31
0.0
  0
LINE
  5
2143D
100
AcDbEntity
  8
0
100
AcDbLine
 10
518.686381
 20
502.041117
 30
0.0
 11
534.686381
 21
502.041117
 31
0.0
  0
LINE
  5
2143E
100
AcDbEntity
  8
0
100
AcDbLine
 10
508.686381
 20
495.541117
 30
0.0
 11
507.186381
 21
497.041117
 31
0.0
  0
LINE
  5
2143F
100
AcDbEntity
  8
0
100
AcDbLine
 10
486.027741
 20
507.033234
 30
0.0
 11
487.421935
 21
506.659661
 31
0.0
  0
LINE
  5
21440
100
AcDbEntity
  8
0
100
AcDbLine
 10
536.686381
 20
513.38192
 30
0.0
 11
536.686381
 21
553.700314
 31
0.0
  0
LINE
  5
21441
100
AcDbEntity
  8
0
100
AcDbLine
 10
530.286381
 20
526.391117
 30
0.0
 11
530.286381
 21
540.691117
 31
0.0
  0
ARC
  5
21442
100
AcDbEntity
  8
0
100
AcDbCircle
 10
543.947768
 20
533.541117
 30
0.0
 40
13.661388
100
AcDbArc
 50
162.412046
 51
197.587954
  0
LINE
  5
21443
100
AcDbEntity
  8
0
100
AcDbLine
 10
518.686381
 20
512.041117
 30
0.0
 11
534.686381
 21
512.041117
 31
0.0
  0
LINE
  5
21444
100
AcDbEntity
  8
0
100
AcDbLine
 10
527.886381
 20
525.541117
 30
0.0
 11
512.686381
 21
525.541117
 31
0.0
  0
LINE
  5
21445
100
AcDbEntity
  8
0
100
AcDbLine
 10
530.286381
 20
526.391117
 30
0.0
 11
530.924993
 21
525.285008
 31
0.0
  0
ARC
  5
21446
100
AcDbEntity
  8
0
100
AcDbCircle
 10
533.941207
 20
527.349035
 30
0.0
 40
3.654827
100
AcDbArc
 50
145.615753
 51
214.384247
  0
LINE
  5
21447
100
AcDbEntity
  8
0
100
AcDbLine
 10
530.924993
 20
525.285008
 30
0.0
 11
536.686381
 21
525.285008
 31
0.0
  0
LINE
  5
21448
100
AcDbEntity
  8
0
100
AcDbLine
 10
530.924993
 20
529.413062
 30
0.0
 11
536.686381
 21
529.413062
 31
0.0
  0
LINE
  5
21449
100
AcDbEntity
  8
0
100
AcDbLine
 10
529.386381
 20
541.541117
 30
0.0
 11
520.186381
 21
541.541117
 31
0.0
  0
ARC
  5
2144A
100
AcDbEntity
  8
0
100
AcDbCircle
 10
533.941207
 20
539.733198
 30
0.0
 40
3.654827
100
AcDbArc
 50
145.615753
 51
214.384247
  0
LINE
  5
2144B
100
AcDbEntity
  8
0
100
AcDbLine
 10
530.924993
 20
537.669171
 30
0.0
 11
536.686381
 21
537.669171
 31
0.0
  0
LINE
  5
2144C
100
AcDbEntity
  8
0
100
AcDbLine
 10
530.286381
 20
540.691117
 30
0.0
 11
530.924993
 21
541.797226
 31
0.0
  0
LINE
  5
2144D
100
AcDbEntity
  8
0
100
AcDbLine
 10
530.924993
 20
541.797226
 30
0.0
 11
536.686381
 21
541.797226
 31
0.0
  0
LINE
  5
2144E
100
AcDbEntity
  8
0
100
AcDbLine
 10
491.684595
 20
511.275875
 30
0.0
 11
494.513022
 21
511.275875
 31
0.0
  0
LINE
  5
2144F
100
AcDbEntity
  8
0
100
AcDbLine
 10
481.891166
 20
532.383013
 30
0.0
 11
496.528276
 21
517.745902
 31
0.0
  0
LINE
  5
21450
100
AcDbEntity
  8
0
100
AcDbLine
 10
479.257193
 20
532.188558
 30
0.0
 11
496.333822
 21
515.111929
 31
0.0
  0
LINE
  5
21451
100
AcDbEntity
  8
0
100
AcDbLine
 10
494.513022
 20
511.275875
 30
0.0
 11
475.421139
 21
530.367758
 31
0.0
  0
LINE
  5
21452
100
AcDbEntity
  8
0
100
AcDbLine
 10
500.357953
 20
519.949234
 30
0.0
 11
497.341449
 21
516.932729
 31
0.0
  0
ARC
  5
21453
100
AcDbEntity
  8
0
100
AcDbCircle
 10
503.186381
 20
517.120807
 30
0.0
 40
4.0
100
AcDbArc
 50
0.0
 51
135.0
  0
LINE
  5
21454
100
AcDbEntity
  8
0
100
AcDbLine
 10
497.341449
 20
514.104302
 30
0.0
 11
494.513022
 21
511.275875
 31
0.0
  0
ARC
  5
21455
100
AcDbEntity
  8
0
100
AcDbCircle
 10
498.755663
 20
515.518516
 30
0.0
 40
2.0
100
AcDbArc
 50
135.0
 51
225.0
  0
LINE
  5
21456
100
AcDbEntity
  8
0
100
AcDbLine
 10
479.414619
 20
521.111016
 30
0.0
 11
477.059768
 21
523.465868
 31
0.0
  0
LINE
  5
21457
100
AcDbEntity
  8
0
100
AcDbLine
 10
476.192599
 20
517.888996
 30
0.0
 11
479.414619
 21
521.111016
 31
0.0
  0
LINE
  5
21458
100
AcDbEntity
  8
0
100
AcDbLine
 10
475.421139
 20
526.125118
 30
0.0
 11
476.128246
 21
526.832224
 31
0.0
  0
LINE
  5
21459
100
AcDbEntity
  8
0
100
AcDbLine
 10
475.421139
 20
527.539331
 30
0.0
 11
475.421139
 21
530.367758
 31
0.0
  0
LINE
  5
2145A
100
AcDbEntity
  8
0
100
AcDbLine
 10
475.421139
 20
530.367758
 30
0.0
 11
478.249566
 21
533.196185
 31
0.0
  0
ARC
  5
2145B
100
AcDbEntity
  8
0
100
AcDbCircle
 10
479.66378
 20
534.610399
 30
0.0
 40
2.0
100
AcDbArc
 50
225.0
 51
315.0
  0
LINE
  5
2145C
100
AcDbEntity
  8
0
100
AcDbLine
 10
484.389111
 20
509.692484
 30
0.0
 11
482.03426
 21
512.047336
 31
0.0
  0
ARC
  5
2145D
100
AcDbEntity
  8
0
100
AcDbCircle
 10
487.217158
 20
523.071895
 30
0.0
 40
12.182091
100
AcDbArc
 50
205.179294
 51
244.820706
  0
ARC
  5
2145E
100
AcDbEntity
  8
0
100
AcDbCircle
 10
487.132726
 20
509.403276
 30
0.0
 40
3.54367
100
AcDbArc
 50
22.241215
 51
82.241215
  0
LINE
  5
2145F
100
AcDbEntity
  8
0
100
AcDbLine
 10
490.270381
 20
511.275875
 30
0.0
 11
490.977488
 21
511.982982
 31
0.0
  0
LINE
  5
21460
100
AcDbEntity
  8
0
100
AcDbLine
 10
490.270381
 20
511.275875
 30
0.0
 11
490.643954
 21
509.881681
 31
0.0
  0
LINE
  5
21461
100
AcDbEntity
  8
0
100
AcDbLine
 10
487.611131
 20
512.914504
 30
0.0
 11
485.25628
 21
515.269356
 31
0.0
  0
ARC
  5
21462
100
AcDbEntity
  8
0
100
AcDbCircle
 10
474.231721
 20
510.086457
 30
0.0
 40
12.182091
100
AcDbArc
 50
25.179294
 51
64.820706
  0
LINE
  5
21463
100
AcDbEntity
  8
0
100
AcDbLine
 10
490.270381
 20
511.275875
 30
0.0
 11
475.421139
 21
526.125118
 31
0.0
  0
LINE
  5
21464
100
AcDbEntity
  8
0
100
AcDbLine
 10
475.421139
 20
527.539331
 30
0.0
 11
491.684595
 21
511.275875
 31
0.0
  0
LINE
  5
21465
100
AcDbEntity
  8
0
100
AcDbLine
 10
484.389111
 20
509.692484
 30
0.0
 11
487.611131
 21
512.914504
 31
0.0
  0
LINE
  5
21466
100
AcDbEntity
  8
0
100
AcDbLine
 10
482.03426
 20
512.047336
 30
0.0
 11
485.25628
 21
515.269356
 31
0.0
  0
ARC
  5
21467
100
AcDbEntity
  8
0
100
AcDbCircle
 10
474.316154
 20
523.755076
 30
0.0
 40
3.54367
100
AcDbArc
 50
202.241215
 51
262.241215
  0
LINE
  5
21468
100
AcDbEntity
  8
0
100
AcDbLine
 10
471.178498
 20
521.882477
 30
0.0
 11
470.804925
 21
523.276671
 31
0.0
  0
LINE
  5
21469
100
AcDbEntity
  8
0
100
AcDbLine
 10
470.804925
 20
523.276671
 30
0.0
 11
474.026945
 21
526.498691
 31
0.0
  0
LINE
  5
2146A
100
AcDbEntity
  8
0
100
AcDbLine
 10
544.686381
 20
575.541117
 30
0.0
 11
546.186381
 21
574.041117
 31
0.0
  0
LINE
  5
2146B
100
AcDbEntity
  8
0
100
AcDbLine
 10
595.536381
 20
565.141117
 30
0.0
 11
659.336381
 21
565.141117
 31
0.0
  0
LINE
  5
2146C
100
AcDbEntity
  8
0
100
AcDbLine
 10
566.336381
 20
567.041117
 30
0.0
 11
553.336381
 21
567.041117
 31
0.0
  0
LINE
  5
2146E
100
AcDbEntity
  8
0
100
AcDbLine
 10
508.686381
 20
575.541117
 30
0.0
 11
526.686381
 21
575.541117
 31
0.0
  0
LINE
  5
2146F
100
AcDbEntity
  8
0
100
AcDbLine
 10
518.686381
 20
559.041117
 30
0.0
 11
534.686381
 21
559.041117
 31
0.0
  0
LINE
  5
21470
100
AcDbEntity
  8
0
100
AcDbLine
 10
526.686381
 20
575.541117
 30
0.0
 11
544.686381
 21
575.541117
 31
0.0
  0
LINE
  5
21471
100
AcDbEntity
  8
0
100
AcDbLine
 10
518.686381
 20
569.041117
 30
0.0
 11
534.686381
 21
569.041117
 31
0.0
  0
LINE
  5
21472
100
AcDbEntity
  8
0
100
AcDbLine
 10
534.686381
 20
569.041117
 30
0.0
 11
534.686381
 21
559.041117
 31
0.0
  0
LINE
  5
21473
100
AcDbEntity
  8
0
100
AcDbLine
 10
518.686381
 20
569.041117
 30
0.0
 11
518.686381
 21
559.041117
 31
0.0
  0
LINE
  5
21474
100
AcDbEntity
  8
0
100
AcDbLine
 10
507.186381
 20
574.041117
 30
0.0
 11
507.186381
 21
559.304573
 31
0.0
  0
LINE
  5
21475
100
AcDbEntity
  8
0
100
AcDbLine
 10
507.186381
 20
574.041117
 30
0.0
 11
508.686381
 21
575.541117
 31
0.0
  0
ARC
  5
21477
100
AcDbEntity
  8
0
100
AcDbCircle
 10
1218.736594
 20
549.541117
 30
0.0
 40
15.6
100
AcDbArc
 50
90.0
 51
180.0
  0
ARC
  5
21478
100
AcDbEntity
  8
0
100
AcDbCircle
 10
1282.536594
 20
549.541117
 30
0.0
 40
15.6
100
AcDbArc
 50
0.0
 51
90.0
  0
LINE
  5
21479
100
AcDbEntity
  8
0
100
AcDbLine
 10
1189.536594
 20
551.041117
 30
0.0
 11
1189.536594
 21
567.041117
 31
0.0
  0
LINE
  5
2147A
100
AcDbEntity
  8
0
100
AcDbLine
 10
1168.886594
 20
558.041117
 30
0.0
 11
1168.886594
 21
585.541117
 31
0.0
  0
ARC
  5
2147B
100
AcDbEntity
  8
0
100
AcDbCircle
 10
1175.231525
 20
473.092109
 30
0.0
 40
104.0
100
AcDbArc
 50
122.033057
 51
146.254713
  0
LINE
  5
2147C
100
AcDbEntity
  8
0
100
AcDbLine
 10
1189.536594
 20
500.041117
 30
0.0
 11
1189.536594
 21
567.041117
 31
0.0
  0
LINE
  5
2147D
100
AcDbEntity
  8
0
100
AcDbLine
 10
1176.536594
 20
500.041117
 30
0.0
 11
1176.536594
 21
567.041117
 31
0.0
  0
LINE
  5
2147E
100
AcDbEntity
  8
0
100
AcDbLine
 10
1189.536594
 20
500.041117
 30
0.0
 11
1176.536594
 21
500.041117
 31
0.0
  0
LINE
  5
2147F
100
AcDbEntity
  8
0
100
AcDbLine
 10
1232.278729
 20
473.941117
 30
0.0
 11
1268.994458
 21
473.941117
 31
0.0
  0
ARC
  5
21480
100
AcDbEntity
  8
0
100
AcDbCircle
 10
1218.136594
 20
519.541117
 30
0.0
 40
80.0
100
AcDbArc
 50
344.148961
 51
360.0
  0
LINE
  5
21481
100
AcDbEntity
  8
0
100
AcDbLine
 10
1276.065526
 20
476.870049
 30
0.0
 11
1292.545916
 21
493.350439
 31
0.0
  0
ARC
  5
21482
100
AcDbEntity
  8
0
100
AcDbCircle
 10
1285.474848
 20
500.421507
 30
0.0
 40
10.0
100
AcDbArc
 50
315.0
 51
344.148961
  0
ARC
  5
21483
100
AcDbEntity
  8
0
100
AcDbCircle
 10
1268.994458
 20
483.941117
 30
0.0
 40
10.0
100
AcDbArc
 50
270.0
 51
315.0
  0
LINE
  5
21484
100
AcDbEntity
  8
0
100
AcDbLine
 10
1298.136594
 20
549.541117
 30
0.0
 11
1298.136594
 21
519.541117
 31
0.0
  0
LINE
  5
21485
100
AcDbEntity
  8
0
100
AcDbLine
 10
1304.886594
 20
515.541117
 30
0.0
 11
1304.886594
 21
551.541117
 31
0.0
  0
LINE
  5
21486
100
AcDbEntity
  8
0
100
AcDbLine
 10
1301.886594
 20
518.541117
 30
0.0
 11
1301.886594
 21
548.541117
 31
0.0
  0
LINE
  5
21487
100
AcDbEntity
  8
0
100
AcDbLine
 10
1309.886594
 20
515.541117
 30
0.0
 11
1309.886594
 21
551.541117
 31
0.0
  0
LINE
  5
21488
100
AcDbEntity
  8
0
100
AcDbLine
 10
1301.886594
 20
518.541117
 30
0.0
 11
1304.886594
 21
515.541117
 31
0.0
  0
LINE
  5
21489
100
AcDbEntity
  8
0
100
AcDbLine
 10
1309.886594
 20
515.541117
 30
0.0
 11
1304.886594
 21
515.541117
 31
0.0
  0
LINE
  5
2148A
100
AcDbEntity
  8
0
100
AcDbLine
 10
1301.886594
 20
518.541117
 30
0.0
 11
1298.130343
 21
518.541117
 31
0.0
  0
LINE
  5
2148B
100
AcDbEntity
  8
0
100
AcDbLine
 10
1301.886594
 20
548.541117
 30
0.0
 11
1304.886594
 21
551.541117
 31
0.0
  0
LINE
  5
2148C
100
AcDbEntity
  8
0
100
AcDbLine
 10
1309.886594
 20
551.541117
 30
0.0
 11
1304.886594
 21
551.541117
 31
0.0
  0
LINE
  5
2148D
100
AcDbEntity
  8
0
100
AcDbLine
 10
1301.886594
 20
548.541117
 30
0.0
 11
1298.136594
 21
548.541117
 31
0.0
  0
ARC
  5
2148E
100
AcDbEntity
  8
0
100
AcDbCircle
 10
1283.136594
 20
519.541117
 30
0.0
 40
80.0
100
AcDbArc
 50
180.0
 51
195.851039
  0
LINE
  5
2148F
100
AcDbEntity
  8
0
100
AcDbLine
 10
1225.207661
 20
476.870049
 30
0.0
 11
1208.727271
 21
493.350439
 31
0.0
  0
ARC
  5
21490
100
AcDbEntity
  8
0
100
AcDbCircle
 10
1232.278729
 20
483.941117
 30
0.0
 40
10.0
100
AcDbArc
 50
225.0
 51
270.0
  0
ARC
  5
21491
100
AcDbEntity
  8
0
100
AcDbCircle
 10
1215.798339
 20
500.421507
 30
0.0
 40
10.0
100
AcDbArc
 50
195.851039
 51
225.0
  0
LINE
  5
21492
100
AcDbEntity
  8
0
100
AcDbLine
 10
1203.136594
 20
549.541117
 30
0.0
 11
1203.136594
 21
519.541117
 31
0.0
  0
LINE
  5
21493
100
AcDbEntity
  8
0
100
AcDbLine
 10
1197.386594
 20
551.041117
 30
0.0
 11
1197.386594
 21
516.041117
 31
0.0
  0
LINE
  5
21494
100
AcDbEntity
  8
0
100
AcDbLine
 10
1190.673081
 20
529.638617
 30
0.0
 11
1190.673081
 21
537.443617
 31
0.0
  0
LINE
  5
21495
100
AcDbEntity
  8
0
100
AcDbLine
 10
1197.386594
 20
518.541117
 30
0.0
 11
1203.142844
 21
518.541117
 31
0.0
  0
LINE
  5
21496
100
AcDbEntity
  8
0
100
AcDbLine
 10
1190.176559
 20
528.778617
 30
0.0
 11
1189.536594
 21
528.778617
 31
0.0
  0
LINE
  5
21497
100
AcDbEntity
  8
0
100
AcDbLine
 10
1189.536594
 20
516.041117
 30
0.0
 11
1197.386594
 21
516.041117
 31
0.0
  0
LINE
  5
21498
100
AcDbEntity
  8
0
100
AcDbLine
 10
1190.673081
 20
529.638617
 30
0.0
 11
1190.176559
 21
528.778617
 31
0.0
  0
LINE
  5
21499
100
AcDbEntity
  8
0
100
AcDbLine
 10
1197.386594
 20
548.541117
 30
0.0
 11
1203.136594
 21
548.541117
 31
0.0
  0
LINE
  5
2149A
100
AcDbEntity
  8
0
100
AcDbLine
 10
1189.536594
 20
551.041117
 30
0.0
 11
1197.386594
 21
551.041117
 31
0.0
  0
LINE
  5
2149B
100
AcDbEntity
  8
0
100
AcDbLine
 10
1190.176559
 20
538.303617
 30
0.0
 11
1189.536594
 21
538.303617
 31
0.0
  0
LINE
  5
2149C
100
AcDbEntity
  8
0
100
AcDbLine
 10
1190.673081
 20
537.443617
 30
0.0
 11
1190.176559
 21
538.303617
 31
0.0
  0
LINE
  5
2149D
100
AcDbEntity
  8
0
100
AcDbLine
 10
1109.258462
 20
497.628714
 30
0.0
 11
1112.793996
 21
501.164248
 31
0.0
  0
ARC
  5
2149E
100
AcDbEntity
  8
0
100
AcDbCircle
 10
1115.793996
 20
502.858993
 30
0.0
 40
3.0
100
AcDbArc
 50
123.692313
 51
180.0
  0
ARC
  5
2149F
100
AcDbEntity
  8
0
100
AcDbCircle
 10
1119.886594
 20
505.727918
 30
0.0
 40
3.0
100
AcDbArc
 50
0.0
 51
126.368863
  0
LINE
  5
214A0
100
AcDbEntity
  8
0
100
AcDbLine
 10
1135.886594
 20
511.541117
 30
0.0
 11
1135.886594
 21
497.541117
 31
0.0
  0
LINE
  5
214A1
100
AcDbEntity
  8
0
100
AcDbLine
 10
1155.886594
 20
511.541117
 30
0.0
 11
1155.886594
 21
497.541117
 31
0.0
  0
ARC
  5
214A2
100
AcDbEntity
  8
0
100
AcDbCircle
 10
1170.886594
 20
509.041117
 30
0.0
 40
2.0
100
AcDbArc
 50
90.0
 51
180.0
  0
LINE
  5
214A3
100
AcDbEntity
  8
0
100
AcDbLine
 10
1155.886594
 20
497.541117
 30
0.0
 11
1135.886594
 21
497.541117
 31
0.0
  0
LINE
  5
214A4
100
AcDbEntity
  8
0
100
AcDbLine
 10
1167.886594
 20
490.541117
 30
0.0
 11
1145.886594
 21
490.541117
 31
0.0
  0
LINE
  5
214A5
100
AcDbEntity
  8
0
100
AcDbLine
 10
1168.886594
 20
491.541117
 30
0.0
 11
1168.886594
 21
509.041117
 31
0.0
  0
LINE
  5
214A6
100
AcDbEntity
  8
0
100
AcDbLine
 10
1168.886594
 20
491.541117
 30
0.0
 11
1167.886594
 21
490.541117
 31
0.0
  0
LINE
  5
214A7
100
AcDbEntity
  8
0
100
AcDbLine
 10
1145.886594
 20
490.541117
 30
0.0
 11
1123.886594
 21
490.541117
 31
0.0
  0
ARC
  5
214A8
100
AcDbEntity
  8
0
100
AcDbCircle
 10
1056.437586
 20
591.886048
 30
0.0
 40
104.0
100
AcDbArc
 50
303.692313
 51
306.368863
  0
LINE
  5
214A9
100
AcDbEntity
  8
0
100
AcDbLine
 10
1112.793996
 20
501.164248
 30
0.0
 11
1112.793996
 21
502.858993
 31
0.0
  0
LINE
  5
214AA
100
AcDbEntity
  8
0
100
AcDbLine
 10
1122.886594
 20
491.541117
 30
0.0
 11
1123.886594
 21
490.541117
 31
0.0
  0
LINE
  5
214AB
100
AcDbEntity
  8
0
100
AcDbLine
 10
1122.886594
 20
505.727918
 30
0.0
 11
1122.886594
 21
491.541117
 31
0.0
  0
LINE
  5
214AC
100
AcDbEntity
  8
0
100
AcDbLine
 10
1134.129304
 20
547.311422
 30
0.0
 11
1157.643883
 21
547.311422
 31
0.0
  0
LINE
  5
214AD
100
AcDbEntity
  8
0
100
AcDbLine
 10
1129.927335
 20
519.770812
 30
0.0
 11
1157.643883
 21
519.770812
 31
0.0
  0
LINE
  5
214AE
100
AcDbEntity
  8
0
100
AcDbLine
 10
1155.886594
 20
511.541117
 30
0.0
 11
1135.886594
 21
511.541117
 31
0.0
  0
LINE
  5
214AF
100
AcDbEntity
  8
0
100
AcDbLine
 10
1172.886594
 20
511.041117
 30
0.0
 11
1172.886594
 21
556.041117
 31
0.0
  0
LINE
  5
214B0
100
AcDbEntity
  8
0
100
AcDbLine
 10
1158.886594
 20
513.38192
 30
0.0
 11
1158.886594
 21
553.700314
 31
0.0
  0
ARC
  5
214B1
100
AcDbEntity
  8
0
100
AcDbCircle
 10
1166.147981
 20
533.541117
 30
0.0
 40
13.661388
100
AcDbArc
 50
162.412046
 51
197.587954
  0
LINE
  5
214B2
100
AcDbEntity
  8
0
100
AcDbLine
 10
1152.486594
 20
526.391117
 30
0.0
 11
1152.486594
 21
540.691117
 31
0.0
  0
LINE
  5
214B3
100
AcDbEntity
  8
0
100
AcDbLine
 10
1169.386594
 20
510.876656
 30
0.0
 11
1158.886594
 21
513.38192
 31
0.0
  0
LINE
  5
214B4
100
AcDbEntity
  8
0
100
AcDbLine
 10
1172.886594
 20
513.38192
 30
0.0
 11
1158.886594
 21
513.38192
 31
0.0
  0
LINE
  5
214B5
100
AcDbEntity
  8
0
100
AcDbLine
 10
1172.886594
 20
516.041117
 30
0.0
 11
1176.536594
 21
516.041117
 31
0.0
  0
LINE
  5
214B6
100
AcDbEntity
  8
0
100
AcDbLine
 10
1172.886594
 20
528.778617
 30
0.0
 11
1176.536594
 21
528.778617
 31
0.0
  0
LINE
  5
214B7
100
AcDbEntity
  8
0
100
AcDbLine
 10
1170.886594
 20
511.041117
 30
0.0
 11
1172.886594
 21
511.041117
 31
0.0
  0
LINE
  5
214B8
100
AcDbEntity
  8
0
100
AcDbLine
 10
1152.486594
 20
526.391117
 30
0.0
 11
1153.125206
 21
525.285008
 31
0.0
  0
ARC
  5
214B9
100
AcDbEntity
  8
0
100
AcDbCircle
 10
1156.14142
 20
527.349035
 30
0.0
 40
3.654827
100
AcDbArc
 50
145.615753
 51
214.384247
  0
LINE
  5
214BA
100
AcDbEntity
  8
0
100
AcDbLine
 10
1153.125206
 20
525.285008
 30
0.0
 11
1158.886594
 21
525.285008
 31
0.0
  0
LINE
  5
214BB
100
AcDbEntity
  8
0
100
AcDbLine
 10
1153.125206
 20
529.413062
 30
0.0
 11
1158.886594
 21
529.413062
 31
0.0
  0
LINE
  5
214BD
100
AcDbEntity
  8
0
100
AcDbLine
 10
1172.886594
 20
553.700314
 30
0.0
 11
1158.886594
 21
553.700314
 31
0.0
  0
LINE
  5
214BE
100
AcDbEntity
  8
0
100
AcDbLine
 10
1170.886594
 20
556.041117
 30
0.0
 11
1172.886594
 21
556.041117
 31
0.0
  0
LINE
  5
214BF
100
AcDbEntity
  8
0
100
AcDbLine
 10
1172.886594
 20
538.303617
 30
0.0
 11
1176.536594
 21
538.303617
 31
0.0
  0
LINE
  5
214C0
100
AcDbEntity
  8
0
100
AcDbLine
 10
1172.886594
 20
551.041117
 30
0.0
 11
1176.536594
 21
551.041117
 31
0.0
  0
ARC
  5
214C1
100
AcDbEntity
  8
0
100
AcDbCircle
 10
1170.886594
 20
558.041117
 30
0.0
 40
2.0
100
AcDbArc
 50
180.0
 51
270.0
  0
LINE
  5
214C2
100
AcDbEntity
  8
0
100
AcDbLine
 10
1152.486594
 20
540.691117
 30
0.0
 11
1153.125206
 21
541.797226
 31
0.0
  0
LINE
  5
214C3
100
AcDbEntity
  8
0
100
AcDbLine
 10
1153.125206
 20
541.797226
 30
0.0
 11
1158.886594
 21
541.797226
 31
0.0
  0
LINE
  5
214C4
100
AcDbEntity
  8
0
100
AcDbLine
 10
1153.125206
 20
537.669171
 30
0.0
 11
1158.886594
 21
537.669171
 31
0.0
  0
ARC
  5
214C5
100
AcDbEntity
  8
0
100
AcDbCircle
 10
1156.14142
 20
539.733198
 30
0.0
 40
3.654827
100
AcDbArc
 50
145.615753
 51
214.384247
  0
LINE
  5
214C6
100
AcDbEntity
  8
0
100
AcDbLine
 10
1111.379783
 20
503.992675
 30
0.0
 11
1087.338152
 21
528.034306
 31
0.0
  0
ARC
  5
214C7
100
AcDbEntity
  8
0
100
AcDbCircle
 10
1073.595885
 20
490.250408
 30
0.0
 40
28.434501
100
AcDbArc
 50
26.665926
 51
63.334074
  0
LINE
  5
214C8
100
AcDbEntity
  8
0
100
AcDbLine
 10
1080.620638
 20
523.438112
 30
0.0
 11
1106.783589
 21
497.275161
 31
0.0
  0
LINE
  5
214C9
100
AcDbEntity
  8
0
100
AcDbLine
 10
1107.844249
 20
497.628714
 30
0.0
 11
1080.974191
 21
524.498772
 31
0.0
  0
LINE
  5
214CA
100
AcDbEntity
  8
0
100
AcDbLine
 10
1072.842463
 20
515.659937
 30
0.0
 11
1099.005414
 21
489.496986
 31
0.0
  0
ARC
  5
214CB
100
AcDbEntity
  8
0
100
AcDbCircle
 10
1106.030167
 20
522.68469
 30
0.0
 40
28.434501
100
AcDbArc
 50
206.665926
 51
243.334074
  0
LINE
  5
214CC
100
AcDbEntity
  8
0
100
AcDbLine
 10
1099.006048
 20
503.01146
 30
0.0
 11
1093.269115
 21
497.274527
 31
0.0
  0
LINE
  5
214CD
100
AcDbEntity
  8
0
100
AcDbLine
 10
1095.417358
 20
495.126284
 30
0.0
 11
1093.269115
 21
497.274527
 31
0.0
  0
ARC
  5
214CE
100
AcDbEntity
  8
0
100
AcDbCircle
 10
1103.074964
 20
496.407446
 30
0.0
 40
7.764039
100
AcDbArc
 50
189.497951
 51
249.497951
  0
LINE
  5
214CF
100
AcDbEntity
  8
0
100
AcDbLine
 10
1101.154291
 20
500.863217
 30
0.0
 11
1095.417358
 21
495.126284
 31
0.0
  0
LINE
  5
214D0
100
AcDbEntity
  8
0
100
AcDbLine
 10
1101.154291
 20
500.863217
 30
0.0
 11
1099.006048
 21
503.01146
 31
0.0
  0
LINE
  5
214D1
100
AcDbEntity
  8
0
100
AcDbLine
 10
1105.015822
 20
499.042928
 30
0.0
 11
1105.722928
 21
499.750035
 31
0.0
  0
LINE
  5
214D2
100
AcDbEntity
  8
0
100
AcDbLine
 10
1107.530735
 20
494.486773
 30
0.0
 11
1106.783589
 21
497.275161
 31
0.0
  0
LINE
  5
214D3
100
AcDbEntity
  8
0
100
AcDbLine
 10
1109.258462
 20
497.628714
 30
0.0
 11
1107.844249
 21
497.628714
 31
0.0
  0
ARC
  5
214D4
100
AcDbEntity
  8
0
100
AcDbCircle
 10
1099.873129
 20
493.205611
 30
0.0
 40
7.764039
100
AcDbArc
 50
20.502049
 51
80.502049
  0
LINE
  5
214D5
100
AcDbEntity
  8
0
100
AcDbLine
 10
1101.793802
 20
488.74984
 30
0.0
 11
1099.005414
 21
489.496986
 31
0.0
  0
LINE
  5
214D6
100
AcDbEntity
  8
0
100
AcDbLine
 10
1107.530735
 20
494.486773
 30
0.0
 11
1101.793802
 21
488.74984
 31
0.0
  0
LINE
  5
214D7
100
AcDbEntity
  8
0
100
AcDbLine
 10
1077.83225
 20
524.185258
 30
0.0
 11
1080.620638
 21
523.438112
 31
0.0
  0
ARC
  5
214D8
100
AcDbEntity
  8
0
100
AcDbCircle
 10
1079.752923
 20
519.729487
 30
0.0
 40
7.764039
100
AcDbArc
 50
200.502049
 51
260.502049
  0
LINE
  5
214D9
100
AcDbEntity
  8
0
100
AcDbLine
 10
1080.974191
 20
525.912986
 30
0.0
 11
1080.974191
 21
524.498772
 31
0.0
  0
LINE
  5
214DA
100
AcDbEntity
  8
0
100
AcDbLine
 10
1078.471761
 20
512.071881
 30
0.0
 11
1080.620004
 21
509.923638
 31
0.0
  0
LINE
  5
214DB
100
AcDbEntity
  8
0
100
AcDbLine
 10
1084.208694
 20
517.808814
 30
0.0
 11
1086.356937
 21
515.660571
 31
0.0
  0
LINE
  5
214DC
100
AcDbEntity
  8
0
100
AcDbLine
 10
1084.509725
 20
529.448519
 30
0.0
 11
1086.095511
 21
529.448519
 31
0.0
  0
LINE
  5
214DD
100
AcDbEntity
  8
0
100
AcDbLine
 10
1088.216832
 20
530.327199
 30
0.0
 11
1088.753933
 21
530.864301
 31
0.0
  0
ARC
  5
214DE
100
AcDbEntity
  8
0
100
AcDbCircle
 10
1086.095511
 20
532.448519
 30
0.0
 40
3.0
100
AcDbArc
 50
270.0
 51
315.0
  0
ARC
  5
214DF
100
AcDbEntity
  8
0
100
AcDbCircle
 10
1076.551088
 20
516.527652
 30
0.0
 40
7.764039
100
AcDbArc
 50
9.497951
 51
69.497951
  0
LINE
  5
214E0
100
AcDbEntity
  8
0
100
AcDbLine
 10
1086.356937
 20
515.660571
 30
0.0
 11
1080.620004
 21
509.923638
 31
0.0
  0
LINE
  5
214E1
100
AcDbEntity
  8
0
100
AcDbLine
 10
1084.208694
 20
517.808814
 30
0.0
 11
1078.471761
 21
512.071881
 31
0.0
  0
LINE
  5
214E2
100
AcDbEntity
  8
0
100
AcDbLine
 10
1080.974191
 20
525.912986
 30
0.0
 11
1084.509725
 21
529.448519
 31
0.0
  0
LINE
  5
214E3
100
AcDbEntity
  8
0
100
AcDbLine
 10
1082.388405
 20
521.670345
 30
0.0
 11
1083.095511
 21
522.377452
 31
0.0
  0
LINE
  5
214E4
100
AcDbEntity
  8
0
100
AcDbLine
 10
1077.83225
 20
524.185258
 30
0.0
 11
1072.095317
 21
518.448325
 31
0.0
  0
LINE
  5
214E5
100
AcDbEntity
  8
0
100
AcDbLine
 10
1072.095317
 20
518.448325
 30
0.0
 11
1072.842463
 21
515.659937
 31
0.0
  0
LINE
  5
214E6
100
AcDbEntity
  8
0
100
AcDbLine
 10
1189.536594
 20
567.041117
 30
0.0
 11
1176.536594
 21
567.041117
 31
0.0
  0
LINE
  5
214E7
100
AcDbEntity
  8
0
100
AcDbLine
 10
1218.736594
 20
565.141117
 30
0.0
 11
1282.536594
 21
565.141117
 31
0.0
  0
LINE
  5
214E9
100
AcDbEntity
  8
0
100
AcDbLine
 10
1145.886594
 20
586.541117
 30
0.0
 11
1167.886594
 21
586.541117
 31
0.0
  0
LINE
  5
214EA
100
AcDbEntity
  8
0
100
AcDbLine
 10
1155.886594
 20
579.541117
 30
0.0
 11
1135.886594
 21
579.541117
 31
0.0
  0
LINE
  5
214EB
100
AcDbEntity
  8
0
100
AcDbLine
 10
1155.886594
 20
565.541117
 30
0.0
 11
1135.886594
 21
565.541117
 31
0.0
  0
LINE
  5
214EC
100
AcDbEntity
  8
0
100
AcDbLine
 10
1155.886594
 20
565.541117
 30
0.0
 11
1155.886594
 21
579.541117
 31
0.0
  0
LINE
  5
214ED
100
AcDbEntity
  8
0
100
AcDbLine
 10
1167.886594
 20
586.541117
 30
0.0
 11
1168.886594
 21
585.541117
 31
0.0
  0
LINE
  5
214EE
100
AcDbEntity
  8
0
100
AcDbLine
 10
1122.886594
 20
566.343752
 30
0.0
 11
1122.886594
 21
585.541117
 31
0.0
  0
LINE
  5
214EF
100
AcDbEntity
  8
0
100
AcDbLine
 10
1135.886594
 20
565.541117
 30
0.0
 11
1135.886594
 21
579.541117
 31
0.0
  0
ARC
  5
214F0
100
AcDbEntity
  8
0
100
AcDbCircle
 10
1116.886594
 20
566.343752
 30
0.0
 40
6.0
100
AcDbArc
 50
302.033057
 51
0.0
  0
LINE
  5
214F1
100
AcDbEntity
  8
0
100
AcDbLine
 10
1145.886594
 20
586.541117
 30
0.0
 11
1123.886594
 21
586.541117
 31
0.0
  0
LINE
  5
214F2
100
AcDbEntity
  8
0
100
AcDbLine
 10
1123.886594
 20
586.541117
 30
0.0
 11
1122.886594
 21
585.541117
 31
0.0
  0
INSERT
  5
215E1
100
AcDbEntity
  8
0
100
AcDbBlockReference
  2
YA
 10
526.686381
 20
581.444055
 30
0.0
 41
-1.630435
 42
1.630435
 43
1.630435
 50
90.0
  0
INSERT
  5
215E3
100
AcDbEntity
  8
0
100
AcDbBlockReference
  2
YA
 10
1145.886594
 20
592.444055
 30
0.0
 41
-1.630435
 42
1.630435
 43
1.630435
 50
90.0
  0
ARC
  5
21601
100
AcDbEntity
  8
0
100
AcDbCircle
 10
729.27395
 20
786.511975
 30
0.0
 40
3.0
100
AcDbArc
 50
95.0
 51
145.46592
  0
LINE
  5
21602
100
AcDbEntity
  8
0
100
AcDbLine
 10
732.160709
 20
789.775993
 30
0.0
 11
729.012483
 21
789.500559
 31
0.0
  0
ARC
  5
21603
100
AcDbEntity
  8
0
100
AcDbCircle
 10
731.899242
 20
792.764577
 30
0.0
 40
3.0
100
AcDbArc
 50
275.0
 51
0.0
  0
ARC
  5
21604
100
AcDbEntity
  8
0
100
AcDbCircle
 10
779.525088
 20
786.511975
 30
0.0
 40
3.0
100
AcDbArc
 50
34.53408
 51
85.0
  0
LINE
  5
21605
100
AcDbEntity
  8
0
100
AcDbLine
 10
776.638329
 20
789.775993
 30
0.0
 11
779.786555
 21
789.500559
 31
0.0
  0
ARC
  5
21606
100
AcDbEntity
  8
0
100
AcDbCircle
 10
776.899796
 20
792.764577
 30
0.0
 40
3.0
100
AcDbArc
 50
180.0
 51
265.0
  0
ARC
  5
21607
100
AcDbEntity
  8
0
100
AcDbCircle
 10
729.27395
 20
751.931299
 30
0.0
 40
3.0
100
AcDbArc
 50
214.53408
 51
265.0
  0
LINE
  5
21608
100
AcDbEntity
  8
0
100
AcDbLine
 10
732.160709
 20
748.667281
 30
0.0
 11
729.012483
 21
748.942715
 31
0.0
  0
ARC
  5
21609
100
AcDbEntity
  8
0
100
AcDbCircle
 10
731.899242
 20
745.678697
 30
0.0
 40
3.0
100
AcDbArc
 50
0.0
 51
85.0
  0
ARC
  5
2160A
100
AcDbEntity
  8
0
100
AcDbCircle
 10
776.899796
 20
745.678697
 30
0.0
 40
3.0
100
AcDbArc
 50
95.0
 51
180.0
  0
LINE
  5
2160B
100
AcDbEntity
  8
0
100
AcDbLine
 10
776.638329
 20
748.667281
 30
0.0
 11
779.786555
 21
748.942715
 31
0.0
  0
ARC
  5
2160C
100
AcDbEntity
  8
0
100
AcDbCircle
 10
779.525088
 20
751.931299
 30
0.0
 40
3.0
100
AcDbArc
 50
275.0
 51
325.46592
  0
ARC
  5
2161D
100
AcDbEntity
  8
0
100
AcDbCircle
 10
729.27395
 20
228.511975
 30
0.0
 40
3.0
100
AcDbArc
 50
95.0
 51
145.46592
  0
LINE
  5
2161E
100
AcDbEntity
  8
0
100
AcDbLine
 10
732.160709
 20
231.775993
 30
0.0
 11
729.012483
 21
231.500559
 31
0.0
  0
ARC
  5
2161F
100
AcDbEntity
  8
0
100
AcDbCircle
 10
731.899242
 20
234.764577
 30
0.0
 40
3.0
100
AcDbArc
 50
275.0
 51
0.0
  0
ARC
  5
21620
100
AcDbEntity
  8
0
100
AcDbCircle
 10
779.525088
 20
228.511975
 30
0.0
 40
3.0
100
AcDbArc
 50
34.53408
 51
85.0
  0
LINE
  5
21621
100
AcDbEntity
  8
0
100
AcDbLine
 10
776.638329
 20
231.775993
 30
0.0
 11
779.786555
 21
231.500559
 31
0.0
  0
ARC
  5
21622
100
AcDbEntity
  8
0
100
AcDbCircle
 10
776.899796
 20
234.764577
 30
0.0
 40
3.0
100
AcDbArc
 50
180.0
 51
265.0
  0
ARC
  5
21623
100
AcDbEntity
  8
0
100
AcDbCircle
 10
729.27395
 20
193.931299
 30
0.0
 40
3.0
100
AcDbArc
 50
214.53408
 51
265.0
  0
LINE
  5
21624
100
AcDbEntity
  8
0
100
AcDbLine
 10
732.160709
 20
190.667281
 30
0.0
 11
729.012483
 21
190.942715
 31
0.0
  0
ARC
  5
21625
100
AcDbEntity
  8
0
100
AcDbCircle
 10
731.899242
 20
187.678697
 30
0.0
 40
3.0
100
AcDbArc
 50
0.0
 51
85.0
  0
ARC
  5
21626
100
AcDbEntity
  8
0
100
AcDbCircle
 10
776.899796
 20
187.678697
 30
0.0
 40
3.0
100
AcDbArc
 50
95.0
 51
180.0
  0
LINE
  5
21627
100
AcDbEntity
  8
0
100
AcDbLine
 10
776.638329
 20
190.667281
 30
0.0
 11
779.786555
 21
190.942715
 31
0.0
  0
ARC
  5
21628
100
AcDbEntity
  8
0
100
AcDbCircle
 10
779.525088
 20
193.931299
 30
0.0
 40
3.0
100
AcDbArc
 50
275.0
 51
325.46592
  0
LINE
  5
2162C
100
AcDbEntity
  8
0
100
AcDbLine
 10
1360.647665
 20
231.711564
 30
0.0
 11
1358.235872
 21
231.500559
 31
0.0
  0
ARC
  5
2162D
100
AcDbEntity
  8
0
100
AcDbCircle
 10
1358.49734
 20
228.511975
 30
0.0
 40
3.0
100
AcDbArc
 50
95.0
 51
145.46592
  0
LINE
  5
2162E
100
AcDbEntity
  8
0
100
AcDbLine
 10
1360.647665
 20
190.730635
 30
0.0
 11
1358.235872
 21
190.94164
 31
0.0
  0
ARC
  5
2162F
100
AcDbEntity
  8
0
100
AcDbCircle
 10
1358.49734
 20
193.930224
 30
0.0
 40
3.0
100
AcDbArc
 50
214.53408
 51
265.0
  0
LINE
  5
21631
100
AcDbEntity
  8
0
100
AcDbLine
 10
1406.598152
 20
231.711564
 30
0.0
 11
1409.009945
 21
231.500559
 31
0.0
  0
ARC
  5
21632
100
AcDbEntity
  8
0
100
AcDbCircle
 10
1408.748477
 20
228.511975
 30
0.0
 40
3.0
100
AcDbArc
 50
34.53408
 51
85.0
  0
ARC
  5
21633
100
AcDbEntity
  8
0
100
AcDbCircle
 10
1408.748477
 20
193.930224
 30
0.0
 40
3.0
100
AcDbArc
 50
275.0
 51
325.46592
  0
LINE
  5
21634
100
AcDbEntity
  8
0
100
AcDbLine
 10
1406.598152
 20
190.730635
 30
0.0
 11
1409.009945
 21
190.94164
 31
0.0
  0
LINE
  5
2165C
100
AcDbEntity
  8
0
100
AcDbLine
 10
1330.470387
 20
789.711564
 30
0.0
 11
1328.058595
 21
789.500559
 31
0.0
  0
ARC
  5
2165D
100
AcDbEntity
  8
0
100
AcDbCircle
 10
1328.320062
 20
786.511975
 30
0.0
 40
3.0
100
AcDbArc
 50
95.0
 51
145.46592
  0
ARC
  5
2165E
100
AcDbEntity
  8
0
100
AcDbCircle
 10
1378.5712
 20
786.511975
 30
0.0
 40
3.0
100
AcDbArc
 50
34.53408
 51
85.0
  0
LINE
  5
2165F
100
AcDbEntity
  8
0
100
AcDbLine
 10
1376.420875
 20
789.711564
 30
0.0
 11
1378.832667
 21
789.500559
 31
0.0
  0
LINE
  5
21660
100
AcDbEntity
  8
0
100
AcDbLine
 10
1330.470387
 20
748.730635
 30
0.0
 11
1328.058595
 21
748.94164
 31
0.0
  0
LINE
  5
21661
100
AcDbEntity
  8
0
100
AcDbLine
 10
1376.420875
 20
748.730635
 30
0.0
 11
1378.832667
 21
748.94164
 31
0.0
  0
ARC
  5
21662
100
AcDbEntity
  8
0
100
AcDbCircle
 10
1378.5712
 20
751.930224
 30
0.0
 40
3.0
100
AcDbArc
 50
275.0
 51
325.46592
  0
ARC
  5
21663
100
AcDbEntity
  8
0
100
AcDbCircle
 10
1328.320062
 20
751.930224
 30
0.0
 40
3.0
100
AcDbArc
 50
214.53408
 51
265.0
  0
LINE
  5
216F9
100
AcDbEntity
  8
0
100
AcDbLine
 10
754.399519
 20
811.221637
 30
0.0
 11
736.399519
 21
811.221637
 31
0.0
  0
LINE
  5
216FA
100
AcDbEntity
  8
0
100
AcDbLine
 10
772.399519
 20
731.221637
 30
0.0
 11
754.399519
 21
731.221637
 31
0.0
  0
LINE
  5
216FC
100
AcDbEntity
  8
0
100
AcDbLine
 10
382.53832
 20
811.221637
 30
0.0
 11
400.53832
 21
811.221637
 31
0.0
  0
LINE
  5
216FF
100
AcDbEntity
  8
0
100
AcDbLine
 10
754.399519
 20
253.221637
 30
0.0
 11
736.399519
 21
253.221637
 31
0.0
  0
LINE
  5
21700
100
AcDbEntity
  8
0
100
AcDbLine
 10
772.399519
 20
173.221637
 30
0.0
 11
754.399519
 21
173.221637
 31
0.0
  0
LINE
  5
21702
100
AcDbEntity
  8
0
100
AcDbLine
 10
363.235486
 20
253.221637
 30
0.0
 11
381.235486
 21
253.221637
 31
0.0
  0
LINE
  5
21708
100
AcDbEntity
  8
0
100
AcDbLine
 10
1155.209316
 20
1074.8487
 30
0.0
 11
1144.709316
 21
1072.343436
 31
0.0
  0
LINE
  5
21709
100
AcDbEntity
  8
0
100
AcDbLine
 10
1182.418039
 20
791.886098
 30
0.0
 11
1192.918039
 21
789.380834
 31
0.0
  0
LINE
  5
2170A
100
AcDbEntity
  8
0
100
AcDbLine
 10
1169.386594
 20
556.205578
 30
0.0
 11
1158.886594
 21
553.700314
 31
0.0
  0
LINE
  5
2170B
100
AcDbEntity
  8
0
100
AcDbLine
 10
1212.595317
 20
233.886098
 30
0.0
 11
1223.095317
 21
231.380834
 31
0.0
  0
VIEWPORT
  5
41
100
AcDbEntity
 67
     1
  8
0
100
AcDbViewport
 10
117.358407
 20
73.5
 30
0.0
 40
234.716814
 41
147.0
 68
    -1
 69
     1
1001
ACAD
1000
MVIEW
1002
{
1070
    16
1010
0.0
1020
0.0
1030
0.0
1010
0.0
1020
0.0
1030
1.0
1040
0.0
1040
147.0
1040
117.358407
1040
73.5
1040
50.0
1040
0.0
1040
0.0
1070
     0
1070
   100
1070
     1
1070
     1
1070
     0
1070
     0
1070
     0
1070
     0
1040
0.0
1040
0.0
1040
0.0
1040
1.0
1040
1.0
1040
0.0
1040
0.0
1070
     0
1002
{
1002
}
1002
}
  0
ENDSEC
  0
SECTION
  2
OBJECTS
  0
DICTIONARY
  5
C
100
AcDbDictionary
  3
ACAD_GROUP
350
D
  3
ACAD_MLINESTYLE
350
E
  0
DICTIONARY
  5
D
102
{ACAD_REACTORS
330
C
102
}
100
AcDbDictionary
  0
DICTIONARY
  5
E
102
{ACAD_REACTORS
330
C
102
}
100
AcDbDictionary
  3
STANDARD
350
1B
  0
MLINESTYLE
  5
1B
102
{ACAD_REACTORS
330
E
102
}
100
AcDbMlineStyle
  2
STANDARD
 70
     0
  3

 62
     0
 51
90.0
 52
90.0
 71
     2
 49
0.5
 62
   256
  6
BYLAYER
 49
-0.5
 62
   256
  6
BYLAYER
  0
ENDSEC
  0
EOF
