  0
SECTION
  2
HEADER
  9
$ACADVER
  1
AC1012
  9
$DWGCODEPAGE
  3
dos932
  9
$INSBASE
 10
0.0
 20
0.0
 30
0.0
  9
$EXTMIN
 10
77.0
 20
35.0
 30
0.0
  9
$EXTMAX
 10
2002.0
 20
1337.0
 30
0.0
  9
$LIMMIN
 10
0.0
 20
0.0
  9
$LIMMAX
 10
2079.0
 20
1470.0
  9
$ORTHOMODE
 70
     1
  9
$REGENMODE
 70
     1
  9
$FILLMODE
 70
     1
  9
$QTEXTMODE
 70
     0
  9
$MIRRTEXT
 70
     1
  9
$DRAGMODE
 70
     2
  9
$LTSCALE
 40
28.0
  9
$OSMODE
 70
    35
  9
$ATTMODE
 70
     1
  9
$TEXTSIZE
 40
28.0
  9
$TRACEWID
 40
0.05
  9
$TEXTSTYLE
  7
STANDARD
  9
$CLAYER
  8
0
  9
$CELTYPE
  6
BYLAYER
  9
$CECOLOR
 62
   256
  9
$CELTSCALE
 40
1.0
  9
$DELOBJ
 70
     1
  9
$DISPSILH
 70
     0
  9
$DIMSCALE
 40
7.0
  9
$DIMASZ
 40
2.8
  9
$DIMEXO
 40
1.0
  9
$DIMDLI
 40
5.0
  9
$DIMRND
 40
0.1
  9
$DIMDLE
 40
0.0
  9
$DIMEXE
 40
1.0
  9
$DIMTP
 40
0.0
  9
$DIMTM
 40
0.0
  9
$DIMTXT
 40
2.5
  9
$DIMCEN
 40
0.0
  9
$DIMTSZ
 40
0.0
  9
$DIMTOL
 70
     0
  9
$DIMLIM
 70
     0
  9
$DIMTIH
 70
     0
  9
$DIMTOH
 70
     0
  9
$DIMSE1
 70
     0
  9
$DIMSE2
 70
     0
  9
$DIMTAD
 70
     3
  9
$DIMZIN
 70
     8
  9
$DIMBLK
  1

  9
$DIMASO
 70
     1
  9
$DIMSHO
 70
     1
  9
$DIMPOST
  1
 
  9
$DIMAPOST
  1

  9
$DIMALT
 70
     0
  9
$DIMALTD
 70
     2
  9
$DIMALTF
 40
1.0
  9
$DIMLFAC
 40
1.0
  9
$DIMTOFL
 70
     1
  9
$DIMTVP
 40
0.0
  9
$DIMTIX
 70
     0
  9
$DIMSOXD
 70
     0
  9
$DIMSAH
 70
     1
  9
$DIMBLK1
  1
_OPEN
  9
$DIMBLK2
  1
_OPEN
  9
$DIMSTYLE
  2
DIM1
  9
$DIMCLRD
 70
     2
  9
$DIMCLRE
 70
     2
  9
$DIMCLRT
 70
     2
  9
$DIMTFAC
 40
0.7
  9
$DIMGAP
 40
0.85
  9
$DIMJUST
 70
     0
  9
$DIMSD1
 70
     0
  9
$DIMSD2
 70
     0
  9
$DIMTOLJ
 70
     1
  9
$DIMTZIN
 70
     8
  9
$DIMALTZ
 70
     8
  9
$DIMALTTZ
 70
     8
  9
$DIMFIT
 70
     3
  9
$DIMUPT
 70
     0
  9
$DIMUNIT
 70
     2
  9
$DIMDEC
 70
     2
  9
$DIMTDEC
 70
     3
  9
$DIMALTU
 70
     2
  9
$DIMALTTD
 70
     3
  9
$DIMTXSTY
  7
DIM
  9
$DIMAUNIT
 70
     0
  9
$LUNITS
 70
     2
  9
$LUPREC
 70
     4
  9
$SKETCHINC
 40
0.1
  9
$FILLETRAD
 40
3.0
  9
$AUNITS
 70
     0
  9
$AUPREC
 70
     0
  9
$MENU
  1
C:\ACADR13\WIN\SUPPORT\ACAD.mnc
  9
$ELEVATION
 40
0.0
  9
$PELEVATION
 40
0.0
  9
$THICKNESS
 40
0.0
  9
$LIMCHECK
 70
     0
  9
$BLIPMODE
 70
     1
  9
$CHAMFERA
 40
0.0
  9
$CHAMFERB
 40
0.0
  9
$CHAMFERC
 40
0.0
  9
$CHAMFERD
 40
0.0
  9
$SKPOLY
 70
     0
  9
$TDCREATE
 40
2451589.540470243
  9
$TDUPDATE
 40
2451967.653930844
  9
$TDINDWG
 40
0.9306467361
  9
$TDUSRTIMER
 40
0.9306467361
  9
$USRTIMER
 70
     1
  9
$ANGBASE
 50
0.0
  9
$ANGDIR
 70
     0
  9
$PDMODE
 70
     0
  9
$PDSIZE
 40
0.0
  9
$PLINEWID
 40
0.0
  9
$COORDS
 70
     1
  9
$SPLFRAME
 70
     0
  9
$SPLINETYPE
 70
     6
  9
$SPLINESEGS
 70
     8
  9
$ATTDIA
 70
     0
  9
$ATTREQ
 70
     1
  9
$HANDLING
 70
     1
  9
$HANDSEED
  5
23599
  9
$SURFTAB1
 70
     6
  9
$SURFTAB2
 70
     6
  9
$SURFTYPE
 70
     6
  9
$SURFU
 70
     6
  9
$SURFV
 70
     6
  9
$UCSNAME
  2

  9
$UCSORG
 10
0.0
 20
0.0
 30
0.0
  9
$UCSXDIR
 10
1.0
 20
0.0
 30
0.0
  9
$UCSYDIR
 10
0.0
 20
1.0
 30
0.0
  9
$PUCSNAME
  2

  9
$PUCSORG
 10
0.0
 20
0.0
 30
0.0
  9
$PUCSXDIR
 10
1.0
 20
0.0
 30
0.0
  9
$PUCSYDIR
 10
0.0
 20
1.0
 30
0.0
  9
$USERI1
 70
     0
  9
$USERI2
 70
     0
  9
$USERI3
 70
     0
  9
$USERI4
 70
     0
  9
$USERI5
 70
     0
  9
$USERR1
 40
0.0
  9
$USERR2
 40
0.0
  9
$USERR3
 40
0.0
  9
$USERR4
 40
0.0
  9
$USERR5
 40
0.0
  9
$WORLDVIEW
 70
     1
  9
$SHADEDGE
 70
     3
  9
$SHADEDIF
 70
    70
  9
$TILEMODE
 70
     1
  9
$MAXACTVP
 70
    16
  9
$PINSBASE
 10
0.0
 20
0.0
 30
0.0
  9
$PLIMCHECK
 70
     0
  9
$PEXTMIN
 10
1.000000E+20
 20
1.000000E+20
 30
1.000000E+20
  9
$PEXTMAX
 10
-1.000000E+20
 20
-1.000000E+20
 30
-1.000000E+20
  9
$PLIMMIN
 10
0.0
 20
0.0
  9
$PLIMMAX
 10
20.0
 20
147.0
  9
$UNITMODE
 70
     0
  9
$VISRETAIN
 70
     0
  9
$PLINEGEN
 70
     0
  9
$PSLTSCALE
 70
     1
  9
$TREEDEPTH
 70
  3020
  9
$PICKSTYLE
 70
     0
  9
$CMLSTYLE
  2
STANDARD
  9
$CMLJUST
 70
     0
  9
$CMLSCALE
 40
1.0
  9
$SAVEIMAGES
 70
     1
  0
ENDSEC
  0
SECTION
  2
CLASSES
  0
CLASS
  1
LWPOLYLINE
  2
AcDbPolyline
  3
"AutoCAD"
 90
    32768
280
     0
281
     1
  0
ENDSEC
  0
SECTION
  2
TABLES
  0
TABLE
  2
VPORT
  5
8
100
AcDbSymbolTable
 70
     2
  0
VPORT
  5
23598
100
AcDbSymbolTableRecord
100
AcDbViewportTableRecord
  2
*ACTIVE
 70
     0
 10
0.0
 20
0.0
 11
1.0
 21
1.0
 12
1389.298986
 22
788.450133
 13
0.0
 23
0.0
 14
1.0
 24
1.0
 15
0.0
 25
0.0
 16
0.0
 26
0.0
 36
1.0
 17
0.0
 27
0.0
 37
0.0
 40
1576.900266
 41
1.762063
 42
50.0
 43
0.0
 44
0.0
 50
0.0
 51
0.0
 71
     0
 72
   100
 73
     1
 74
     1
 75
     0
 76
     0
 77
     0
 78
     0
  0
ENDTAB
  0
TABLE
  2
LTYPE
  5
5
100
AcDbSymbolTable
 70
     5
  0
LTYPE
  5
12
100
AcDbSymbolTableRecord
100
AcDbLinetypeTableRecord
  2
BYBLOCK
 70
     0
  3

 72
    65
 73
     0
 40
0.0
  0
LTYPE
  5
13
100
AcDbSymbolTableRecord
100
AcDbLinetypeTableRecord
  2
BYLAYER
 70
     0
  3

 72
    65
 73
     0
 40
0.0
  0
LTYPE
  5
14
100
AcDbSymbolTableRecord
100
AcDbLinetypeTableRecord
  2
CONTINUOUS
 70
     0
  3
Solid line
 72
    65
 73
     0
 40
0.0
  0
ENDTAB
  0
TABLE
  2
LAYER
  5
2
100
AcDbSymbolTable
 70
     4
  0
LAYER
  5
F
100
AcDbSymbolTableRecord
100
AcDbLayerTableRecord
  2
0
 70
     0
 62
     7
  6
CONTINUOUS
  0
ENDTAB
  0
TABLE
  2
STYLE
  5
3
100
AcDbSymbolTable
 70
     3
  0
STYLE
  5
10
100
AcDbSymbolTableRecord
100
AcDbTextStyleTableRecord
  2
STANDARD
 70
     0
 40
0.0
 41
0.8
 50
0.0
 71
     0
 42
28.0
  3
simplex
  4
extfont
  0
STYLE
  5
237C
100
AcDbSymbolTableRecord
100
AcDbTextStyleTableRecord
  2
PTSH
 70
     0
 40
0.0
 41
0.9
 50
0.0
 71
     0
 42
4.0
  3
SIMPLEX
  4
EXTFONT
  0
STYLE
  5
2592
100
AcDbSymbolTableRecord
100
AcDbTextStyleTableRecord
  2
DIM
 70
     0
 40
0.0
 41
0.8
 50
0.0
 71
     0
 42
4.0
  3
simplex
  4
extfont
  0
ENDTAB
  0
TABLE
  2
VIEW
  5
6
100
AcDbSymbolTable
 70
     0
  0
ENDTAB
  0
TABLE
  2
UCS
  5
7
100
AcDbSymbolTable
 70
     0
  0
ENDTAB
  0
TABLE
  2
APPID
  5
9
100
AcDbSymbolTable
 70
     1
  0
APPID
  5
11
100
AcDbSymbolTableRecord
100
AcDbRegAppTableRecord
  2
ACAD
 70
     0
  0
ENDTAB
  0
TABLE
  2
DIMSTYLE
  5
A
100
AcDbSymbolTable
 70
     1
  0
DIMSTYLE
105
2237
100
AcDbSymbolTableRecord
100
AcDbDimStyleTableRecord
  2
DIM1
 70
     0
  3
 
  4

  5

  6
_OPEN
  7
_OPEN
 40
7.0
 41
2.8
 42
1.0
 43
5.0
 44
1.0
 45
0.1
 46
0.0
 47
0.0
 48
0.0
140
2.5
141
0.0
142
0.0
143
1.0
144
1.0
145
0.0
146
0.7
147
0.85
 71
     0
 72
     0
 73
     0
 74
     0
 75
     0
 76
     0
 77
     3
 78
     8
170
     0
171
     2
172
     1
173
     1
174
     0
175
     0
176
     2
177
     2
178
     2
270
     2
271
     2
272
     3
273
     2
274
     3
340
2592
275
     0
280
     0
281
     0
282
     0
283
     1
284
     8
285
     8
286
     8
287
     3
288
     0
  0
ENDTAB
  0
TABLE
  2
BLOCK_RECORD
  5
1
100
AcDbSymbolTable
 70
     2
  0
BLOCK_RECORD
  5
18
100
AcDbSymbolTableRecord
100
AcDbBlockTableRecord
  2
*MODEL_SPACE
  0
BLOCK_RECORD
  5
15
100
AcDbSymbolTableRecord
100
AcDbBlockTableRecord
  2
*PAPER_SPACE
  0
BLOCK_RECORD
  5
2448
100
AcDbSymbolTableRecord
100
AcDbBlockTableRecord
  2
_OPEN
  0
BLOCK_RECORD
  5
1FDCA
100
AcDbSymbolTableRecord
100
AcDbBlockTableRecord
  2
YA
  0
ENDTAB
  0
ENDSEC
  0
SECTION
  2
BLOCKS
  0
BLOCK
  5
3C
100
AcDbEntity
  8
0
100
AcDbBlockBegin
  2
*MODEL_SPACE
 70
     0
 10
0.0
 20
0.0
 30
0.0
  3
*MODEL_SPACE
  1

  0
ENDBLK
  5
3D
100
AcDbEntity
  8
0
100
AcDbBlockEnd
  0
BLOCK
  5
3A
100
AcDbEntity
 67
     1
  8
0
100
AcDbBlockBegin
  2
*PAPER_SPACE
 70
     0
 10
0.0
 20
0.0
 30
0.0
  3
*PAPER_SPACE
  1

  0
ENDBLK
  5
3B
100
AcDbEntity
 67
     1
  8
0
100
AcDbBlockEnd
  0
BLOCK
  5
2449
100
AcDbEntity
  8
0
 48
4.0
100
AcDbBlockBegin
  2
_OPEN
 70
     0
 10
0.0
 20
0.0
 30
0.0
  3
_OPEN
  1
H1111.DWG
  0
LINE
  5
244A
100
AcDbEntity
  8
0
  6
BYBLOCK
 62
     0
 48
4.0
100
AcDbLine
 10
-1.0
 20
0.166667
 30
0.0
 11
0.0
 21
0.0
 31
0.0
  0
LINE
  5
244B
100
AcDbEntity
  8
0
  6
BYBLOCK
 62
     0
 48
4.0
100
AcDbLine
 10
0.0
 20
0.0
 30
0.0
 11
-1.0
 21
-0.166667
 31
0.0
  0
LINE
  5
244C
100
AcDbEntity
  8
0
  6
BYBLOCK
 62
     0
 48
4.0
100
AcDbLine
 10
0.0
 20
0.0
 30
0.0
 11
-1.0
 21
0.0
 31
0.0
  0
ENDBLK
  5
244D
100
AcDbEntity
  8
0
 48
4.0
100
AcDbBlockEnd
  0
BLOCK
  5
1FDD2
100
AcDbEntity
  8
0
100
AcDbBlockBegin
  2
YA
 70
     0
 10
0.0
 20
0.0
 30
0.0
  3
YA
  1

  0
LINE
  5
1FDCB
100
AcDbEntity
  8
0
100
AcDbLine
 10
-16.8065
 20
2.801
 30
0.0
 11
-8.4035
 21
2.801
 31
0.0
  0
LINE
  5
1FDCC
100
AcDbEntity
  8
0
100
AcDbLine
 10
-8.4035
 20
2.801
 30
0.0
 11
-7.0025
 21
1.4005
 31
0.0
  0
LINE
  5
1FDCD
100
AcDbEntity
  8
0
100
AcDbLine
 10
-7.0025
 20
1.4005
 30
0.0
 11
-2.862
 21
1.4005
 31
0.0
  0
LINE
  5
1FDCE
100
AcDbEntity
  8
0
100
AcDbLine
 10
-2.862
 20
1.4005
 30
0.0
 11
-2.862
 21
2.801
 31
0.0
  0
LINE
  5
1FDCF
100
AcDbEntity
  8
0
100
AcDbLine
 10
-2.862
 20
2.801
 30
0.0
 11
0.0
 21
0.0
 31
0.0
  0
LINE
  5
1FDD0
100
AcDbEntity
  8
0
100
AcDbLine
 10
0.0
 20
0.0
 30
0.0
 11
-14.0055
 21
0.0
 31
0.0
  0
LINE
  5
1FDD1
100
AcDbEntity
  8
0
100
AcDbLine
 10
-14.0055
 20
0.0
 30
0.0
 11
-16.8065
 21
2.801
 31
0.0
  0
ENDBLK
  5
1FDD3
100
AcDbEntity
  8
0
100
AcDbBlockEnd
  0
ENDSEC
  0
SECTION
  2
ENTITIES
  0
MTEXT
  5
ADA
100
AcDbEntity
  8
0
100
AcDbMText
 10
2660.974958
 20
348.924178
 30
0.0
 40
1.4
 41
330.585254
 71
     1
 72
     1
  1

  0
MTEXT
  5
ADB
100
AcDbEntity
  8
0
100
AcDbMText
 10
2723.349532
 20
404.955556
 30
0.0
 40
1.4
 41
318.110339
 71
     1
 72
     1
  1

  0
MTEXT
  5
ADC
100
AcDbEntity
  8
0
100
AcDbMText
 10
2685.924788
 20
-335.903725
 30
0.0
 40
1.4
 41
361.772541
 71
     1
 72
     1
  1

  0
TEXT
  5
2529
100
AcDbEntity
  8
0
  6
CONTINUOUS
100
AcDbText
 10
1879.7
 20
49.0
 30
0.0
 40
21.0
  1
FS5-F
 41
0.9
  7
PTSH
 72
     2
 11
1967.0
 21
59.5
 31
0.0
100
AcDbText
 73
     2
  0
POLYLINE
  5
2563
100
AcDbEntity
  8
0
100
AcDb2dPolyline
 66
     1
 10
0.0
 20
0.0
 30
0.0
 70
     1
  0
VERTEX
  5
234FB
100
AcDbEntity
  8
0
100
AcDbVertex
100
AcDb2dVertex
 10
77.0
 20
35.0
 30
0.0
  0
VERTEX
  5
234FC
100
AcDbEntity
  8
0
100
AcDbVertex
100
AcDb2dVertex
 10
2002.0
 20
35.0
 30
0.0
  0
VERTEX
  5
234FD
100
AcDbEntity
  8
0
100
AcDbVertex
100
AcDb2dVertex
 10
2002.0
 20
1337.0
 30
0.0
  0
VERTEX
  5
234FE
100
AcDbEntity
  8
0
100
AcDbVertex
100
AcDb2dVertex
 10
77.0
 20
1337.0
 30
0.0
  0
SEQEND
  5
234FF
100
AcDbEntity
  8
0
  0
TEXT
  5
20D56
100
AcDbEntity
  8
0
100
AcDbText
 10
104.576161
 20
382.372872
 30
0.0
 40
24.5
  1
正面
100
AcDbText
  0
TEXT
  5
20D59
100
AcDbEntity
  8
0
100
AcDbText
 10
104.576161
 20
637.562999
 30
0.0
 40
24.5
  1
平面
100
AcDbText
  0
TEXT
  5
20D5A
100
AcDbEntity
  8
0
100
AcDbText
 10
104.576161
 20
906.754913
 30
0.0
 40
24.5
  1
背面
100
AcDbText
  0
LINE
  5
21420
100
AcDbEntity
  8
0
100
AcDbLine
 10
1884.039653
 20
345.872872
 30
0.0
 11
1884.039653
 21
362.559163
 31
0.0
  0
LINE
  5
21421
100
AcDbEntity
  8
0
100
AcDbLine
 10
1923.039653
 20
345.872872
 30
0.0
 11
1923.039653
 21
362.559163
 31
0.0
  0
LINE
  5
21422
100
AcDbEntity
  8
0
100
AcDbLine
 10
1923.039653
 20
345.872872
 30
0.0
 11
1923.039653
 21
359.213675
 31
0.0
  0
LINE
  5
21426
100
AcDbEntity
  8
0
100
AcDbLine
 10
1712.229257
 20
357.872872
 30
0.0
 11
1712.229257
 21
345.872872
 31
0.0
  0
LINE
  5
21427
100
AcDbEntity
  8
0
100
AcDbLine
 10
1751.229257
 20
365.952562
 30
0.0
 11
1751.229257
 21
345.872872
 31
0.0
  0
LINE
  5
21432
100
AcDbEntity
  8
0
100
AcDbLine
 10
1080.151325
 20
357.872872
 30
0.0
 11
1080.151325
 21
345.872872
 31
0.0
  0
LINE
  5
21433
100
AcDbEntity
  8
0
100
AcDbLine
 10
1119.151325
 20
365.952562
 30
0.0
 11
1119.151325
 21
345.872872
 31
0.0
  0
LINE
  5
21437
100
AcDbEntity
  8
0
100
AcDbLine
 10
498.402642
 20
357.872872
 30
0.0
 11
498.402642
 21
345.872872
 31
0.0
  0
LINE
  5
21438
100
AcDbEntity
  8
0
100
AcDbLine
 10
537.402642
 20
365.952562
 30
0.0
 11
537.402642
 21
345.872872
 31
0.0
  0
LINE
  5
2143A
100
AcDbEntity
  8
0
100
AcDbLine
 10
517.902642
 20
309.372872
 30
0.0
 11
470.402642
 21
309.372872
 31
0.0
  0
LINE
  5
2143B
100
AcDbEntity
  8
0
100
AcDbLine
 10
565.402642
 20
323.372872
 30
0.0
 11
470.402642
 21
323.372872
 31
0.0
  0
LINE
  5
2143C
100
AcDbEntity
  8
0
100
AcDbLine
 10
498.402642
 20
345.872872
 30
0.0
 11
499.902642
 21
344.372872
 31
0.0
  0
LINE
  5
21442
100
AcDbEntity
  8
0
100
AcDbLine
 10
470.402642
 20
323.372872
 30
0.0
 11
470.402642
 21
309.372872
 31
0.0
  0
LINE
  5
21445
100
AcDbEntity
  8
0
100
AcDbLine
 10
517.902642
 20
309.372872
 30
0.0
 11
565.402642
 21
309.372872
 31
0.0
  0
LINE
  5
21446
100
AcDbEntity
  8
0
100
AcDbLine
 10
532.795796
 20
323.372872
 30
0.0
 11
528.752642
 21
327.114803
 31
0.0
  0
LINE
  5
21447
100
AcDbEntity
  8
0
100
AcDbLine
 10
503.009488
 20
323.372872
 30
0.0
 11
507.052642
 21
327.114803
 31
0.0
  0
LINE
  5
21448
100
AcDbEntity
  8
0
100
AcDbLine
 10
507.052642
 20
327.114803
 30
0.0
 11
528.752642
 21
327.114803
 31
0.0
  0
LINE
  5
21449
100
AcDbEntity
  8
0
100
AcDbLine
 10
535.902642
 20
344.372872
 30
0.0
 11
499.902642
 21
344.372872
 31
0.0
  0
LINE
  5
2144A
100
AcDbEntity
  8
0
100
AcDbLine
 10
507.052642
 20
340.630941
 30
0.0
 11
528.752642
 21
340.630941
 31
0.0
  0
LINE
  5
2144B
100
AcDbEntity
  8
0
100
AcDbLine
 10
507.052642
 20
327.114803
 30
0.0
 11
507.052642
 21
340.630941
 31
0.0
  0
LINE
  5
2144C
100
AcDbEntity
  8
0
100
AcDbLine
 10
503.009488
 20
344.372872
 30
0.0
 11
507.052642
 21
340.630941
 31
0.0
  0
LINE
  5
2144D
100
AcDbEntity
  8
0
100
AcDbLine
 10
528.752642
 20
327.114803
 30
0.0
 11
528.752642
 21
340.630941
 31
0.0
  0
LINE
  5
2144E
100
AcDbEntity
  8
0
100
AcDbLine
 10
535.902642
 20
344.372872
 30
0.0
 11
537.402642
 21
345.872872
 31
0.0
  0
LINE
  5
2144F
100
AcDbEntity
  8
0
100
AcDbLine
 10
532.795796
 20
344.372872
 30
0.0
 11
528.752642
 21
340.630941
 31
0.0
  0
LINE
  5
21450
100
AcDbEntity
  8
0
100
AcDbLine
 10
565.402642
 20
323.372872
 30
0.0
 11
565.402642
 21
309.372872
 31
0.0
  0
LINE
  5
21454
100
AcDbEntity
  8
0
100
AcDbLine
 10
1099.651325
 20
309.372872
 30
0.0
 11
1049.651325
 21
309.372872
 31
0.0
  0
LINE
  5
21455
100
AcDbEntity
  8
0
100
AcDbLine
 10
1149.651325
 20
325.372872
 30
0.0
 11
1049.651325
 21
325.372872
 31
0.0
  0
LINE
  5
21456
100
AcDbEntity
  8
0
100
AcDbLine
 10
1088.801325
 20
329.114803
 30
0.0
 11
1110.501325
 21
329.114803
 31
0.0
  0
LINE
  5
21457
100
AcDbEntity
  8
0
100
AcDbLine
 10
1088.801325
 20
340.630941
 30
0.0
 11
1110.501325
 21
340.630941
 31
0.0
  0
LINE
  5
21458
100
AcDbEntity
  8
0
100
AcDbLine
 10
1117.651325
 20
344.372872
 30
0.0
 11
1081.651325
 21
344.372872
 31
0.0
  0
LINE
  5
21459
100
AcDbEntity
  8
0
100
AcDbLine
 10
1049.651325
 20
325.372872
 30
0.0
 11
1049.651325
 21
309.372872
 31
0.0
  0
LINE
  5
2145C
100
AcDbEntity
  8
0
100
AcDbLine
 10
1084.758171
 20
325.372872
 30
0.0
 11
1088.801325
 21
329.114803
 31
0.0
  0
LINE
  5
2145D
100
AcDbEntity
  8
0
100
AcDbLine
 10
1088.801325
 20
329.114803
 30
0.0
 11
1088.801325
 21
340.630941
 31
0.0
  0
LINE
  5
2145E
100
AcDbEntity
  8
0
100
AcDbLine
 10
1084.758171
 20
344.372872
 30
0.0
 11
1088.801325
 21
340.630941
 31
0.0
  0
LINE
  5
2145F
100
AcDbEntity
  8
0
100
AcDbLine
 10
1080.151325
 20
345.872872
 30
0.0
 11
1081.651325
 21
344.372872
 31
0.0
  0
LINE
  5
21460
100
AcDbEntity
  8
0
100
AcDbLine
 10
1149.651325
 20
309.372872
 30
0.0
 11
1099.651325
 21
309.372872
 31
0.0
  0
LINE
  5
21461
100
AcDbEntity
  8
0
100
AcDbLine
 10
1114.544479
 20
325.372872
 30
0.0
 11
1110.501325
 21
329.114803
 31
0.0
  0
LINE
  5
21462
100
AcDbEntity
  8
0
100
AcDbLine
 10
1114.544479
 20
344.372872
 30
0.0
 11
1110.501325
 21
340.630941
 31
0.0
  0
LINE
  5
21463
100
AcDbEntity
  8
0
100
AcDbLine
 10
1110.501325
 20
329.114803
 30
0.0
 11
1110.501325
 21
340.630941
 31
0.0
  0
LINE
  5
21464
100
AcDbEntity
  8
0
100
AcDbLine
 10
1117.651325
 20
344.372872
 30
0.0
 11
1119.151325
 21
345.872872
 31
0.0
  0
LINE
  5
21466
100
AcDbEntity
  8
0
100
AcDbLine
 10
1841.039653
 20
304.372872
 30
0.0
 11
1903.539653
 21
304.372872
 31
0.0
  0
LINE
  5
21467
100
AcDbEntity
  8
0
100
AcDbLine
 10
1914.389653
 20
340.630941
 30
0.0
 11
1892.689653
 21
340.630941
 31
0.0
  0
LINE
  5
21468
100
AcDbEntity
  8
0
100
AcDbLine
 10
1914.389653
 20
324.114803
 30
0.0
 11
1892.689653
 21
324.114803
 31
0.0
  0
LINE
  5
21469
100
AcDbEntity
  8
0
100
AcDbLine
 10
1841.039653
 20
320.372872
 30
0.0
 11
1966.039653
 21
320.372872
 31
0.0
  0
LINE
  5
2146A
100
AcDbEntity
  8
0
100
AcDbLine
 10
1885.539653
 20
344.372872
 30
0.0
 11
1921.539653
 21
344.372872
 31
0.0
  0
LINE
  5
2146B
100
AcDbEntity
  8
0
100
AcDbLine
 10
1794.229257
 20
304.372872
 30
0.0
 11
1731.729257
 21
304.372872
 31
0.0
  0
LINE
  5
2146C
100
AcDbEntity
  8
0
100
AcDbLine
 10
1794.229257
 20
320.372872
 30
0.0
 11
1669.229257
 21
320.372872
 31
0.0
  0
LINE
  5
2146D
100
AcDbEntity
  8
0
100
AcDbLine
 10
1731.729257
 20
304.372872
 30
0.0
 11
1669.229257
 21
304.372872
 31
0.0
  0
LINE
  5
2146E
100
AcDbEntity
  8
0
100
AcDbLine
 10
1669.229257
 20
304.372872
 30
0.0
 11
1669.229257
 21
320.372872
 31
0.0
  0
LINE
  5
21474
100
AcDbEntity
  8
0
100
AcDbLine
 10
1749.729257
 20
344.372872
 30
0.0
 11
1713.729257
 21
344.372872
 31
0.0
  0
LINE
  5
21475
100
AcDbEntity
  8
0
100
AcDbLine
 10
1712.229257
 20
345.872872
 30
0.0
 11
1713.729257
 21
344.372872
 31
0.0
  0
LINE
  5
21476
100
AcDbEntity
  8
0
100
AcDbLine
 10
1742.579257
 20
324.114803
 30
0.0
 11
1742.579257
 21
340.630941
 31
0.0
  0
LINE
  5
21477
100
AcDbEntity
  8
0
100
AcDbLine
 10
1720.879257
 20
324.114803
 30
0.0
 11
1720.879257
 21
340.630941
 31
0.0
  0
LINE
  5
21478
100
AcDbEntity
  8
0
100
AcDbLine
 10
1720.879257
 20
324.114803
 30
0.0
 11
1742.579257
 21
324.114803
 31
0.0
  0
LINE
  5
21479
100
AcDbEntity
  8
0
100
AcDbLine
 10
1716.836102
 20
320.372872
 30
0.0
 11
1720.879257
 21
324.114803
 31
0.0
  0
LINE
  5
2147A
100
AcDbEntity
  8
0
100
AcDbLine
 10
1746.622411
 20
320.372872
 30
0.0
 11
1742.579257
 21
324.114803
 31
0.0
  0
LINE
  5
2147B
100
AcDbEntity
  8
0
100
AcDbLine
 10
1720.879257
 20
340.630941
 30
0.0
 11
1742.579257
 21
340.630941
 31
0.0
  0
LINE
  5
2147C
100
AcDbEntity
  8
0
100
AcDbLine
 10
1716.836102
 20
344.372872
 30
0.0
 11
1720.879257
 21
340.630941
 31
0.0
  0
LINE
  5
2147D
100
AcDbEntity
  8
0
100
AcDbLine
 10
1749.729257
 20
344.372872
 30
0.0
 11
1751.229257
 21
345.872872
 31
0.0
  0
LINE
  5
2147E
100
AcDbEntity
  8
0
100
AcDbLine
 10
1746.622411
 20
344.372872
 30
0.0
 11
1742.579257
 21
340.630941
 31
0.0
  0
LINE
  5
2147F
100
AcDbEntity
  8
0
100
AcDbLine
 10
1794.229257
 20
304.372872
 30
0.0
 11
1794.229257
 21
320.372872
 31
0.0
  0
LINE
  5
21480
100
AcDbEntity
  8
0
100
AcDbLine
 10
1841.039653
 20
304.372872
 30
0.0
 11
1841.039653
 21
320.372872
 31
0.0
  0
LINE
  5
21481
100
AcDbEntity
  8
0
100
AcDbLine
 10
1892.689653
 20
324.114803
 30
0.0
 11
1892.689653
 21
340.630941
 31
0.0
  0
LINE
  5
21482
100
AcDbEntity
  8
0
100
AcDbLine
 10
1888.646499
 20
320.372872
 30
0.0
 11
1892.689653
 21
324.114803
 31
0.0
  0
LINE
  5
21483
100
AcDbEntity
  8
0
100
AcDbLine
 10
1888.646499
 20
344.372872
 30
0.0
 11
1892.689653
 21
340.630941
 31
0.0
  0
LINE
  5
21484
100
AcDbEntity
  8
0
100
AcDbLine
 10
1885.539653
 20
344.372872
 30
0.0
 11
1884.039653
 21
345.872872
 31
0.0
  0
LINE
  5
21485
100
AcDbEntity
  8
0
100
AcDbLine
 10
1966.039653
 20
304.372872
 30
0.0
 11
1966.039653
 21
320.372872
 31
0.0
  0
LINE
  5
21486
100
AcDbEntity
  8
0
100
AcDbLine
 10
1903.539653
 20
304.372872
 30
0.0
 11
1966.039653
 21
304.372872
 31
0.0
  0
LINE
  5
21487
100
AcDbEntity
  8
0
100
AcDbLine
 10
1914.389653
 20
324.114803
 30
0.0
 11
1914.389653
 21
340.630941
 31
0.0
  0
LINE
  5
21488
100
AcDbEntity
  8
0
100
AcDbLine
 10
1918.432807
 20
320.372872
 30
0.0
 11
1914.389653
 21
324.114803
 31
0.0
  0
LINE
  5
21489
100
AcDbEntity
  8
0
100
AcDbLine
 10
1918.432807
 20
344.372872
 30
0.0
 11
1914.389653
 21
340.630941
 31
0.0
  0
LINE
  5
2148A
100
AcDbEntity
  8
0
100
AcDbLine
 10
1921.539653
 20
344.372872
 30
0.0
 11
1923.039653
 21
345.872872
 31
0.0
  0
CIRCLE
  5
2148D
100
AcDbEntity
  8
0
100
AcDbCircle
 10
493.153905
 20
612.574753
 30
0.0
 40
7.5
  0
CIRCLE
  5
2148E
100
AcDbEntity
  8
0
100
AcDbCircle
 10
493.153905
 20
662.072228
 30
0.0
 40
7.5
  0
LINE
  5
2148F
100
AcDbEntity
  8
0
100
AcDbLine
 10
565.402642
 20
445.372872
 30
0.0
 11
470.402642
 21
445.372872
 31
0.0
  0
CIRCLE
  5
21490
100
AcDbEntity
  8
0
100
AcDbCircle
 10
517.902642
 20
637.562999
 30
0.0
 40
47.5
  0
LINE
  5
21491
100
AcDbEntity
  8
0
100
AcDbLine
 10
494.902642
 20
402.532069
 30
0.0
 11
507.902642
 21
402.532069
 31
0.0
  0
LINE
  5
21492
100
AcDbEntity
  8
0
100
AcDbLine
 10
499.902642
 20
424.372872
 30
0.0
 11
498.402642
 21
422.872872
 31
0.0
  0
LINE
  5
21493
100
AcDbEntity
  8
0
100
AcDbLine
 10
498.402642
 20
404.872872
 30
0.0
 11
507.902642
 21
402.532069
 31
0.0
  0
LINE
  5
21494
100
AcDbEntity
  8
0
100
AcDbLine
 10
517.902642
 20
459.372872
 30
0.0
 11
470.402642
 21
459.372872
 31
0.0
  0
LINE
  5
21495
100
AcDbEntity
  8
0
100
AcDbLine
 10
494.902642
 20
362.213675
 30
0.0
 11
507.902642
 21
362.213675
 31
0.0
  0
LINE
  5
21496
100
AcDbEntity
  8
0
100
AcDbLine
 10
498.402642
 20
359.872872
 30
0.0
 11
507.902642
 21
362.213675
 31
0.0
  0
LINE
  5
2149F
100
AcDbEntity
  8
0
100
AcDbLine
 10
494.902642
 20
359.872872
 30
0.0
 11
494.902642
 21
404.872872
 31
0.0
  0
ARC
  5
214A9
100
AcDbEntity
  8
0
100
AcDbCircle
 10
496.402642
 20
357.872872
 30
0.0
 40
2.0
100
AcDbArc
 50
0.0
 51
90.0
  0
LINE
  5
214AB
100
AcDbEntity
  8
0
100
AcDbLine
 10
494.902642
 20
359.872872
 30
0.0
 11
496.402642
 21
359.872872
 31
0.0
  0
LINE
  5
214B5
100
AcDbEntity
  8
0
100
AcDbLine
 10
498.402642
 20
422.872872
 30
0.0
 11
498.402642
 21
406.872872
 31
0.0
  0
ARC
  5
214B9
100
AcDbEntity
  8
0
100
AcDbCircle
 10
496.402642
 20
406.872872
 30
0.0
 40
2.0
100
AcDbArc
 50
270.0
 51
0.0
  0
LINE
  5
214BA
100
AcDbEntity
  8
0
100
AcDbLine
 10
494.902642
 20
404.872872
 30
0.0
 11
496.402642
 21
404.872872
 31
0.0
  0
LINE
  5
214BF
100
AcDbEntity
  8
0
100
AcDbLine
 10
470.402642
 20
445.372872
 30
0.0
 11
470.402642
 21
459.372872
 31
0.0
  0
CIRCLE
  5
214D7
100
AcDbEntity
  8
0
100
AcDbCircle
 10
1126.167829
 20
610.806986
 30
0.0
 40
7.5
  0
CIRCLE
  5
214D8
100
AcDbEntity
  8
0
100
AcDbCircle
 10
1073.134821
 20
610.806986
 30
0.0
 40
7.5
  0
CIRCLE
  5
214D9
100
AcDbEntity
  8
0
100
AcDbCircle
 10
1099.651325
 20
637.323491
 30
0.0
 40
50.0
  0
CIRCLE
  5
214DB
100
AcDbEntity
  8
0
100
AcDbCircle
 10
542.65138
 20
612.574753
 30
0.0
 40
7.5
  0
LINE
  5
214DE
100
AcDbEntity
  8
0
100
AcDbLine
 10
507.052642
 20
441.630941
 30
0.0
 11
507.052642
 21
428.114803
 31
0.0
  0
LINE
  5
214DF
100
AcDbEntity
  8
0
100
AcDbLine
 10
528.752642
 20
441.630941
 30
0.0
 11
528.752642
 21
428.114803
 31
0.0
  0
LINE
  5
214E0
100
AcDbEntity
  8
0
100
AcDbLine
 10
514.302642
 20
375.222872
 30
0.0
 11
514.302642
 21
389.522872
 31
0.0
  0
ARC
  5
214E1
100
AcDbEntity
  8
0
100
AcDbCircle
 10
510.647816
 20
388.564953
 30
0.0
 40
3.654827
100
AcDbArc
 50
325.615753
 51
34.384247
  0
LINE
  5
214E2
100
AcDbEntity
  8
0
100
AcDbLine
 10
507.902642
 20
362.213675
 30
0.0
 11
507.902642
 21
402.532069
 31
0.0
  0
LINE
  5
214E3
100
AcDbEntity
  8
0
100
AcDbLine
 10
537.402642
 20
408.136328
 30
0.0
 11
563.51103
 21
382.02794
 31
0.0
  0
ARC
  5
214E4
100
AcDbEntity
  8
0
100
AcDbCircle
 10
541.402642
 20
365.952562
 30
0.0
 40
4.0
100
AcDbArc
 50
45.0
 51
180.0
  0
LINE
  5
214E5
100
AcDbEntity
  8
0
100
AcDbLine
 10
525.902642
 20
350.872872
 30
0.0
 11
509.902642
 21
350.872872
 31
0.0
  0
LINE
  5
214E6
100
AcDbEntity
  8
0
100
AcDbLine
 10
525.902642
 20
360.872872
 30
0.0
 11
509.902642
 21
360.872872
 31
0.0
  0
LINE
  5
214E7
100
AcDbEntity
  8
0
100
AcDbLine
 10
509.902642
 20
350.872872
 30
0.0
 11
509.902642
 21
360.872872
 31
0.0
  0
LINE
  5
214E8
100
AcDbEntity
  8
0
100
AcDbLine
 10
525.902642
 20
350.872872
 30
0.0
 11
525.902642
 21
360.872872
 31
0.0
  0
LINE
  5
214E9
100
AcDbEntity
  8
0
100
AcDbLine
 10
516.702642
 20
374.372872
 30
0.0
 11
531.902642
 21
374.372872
 31
0.0
  0
ARC
  5
214EA
100
AcDbEntity
  8
0
100
AcDbCircle
 10
500.641254
 20
382.372872
 30
0.0
 40
13.661388
100
AcDbArc
 50
342.412046
 51
17.587954
  0
ARC
  5
214EB
100
AcDbEntity
  8
0
100
AcDbCircle
 10
510.647816
 20
376.18079
 30
0.0
 40
3.654827
100
AcDbArc
 50
325.615753
 51
34.384247
  0
LINE
  5
214EC
100
AcDbEntity
  8
0
100
AcDbLine
 10
514.302642
 20
375.222872
 30
0.0
 11
513.66403
 21
374.116763
 31
0.0
  0
LINE
  5
214ED
100
AcDbEntity
  8
0
100
AcDbLine
 10
513.66403
 20
378.244817
 30
0.0
 11
507.902642
 21
378.244817
 31
0.0
  0
LINE
  5
214EE
100
AcDbEntity
  8
0
100
AcDbLine
 10
513.66403
 20
374.116763
 30
0.0
 11
507.902642
 21
374.116763
 31
0.0
  0
LINE
  5
214EF
100
AcDbEntity
  8
0
100
AcDbLine
 10
513.66403
 20
386.500926
 30
0.0
 11
507.902642
 21
386.500926
 31
0.0
  0
LINE
  5
214F0
100
AcDbEntity
  8
0
100
AcDbLine
 10
544.231069
 20
368.780989
 30
0.0
 11
547.247574
 21
365.764484
 31
0.0
  0
LINE
  5
214F1
100
AcDbEntity
  8
0
100
AcDbLine
 10
568.396423
 20
366.720751
 30
0.0
 11
570.751275
 21
369.075603
 31
0.0
  0
LINE
  5
214F2
100
AcDbEntity
  8
0
100
AcDbLine
 10
568.396423
 20
366.720751
 30
0.0
 11
565.174403
 21
369.942771
 31
0.0
  0
LINE
  5
214F3
100
AcDbEntity
  8
0
100
AcDbLine
 10
558.561282
 20
355.86499
 30
0.0
 11
573.410524
 21
370.714232
 31
0.0
  0
ARC
  5
214F4
100
AcDbEntity
  8
0
100
AcDbCircle
 10
570.357302
 20
358.918212
 30
0.0
 40
12.182091
100
AcDbArc
 50
115.179294
 51
154.820706
  0
LINE
  5
214F5
100
AcDbEntity
  8
0
100
AcDbLine
 10
569.167884
 20
376.371086
 30
0.0
 11
552.904428
 21
360.10763
 31
0.0
  0
LINE
  5
214F6
100
AcDbEntity
  8
0
100
AcDbLine
 10
554.318641
 20
360.10763
 30
0.0
 11
569.167884
 21
374.956873
 31
0.0
  0
LINE
  5
214F7
100
AcDbEntity
  8
0
100
AcDbLine
 10
550.076001
 20
360.10763
 30
0.0
 11
569.167884
 21
379.199513
 31
0.0
  0
LINE
  5
214F8
100
AcDbEntity
  8
0
100
AcDbLine
 10
565.33183
 20
381.020313
 30
0.0
 11
548.255201
 21
363.943685
 31
0.0
  0
LINE
  5
214F9
100
AcDbEntity
  8
0
100
AcDbLine
 10
562.697857
 20
381.214768
 30
0.0
 11
548.060746
 21
366.577657
 31
0.0
  0
ARC
  5
214FA
100
AcDbEntity
  8
0
100
AcDbCircle
 10
557.371864
 20
371.90365
 30
0.0
 40
12.182091
100
AcDbArc
 50
295.179294
 51
334.820706
  0
ARC
  5
214FB
100
AcDbEntity
  8
0
100
AcDbCircle
 10
556.688683
 20
359.002645
 30
0.0
 40
3.54367
100
AcDbArc
 50
292.241215
 51
352.241215
  0
LINE
  5
214FC
100
AcDbEntity
  8
0
100
AcDbLine
 10
560.199911
 20
358.524239
 30
0.0
 11
556.977891
 21
361.746259
 31
0.0
  0
LINE
  5
214FD
100
AcDbEntity
  8
0
100
AcDbLine
 10
556.977891
 20
361.746259
 30
0.0
 11
559.332743
 21
364.101111
 31
0.0
  0
LINE
  5
214FE
100
AcDbEntity
  8
0
100
AcDbLine
 10
560.199911
 20
358.524239
 30
0.0
 11
562.554763
 21
360.879091
 31
0.0
  0
LINE
  5
214FF
100
AcDbEntity
  8
0
100
AcDbLine
 10
562.554763
 20
360.879091
 30
0.0
 11
559.332743
 21
364.101111
 31
0.0
  0
LINE
  5
21500
100
AcDbEntity
  8
0
100
AcDbLine
 10
547.247574
 20
362.936057
 30
0.0
 11
550.076001
 21
360.10763
 31
0.0
  0
ARC
  5
21501
100
AcDbEntity
  8
0
100
AcDbCircle
 10
545.83336
 20
364.350271
 30
0.0
 40
2.0
100
AcDbArc
 50
315.0
 51
45.0
  0
LINE
  5
21502
100
AcDbEntity
  8
0
100
AcDbLine
 10
557.167088
 20
355.491416
 30
0.0
 11
553.945068
 21
358.713436
 31
0.0
  0
LINE
  5
21503
100
AcDbEntity
  8
0
100
AcDbLine
 10
558.561282
 20
355.86499
 30
0.0
 11
557.167088
 21
355.491416
 31
0.0
  0
LINE
  5
21504
100
AcDbEntity
  8
0
100
AcDbLine
 10
554.318641
 20
360.10763
 30
0.0
 11
553.945068
 21
358.713436
 31
0.0
  0
LINE
  5
21505
100
AcDbEntity
  8
0
100
AcDbLine
 10
554.318641
 20
360.10763
 30
0.0
 11
553.611535
 21
360.814737
 31
0.0
  0
ARC
  5
21506
100
AcDbEntity
  8
0
100
AcDbCircle
 10
557.456297
 20
358.235031
 30
0.0
 40
3.54367
100
AcDbArc
 50
97.758785
 51
157.758785
  0
LINE
  5
21507
100
AcDbEntity
  8
0
100
AcDbLine
 10
552.904428
 20
360.10763
 30
0.0
 11
550.076001
 21
360.10763
 31
0.0
  0
ARC
  5
21508
100
AcDbEntity
  8
0
100
AcDbCircle
 10
564.925243
 20
383.442154
 30
0.0
 40
2.0
100
AcDbArc
 50
225.0
 51
315.0
  0
LINE
  5
21509
100
AcDbEntity
  8
0
100
AcDbLine
 10
569.167884
 20
379.199513
 30
0.0
 11
566.339457
 21
382.02794
 31
0.0
  0
LINE
  5
2150A
100
AcDbEntity
  8
0
100
AcDbLine
 10
569.167884
 20
376.371086
 30
0.0
 11
569.167884
 21
379.199513
 31
0.0
  0
LINE
  5
2150B
100
AcDbEntity
  8
0
100
AcDbLine
 10
569.167884
 20
374.956873
 30
0.0
 11
568.460777
 21
375.663979
 31
0.0
  0
LINE
  5
2150C
100
AcDbEntity
  8
0
100
AcDbLine
 10
569.167884
 20
374.956873
 30
0.0
 11
570.562078
 21
375.330446
 31
0.0
  0
ARC
  5
2150D
100
AcDbEntity
  8
0
100
AcDbCircle
 10
570.272869
 20
372.586831
 30
0.0
 40
3.54367
100
AcDbArc
 50
277.758785
 51
337.758785
  0
LINE
  5
2150E
100
AcDbEntity
  8
0
100
AcDbLine
 10
573.410524
 20
370.714232
 30
0.0
 11
573.784098
 21
372.108426
 31
0.0
  0
LINE
  5
2150F
100
AcDbEntity
  8
0
100
AcDbLine
 10
565.174403
 20
369.942771
 30
0.0
 11
567.529255
 21
372.297623
 31
0.0
  0
LINE
  5
21510
100
AcDbEntity
  8
0
100
AcDbLine
 10
570.751275
 20
369.075603
 30
0.0
 11
567.529255
 21
372.297623
 31
0.0
  0
LINE
  5
21511
100
AcDbEntity
  8
0
100
AcDbLine
 10
573.784098
 20
372.108426
 30
0.0
 11
570.562078
 21
375.330446
 31
0.0
  0
ARC
  5
21512
100
AcDbEntity
  8
0
100
AcDbCircle
 10
571.040483
 20
371.819217
 30
0.0
 40
3.54367
100
AcDbArc
 50
112.241215
 51
172.241215
  0
LINE
  5
21513
100
AcDbEntity
  8
0
100
AcDbLine
 10
509.902642
 20
417.872872
 30
0.0
 11
509.902642
 21
407.872872
 31
0.0
  0
LINE
  5
21514
100
AcDbEntity
  8
0
100
AcDbLine
 10
525.902642
 20
417.872872
 30
0.0
 11
525.902642
 21
407.872872
 31
0.0
  0
LINE
  5
21515
100
AcDbEntity
  8
0
100
AcDbLine
 10
537.402642
 20
422.872872
 30
0.0
 11
537.402642
 21
408.136328
 31
0.0
  0
LINE
  5
21516
100
AcDbEntity
  8
0
100
AcDbLine
 10
525.902642
 20
407.872872
 30
0.0
 11
509.902642
 21
407.872872
 31
0.0
  0
LINE
  5
21517
100
AcDbEntity
  8
0
100
AcDbLine
 10
515.202642
 20
390.372872
 30
0.0
 11
524.402642
 21
390.372872
 31
0.0
  0
LINE
  5
21518
100
AcDbEntity
  8
0
100
AcDbLine
 10
514.302642
 20
389.522872
 30
0.0
 11
513.66403
 21
390.628981
 31
0.0
  0
LINE
  5
21519
100
AcDbEntity
  8
0
100
AcDbLine
 10
513.66403
 20
390.628981
 30
0.0
 11
507.902642
 21
390.628981
 31
0.0
  0
LINE
  5
2151A
100
AcDbEntity
  8
0
100
AcDbLine
 10
525.902642
 20
417.872872
 30
0.0
 11
509.902642
 21
417.872872
 31
0.0
  0
LINE
  5
2151B
100
AcDbEntity
  8
0
100
AcDbLine
 10
535.902642
 20
424.372872
 30
0.0
 11
499.902642
 21
424.372872
 31
0.0
  0
LINE
  5
2151C
100
AcDbEntity
  8
0
100
AcDbLine
 10
507.052642
 20
428.114803
 30
0.0
 11
528.752642
 21
428.114803
 31
0.0
  0
LINE
  5
2151D
100
AcDbEntity
  8
0
100
AcDbLine
 10
503.009488
 20
424.372872
 30
0.0
 11
507.052642
 21
428.114803
 31
0.0
  0
LINE
  5
2151E
100
AcDbEntity
  8
0
100
AcDbLine
 10
537.402642
 20
422.872872
 30
0.0
 11
535.902642
 21
424.372872
 31
0.0
  0
LINE
  5
2151F
100
AcDbEntity
  8
0
100
AcDbLine
 10
532.795796
 20
424.372872
 30
0.0
 11
528.752642
 21
428.114803
 31
0.0
  0
LINE
  5
21523
100
AcDbEntity
  8
0
100
AcDbLine
 10
517.902642
 20
459.372872
 30
0.0
 11
565.402642
 21
459.372872
 31
0.0
  0
LINE
  5
21524
100
AcDbEntity
  8
0
100
AcDbLine
 10
507.052642
 20
441.630941
 30
0.0
 11
528.752642
 21
441.630941
 31
0.0
  0
LINE
  5
21525
100
AcDbEntity
  8
0
100
AcDbLine
 10
503.009488
 20
445.372872
 30
0.0
 11
507.052642
 21
441.630941
 31
0.0
  0
LINE
  5
21526
100
AcDbEntity
  8
0
100
AcDbLine
 10
532.795796
 20
445.372872
 30
0.0
 11
528.752642
 21
441.630941
 31
0.0
  0
LINE
  5
21527
100
AcDbEntity
  8
0
100
AcDbLine
 10
565.402642
 20
445.372872
 30
0.0
 11
565.402642
 21
459.372872
 31
0.0
  0
LINE
  5
21529
100
AcDbEntity
  8
0
100
AcDbLine
 10
1110.501325
 20
439.630941
 30
0.0
 11
1110.501325
 21
428.114803
 31
0.0
  0
LINE
  5
2152A
100
AcDbEntity
  8
0
100
AcDbLine
 10
1088.801325
 20
439.630941
 30
0.0
 11
1088.801325
 21
428.114803
 31
0.0
  0
LINE
  5
2152B
100
AcDbEntity
  8
0
100
AcDbLine
 10
1088.801325
 20
428.114803
 30
0.0
 11
1110.501325
 21
428.114803
 31
0.0
  0
LINE
  5
2152C
100
AcDbEntity
  8
0
100
AcDbLine
 10
1117.651325
 20
424.372872
 30
0.0
 11
1081.651325
 21
424.372872
 31
0.0
  0
LINE
  5
2152D
100
AcDbEntity
  8
0
100
AcDbLine
 10
1107.651325
 20
417.872872
 30
0.0
 11
1091.651325
 21
417.872872
 31
0.0
  0
LINE
  5
2152E
100
AcDbEntity
  8
0
100
AcDbLine
 10
1107.651325
 20
407.872872
 30
0.0
 11
1091.651325
 21
407.872872
 31
0.0
  0
LINE
  5
2152F
100
AcDbEntity
  8
0
100
AcDbLine
 10
1095.412713
 20
378.244817
 30
0.0
 11
1089.651325
 21
378.244817
 31
0.0
  0
LINE
  5
21530
100
AcDbEntity
  8
0
100
AcDbLine
 10
1095.412713
 20
374.116763
 30
0.0
 11
1089.651325
 21
374.116763
 31
0.0
  0
LINE
  5
21531
100
AcDbEntity
  8
0
100
AcDbLine
 10
1095.412713
 20
390.628981
 30
0.0
 11
1089.651325
 21
390.628981
 31
0.0
  0
LINE
  5
21532
100
AcDbEntity
  8
0
100
AcDbLine
 10
1095.412713
 20
386.500926
 30
0.0
 11
1089.651325
 21
386.500926
 31
0.0
  0
LINE
  5
21533
100
AcDbEntity
  8
0
100
AcDbLine
 10
1107.651325
 20
350.872872
 30
0.0
 11
1091.651325
 21
350.872872
 31
0.0
  0
LINE
  5
21534
100
AcDbEntity
  8
0
100
AcDbLine
 10
1107.651325
 20
360.872872
 30
0.0
 11
1091.651325
 21
360.872872
 31
0.0
  0
LINE
  5
21538
100
AcDbEntity
  8
0
100
AcDbLine
 10
1076.651325
 20
359.872872
 30
0.0
 11
1076.651325
 21
404.872872
 31
0.0
  0
LINE
  5
21539
100
AcDbEntity
  8
0
100
AcDbLine
 10
1089.651325
 20
362.213675
 30
0.0
 11
1089.651325
 21
402.532069
 31
0.0
  0
LINE
  5
21541
100
AcDbEntity
  8
0
100
AcDbLine
 10
1076.651325
 20
359.872872
 30
0.0
 11
1078.151325
 21
359.872872
 31
0.0
  0
LINE
  5
21543
100
AcDbEntity
  8
0
100
AcDbLine
 10
1091.651325
 20
350.872872
 30
0.0
 11
1091.651325
 21
360.872872
 31
0.0
  0
LINE
  5
21544
100
AcDbEntity
  8
0
100
AcDbLine
 10
1080.151325
 20
359.872872
 30
0.0
 11
1089.651325
 21
362.213675
 31
0.0
  0
ARC
  5
21545
100
AcDbEntity
  8
0
100
AcDbCircle
 10
1078.151325
 20
357.872872
 30
0.0
 40
2.0
100
AcDbArc
 50
0.0
 51
90.0
  0
LINE
  5
21546
100
AcDbEntity
  8
0
100
AcDbLine
 10
1076.651325
 20
362.213675
 30
0.0
 11
1089.651325
 21
362.213675
 31
0.0
  0
LINE
  5
21551
100
AcDbEntity
  8
0
100
AcDbLine
 10
1091.651325
 20
417.872872
 30
0.0
 11
1091.651325
 21
407.872872
 31
0.0
  0
LINE
  5
21552
100
AcDbEntity
  8
0
100
AcDbLine
 10
1080.151325
 20
420.372872
 30
0.0
 11
1080.151325
 21
406.872872
 31
0.0
  0
LINE
  5
21553
100
AcDbEntity
  8
0
100
AcDbLine
 10
1080.151325
 20
422.872872
 30
0.0
 11
1080.151325
 21
406.872872
 31
0.0
  0
LINE
  5
21555
100
AcDbEntity
  8
0
100
AcDbLine
 10
1076.651325
 20
404.872872
 30
0.0
 11
1078.151325
 21
404.872872
 31
0.0
  0
LINE
  5
21557
100
AcDbEntity
  8
0
100
AcDbLine
 10
1080.151325
 20
404.872872
 30
0.0
 11
1089.651325
 21
402.532069
 31
0.0
  0
ARC
  5
21558
100
AcDbEntity
  8
0
100
AcDbCircle
 10
1078.151325
 20
406.872872
 30
0.0
 40
2.0
100
AcDbArc
 50
270.0
 51
0.0
  0
LINE
  5
21559
100
AcDbEntity
  8
0
100
AcDbLine
 10
1076.651325
 20
402.532069
 30
0.0
 11
1089.651325
 21
402.532069
 31
0.0
  0
LINE
  5
2155B
100
AcDbEntity
  8
0
100
AcDbLine
 10
1084.758171
 20
424.372872
 30
0.0
 11
1088.801325
 21
428.114803
 31
0.0
  0
LINE
  5
2155C
100
AcDbEntity
  8
0
100
AcDbLine
 10
1081.651325
 20
424.372872
 30
0.0
 11
1080.151325
 21
422.872872
 31
0.0
  0
LINE
  5
2155D
100
AcDbEntity
  8
0
100
AcDbLine
 10
1096.051325
 20
375.222872
 30
0.0
 11
1096.051325
 21
389.522872
 31
0.0
  0
ARC
  5
2155E
100
AcDbEntity
  8
0
100
AcDbCircle
 10
1092.396498
 20
388.564953
 30
0.0
 40
3.654827
100
AcDbArc
 50
325.615753
 51
34.384247
  0
LINE
  5
2155F
100
AcDbEntity
  8
0
100
AcDbLine
 10
1119.151325
 20
408.136328
 30
0.0
 11
1145.259712
 21
382.02794
 31
0.0
  0
LINE
  5
21560
100
AcDbEntity
  8
0
100
AcDbLine
 10
1150.916567
 20
376.371086
 30
0.0
 11
1134.653111
 21
360.10763
 31
0.0
  0
LINE
  5
21561
100
AcDbEntity
  8
0
100
AcDbLine
 10
1131.824683
 20
360.10763
 30
0.0
 11
1150.916567
 21
379.199513
 31
0.0
  0
LINE
  5
21562
100
AcDbEntity
  8
0
100
AcDbLine
 10
1147.080512
 20
381.020313
 30
0.0
 11
1130.003883
 21
363.943685
 31
0.0
  0
LINE
  5
21563
100
AcDbEntity
  8
0
100
AcDbLine
 10
1144.44654
 20
381.214768
 30
0.0
 11
1129.809429
 21
366.577657
 31
0.0
  0
LINE
  5
21564
100
AcDbEntity
  8
0
100
AcDbLine
 10
1125.979752
 20
368.780989
 30
0.0
 11
1128.996256
 21
365.764484
 31
0.0
  0
ARC
  5
21565
100
AcDbEntity
  8
0
100
AcDbCircle
 10
1123.151325
 20
365.952562
 30
0.0
 40
4.0
100
AcDbArc
 50
45.0
 51
180.0
  0
LINE
  5
21566
100
AcDbEntity
  8
0
100
AcDbLine
 10
1107.651325
 20
350.872872
 30
0.0
 11
1107.651325
 21
360.872872
 31
0.0
  0
LINE
  5
21567
100
AcDbEntity
  8
0
100
AcDbLine
 10
1134.653111
 20
360.10763
 30
0.0
 11
1131.824683
 21
360.10763
 31
0.0
  0
LINE
  5
21568
100
AcDbEntity
  8
0
100
AcDbLine
 10
1128.996256
 20
362.936057
 30
0.0
 11
1131.824683
 21
360.10763
 31
0.0
  0
ARC
  5
21569
100
AcDbEntity
  8
0
100
AcDbCircle
 10
1127.582043
 20
364.350271
 30
0.0
 40
2.0
100
AcDbArc
 50
315.0
 51
45.0
  0
LINE
  5
2156A
100
AcDbEntity
  8
0
100
AcDbLine
 10
1098.451325
 20
374.372872
 30
0.0
 11
1113.651325
 21
374.372872
 31
0.0
  0
ARC
  5
2156B
100
AcDbEntity
  8
0
100
AcDbCircle
 10
1082.389937
 20
382.372872
 30
0.0
 40
13.661388
100
AcDbArc
 50
342.412046
 51
17.587954
  0
ARC
  5
2156C
100
AcDbEntity
  8
0
100
AcDbCircle
 10
1092.396498
 20
376.18079
 30
0.0
 40
3.654827
100
AcDbArc
 50
325.615753
 51
34.384247
  0
LINE
  5
2156D
100
AcDbEntity
  8
0
100
AcDbLine
 10
1096.051325
 20
375.222872
 30
0.0
 11
1095.412713
 21
374.116763
 31
0.0
  0
LINE
  5
2156E
100
AcDbEntity
  8
0
100
AcDbLine
 10
1150.145106
 20
366.720751
 30
0.0
 11
1152.499957
 21
369.075603
 31
0.0
  0
LINE
  5
2156F
100
AcDbEntity
  8
0
100
AcDbLine
 10
1136.067324
 20
360.10763
 30
0.0
 11
1150.916567
 21
374.956873
 31
0.0
  0
LINE
  5
21570
100
AcDbEntity
  8
0
100
AcDbLine
 10
1150.145106
 20
366.720751
 30
0.0
 11
1146.923086
 21
369.942771
 31
0.0
  0
LINE
  5
21571
100
AcDbEntity
  8
0
100
AcDbLine
 10
1140.309965
 20
355.86499
 30
0.0
 11
1155.159207
 21
370.714232
 31
0.0
  0
ARC
  5
21572
100
AcDbEntity
  8
0
100
AcDbCircle
 10
1152.105984
 20
358.918212
 30
0.0
 40
12.182091
100
AcDbArc
 50
115.179294
 51
154.820706
  0
ARC
  5
21573
100
AcDbEntity
  8
0
100
AcDbCircle
 10
1138.437365
 20
359.002645
 30
0.0
 40
3.54367
100
AcDbArc
 50
292.241215
 51
352.241215
  0
LINE
  5
21574
100
AcDbEntity
  8
0
100
AcDbLine
 10
1138.915771
 20
355.491416
 30
0.0
 11
1135.693751
 21
358.713436
 31
0.0
  0
LINE
  5
21575
100
AcDbEntity
  8
0
100
AcDbLine
 10
1140.309965
 20
355.86499
 30
0.0
 11
1138.915771
 21
355.491416
 31
0.0
  0
LINE
  5
21576
100
AcDbEntity
  8
0
100
AcDbLine
 10
1141.948594
 20
358.524239
 30
0.0
 11
1144.303445
 21
360.879091
 31
0.0
  0
LINE
  5
21577
100
AcDbEntity
  8
0
100
AcDbLine
 10
1144.303445
 20
360.879091
 30
0.0
 11
1141.081425
 21
364.101111
 31
0.0
  0
LINE
  5
21578
100
AcDbEntity
  8
0
100
AcDbLine
 10
1141.948594
 20
358.524239
 30
0.0
 11
1138.726574
 21
361.746259
 31
0.0
  0
LINE
  5
21579
100
AcDbEntity
  8
0
100
AcDbLine
 10
1136.067324
 20
360.10763
 30
0.0
 11
1135.693751
 21
358.713436
 31
0.0
  0
LINE
  5
2157A
100
AcDbEntity
  8
0
100
AcDbLine
 10
1136.067324
 20
360.10763
 30
0.0
 11
1135.360217
 21
360.814737
 31
0.0
  0
LINE
  5
2157B
100
AcDbEntity
  8
0
100
AcDbLine
 10
1138.726574
 20
361.746259
 30
0.0
 11
1141.081425
 21
364.101111
 31
0.0
  0
ARC
  5
2157C
100
AcDbEntity
  8
0
100
AcDbCircle
 10
1139.20498
 20
358.235031
 30
0.0
 40
3.54367
100
AcDbArc
 50
97.758785
 51
157.758785
  0
ARC
  5
2157D
100
AcDbEntity
  8
0
100
AcDbCircle
 10
1139.120547
 20
371.90365
 30
0.0
 40
12.182091
100
AcDbArc
 50
295.179294
 51
334.820706
  0
LINE
  5
2157E
100
AcDbEntity
  8
0
100
AcDbLine
 10
1155.53278
 20
372.108426
 30
0.0
 11
1152.31076
 21
375.330446
 31
0.0
  0
ARC
  5
2157F
100
AcDbEntity
  8
0
100
AcDbCircle
 10
1152.789166
 20
371.819217
 30
0.0
 40
3.54367
100
AcDbArc
 50
112.241215
 51
172.241215
  0
LINE
  5
21580
100
AcDbEntity
  8
0
100
AcDbLine
 10
1155.159207
 20
370.714232
 30
0.0
 11
1155.53278
 21
372.108426
 31
0.0
  0
LINE
  5
21581
100
AcDbEntity
  8
0
100
AcDbLine
 10
1146.923086
 20
369.942771
 30
0.0
 11
1149.277937
 21
372.297623
 31
0.0
  0
ARC
  5
21582
100
AcDbEntity
  8
0
100
AcDbCircle
 10
1146.673926
 20
383.442154
 30
0.0
 40
2.0
100
AcDbArc
 50
225.0
 51
315.0
  0
LINE
  5
21583
100
AcDbEntity
  8
0
100
AcDbLine
 10
1150.916567
 20
379.199513
 30
0.0
 11
1148.088139
 21
382.02794
 31
0.0
  0
LINE
  5
21584
100
AcDbEntity
  8
0
100
AcDbLine
 10
1150.916567
 20
376.371086
 30
0.0
 11
1150.916567
 21
379.199513
 31
0.0
  0
LINE
  5
21585
100
AcDbEntity
  8
0
100
AcDbLine
 10
1150.916567
 20
374.956873
 30
0.0
 11
1150.20946
 21
375.663979
 31
0.0
  0
LINE
  5
21586
100
AcDbEntity
  8
0
100
AcDbLine
 10
1150.916567
 20
374.956873
 30
0.0
 11
1152.31076
 21
375.330446
 31
0.0
  0
ARC
  5
21587
100
AcDbEntity
  8
0
100
AcDbCircle
 10
1152.021552
 20
372.586831
 30
0.0
 40
3.54367
100
AcDbArc
 50
277.758785
 51
337.758785
  0
LINE
  5
21588
100
AcDbEntity
  8
0
100
AcDbLine
 10
1152.499957
 20
369.075603
 30
0.0
 11
1149.277937
 21
372.297623
 31
0.0
  0
LINE
  5
21589
100
AcDbEntity
  8
0
100
AcDbLine
 10
1107.651325
 20
417.872872
 30
0.0
 11
1107.651325
 21
407.872872
 31
0.0
  0
LINE
  5
2158A
100
AcDbEntity
  8
0
100
AcDbLine
 10
1119.151325
 20
422.872872
 30
0.0
 11
1119.151325
 21
408.136328
 31
0.0
  0
LINE
  5
2158B
100
AcDbEntity
  8
0
100
AcDbLine
 10
1096.951325
 20
390.372872
 30
0.0
 11
1106.151325
 21
390.372872
 31
0.0
  0
LINE
  5
2158C
100
AcDbEntity
  8
0
100
AcDbLine
 10
1096.051325
 20
389.522872
 30
0.0
 11
1095.412713
 21
390.628981
 31
0.0
  0
LINE
  5
2158D
100
AcDbEntity
  8
0
100
AcDbLine
 10
1114.544479
 20
424.372872
 30
0.0
 11
1110.501325
 21
428.114803
 31
0.0
  0
LINE
  5
2158E
100
AcDbEntity
  8
0
100
AcDbLine
 10
1119.151325
 20
422.872872
 30
0.0
 11
1117.651325
 21
424.372872
 31
0.0
  0
LINE
  5
2158F
100
AcDbEntity
  8
0
100
AcDbLine
 10
1149.651325
 20
443.372872
 30
0.0
 11
1049.651325
 21
443.372872
 31
0.0
  0
LINE
  5
21590
100
AcDbEntity
  8
0
100
AcDbLine
 10
1099.651325
 20
459.372872
 30
0.0
 11
1049.651325
 21
459.372872
 31
0.0
  0
LINE
  5
21591
100
AcDbEntity
  8
0
100
AcDbLine
 10
1088.801325
 20
439.630941
 30
0.0
 11
1110.501325
 21
439.630941
 31
0.0
  0
LINE
  5
21592
100
AcDbEntity
  8
0
100
AcDbLine
 10
1049.651325
 20
443.372872
 30
0.0
 11
1049.651325
 21
459.372872
 31
0.0
  0
LINE
  5
21593
100
AcDbEntity
  8
0
100
AcDbLine
 10
1084.758171
 20
443.372872
 30
0.0
 11
1088.801325
 21
439.630941
 31
0.0
  0
LINE
  5
21598
100
AcDbEntity
  8
0
100
AcDbLine
 10
1149.651325
 20
459.372872
 30
0.0
 11
1099.651325
 21
459.372872
 31
0.0
  0
LINE
  5
21599
100
AcDbEntity
  8
0
100
AcDbLine
 10
1114.544479
 20
443.372872
 30
0.0
 11
1110.501325
 21
439.630941
 31
0.0
  0
POLYLINE
  5
2159C
100
AcDbEntity
  8
0
100
AcDb2dPolyline
 66
     1
 10
0.0
 20
0.0
 30
0.0
  0
VERTEX
  5
23500
100
AcDbEntity
  8
0
100
AcDbVertex
100
AcDb2dVertex
 10
565.985903
 20
648.562999
 30
0.0
 42
-0.133256
  0
VERTEX
  5
23501
100
AcDbEntity
  8
0
100
AcDbVertex
100
AcDb2dVertex
 10
568.810948
 20
647.796479
 30
0.0
 42
-0.106756
  0
VERTEX
  5
23502
100
AcDbEntity
  8
0
100
AcDbVertex
100
AcDb2dVertex
 10
571.485903
 20
645.341174
 30
0.0
 42
-0.082828
  0
VERTEX
  5
23503
100
AcDbEntity
  8
0
100
AcDbVertex
100
AcDb2dVertex
 10
573.139038
 20
641.920688
 30
0.0
 42
-0.071352
  0
VERTEX
  5
23504
100
AcDbEntity
  8
0
100
AcDbVertex
100
AcDb2dVertex
 10
573.764078
 20
637.562999
 30
0.0
 42
-0.071352
  0
VERTEX
  5
23505
100
AcDbEntity
  8
0
100
AcDbVertex
100
AcDb2dVertex
 10
573.139038
 20
633.205311
 30
0.0
 42
-0.082828
  0
VERTEX
  5
23506
100
AcDbEntity
  8
0
100
AcDbVertex
100
AcDb2dVertex
 10
571.485903
 20
629.784825
 30
0.0
 42
-0.106756
  0
VERTEX
  5
23507
100
AcDbEntity
  8
0
100
AcDbVertex
100
AcDb2dVertex
 10
568.810948
 20
627.32952
 30
0.0
 42
-0.133256
  0
VERTEX
  5
23508
100
AcDbEntity
  8
0
100
AcDbVertex
100
AcDb2dVertex
 10
565.985903
 20
626.562999
 30
0.0
 42
-0.097633
  0
SEQEND
  5
23509
100
AcDbEntity
  8
0
  0
ELLIPSE
  5
2159D
100
AcDbEntity
  8
0
100
AcDbEllipse
 10
559.621942
 20
637.562999
 30
0.0
 11
-0.0000000000000025
 21
-13.5
 31
0.0
210
0.0
220
0.0
230
-1.0
 40
0.707107
 41
3.598251669642873
 42
5.826526291125631
  0
ARC
  5
2159E
100
AcDbEntity
  8
0
100
AcDbCircle
 10
560.846921
 20
633.693968
 30
0.0
 40
8.088356
100
AcDbArc
 50
308.201734
 51
319.915384
  0
LINE
  5
2159F
100
AcDbEntity
  8
0
100
AcDbLine
 10
565.985903
 20
626.562999
 30
0.0
 11
565.131872
 21
626.562999
 31
0.0
  0
LINE
  5
215A0
100
AcDbEntity
  8
0
100
AcDbLine
 10
565.985903
 20
648.562999
 30
0.0
 11
565.131872
 21
648.562999
 31
0.0
  0
LINE
  5
215A1
100
AcDbEntity
  8
0
100
AcDbLine
 10
569.956107
 20
639.485727
 30
0.0
 11
567.035276
 21
646.640271
 31
0.0
  0
ARC
  5
215A2
100
AcDbEntity
  8
0
100
AcDbCircle
 10
550.681019
 20
637.562999
 30
0.0
 40
19.370748
100
AcDbArc
 50
354.303478
 51
5.696522
  0
LINE
  5
215A3
100
AcDbEntity
  8
0
100
AcDbLine
 10
567.035276
 20
646.640271
 30
0.0
 11
570.356262
 21
646.640271
 31
0.0
  0
LINE
  5
215A4
100
AcDbEntity
  8
0
100
AcDbLine
 10
567.035276
 20
628.485727
 30
0.0
 11
570.356262
 21
628.485727
 31
0.0
  0
LINE
  5
215A5
100
AcDbEntity
  8
0
100
AcDbLine
 10
569.956107
 20
635.640271
 30
0.0
 11
567.035276
 21
628.485727
 31
0.0
  0
LINE
  5
215A6
100
AcDbEntity
  8
0
100
AcDbLine
 10
569.956107
 20
635.640271
 30
0.0
 11
573.644386
 21
635.640271
 31
0.0
  0
LINE
  5
215A7
100
AcDbEntity
  8
0
100
AcDbLine
 10
569.956107
 20
639.485727
 30
0.0
 11
573.644386
 21
639.485727
 31
0.0
  0
ARC
  5
215A8
100
AcDbEntity
  8
0
100
AcDbCircle
 10
560.846921
 20
641.432031
 30
0.0
 40
8.088356
100
AcDbArc
 50
40.084616
 51
51.798266
  0
ELLIPSE
  5
215A9
100
AcDbEntity
  8
0
100
AcDbEllipse
 10
556.793515
 20
637.562999
 30
0.0
 11
-0.0000000000000025
 21
-13.5
 31
0.0
210
0.0
220
0.0
230
-1.0
 40
0.707107
 41
4.145472829373707
 42
5.279305131395456
  0
CIRCLE
  5
215AA
100
AcDbEntity
  8
0
100
AcDbCircle
 10
542.65138
 20
662.072228
 30
0.0
 40
7.5
  0
CIRCLE
  5
215B6
100
AcDbEntity
  8
0
100
AcDbCircle
 10
1073.134821
 20
663.839995
 30
0.0
 40
7.5
  0
CIRCLE
  5
215BD
100
AcDbEntity
  8
0
100
AcDbCircle
 10
1126.167829
 20
663.839995
 30
0.0
 40
7.5
  0
LINE
  5
215BE
100
AcDbEntity
  8
0
100
AcDbLine
 10
1914.389653
 20
428.114803
 30
0.0
 11
1892.689653
 21
428.114803
 31
0.0
  0
LINE
  5
215BF
100
AcDbEntity
  8
0
100
AcDbLine
 10
1914.389653
 20
444.630941
 30
0.0
 11
1892.689653
 21
444.630941
 31
0.0
  0
LINE
  5
215C0
100
AcDbEntity
  8
0
100
AcDbLine
 10
1841.039653
 20
464.372872
 30
0.0
 11
1903.539653
 21
464.372872
 31
0.0
  0
LINE
  5
215C1
100
AcDbEntity
  8
0
100
AcDbLine
 10
1841.039653
 20
448.372872
 30
0.0
 11
1966.039653
 21
448.372872
 31
0.0
  0
ELLIPSE
  5
215C2
100
AcDbEntity
  8
0
100
AcDbEllipse
 10
1903.539653
 20
400.0046
 30
0.0
 11
-11.5
 21
0.0
 31
0.0
210
0.0
220
0.0
230
1.0
 40
0.707107
 41
3.141592653589793
 42
6.283185307179586
  0
LINE
  5
215C3
100
AcDbEntity
  8
0
100
AcDbLine
 10
1885.539653
 20
424.372872
 30
0.0
 11
1921.539653
 21
424.372872
 31
0.0
  0
POLYLINE
  5
215C4
100
AcDbEntity
  8
0
100
AcDb2dPolyline
 66
     1
 10
0.0
 20
0.0
 30
0.0
  0
VERTEX
  5
2350A
100
AcDbEntity
  8
0
100
AcDbVertex
100
AcDb2dVertex
 10
1895.585898
 20
369.405176
 30
0.0
  0
VERTEX
  5
2350B
100
AcDbEntity
  8
0
100
AcDbVertex
100
AcDb2dVertex
 10
1901.220914
 20
371.43473
 30
0.0
  0
SEQEND
  5
2350C
100
AcDbEntity
  8
0
  0
POLYLINE
  5
215C5
100
AcDbEntity
  8
0
100
AcDb2dPolyline
 66
     1
 10
0.0
 20
0.0
 30
0.0
  0
VERTEX
  5
2350D
100
AcDbEntity
  8
0
100
AcDbVertex
100
AcDb2dVertex
 10
1895.585898
 20
371.526497
 30
0.0
  0
VERTEX
  5
2350E
100
AcDbEntity
  8
0
100
AcDbVertex
100
AcDb2dVertex
 10
1901.220914
 20
373.556051
 30
0.0
  0
SEQEND
  5
2350F
100
AcDbEntity
  8
0
  0
POLYLINE
  5
215C6
100
AcDbEntity
  8
0
100
AcDb2dPolyline
 66
     1
 10
0.0
 20
0.0
 30
0.0
  0
VERTEX
  5
23510
100
AcDbEntity
  8
0
100
AcDbVertex
100
AcDb2dVertex
 10
1901.220914
 20
373.556051
 30
0.0
  0
VERTEX
  5
23511
100
AcDbEntity
  8
0
100
AcDbVertex
100
AcDb2dVertex
 10
1895.585898
 20
371.526497
 30
0.0
  0
SEQEND
  5
23512
100
AcDbEntity
  8
0
  0
POLYLINE
  5
215C7
100
AcDbEntity
  8
0
100
AcDb2dPolyline
 66
     1
 10
0.0
 20
0.0
 30
0.0
  0
VERTEX
  5
23513
100
AcDbEntity
  8
0
100
AcDbVertex
100
AcDb2dVertex
 10
1901.220914
 20
371.43473
 30
0.0
  0
VERTEX
  5
23514
100
AcDbEntity
  8
0
100
AcDbVertex
100
AcDb2dVertex
 10
1895.585898
 20
369.405176
 30
0.0
  0
SEQEND
  5
23515
100
AcDbEntity
  8
0
  0
POLYLINE
  5
215C8
100
AcDbEntity
  8
0
100
AcDb2dPolyline
 66
     1
 10
0.0
 20
0.0
 30
0.0
  0
VERTEX
  5
23516
100
AcDbEntity
  8
0
100
AcDbVertex
100
AcDb2dVertex
 10
1895.585898
 20
357.174045
 30
0.0
  0
VERTEX
  5
23517
100
AcDbEntity
  8
0
100
AcDbVertex
100
AcDb2dVertex
 10
1901.220914
 20
355.144491
 30
0.0
  0
SEQEND
  5
23518
100
AcDbEntity
  8
0
  0
ELLIPSE
  5
215C9
100
AcDbEntity
  8
0
100
AcDbEllipse
 10
1903.539653
 20
368.239358
 30
0.0
 11
11.5
 21
0.0
 31
0.0
210
0.0
220
0.0
230
-1.0
 40
0.707107
 41
2.845629732092404
 42
6.579148228677147
  0
ELLIPSE
  5
215CA
100
AcDbEntity
  8
0
100
AcDbEllipse
 10
1903.539653
 20
363.289611
 30
0.0
 11
-10.5
 21
0.0
 31
0.0
210
0.0
220
0.0
230
1.0
 40
0.707107
 41
0.0
 42
6.283185307179586
  0
ELLIPSE
  5
215CB
100
AcDbEntity
  8
0
100
AcDbEllipse
 10
1903.539653
 20
372.481999
 30
0.0
 11
-13.5
 21
0.0
 31
0.0
210
0.0
220
0.0
230
1.0
 40
0.707107
 41
3.141592653589793
 42
6.283185307179586
  0
ELLIPSE
  5
215CC
100
AcDbEntity
  8
0
100
AcDbEllipse
 10
1903.539653
 20
369.653572
 30
0.0
 11
-13.5
 21
0.0
 31
0.0
210
0.0
220
0.0
230
1.0
 40
0.707107
 41
2.5232060117038
 42
6.901571949065703
  0
CIRCLE
  5
215CD
100
AcDbEntity
  8
0
100
AcDbCircle
 10
1763.549062
 20
605.503686
 30
0.0
 40
9.5
  0
CIRCLE
  5
215CE
100
AcDbEntity
  8
0
100
AcDbCircle
 10
1699.909451
 20
605.503686
 30
0.0
 40
9.5
  0
CIRCLE
  5
215CF
100
AcDbEntity
  8
0
100
AcDbCircle
 10
1731.729257
 20
637.323491
 30
0.0
 40
62.5
  0
LINE
  5
215D2
100
AcDbEntity
  8
0
100
AcDbLine
 10
1794.229257
 20
448.372872
 30
0.0
 11
1669.229257
 21
448.372872
 31
0.0
  0
LINE
  5
215D3
100
AcDbEntity
  8
0
100
AcDbLine
 10
1794.229257
 20
464.372872
 30
0.0
 11
1731.729257
 21
464.372872
 31
0.0
  0
ARC
  5
215D4
100
AcDbEntity
  8
0
100
AcDbCircle
 10
1755.229257
 20
365.952562
 30
0.0
 40
4.0
100
AcDbArc
 50
45.0
 51
180.0
  0
LINE
  5
215D5
100
AcDbEntity
  8
0
100
AcDbLine
 10
1751.229257
 20
408.136328
 30
0.0
 11
1777.337644
 21
382.02794
 31
0.0
  0
LINE
  5
215D6
100
AcDbEntity
  8
0
100
AcDbLine
 10
1742.579257
 20
444.630941
 30
0.0
 11
1742.579257
 21
428.114803
 31
0.0
  0
LINE
  5
215D7
100
AcDbEntity
  8
0
100
AcDbLine
 10
1720.879257
 20
444.630941
 30
0.0
 11
1720.879257
 21
428.114803
 31
0.0
  0
LINE
  5
215DD
100
AcDbEntity
  8
0
100
AcDbLine
 10
1728.129257
 20
375.222872
 30
0.0
 11
1728.129257
 21
389.522872
 31
0.0
  0
ARC
  5
215DE
100
AcDbEntity
  8
0
100
AcDbCircle
 10
1724.47443
 20
388.564953
 30
0.0
 40
3.654827
100
AcDbArc
 50
325.615753
 51
34.384247
  0
LINE
  5
215DF
100
AcDbEntity
  8
0
100
AcDbLine
 10
1721.729257
 20
362.213675
 30
0.0
 11
1721.729257
 21
402.532069
 31
0.0
  0
LINE
  5
215E1
100
AcDbEntity
  8
0
100
AcDbLine
 10
1708.729257
 20
359.872872
 30
0.0
 11
1708.729257
 21
404.872872
 31
0.0
  0
LINE
  5
215E6
100
AcDbEntity
  8
0
100
AcDbLine
 10
1712.229257
 20
359.872872
 30
0.0
 11
1721.729257
 21
362.213675
 31
0.0
  0
LINE
  5
215E7
100
AcDbEntity
  8
0
100
AcDbLine
 10
1708.729257
 20
362.213675
 30
0.0
 11
1721.729257
 21
362.213675
 31
0.0
  0
LINE
  5
215EC
100
AcDbEntity
  8
0
100
AcDbLine
 10
1708.729257
 20
359.872872
 30
0.0
 11
1710.229257
 21
359.872872
 31
0.0
  0
ARC
  5
215EE
100
AcDbEntity
  8
0
100
AcDbCircle
 10
1710.229257
 20
357.872872
 30
0.0
 40
2.0
100
AcDbArc
 50
0.0
 51
90.0
  0
LINE
  5
215F6
100
AcDbEntity
  8
0
100
AcDbLine
 10
1739.729257
 20
350.872872
 30
0.0
 11
1723.729257
 21
350.872872
 31
0.0
  0
LINE
  5
215F7
100
AcDbEntity
  8
0
100
AcDbLine
 10
1739.729257
 20
360.872872
 30
0.0
 11
1723.729257
 21
360.872872
 31
0.0
  0
LINE
  5
215F8
100
AcDbEntity
  8
0
100
AcDbLine
 10
1723.729257
 20
350.872872
 30
0.0
 11
1723.729257
 21
360.872872
 31
0.0
  0
LINE
  5
215F9
100
AcDbEntity
  8
0
100
AcDbLine
 10
1739.729257
 20
350.872872
 30
0.0
 11
1739.729257
 21
360.872872
 31
0.0
  0
LINE
  5
215FA
100
AcDbEntity
  8
0
100
AcDbLine
 10
1730.529257
 20
374.372872
 30
0.0
 11
1745.729257
 21
374.372872
 31
0.0
  0
ARC
  5
215FB
100
AcDbEntity
  8
0
100
AcDbCircle
 10
1714.467869
 20
382.372872
 30
0.0
 40
13.661388
100
AcDbArc
 50
342.412046
 51
17.587954
  0
ARC
  5
215FC
100
AcDbEntity
  8
0
100
AcDbCircle
 10
1724.47443
 20
376.18079
 30
0.0
 40
3.654827
100
AcDbArc
 50
325.615753
 51
34.384247
  0
LINE
  5
215FD
100
AcDbEntity
  8
0
100
AcDbLine
 10
1728.129257
 20
375.222872
 30
0.0
 11
1727.490644
 21
374.116763
 31
0.0
  0
LINE
  5
215FE
100
AcDbEntity
  8
0
100
AcDbLine
 10
1727.490644
 20
378.244817
 30
0.0
 11
1721.729257
 21
378.244817
 31
0.0
  0
LINE
  5
215FF
100
AcDbEntity
  8
0
100
AcDbLine
 10
1727.490644
 20
374.116763
 30
0.0
 11
1721.729257
 21
374.116763
 31
0.0
  0
LINE
  5
21600
100
AcDbEntity
  8
0
100
AcDbLine
 10
1727.490644
 20
386.500926
 30
0.0
 11
1721.729257
 21
386.500926
 31
0.0
  0
LINE
  5
21601
100
AcDbEntity
  8
0
100
AcDbLine
 10
1712.229257
 20
404.872872
 30
0.0
 11
1721.729257
 21
402.532069
 31
0.0
  0
LINE
  5
21602
100
AcDbEntity
  8
0
100
AcDbLine
 10
1708.729257
 20
402.532069
 30
0.0
 11
1721.729257
 21
402.532069
 31
0.0
  0
LINE
  5
21603
100
AcDbEntity
  8
0
100
AcDbLine
 10
1749.729257
 20
424.372872
 30
0.0
 11
1713.729257
 21
424.372872
 31
0.0
  0
LINE
  5
21604
100
AcDbEntity
  8
0
100
AcDbLine
 10
1712.229257
 20
420.372872
 30
0.0
 11
1712.229257
 21
406.872872
 31
0.0
  0
LINE
  5
21605
100
AcDbEntity
  8
0
100
AcDbLine
 10
1712.229257
 20
422.872872
 30
0.0
 11
1712.229257
 21
406.872872
 31
0.0
  0
LINE
  5
21609
100
AcDbEntity
  8
0
100
AcDbLine
 10
1708.729257
 20
404.872872
 30
0.0
 11
1710.229257
 21
404.872872
 31
0.0
  0
ARC
  5
2160B
100
AcDbEntity
  8
0
100
AcDbCircle
 10
1710.229257
 20
406.872872
 30
0.0
 40
2.0
100
AcDbArc
 50
270.0
 51
0.0
  0
LINE
  5
2160D
100
AcDbEntity
  8
0
100
AcDbLine
 10
1713.729257
 20
424.372872
 30
0.0
 11
1712.229257
 21
422.872872
 31
0.0
  0
LINE
  5
2160E
100
AcDbEntity
  8
0
100
AcDbLine
 10
1751.229257
 20
422.872872
 30
0.0
 11
1751.229257
 21
408.136328
 31
0.0
  0
LINE
  5
2160F
100
AcDbEntity
  8
0
100
AcDbLine
 10
1739.729257
 20
417.872872
 30
0.0
 11
1739.729257
 21
407.872872
 31
0.0
  0
LINE
  5
21610
100
AcDbEntity
  8
0
100
AcDbLine
 10
1723.729257
 20
417.872872
 30
0.0
 11
1723.729257
 21
407.872872
 31
0.0
  0
LINE
  5
21611
100
AcDbEntity
  8
0
100
AcDbLine
 10
1729.029257
 20
390.372872
 30
0.0
 11
1738.229257
 21
390.372872
 31
0.0
  0
LINE
  5
21612
100
AcDbEntity
  8
0
100
AcDbLine
 10
1739.729257
 20
407.872872
 30
0.0
 11
1723.729257
 21
407.872872
 31
0.0
  0
LINE
  5
21613
100
AcDbEntity
  8
0
100
AcDbLine
 10
1728.129257
 20
389.522872
 30
0.0
 11
1727.490644
 21
390.628981
 31
0.0
  0
LINE
  5
21614
100
AcDbEntity
  8
0
100
AcDbLine
 10
1727.490644
 20
390.628981
 30
0.0
 11
1721.729257
 21
390.628981
 31
0.0
  0
LINE
  5
21615
100
AcDbEntity
  8
0
100
AcDbLine
 10
1720.879257
 20
428.114803
 30
0.0
 11
1742.579257
 21
428.114803
 31
0.0
  0
LINE
  5
21616
100
AcDbEntity
  8
0
100
AcDbLine
 10
1739.729257
 20
417.872872
 30
0.0
 11
1723.729257
 21
417.872872
 31
0.0
  0
LINE
  5
21617
100
AcDbEntity
  8
0
100
AcDbLine
 10
1716.836102
 20
424.372872
 30
0.0
 11
1720.879257
 21
428.114803
 31
0.0
  0
LINE
  5
21618
100
AcDbEntity
  8
0
100
AcDbLine
 10
1751.229257
 20
422.872872
 30
0.0
 11
1749.729257
 21
424.372872
 31
0.0
  0
LINE
  5
21619
100
AcDbEntity
  8
0
100
AcDbLine
 10
1746.622411
 20
424.372872
 30
0.0
 11
1742.579257
 21
428.114803
 31
0.0
  0
LINE
  5
2161A
100
AcDbEntity
  8
0
100
AcDbLine
 10
1731.729257
 20
464.372872
 30
0.0
 11
1669.229257
 21
464.372872
 31
0.0
  0
LINE
  5
2161B
100
AcDbEntity
  8
0
100
AcDbLine
 10
1669.229257
 20
464.372872
 30
0.0
 11
1669.229257
 21
448.372872
 31
0.0
  0
LINE
  5
2161F
100
AcDbEntity
  8
0
100
AcDbLine
 10
1720.879257
 20
444.630941
 30
0.0
 11
1742.579257
 21
444.630941
 31
0.0
  0
LINE
  5
21620
100
AcDbEntity
  8
0
100
AcDbLine
 10
1716.836102
 20
448.372872
 30
0.0
 11
1720.879257
 21
444.630941
 31
0.0
  0
LINE
  5
21621
100
AcDbEntity
  8
0
100
AcDbLine
 10
1746.622411
 20
448.372872
 30
0.0
 11
1742.579257
 21
444.630941
 31
0.0
  0
LINE
  5
21622
100
AcDbEntity
  8
0
100
AcDbLine
 10
1892.689653
 20
444.630941
 30
0.0
 11
1892.689653
 21
428.114803
 31
0.0
  0
LINE
  5
21623
100
AcDbEntity
  8
0
100
AcDbLine
 10
1782.223038
 20
366.720751
 30
0.0
 11
1784.577889
 21
369.075603
 31
0.0
  0
LINE
  5
21624
100
AcDbEntity
  8
0
100
AcDbLine
 10
1782.223038
 20
366.720751
 30
0.0
 11
1779.001018
 21
369.942771
 31
0.0
  0
LINE
  5
21625
100
AcDbEntity
  8
0
100
AcDbLine
 10
1758.057684
 20
368.780989
 30
0.0
 11
1761.074188
 21
365.764484
 31
0.0
  0
LINE
  5
21626
100
AcDbEntity
  8
0
100
AcDbLine
 10
1776.524471
 20
381.214768
 30
0.0
 11
1761.887361
 21
366.577657
 31
0.0
  0
LINE
  5
21627
100
AcDbEntity
  8
0
100
AcDbLine
 10
1782.994498
 20
376.371086
 30
0.0
 11
1766.731042
 21
360.10763
 31
0.0
  0
LINE
  5
21628
100
AcDbEntity
  8
0
100
AcDbLine
 10
1768.145256
 20
360.10763
 30
0.0
 11
1782.994498
 21
374.956873
 31
0.0
  0
LINE
  5
21629
100
AcDbEntity
  8
0
100
AcDbLine
 10
1772.387896
 20
355.86499
 30
0.0
 11
1787.237139
 21
370.714232
 31
0.0
  0
LINE
  5
2162A
100
AcDbEntity
  8
0
100
AcDbLine
 10
1763.902615
 20
360.10763
 30
0.0
 11
1782.994498
 21
379.199513
 31
0.0
  0
ARC
  5
2162B
100
AcDbEntity
  8
0
100
AcDbCircle
 10
1784.183916
 20
358.918212
 30
0.0
 40
12.182091
100
AcDbArc
 50
115.179294
 51
154.820706
  0
LINE
  5
2162C
100
AcDbEntity
  8
0
100
AcDbLine
 10
1779.158444
 20
381.020313
 30
0.0
 11
1762.081815
 21
363.943685
 31
0.0
  0
ARC
  5
2162D
100
AcDbEntity
  8
0
100
AcDbCircle
 10
1771.198479
 20
371.90365
 30
0.0
 40
12.182091
100
AcDbArc
 50
295.179294
 51
334.820706
  0
ARC
  5
2162E
100
AcDbEntity
  8
0
100
AcDbCircle
 10
1770.515297
 20
359.002645
 30
0.0
 40
3.54367
100
AcDbArc
 50
292.241215
 51
352.241215
  0
LINE
  5
2162F
100
AcDbEntity
  8
0
100
AcDbLine
 10
1770.993703
 20
355.491416
 30
0.0
 11
1767.771683
 21
358.713436
 31
0.0
  0
LINE
  5
21630
100
AcDbEntity
  8
0
100
AcDbLine
 10
1772.387896
 20
355.86499
 30
0.0
 11
1770.993703
 21
355.491416
 31
0.0
  0
LINE
  5
21631
100
AcDbEntity
  8
0
100
AcDbLine
 10
1774.026526
 20
358.524239
 30
0.0
 11
1776.381377
 21
360.879091
 31
0.0
  0
LINE
  5
21632
100
AcDbEntity
  8
0
100
AcDbLine
 10
1776.381377
 20
360.879091
 30
0.0
 11
1773.159357
 21
364.101111
 31
0.0
  0
LINE
  5
21633
100
AcDbEntity
  8
0
100
AcDbLine
 10
1774.026526
 20
358.524239
 30
0.0
 11
1770.804506
 21
361.746259
 31
0.0
  0
LINE
  5
21634
100
AcDbEntity
  8
0
100
AcDbLine
 10
1768.145256
 20
360.10763
 30
0.0
 11
1767.771683
 21
358.713436
 31
0.0
  0
LINE
  5
21635
100
AcDbEntity
  8
0
100
AcDbLine
 10
1768.145256
 20
360.10763
 30
0.0
 11
1767.438149
 21
360.814737
 31
0.0
  0
LINE
  5
21636
100
AcDbEntity
  8
0
100
AcDbLine
 10
1770.804506
 20
361.746259
 30
0.0
 11
1773.159357
 21
364.101111
 31
0.0
  0
ARC
  5
21637
100
AcDbEntity
  8
0
100
AcDbCircle
 10
1771.282911
 20
358.235031
 30
0.0
 40
3.54367
100
AcDbArc
 50
97.758785
 51
157.758785
  0
LINE
  5
21638
100
AcDbEntity
  8
0
100
AcDbLine
 10
1766.731042
 20
360.10763
 30
0.0
 11
1763.902615
 21
360.10763
 31
0.0
  0
LINE
  5
21639
100
AcDbEntity
  8
0
100
AcDbLine
 10
1761.074188
 20
362.936057
 30
0.0
 11
1763.902615
 21
360.10763
 31
0.0
  0
ARC
  5
2163A
100
AcDbEntity
  8
0
100
AcDbCircle
 10
1759.659974
 20
364.350271
 30
0.0
 40
2.0
100
AcDbArc
 50
315.0
 51
45.0
  0
ARC
  5
2163B
100
AcDbEntity
  8
0
100
AcDbCircle
 10
1778.751857
 20
383.442154
 30
0.0
 40
2.0
100
AcDbArc
 50
225.0
 51
315.0
  0
ARC
  5
2163C
100
AcDbEntity
  8
0
100
AcDbCircle
 10
1784.867098
 20
371.819217
 30
0.0
 40
3.54367
100
AcDbArc
 50
112.241215
 51
172.241215
  0
LINE
  5
2163D
100
AcDbEntity
  8
0
100
AcDbLine
 10
1782.994498
 20
379.199513
 30
0.0
 11
1780.166071
 21
382.02794
 31
0.0
  0
LINE
  5
2163E
100
AcDbEntity
  8
0
100
AcDbLine
 10
1782.994498
 20
374.956873
 30
0.0
 11
1782.287391
 21
375.663979
 31
0.0
  0
LINE
  5
2163F
100
AcDbEntity
  8
0
100
AcDbLine
 10
1784.577889
 20
369.075603
 30
0.0
 11
1781.355869
 21
372.297623
 31
0.0
  0
LINE
  5
21640
100
AcDbEntity
  8
0
100
AcDbLine
 10
1787.610712
 20
372.108426
 30
0.0
 11
1784.388692
 21
375.330446
 31
0.0
  0
LINE
  5
21641
100
AcDbEntity
  8
0
100
AcDbLine
 10
1787.237139
 20
370.714232
 30
0.0
 11
1787.610712
 21
372.108426
 31
0.0
  0
LINE
  5
21642
100
AcDbEntity
  8
0
100
AcDbLine
 10
1782.994498
 20
376.371086
 30
0.0
 11
1782.994498
 21
379.199513
 31
0.0
  0
LINE
  5
21643
100
AcDbEntity
  8
0
100
AcDbLine
 10
1782.994498
 20
374.956873
 30
0.0
 11
1784.388692
 21
375.330446
 31
0.0
  0
ARC
  5
21644
100
AcDbEntity
  8
0
100
AcDbCircle
 10
1784.099483
 20
372.586831
 30
0.0
 40
3.54367
100
AcDbArc
 50
277.758785
 51
337.758785
  0
LINE
  5
21645
100
AcDbEntity
  8
0
100
AcDbLine
 10
1779.001018
 20
369.942771
 30
0.0
 11
1781.355869
 21
372.297623
 31
0.0
  0
POLYLINE
  5
21646
100
AcDbEntity
  8
0
100
AcDb2dPolyline
 66
     1
 10
0.0
 20
0.0
 30
0.0
 70
     1
  0
VERTEX
  5
23519
100
AcDbEntity
  8
0
100
AcDbVertex
100
AcDb2dVertex
 10
1885.190717
 20
386.500389
 30
0.0
  0
VERTEX
  5
2351A
100
AcDbEntity
  8
0
100
AcDbVertex
100
AcDb2dVertex
 10
1878.040717
 20
390.628443
 30
0.0
  0
VERTEX
  5
2351B
100
AcDbEntity
  8
0
100
AcDbVertex
100
AcDb2dVertex
 10
1870.890717
 20
386.500389
 30
0.0
  0
VERTEX
  5
2351C
100
AcDbEntity
  8
0
100
AcDbVertex
100
AcDb2dVertex
 10
1870.890717
 20
378.24428
 30
0.0
  0
VERTEX
  5
2351D
100
AcDbEntity
  8
0
100
AcDbVertex
100
AcDb2dVertex
 10
1878.040717
 20
374.116225
 30
0.0
  0
VERTEX
  5
2351E
100
AcDbEntity
  8
0
100
AcDbVertex
100
AcDb2dVertex
 10
1885.190717
 20
378.24428
 30
0.0
  0
SEQEND
  5
2351F
100
AcDbEntity
  8
0
  0
LINE
  5
21647
100
AcDbEntity
  8
0
100
AcDbLine
 10
1892.039653
 20
377.481999
 30
0.0
 11
1892.039653
 21
400.0046
 31
0.0
  0
CIRCLE
  5
21648
100
AcDbEntity
  8
0
100
AcDbCircle
 10
1878.040717
 20
382.372334
 30
0.0
 40
6.750069
  0
LINE
  5
21649
100
AcDbEntity
  8
0
100
AcDbLine
 10
1869.039653
 20
368.372872
 30
0.0
 11
1869.039653
 21
396.372872
 31
0.0
  0
LINE
  5
2164A
100
AcDbEntity
  8
0
100
AcDbLine
 10
1869.039653
 20
368.372872
 30
0.0
 11
1869.039653
 21
396.372872
 31
0.0
  0
ARC
  5
2164B
100
AcDbEntity
  8
0
100
AcDbCircle
 10
1903.539653
 20
382.372872
 30
0.0
 40
33.5
100
AcDbArc
 50
125.597645
 51
234.402355
  0
ARC
  5
2164C
100
AcDbEntity
  8
0
100
AcDbCircle
 10
1892.039653
 20
362.559163
 30
0.0
 40
8.0
100
AcDbArc
 50
135.0
 51
180.0
  0
ARC
  5
2164D
100
AcDbEntity
  8
0
100
AcDbCircle
 10
1870.039653
 20
368.372872
 30
0.0
 40
1.0
100
AcDbArc
 50
180.0
 51
270.0
  0
ARC
  5
2164E
100
AcDbEntity
  8
0
100
AcDbCircle
 10
1870.039653
 20
368.372872
 30
0.0
 40
1.0
100
AcDbArc
 50
180.0
 51
270.0
  0
ELLIPSE
  5
2164F
100
AcDbEntity
  8
0
100
AcDbEllipse
 10
1903.539653
 20
363.289611
 30
0.0
 11
11.75
 21
0.0
 31
0.0
210
0.0
220
0.0
230
1.0
 40
0.707107
 41
2.314360047727349
 42
2.782369524304982
  0
POLYLINE
  5
21650
100
AcDbEntity
  8
0
100
AcDb2dPolyline
 66
     1
 10
0.0
 20
0.0
 30
0.0
  0
VERTEX
  5
23520
100
AcDbEntity
  8
0
100
AcDbVertex
100
AcDb2dVertex
 10
1892.539653
 20
368.331761
 30
0.0
  0
VERTEX
  5
23521
100
AcDbEntity
  8
0
100
AcDbVertex
100
AcDb2dVertex
 10
1892.539653
 20
360.36878
 30
0.0
  0
SEQEND
  5
23522
100
AcDbEntity
  8
0
  0
LINE
  5
21652
100
AcDbEntity
  8
0
100
AcDbLine
 10
1870.039653
 20
367.372872
 30
0.0
 11
1871.7867
 21
367.372872
 31
0.0
  0
ARC
  5
21653
100
AcDbEntity
  8
0
100
AcDbCircle
 10
1871.7867
 20
364.372872
 30
0.0
 40
3.0
100
AcDbArc
 50
29.547878
 51
90.0
  0
ARC
  5
21654
100
AcDbEntity
  8
0
100
AcDbCircle
 10
1871.7867
 20
364.372872
 30
0.0
 40
3.0
100
AcDbArc
 50
29.547878
 51
90.0
  0
LINE
  5
21655
100
AcDbEntity
  8
0
100
AcDbLine
 10
1870.039653
 20
367.372872
 30
0.0
 11
1871.7867
 21
367.372872
 31
0.0
  0
ARC
  5
21656
100
AcDbEntity
  8
0
100
AcDbCircle
 10
1885.040136
 20
359.873399
 30
0.0
 40
1.0
100
AcDbArc
 50
89.990253
 51
180.009747
  0
ARC
  5
21657
100
AcDbEntity
  8
0
100
AcDbCircle
 10
1885.040136
 20
351.873218
 30
0.0
 40
1.0
100
AcDbArc
 50
179.990253
 51
270.009747
  0
LINE
  5
21658
100
AcDbEntity
  8
0
100
AcDbLine
 10
1885.040306
 20
360.873399
 30
0.0
 11
1885.800314
 21
360.873399
 31
0.0
  0
ARC
  5
21659
100
AcDbEntity
  8
0
100
AcDbCircle
 10
1885.800484
 20
361.873399
 30
0.0
 40
1.0
100
AcDbArc
 50
269.990253
 51
0.009747
  0
LINE
  5
2165A
100
AcDbEntity
  8
0
100
AcDbLine
 10
1885.800314
 20
360.873399
 30
0.0
 11
1885.040306
 21
360.873399
 31
0.0
  0
LINE
  5
2165B
100
AcDbEntity
  8
0
100
AcDbLine
 10
1885.800314
 20
350.873218
 30
0.0
 11
1885.040306
 21
350.873218
 31
0.0
  0
ARC
  5
2165C
100
AcDbEntity
  8
0
100
AcDbCircle
 10
1885.800484
 20
349.873218
 30
0.0
 40
1.0
100
AcDbArc
 50
359.990253
 51
90.009747
  0
LINE
  5
2165D
100
AcDbEntity
  8
0
100
AcDbLine
 10
1886.799724
 20
351.766987
 30
0.0
 11
1886.799724
 21
359.864868
 31
0.0
  0
LINE
  5
2165E
100
AcDbEntity
  8
0
100
AcDbLine
 10
1884.039376
 20
351.873388
 30
0.0
 11
1884.039376
 21
359.873228
 31
0.0
  0
ELLIPSE
  5
21661
100
AcDbEntity
  8
0
100
AcDbEllipse
 10
1903.539653
 20
363.289611
 30
0.0
 11
11.75
 21
0.0
 31
0.0
210
0.0
220
0.0
230
1.0
 40
0.707107
 41
3.500815782874589
 42
3.968825259452236
  0
LINE
  5
21662
100
AcDbEntity
  8
0
100
AcDbLine
 10
1890.039653
 20
371.872872
 30
0.0
 11
1886.382799
 21
368.216018
 31
0.0
  0
LINE
  5
21663
100
AcDbEntity
  8
0
100
AcDbLine
 10
1890.039653
 20
372.481999
 30
0.0
 11
1890.039653
 21
369.653572
 31
0.0
  0
LINE
  5
21664
100
AcDbEntity
  8
0
100
AcDbLine
 10
1895.585898
 20
371.526497
 30
0.0
 11
1895.585898
 21
369.405176
 31
0.0
  0
ELLIPSE
  5
21665
100
AcDbEntity
  8
0
100
AcDbEllipse
 10
1903.539653
 20
365.410931
 30
0.0
 11
11.75
 21
0.0
 31
0.0
210
0.0
220
0.0
230
1.0
 40
0.707107
 41
2.314360047727349
 42
2.782369524304982
  0
ARC
  5
21666
100
AcDbEntity
  8
0
100
AcDbCircle
 10
1885.040136
 20
408.872345
 30
0.0
 40
1.0
100
AcDbArc
 50
179.990253
 51
270.009747
  0
LINE
  5
21667
100
AcDbEntity
  8
0
100
AcDbLine
 10
1884.039653
 20
422.872872
 30
0.0
 11
1884.039653
 21
402.18658
 31
0.0
  0
ARC
  5
21669
100
AcDbEntity
  8
0
100
AcDbCircle
 10
1870.039653
 20
396.372872
 30
0.0
 40
1.0
100
AcDbArc
 50
90.0
 51
180.0
  0
LINE
  5
2166A
100
AcDbEntity
  8
0
100
AcDbLine
 10
1870.039653
 20
397.372872
 30
0.0
 11
1871.7867
 21
397.372872
 31
0.0
  0
ARC
  5
2166B
100
AcDbEntity
  8
0
100
AcDbCircle
 10
1871.7867
 20
400.372872
 30
0.0
 40
3.0
100
AcDbArc
 50
270.0
 51
330.452122
  0
ARC
  5
2166C
100
AcDbEntity
  8
0
100
AcDbCircle
 10
1871.7867
 20
400.372872
 30
0.0
 40
3.0
100
AcDbArc
 50
270.0
 51
330.452122
  0
ARC
  5
2166D
100
AcDbEntity
  8
0
100
AcDbCircle
 10
1870.039653
 20
396.372872
 30
0.0
 40
1.0
100
AcDbArc
 50
90.0
 51
180.0
  0
LINE
  5
2166E
100
AcDbEntity
  8
0
100
AcDbLine
 10
1870.039653
 20
397.372872
 30
0.0
 11
1871.7867
 21
397.372872
 31
0.0
  0
ARC
  5
2166F
100
AcDbEntity
  8
0
100
AcDbCircle
 10
1892.039653
 20
402.18658
 30
0.0
 40
8.0
100
AcDbArc
 50
180.0
 51
225.0
  0
LINE
  5
21670
100
AcDbEntity
  8
0
100
AcDbLine
 10
1890.282294
 20
392.630231
 30
0.0
 11
1886.382799
 21
396.529726
 31
0.0
  0
LINE
  5
21671
100
AcDbEntity
  8
0
100
AcDbLine
 10
1885.800314
 20
407.872345
 30
0.0
 11
1885.040306
 21
407.872345
 31
0.0
  0
ARC
  5
21672
100
AcDbEntity
  8
0
100
AcDbCircle
 10
1885.800484
 20
406.872345
 30
0.0
 40
1.0
100
AcDbArc
 50
359.990253
 51
90.009747
  0
LINE
  5
21673
100
AcDbEntity
  8
0
100
AcDbLine
 10
1885.040306
 20
407.872345
 30
0.0
 11
1885.800314
 21
407.872345
 31
0.0
  0
ARC
  5
21676
100
AcDbEntity
  8
0
100
AcDbCircle
 10
1886.039653
 20
388.38759
 30
0.0
 40
6.0
100
AcDbArc
 50
0.0
 51
45.0
  0
LINE
  5
21677
100
AcDbEntity
  8
0
100
AcDbLine
 10
1888.646499
 20
424.372872
 30
0.0
 11
1892.689653
 21
428.114803
 31
0.0
  0
LINE
  5
21678
100
AcDbEntity
  8
0
100
AcDbLine
 10
1885.539653
 20
424.372872
 30
0.0
 11
1884.039653
 21
422.872872
 31
0.0
  0
ARC
  5
21679
100
AcDbEntity
  8
0
100
AcDbCircle
 10
1885.040136
 20
416.872526
 30
0.0
 40
1.0
100
AcDbArc
 50
89.990253
 51
180.009747
  0
LINE
  5
2167A
100
AcDbEntity
  8
0
100
AcDbLine
 10
1886.799724
 20
416.978757
 30
0.0
 11
1886.799724
 21
408.880875
 31
0.0
  0
ARC
  5
2167B
100
AcDbEntity
  8
0
100
AcDbCircle
 10
1885.800484
 20
418.872526
 30
0.0
 40
1.0
100
AcDbArc
 50
269.990253
 51
0.009747
  0
LINE
  5
2167C
100
AcDbEntity
  8
0
100
AcDbLine
 10
1885.800314
 20
417.872526
 30
0.0
 11
1885.040306
 21
417.872526
 31
0.0
  0
LINE
  5
2167D
100
AcDbEntity
  8
0
100
AcDbLine
 10
1884.039376
 20
416.872356
 30
0.0
 11
1884.039376
 21
408.872515
 31
0.0
  0
LINE
  5
2167E
100
AcDbEntity
  8
0
100
AcDbLine
 10
1794.229257
 20
464.372872
 30
0.0
 11
1794.229257
 21
448.372872
 31
0.0
  0
LINE
  5
2167F
100
AcDbEntity
  8
0
100
AcDbLine
 10
1841.039653
 20
464.372872
 30
0.0
 11
1841.039653
 21
448.372872
 31
0.0
  0
LINE
  5
21680
100
AcDbEntity
  8
0
100
AcDbLine
 10
1888.646499
 20
448.372872
 30
0.0
 11
1892.689653
 21
444.630941
 31
0.0
  0
CIRCLE
  5
21681
100
AcDbEntity
  8
0
100
AcDbCircle
 10
1763.549062
 20
669.143296
 30
0.0
 40
9.5
  0
CIRCLE
  5
21686
100
AcDbEntity
  8
0
100
AcDbCircle
 10
1699.909451
 20
669.143296
 30
0.0
 40
9.5
  0
LINE
  5
21687
100
AcDbEntity
  8
0
100
AcDbLine
 10
1914.389653
 20
444.630941
 30
0.0
 11
1914.389653
 21
428.114803
 31
0.0
  0
LINE
  5
21688
100
AcDbEntity
  8
0
100
AcDbLine
 10
1915.039653
 20
377.481999
 30
0.0
 11
1915.039653
 21
400.0046
 31
0.0
  0
ARC
  5
21689
100
AcDbEntity
  8
0
100
AcDbCircle
 10
1903.539653
 20
382.372872
 30
0.0
 40
34.5
100
AcDbArc
 50
343.15072
 51
16.84928
  0
POLYLINE
  5
2168A
100
AcDbEntity
  8
0
100
AcDb2dPolyline
 66
     1
 10
0.0
 20
0.0
 30
0.0
 70
     1
  0
VERTEX
  5
23523
100
AcDbEntity
  8
0
100
AcDbVertex
100
AcDb2dVertex
 10
1936.188589
 20
378.24428
 30
0.0
  0
VERTEX
  5
23524
100
AcDbEntity
  8
0
100
AcDbVertex
100
AcDb2dVertex
 10
1929.038589
 20
374.116225
 30
0.0
  0
VERTEX
  5
23525
100
AcDbEntity
  8
0
100
AcDbVertex
100
AcDb2dVertex
 10
1921.888589
 20
378.24428
 30
0.0
  0
VERTEX
  5
23526
100
AcDbEntity
  8
0
100
AcDbVertex
100
AcDb2dVertex
 10
1921.888589
 20
386.500389
 30
0.0
  0
VERTEX
  5
23527
100
AcDbEntity
  8
0
100
AcDbVertex
100
AcDb2dVertex
 10
1929.038589
 20
390.628443
 30
0.0
  0
VERTEX
  5
23528
100
AcDbEntity
  8
0
100
AcDbVertex
100
AcDb2dVertex
 10
1936.188589
 20
386.500389
 30
0.0
  0
SEQEND
  5
23529
100
AcDbEntity
  8
0
  0
CIRCLE
  5
2168B
100
AcDbEntity
  8
0
100
AcDbCircle
 10
1929.038589
 20
382.372334
 30
0.0
 40
6.750069
  0
ARC
  5
2168C
100
AcDbEntity
  8
0
100
AcDbCircle
 10
1903.539653
 20
382.372872
 30
0.0
 40
33.5
100
AcDbArc
 50
305.597645
 51
54.402355
  0
ARC
  5
2168D
100
AcDbEntity
  8
0
100
AcDbCircle
 10
1915.039653
 20
362.559163
 30
0.0
 40
8.0
100
AcDbArc
 50
0.0
 51
45.0
  0
POLYLINE
  5
2168E
100
AcDbEntity
  8
0
100
AcDb2dPolyline
 66
     1
 10
0.0
 20
0.0
 30
0.0
  0
VERTEX
  5
2352A
100
AcDbEntity
  8
0
100
AcDbVertex
100
AcDb2dVertex
 10
1914.539653
 20
360.36878
 30
0.0
  0
VERTEX
  5
2352B
100
AcDbEntity
  8
0
100
AcDbVertex
100
AcDb2dVertex
 10
1914.539653
 20
368.331761
 30
0.0
  0
SEQEND
  5
2352C
100
AcDbEntity
  8
0
  0
ELLIPSE
  5
2168F
100
AcDbEntity
  8
0
100
AcDbEllipse
 10
1903.539653
 20
363.289611
 30
0.0
 11
11.75
 21
0.0
 31
0.0
210
0.0
220
0.0
230
1.0
 40
0.707107
 41
0.359223129284924
 42
0.827232605862334
  0
ELLIPSE
  5
21690
100
AcDbEntity
  8
0
100
AcDbEllipse
 10
1903.539653
 20
363.289611
 30
0.0
 11
11.75
 21
0.0
 31
0.0
210
0.0
220
0.0
230
1.0
 40
0.707107
 41
4.513745654064261
 42
4.911032306705117
  0
ELLIPSE
  5
21691
100
AcDbEntity
  8
0
100
AcDbEllipse
 10
1903.539653
 20
363.289611
 30
0.0
 11
11.75
 21
0.0
 31
0.0
210
0.0
220
0.0
230
1.0
 40
0.707107
 41
5.455952701317142
 42
5.923962177894978
  0
POLYLINE
  5
21692
100
AcDbEntity
  8
0
100
AcDb2dPolyline
 66
     1
 10
0.0
 20
0.0
 30
0.0
  0
VERTEX
  5
2352D
100
AcDbEntity
  8
0
100
AcDbVertex
100
AcDb2dVertex
 10
1905.858392
 20
355.144491
 30
0.0
  0
VERTEX
  5
2352E
100
AcDbEntity
  8
0
100
AcDbVertex
100
AcDb2dVertex
 10
1911.493408
 20
357.174045
 30
0.0
  0
SEQEND
  5
2352F
100
AcDbEntity
  8
0
  0
ARC
  5
21693
100
AcDbEntity
  8
0
100
AcDbCircle
 10
1922.03917
 20
351.873218
 30
0.0
 40
1.0
100
AcDbArc
 50
269.990253
 51
0.009747
  0
LINE
  5
21694
100
AcDbEntity
  8
0
100
AcDbLine
 10
1923.03993
 20
351.873388
 30
0.0
 11
1923.03993
 21
359.873228
 31
0.0
  0
LINE
  5
21695
100
AcDbEntity
  8
0
100
AcDbLine
 10
1920.279582
 20
351.766987
 30
0.0
 11
1920.279582
 21
359.864868
 31
0.0
  0
ARC
  5
21696
100
AcDbEntity
  8
0
100
AcDbCircle
 10
1921.278822
 20
349.873218
 30
0.0
 40
1.0
100
AcDbArc
 50
89.990253
 51
180.009747
  0
LINE
  5
21697
100
AcDbEntity
  8
0
100
AcDbLine
 10
1921.278992
 20
350.873218
 30
0.0
 11
1922.039
 21
350.873218
 31
0.0
  0
LINE
  5
21698
100
AcDbEntity
  8
0
100
AcDbLine
 10
1921.278992
 20
360.873399
 30
0.0
 11
1922.039
 21
360.873399
 31
0.0
  0
ARC
  5
21699
100
AcDbEntity
  8
0
100
AcDbCircle
 10
1921.278822
 20
361.873399
 30
0.0
 40
1.0
100
AcDbArc
 50
179.990253
 51
270.009747
  0
LINE
  5
2169A
100
AcDbEntity
  8
0
100
AcDbLine
 10
1922.039
 20
360.873399
 30
0.0
 11
1921.278992
 21
360.873399
 31
0.0
  0
ARC
  5
2169B
100
AcDbEntity
  8
0
100
AcDbCircle
 10
1922.03917
 20
359.873399
 30
0.0
 40
1.0
100
AcDbArc
 50
359.990253
 51
90.009747
  0
LINE
  5
2169F
100
AcDbEntity
  8
0
100
AcDbLine
 10
1917.039653
 20
371.872872
 30
0.0
 11
1920.696507
 21
368.216018
 31
0.0
  0
LINE
  5
216A0
100
AcDbEntity
  8
0
100
AcDbLine
 10
1901.220914
 20
373.556051
 30
0.0
 11
1901.220914
 21
371.43473
 31
0.0
  0
LINE
  5
216A1
100
AcDbEntity
  8
0
100
AcDbLine
 10
1905.858392
 20
373.556051
 30
0.0
 11
1905.858392
 21
371.43473
 31
0.0
  0
ELLIPSE
  5
216A2
100
AcDbEntity
  8
0
100
AcDbEllipse
 10
1903.539653
 20
365.410931
 30
0.0
 11
11.75
 21
0.0
 31
0.0
210
0.0
220
0.0
230
1.0
 40
0.707107
 41
1.372153000474518
 42
1.769439653115324
  0
ELLIPSE
  5
216A3
100
AcDbEntity
  8
0
100
AcDbEllipse
 10
1903.539653
 20
363.289611
 30
0.0
 11
11.75
 21
0.0
 31
0.0
210
0.0
220
0.0
230
1.0
 40
0.707107
 41
1.372153000474518
 42
1.769439653115324
  0
LINE
  5
216A4
100
AcDbEntity
  8
0
100
AcDbLine
 10
1917.039653
 20
372.481999
 30
0.0
 11
1917.039653
 21
369.653572
 31
0.0
  0
LINE
  5
216A5
100
AcDbEntity
  8
0
100
AcDbLine
 10
1911.493408
 20
371.526497
 30
0.0
 11
1911.493408
 21
369.405176
 31
0.0
  0
ELLIPSE
  5
216A6
100
AcDbEntity
  8
0
100
AcDbEllipse
 10
1903.539653
 20
365.410931
 30
0.0
 11
11.75
 21
0.0
 31
0.0
210
0.0
220
0.0
230
1.0
 40
0.707107
 41
0.359223129284924
 42
0.827232605862334
  0
POLYLINE
  5
216A7
100
AcDbEntity
  8
0
100
AcDb2dPolyline
 66
     1
 10
0.0
 20
0.0
 30
0.0
  0
VERTEX
  5
23530
100
AcDbEntity
  8
0
100
AcDbVertex
100
AcDb2dVertex
 10
1911.493408
 20
371.526497
 30
0.0
  0
VERTEX
  5
23531
100
AcDbEntity
  8
0
100
AcDbVertex
100
AcDb2dVertex
 10
1905.858392
 20
373.556051
 30
0.0
  0
SEQEND
  5
23532
100
AcDbEntity
  8
0
  0
POLYLINE
  5
216A8
100
AcDbEntity
  8
0
100
AcDb2dPolyline
 66
     1
 10
0.0
 20
0.0
 30
0.0
  0
VERTEX
  5
23533
100
AcDbEntity
  8
0
100
AcDbVertex
100
AcDb2dVertex
 10
1911.493408
 20
369.405176
 30
0.0
  0
VERTEX
  5
23534
100
AcDbEntity
  8
0
100
AcDbVertex
100
AcDb2dVertex
 10
1905.858392
 20
371.43473
 30
0.0
  0
SEQEND
  5
23535
100
AcDbEntity
  8
0
  0
LINE
  5
216A9
100
AcDbEntity
  8
0
100
AcDbLine
 10
1935.512297
 20
372.372872
 30
0.0
 11
1936.558587
 21
372.372872
 31
0.0
  0
ARC
  5
216AA
100
AcDbEntity
  8
0
100
AcDbCircle
 10
1922.03917
 20
408.872345
 30
0.0
 40
1.0
100
AcDbArc
 50
269.990253
 51
0.009747
  0
LINE
  5
216AB
100
AcDbEntity
  8
0
100
AcDbLine
 10
1923.039653
 20
422.872872
 30
0.0
 11
1923.039653
 21
402.18658
 31
0.0
  0
LINE
  5
216AC
100
AcDbEntity
  8
0
100
AcDbLine
 10
1923.039653
 20
422.872872
 30
0.0
 11
1923.039653
 21
405.532069
 31
0.0
  0
LINE
  5
216AD
100
AcDbEntity
  8
0
100
AcDbLine
 10
1916.797012
 20
392.630231
 30
0.0
 11
1920.696507
 21
396.529726
 31
0.0
  0
ARC
  5
216AE
100
AcDbEntity
  8
0
100
AcDbCircle
 10
1921.039653
 20
388.38759
 30
0.0
 40
6.0
100
AcDbArc
 50
135.0
 51
180.0
  0
ARC
  5
216AF
100
AcDbEntity
  8
0
100
AcDbCircle
 10
1915.039653
 20
402.18658
 30
0.0
 40
8.0
100
AcDbArc
 50
315.0
 51
0.0
  0
LINE
  5
216B0
100
AcDbEntity
  8
0
100
AcDbLine
 10
1922.039
 20
407.872345
 30
0.0
 11
1921.278992
 21
407.872345
 31
0.0
  0
ARC
  5
216B1
100
AcDbEntity
  8
0
100
AcDbCircle
 10
1921.278822
 20
406.872345
 30
0.0
 40
1.0
100
AcDbArc
 50
89.990253
 51
180.009747
  0
LINE
  5
216B2
100
AcDbEntity
  8
0
100
AcDbLine
 10
1921.278992
 20
407.872345
 30
0.0
 11
1922.039
 21
407.872345
 31
0.0
  0
LINE
  5
216B3
100
AcDbEntity
  8
0
100
AcDbLine
 10
1935.512297
 20
392.372872
 30
0.0
 11
1936.558587
 21
392.372872
 31
0.0
  0
LINE
  5
216B7
100
AcDbEntity
  8
0
100
AcDbLine
 10
1918.432807
 20
424.372872
 30
0.0
 11
1914.389653
 21
428.114803
 31
0.0
  0
LINE
  5
216B8
100
AcDbEntity
  8
0
100
AcDbLine
 10
1921.278992
 20
417.872526
 30
0.0
 11
1922.039
 21
417.872526
 31
0.0
  0
ARC
  5
216B9
100
AcDbEntity
  8
0
100
AcDbCircle
 10
1921.278822
 20
418.872526
 30
0.0
 40
1.0
100
AcDbArc
 50
179.990253
 51
270.009747
  0
LINE
  5
216BA
100
AcDbEntity
  8
0
100
AcDbLine
 10
1920.279582
 20
416.978757
 30
0.0
 11
1920.279582
 21
408.880875
 31
0.0
  0
LINE
  5
216BB
100
AcDbEntity
  8
0
100
AcDbLine
 10
1923.03993
 20
416.872356
 30
0.0
 11
1923.03993
 21
408.872515
 31
0.0
  0
ARC
  5
216BC
100
AcDbEntity
  8
0
100
AcDbCircle
 10
1922.03917
 20
416.872526
 30
0.0
 40
1.0
100
AcDbArc
 50
359.990253
 51
90.009747
  0
LINE
  5
216BD
100
AcDbEntity
  8
0
100
AcDbLine
 10
1921.539653
 20
424.372872
 30
0.0
 11
1923.039653
 21
422.872872
 31
0.0
  0
LINE
  5
216BE
100
AcDbEntity
  8
0
100
AcDbLine
 10
1903.539653
 20
464.372872
 30
0.0
 11
1966.039653
 21
464.372872
 31
0.0
  0
LINE
  5
216BF
100
AcDbEntity
  8
0
100
AcDbLine
 10
1918.432807
 20
448.372872
 30
0.0
 11
1914.389653
 21
444.630941
 31
0.0
  0
LINE
  5
216C0
100
AcDbEntity
  8
0
100
AcDbLine
 10
1966.039653
 20
464.372872
 30
0.0
 11
1966.039653
 21
448.372872
 31
0.0
  0
ARC
  5
21E55
100
AcDbEntity
  8
0
100
AcDbCircle
 10
667.085343
 20
382.372872
 30
0.0
 40
34.5
100
AcDbArc
 50
343.15072
 51
16.84928
  0
LINE
  5
21E56
100
AcDbEntity
  8
0
100
AcDbLine
 10
655.585343
 20
377.481999
 30
0.0
 11
655.585343
 21
400.0046
 31
0.0
  0
LINE
  5
21E57
100
AcDbEntity
  8
0
100
AcDbLine
 10
678.585343
 20
377.481999
 30
0.0
 11
678.585343
 21
400.0046
 31
0.0
  0
POLYLINE
  5
21E58
100
AcDbEntity
  8
0
100
AcDb2dPolyline
 66
     1
 10
0.0
 20
0.0
 30
0.0
 70
     1
  0
VERTEX
  5
23536
100
AcDbEntity
  8
0
100
AcDbVertex
100
AcDb2dVertex
 10
699.734279
 20
378.24428
 30
0.0
  0
VERTEX
  5
23537
100
AcDbEntity
  8
0
100
AcDbVertex
100
AcDb2dVertex
 10
692.584279
 20
374.116225
 30
0.0
  0
VERTEX
  5
23538
100
AcDbEntity
  8
0
100
AcDbVertex
100
AcDb2dVertex
 10
685.434279
 20
378.24428
 30
0.0
  0
VERTEX
  5
23539
100
AcDbEntity
  8
0
100
AcDbVertex
100
AcDb2dVertex
 10
685.434279
 20
386.500389
 30
0.0
  0
VERTEX
  5
2353A
100
AcDbEntity
  8
0
100
AcDbVertex
100
AcDb2dVertex
 10
692.584279
 20
390.628443
 30
0.0
  0
VERTEX
  5
2353B
100
AcDbEntity
  8
0
100
AcDbVertex
100
AcDb2dVertex
 10
699.734279
 20
386.500389
 30
0.0
  0
SEQEND
  5
2353C
100
AcDbEntity
  8
0
  0
CIRCLE
  5
21E59
100
AcDbEntity
  8
0
100
AcDbCircle
 10
692.584279
 20
382.372334
 30
0.0
 40
6.750069
  0
ARC
  5
21E5A
100
AcDbEntity
  8
0
100
AcDbCircle
 10
667.085343
 20
382.372872
 30
0.0
 40
33.5
100
AcDbArc
 50
305.597645
 51
54.402355
  0
LINE
  5
21E5B
100
AcDbEntity
  8
0
100
AcDbLine
 10
632.585343
 20
368.372872
 30
0.0
 11
632.585343
 21
396.372872
 31
0.0
  0
LINE
  5
21E5C
100
AcDbEntity
  8
0
100
AcDbLine
 10
632.585343
 20
368.372872
 30
0.0
 11
632.585343
 21
396.372872
 31
0.0
  0
ARC
  5
21E5D
100
AcDbEntity
  8
0
100
AcDbCircle
 10
667.085343
 20
382.372872
 30
0.0
 40
33.5
100
AcDbArc
 50
125.598228
 51
234.402355
  0
CIRCLE
  5
21E5F
100
AcDbEntity
  8
0
100
AcDbCircle
 10
641.586408
 20
382.372334
 30
0.0
 40
6.750069
  0
POLYLINE
  5
21E60
100
AcDbEntity
  8
0
100
AcDb2dPolyline
 66
     1
 10
0.0
 20
0.0
 30
0.0
 70
     1
  0
VERTEX
  5
2353D
100
AcDbEntity
  8
0
100
AcDbVertex
100
AcDb2dVertex
 10
648.736408
 20
386.500389
 30
0.0
  0
VERTEX
  5
2353E
100
AcDbEntity
  8
0
100
AcDbVertex
100
AcDb2dVertex
 10
641.586408
 20
390.628443
 30
0.0
  0
VERTEX
  5
2353F
100
AcDbEntity
  8
0
100
AcDbVertex
100
AcDb2dVertex
 10
634.436408
 20
386.500389
 30
0.0
  0
VERTEX
  5
23540
100
AcDbEntity
  8
0
100
AcDbVertex
100
AcDb2dVertex
 10
634.436408
 20
378.24428
 30
0.0
  0
VERTEX
  5
23541
100
AcDbEntity
  8
0
100
AcDbVertex
100
AcDb2dVertex
 10
641.586408
 20
374.116225
 30
0.0
  0
VERTEX
  5
23542
100
AcDbEntity
  8
0
100
AcDbVertex
100
AcDb2dVertex
 10
648.736408
 20
378.24428
 30
0.0
  0
SEQEND
  5
23543
100
AcDbEntity
  8
0
  0
ELLIPSE
  5
21E61
100
AcDbEntity
  8
0
100
AcDbEllipse
 10
667.085343
 20
372.481999
 30
0.0
 11
-13.5
 21
0.0
 31
0.0
210
0.0
220
0.0
230
1.0
 40
0.707107
 41
3.141592653589793
 42
6.283185307179586
  0
POLYLINE
  5
21E62
100
AcDbEntity
  8
0
100
AcDb2dPolyline
 66
     1
 10
0.0
 20
0.0
 30
0.0
  0
VERTEX
  5
23544
100
AcDbEntity
  8
0
100
AcDbVertex
100
AcDb2dVertex
 10
675.039098
 20
371.526497
 30
0.0
  0
VERTEX
  5
23545
100
AcDbEntity
  8
0
100
AcDbVertex
100
AcDb2dVertex
 10
669.404083
 20
373.556051
 30
0.0
  0
SEQEND
  5
23546
100
AcDbEntity
  8
0
  0
POLYLINE
  5
21E63
100
AcDbEntity
  8
0
100
AcDb2dPolyline
 66
     1
 10
0.0
 20
0.0
 30
0.0
  0
VERTEX
  5
23547
100
AcDbEntity
  8
0
100
AcDbVertex
100
AcDb2dVertex
 10
669.404083
 20
355.144491
 30
0.0
  0
VERTEX
  5
23548
100
AcDbEntity
  8
0
100
AcDbVertex
100
AcDb2dVertex
 10
675.039098
 20
357.174045
 30
0.0
  0
SEQEND
  5
23549
100
AcDbEntity
  8
0
  0
LINE
  5
21E64
100
AcDbEntity
  8
0
100
AcDbLine
 10
649.085343
 20
344.372872
 30
0.0
 11
685.085343
 21
344.372872
 31
0.0
  0
ELLIPSE
  5
21E65
100
AcDbEntity
  8
0
100
AcDbEllipse
 10
667.085343
 20
368.239358
 30
0.0
 11
11.5
 21
0.0
 31
0.0
210
0.0
220
0.0
230
-1.0
 40
0.707107
 41
2.845629732092404
 42
6.579148228677147
  0
ELLIPSE
  5
21E66
100
AcDbEntity
  8
0
100
AcDbEllipse
 10
667.085343
 20
363.289611
 30
0.0
 11
-10.5
 21
0.0
 31
0.0
210
0.0
220
0.0
230
1.0
 40
0.707107
 41
0.0
 42
6.283185307179586
  0
ELLIPSE
  5
21E67
100
AcDbEntity
  8
0
100
AcDbEllipse
 10
667.085343
 20
369.653572
 30
0.0
 11
-13.5
 21
0.0
 31
0.0
210
0.0
220
0.0
230
1.0
 40
0.707107
 41
2.5232060117038
 42
6.901571949065703
  0
POLYLINE
  5
21E68
100
AcDbEntity
  8
0
100
AcDb2dPolyline
 66
     1
 10
0.0
 20
0.0
 30
0.0
  0
VERTEX
  5
2354A
100
AcDbEntity
  8
0
100
AcDbVertex
100
AcDb2dVertex
 10
675.039098
 20
369.405176
 30
0.0
  0
VERTEX
  5
2354B
100
AcDbEntity
  8
0
100
AcDbVertex
100
AcDb2dVertex
 10
669.404083
 20
371.43473
 30
0.0
  0
SEQEND
  5
2354C
100
AcDbEntity
  8
0
  0
ELLIPSE
  5
21E69
100
AcDbEntity
  8
0
100
AcDbEllipse
 10
667.085343
 20
363.289611
 30
0.0
 11
11.75
 21
0.0
 31
0.0
210
0.0
220
0.0
230
1.0
 40
0.707107
 41
3.500815782874589
 42
3.968825259452236
  0
LINE
  5
21E6A
100
AcDbEntity
  8
0
100
AcDbLine
 10
650.345414
 20
351.766987
 30
0.0
 11
650.345414
 21
359.864868
 31
0.0
  0
LINE
  5
21E6C
100
AcDbEntity
  8
0
100
AcDbLine
 10
647.585066
 20
351.873388
 30
0.0
 11
647.585066
 21
359.873228
 31
0.0
  0
LINE
  5
21E6D
100
AcDbEntity
  8
0
100
AcDbLine
 10
647.585343
 20
345.872872
 30
0.0
 11
647.585343
 21
362.559163
 31
0.0
  0
ELLIPSE
  5
21E6E
100
AcDbEntity
  8
0
100
AcDbEllipse
 10
667.085343
 20
363.289611
 30
0.0
 11
11.75
 21
0.0
 31
0.0
210
0.0
220
0.0
230
1.0
 40
0.707107
 41
4.513745654064261
 42
4.911032306705117
  0
ARC
  5
21E6F
100
AcDbEntity
  8
0
100
AcDbCircle
 10
649.346174
 20
349.873218
 30
0.0
 40
1.0
100
AcDbArc
 50
359.990253
 51
90.009747
  0
POLYLINE
  5
21E70
100
AcDbEntity
  8
0
100
AcDb2dPolyline
 66
     1
 10
0.0
 20
0.0
 30
0.0
  0
VERTEX
  5
2354D
100
AcDbEntity
  8
0
100
AcDbVertex
100
AcDb2dVertex
 10
659.131588
 20
357.174045
 30
0.0
  0
VERTEX
  5
2354E
100
AcDbEntity
  8
0
100
AcDbVertex
100
AcDb2dVertex
 10
664.766604
 20
355.144491
 30
0.0
  0
SEQEND
  5
2354F
100
AcDbEntity
  8
0
  0
LINE
  5
21E71
100
AcDbEntity
  8
0
100
AcDbLine
 10
649.346004
 20
350.873218
 30
0.0
 11
648.585996
 21
350.873218
 31
0.0
  0
LINE
  5
21E72
100
AcDbEntity
  8
0
100
AcDbLine
 10
649.085343
 20
344.372872
 30
0.0
 11
647.585343
 21
345.872872
 31
0.0
  0
ARC
  5
21E73
100
AcDbEntity
  8
0
100
AcDbCircle
 10
648.585826
 20
351.873218
 30
0.0
 40
1.0
100
AcDbArc
 50
179.990253
 51
270.009747
  0
ARC
  5
21E74
100
AcDbEntity
  8
0
100
AcDbCircle
 10
633.585343
 20
368.372872
 30
0.0
 40
1.0
100
AcDbArc
 50
180.0
 51
270.0
  0
ARC
  5
21E75
100
AcDbEntity
  8
0
100
AcDbCircle
 10
633.585343
 20
368.372872
 30
0.0
 40
1.0
100
AcDbArc
 50
180.0
 51
270.0
  0
ARC
  5
21E76
100
AcDbEntity
  8
0
100
AcDbCircle
 10
635.332391
 20
364.372872
 30
0.0
 40
3.0
100
AcDbArc
 50
29.547878
 51
90.0
  0
ARC
  5
21E77
100
AcDbEntity
  8
0
100
AcDbCircle
 10
635.332391
 20
364.372872
 30
0.0
 40
3.0
100
AcDbArc
 50
29.547878
 51
90.0
  0
LINE
  5
21E78
100
AcDbEntity
  8
0
100
AcDbLine
 10
633.585343
 20
367.372872
 30
0.0
 11
635.332391
 21
367.372872
 31
0.0
  0
LINE
  5
21E79
100
AcDbEntity
  8
0
100
AcDbLine
 10
633.585343
 20
367.372872
 30
0.0
 11
635.332391
 21
367.372872
 31
0.0
  0
ELLIPSE
  5
21E7A
100
AcDbEntity
  8
0
100
AcDbEllipse
 10
667.085343
 20
365.410931
 30
0.0
 11
11.75
 21
0.0
 31
0.0
210
0.0
220
0.0
230
1.0
 40
0.707107
 41
1.372153000474518
 42
1.769439653115324
  0
ELLIPSE
  5
21E7B
100
AcDbEntity
  8
0
100
AcDbEllipse
 10
667.085343
 20
363.289611
 30
0.0
 11
11.75
 21
0.0
 31
0.0
210
0.0
220
0.0
230
1.0
 40
0.707107
 41
1.372153000474518
 42
1.769439653115324
  0
LINE
  5
21E7C
100
AcDbEntity
  8
0
100
AcDbLine
 10
664.766604
 20
373.556051
 30
0.0
 11
664.766604
 21
371.43473
 31
0.0
  0
POLYLINE
  5
21E7D
100
AcDbEntity
  8
0
100
AcDb2dPolyline
 66
     1
 10
0.0
 20
0.0
 30
0.0
  0
VERTEX
  5
23550
100
AcDbEntity
  8
0
100
AcDbVertex
100
AcDb2dVertex
 10
659.131588
 20
371.526497
 30
0.0
  0
VERTEX
  5
23551
100
AcDbEntity
  8
0
100
AcDbVertex
100
AcDb2dVertex
 10
664.766604
 20
373.556051
 30
0.0
  0
SEQEND
  5
23552
100
AcDbEntity
  8
0
  0
POLYLINE
  5
21E7E
100
AcDbEntity
  8
0
100
AcDb2dPolyline
 66
     1
 10
0.0
 20
0.0
 30
0.0
  0
VERTEX
  5
23553
100
AcDbEntity
  8
0
100
AcDbVertex
100
AcDb2dVertex
 10
664.766604
 20
373.556051
 30
0.0
  0
VERTEX
  5
23554
100
AcDbEntity
  8
0
100
AcDbVertex
100
AcDb2dVertex
 10
659.131588
 20
371.526497
 30
0.0
  0
SEQEND
  5
23555
100
AcDbEntity
  8
0
  0
LINE
  5
21E7F
100
AcDbEntity
  8
0
100
AcDbLine
 10
669.404083
 20
373.556051
 30
0.0
 11
669.404083
 21
371.43473
 31
0.0
  0
ELLIPSE
  5
21E80
100
AcDbEntity
  8
0
100
AcDbEllipse
 10
667.085343
 20
363.289611
 30
0.0
 11
11.75
 21
0.0
 31
0.0
210
0.0
220
0.0
230
1.0
 40
0.707107
 41
2.314360047727349
 42
2.782369524304982
  0
POLYLINE
  5
21E81
100
AcDbEntity
  8
0
100
AcDb2dPolyline
 66
     1
 10
0.0
 20
0.0
 30
0.0
  0
VERTEX
  5
23556
100
AcDbEntity
  8
0
100
AcDbVertex
100
AcDb2dVertex
 10
656.085343
 20
368.331761
 30
0.0
  0
VERTEX
  5
23557
100
AcDbEntity
  8
0
100
AcDbVertex
100
AcDb2dVertex
 10
656.085343
 20
360.36878
 30
0.0
  0
SEQEND
  5
23558
100
AcDbEntity
  8
0
  0
ARC
  5
21E82
100
AcDbEntity
  8
0
100
AcDbCircle
 10
649.346174
 20
361.873399
 30
0.0
 40
1.0
100
AcDbArc
 50
269.990253
 51
0.009747
  0
LINE
  5
21E83
100
AcDbEntity
  8
0
100
AcDbLine
 10
648.585996
 20
360.873399
 30
0.0
 11
649.346004
 21
360.873399
 31
0.0
  0
LINE
  5
21E84
100
AcDbEntity
  8
0
100
AcDbLine
 10
649.346004
 20
360.873399
 30
0.0
 11
648.585996
 21
360.873399
 31
0.0
  0
ELLIPSE
  5
21E85
100
AcDbEntity
  8
0
100
AcDbEllipse
 10
667.085343
 20
365.410931
 30
0.0
 11
11.75
 21
0.0
 31
0.0
210
0.0
220
0.0
230
1.0
 40
0.707107
 41
2.314360047727349
 42
2.782369524304982
  0
LINE
  5
21E86
100
AcDbEntity
  8
0
100
AcDbLine
 10
653.585343
 20
371.872872
 30
0.0
 11
649.928489
 21
368.216018
 31
0.0
  0
LINE
  5
21E87
100
AcDbEntity
  8
0
100
AcDbLine
 10
653.585343
 20
372.481999
 30
0.0
 11
653.585343
 21
369.653572
 31
0.0
  0
LINE
  5
21E88
100
AcDbEntity
  8
0
100
AcDbLine
 10
659.131588
 20
371.526497
 30
0.0
 11
659.131588
 21
369.405176
 31
0.0
  0
POLYLINE
  5
21E89
100
AcDbEntity
  8
0
100
AcDb2dPolyline
 66
     1
 10
0.0
 20
0.0
 30
0.0
  0
VERTEX
  5
23559
100
AcDbEntity
  8
0
100
AcDbVertex
100
AcDb2dVertex
 10
659.131588
 20
369.405176
 30
0.0
  0
VERTEX
  5
2355A
100
AcDbEntity
  8
0
100
AcDbVertex
100
AcDb2dVertex
 10
664.766604
 20
371.43473
 30
0.0
  0
SEQEND
  5
2355B
100
AcDbEntity
  8
0
  0
POLYLINE
  5
21E8A
100
AcDbEntity
  8
0
100
AcDb2dPolyline
 66
     1
 10
0.0
 20
0.0
 30
0.0
  0
VERTEX
  5
2355C
100
AcDbEntity
  8
0
100
AcDbVertex
100
AcDb2dVertex
 10
664.766604
 20
371.43473
 30
0.0
  0
VERTEX
  5
2355D
100
AcDbEntity
  8
0
100
AcDbVertex
100
AcDb2dVertex
 10
659.131588
 20
369.405176
 30
0.0
  0
SEQEND
  5
2355E
100
AcDbEntity
  8
0
  0
ARC
  5
21E8D
100
AcDbEntity
  8
0
100
AcDbCircle
 10
648.585826
 20
359.873399
 30
0.0
 40
1.0
100
AcDbArc
 50
89.990253
 51
180.009747
  0
ARC
  5
21E8E
100
AcDbEntity
  8
0
100
AcDbCircle
 10
655.585343
 20
362.559163
 30
0.0
 40
8.0
100
AcDbArc
 50
135.0
 51
180.0
  0
LINE
  5
21E90
100
AcDbEntity
  8
0
100
AcDbLine
 10
686.58562
 20
351.873388
 30
0.0
 11
686.58562
 21
359.873228
 31
0.0
  0
LINE
  5
21E91
100
AcDbEntity
  8
0
100
AcDbLine
 10
683.825272
 20
351.766987
 30
0.0
 11
683.825272
 21
359.864868
 31
0.0
  0
ELLIPSE
  5
21E92
100
AcDbEntity
  8
0
100
AcDbEllipse
 10
667.085343
 20
363.289611
 30
0.0
 11
11.75
 21
0.0
 31
0.0
210
0.0
220
0.0
230
1.0
 40
0.707107
 41
5.455952701317142
 42
5.923962177894978
  0
LINE
  5
21E93
100
AcDbEntity
  8
0
100
AcDbLine
 10
686.585343
 20
345.872872
 30
0.0
 11
686.585343
 21
362.559163
 31
0.0
  0
LINE
  5
21E94
100
AcDbEntity
  8
0
100
AcDbLine
 10
686.585343
 20
345.872872
 30
0.0
 11
686.585343
 21
359.213675
 31
0.0
  0
ARC
  5
21E95
100
AcDbEntity
  8
0
100
AcDbCircle
 10
685.58486
 20
351.873218
 30
0.0
 40
1.0
100
AcDbArc
 50
269.990253
 51
0.009747
  0
ARC
  5
21E96
100
AcDbEntity
  8
0
100
AcDbCircle
 10
684.824512
 20
349.873218
 30
0.0
 40
1.0
100
AcDbArc
 50
89.990253
 51
180.009747
  0
LINE
  5
21E97
100
AcDbEntity
  8
0
100
AcDbLine
 10
684.824682
 20
350.873218
 30
0.0
 11
685.58469
 21
350.873218
 31
0.0
  0
LINE
  5
21E98
100
AcDbEntity
  8
0
100
AcDbLine
 10
685.085343
 20
344.372872
 30
0.0
 11
686.585343
 21
345.872872
 31
0.0
  0
LINE
  5
21E99
100
AcDbEntity
  8
0
100
AcDbLine
 10
699.057988
 20
372.372872
 30
0.0
 11
700.104277
 21
372.372872
 31
0.0
  0
ARC
  5
21E9A
100
AcDbEntity
  8
0
100
AcDbCircle
 10
678.585343
 20
362.559163
 30
0.0
 40
8.0
100
AcDbArc
 50
0.0
 51
45.0
  0
ELLIPSE
  5
21E9B
100
AcDbEntity
  8
0
100
AcDbEllipse
 10
667.085343
 20
363.289611
 30
0.0
 11
11.75
 21
0.0
 31
0.0
210
0.0
220
0.0
230
1.0
 40
0.707107
 41
0.359223129284924
 42
0.827232605862334
  0
POLYLINE
  5
21E9C
100
AcDbEntity
  8
0
100
AcDb2dPolyline
 66
     1
 10
0.0
 20
0.0
 30
0.0
  0
VERTEX
  5
2355F
100
AcDbEntity
  8
0
100
AcDbVertex
100
AcDb2dVertex
 10
678.085343
 20
360.36878
 30
0.0
  0
VERTEX
  5
23560
100
AcDbEntity
  8
0
100
AcDbVertex
100
AcDb2dVertex
 10
678.085343
 20
368.331761
 30
0.0
  0
SEQEND
  5
23561
100
AcDbEntity
  8
0
  0
LINE
  5
21E9D
100
AcDbEntity
  8
0
100
AcDbLine
 10
684.824682
 20
360.873399
 30
0.0
 11
685.58469
 21
360.873399
 31
0.0
  0
ARC
  5
21E9E
100
AcDbEntity
  8
0
100
AcDbCircle
 10
684.824512
 20
361.873399
 30
0.0
 40
1.0
100
AcDbArc
 50
179.990253
 51
270.009747
  0
LINE
  5
21E9F
100
AcDbEntity
  8
0
100
AcDbLine
 10
685.58469
 20
360.873399
 30
0.0
 11
684.824682
 21
360.873399
 31
0.0
  0
ARC
  5
21EA0
100
AcDbEntity
  8
0
100
AcDbCircle
 10
685.58486
 20
359.873399
 30
0.0
 40
1.0
100
AcDbArc
 50
359.990253
 51
90.009747
  0
ELLIPSE
  5
21EA3
100
AcDbEntity
  8
0
100
AcDbEllipse
 10
667.085343
 20
365.410931
 30
0.0
 11
11.75
 21
0.0
 31
0.0
210
0.0
220
0.0
230
1.0
 40
0.707107
 41
0.359223129284924
 42
0.827232605862334
  0
LINE
  5
21EA4
100
AcDbEntity
  8
0
100
AcDbLine
 10
675.039098
 20
371.526497
 30
0.0
 11
675.039098
 21
369.405176
 31
0.0
  0
LINE
  5
21EA5
100
AcDbEntity
  8
0
100
AcDbLine
 10
680.585343
 20
372.481999
 30
0.0
 11
680.585343
 21
369.653572
 31
0.0
  0
LINE
  5
21EA6
100
AcDbEntity
  8
0
100
AcDbLine
 10
680.585343
 20
371.872872
 30
0.0
 11
684.242198
 21
368.216018
 31
0.0
  0
LINE
  5
21EA7
100
AcDbEntity
  8
0
100
AcDbLine
 10
649.085343
 20
424.372872
 30
0.0
 11
685.085343
 21
424.372872
 31
0.0
  0
ELLIPSE
  5
21EA8
100
AcDbEntity
  8
0
100
AcDbEllipse
 10
667.085343
 20
400.0046
 30
0.0
 11
-11.5
 21
0.0
 31
0.0
210
0.0
220
0.0
230
1.0
 40
0.707107
 41
3.141592653589793
 42
6.283185307179586
  0
LINE
  5
21EA9
100
AcDbEntity
  8
0
100
AcDbLine
 10
650.345414
 20
416.978757
 30
0.0
 11
650.345414
 21
408.880875
 31
0.0
  0
LINE
  5
21EAA
100
AcDbEntity
  8
0
100
AcDbLine
 10
647.585343
 20
422.872872
 30
0.0
 11
647.585343
 21
402.18658
 31
0.0
  0
LINE
  5
21EAB
100
AcDbEntity
  8
0
100
AcDbLine
 10
647.585066
 20
416.872356
 30
0.0
 11
647.585066
 21
405.915812
 31
0.0
  0
ARC
  5
21EAC
100
AcDbEntity
  8
0
100
AcDbCircle
 10
635.332391
 20
400.372872
 30
0.0
 40
3.0
100
AcDbArc
 50
270.0
 51
330.452122
  0
ARC
  5
21EAD
100
AcDbEntity
  8
0
100
AcDbCircle
 10
635.332391
 20
400.372872
 30
0.0
 40
3.0
100
AcDbArc
 50
270.0
 51
330.452122
  0
ARC
  5
21EAE
100
AcDbEntity
  8
0
100
AcDbCircle
 10
633.585343
 20
396.372872
 30
0.0
 40
1.0
100
AcDbArc
 50
90.0
 51
180.0
  0
LINE
  5
21EAF
100
AcDbEntity
  8
0
100
AcDbLine
 10
633.585343
 20
397.372872
 30
0.0
 11
635.332391
 21
397.372872
 31
0.0
  0
ARC
  5
21EB0
100
AcDbEntity
  8
0
100
AcDbCircle
 10
633.585343
 20
396.372872
 30
0.0
 40
1.0
100
AcDbArc
 50
90.0
 51
180.0
  0
LINE
  5
21EB1
100
AcDbEntity
  8
0
100
AcDbLine
 10
633.585343
 20
397.372872
 30
0.0
 11
635.332391
 21
397.372872
 31
0.0
  0
LINE
  5
21EB2
100
AcDbEntity
  8
0
100
AcDbLine
 10
653.827984
 20
392.630231
 30
0.0
 11
649.928489
 21
396.529726
 31
0.0
  0
ARC
  5
21EB3
100
AcDbEntity
  8
0
100
AcDbCircle
 10
649.346174
 20
406.872345
 30
0.0
 40
1.0
100
AcDbArc
 50
359.990253
 51
90.009747
  0
LINE
  5
21EB4
100
AcDbEntity
  8
0
100
AcDbLine
 10
649.346004
 20
407.872345
 30
0.0
 11
648.585996
 21
407.872345
 31
0.0
  0
LINE
  5
21EB5
100
AcDbEntity
  8
0
100
AcDbLine
 10
648.585996
 20
407.872345
 30
0.0
 11
649.346004
 21
407.872345
 31
0.0
  0
ARC
  5
21EB6
100
AcDbEntity
  8
0
100
AcDbCircle
 10
649.585343
 20
388.38759
 30
0.0
 40
6.0
100
AcDbArc
 50
0.0
 51
45.0
  0
ARC
  5
21EBA
100
AcDbEntity
  8
0
100
AcDbCircle
 10
648.585826
 20
408.872345
 30
0.0
 40
1.0
100
AcDbArc
 50
179.990253
 51
270.009747
  0
ARC
  5
21EBB
100
AcDbEntity
  8
0
100
AcDbCircle
 10
655.585343
 20
402.18658
 30
0.0
 40
8.0
100
AcDbArc
 50
180.0
 51
225.0
  0
ARC
  5
21EBC
100
AcDbEntity
  8
0
100
AcDbCircle
 10
649.346174
 20
418.872526
 30
0.0
 40
1.0
100
AcDbArc
 50
269.990253
 51
0.009747
  0
LINE
  5
21EBD
100
AcDbEntity
  8
0
100
AcDbLine
 10
649.346004
 20
417.872526
 30
0.0
 11
648.585996
 21
417.872526
 31
0.0
  0
ARC
  5
21EBE
100
AcDbEntity
  8
0
100
AcDbCircle
 10
648.585826
 20
416.872526
 30
0.0
 40
1.0
100
AcDbArc
 50
89.990253
 51
180.009747
  0
LINE
  5
21EBF
100
AcDbEntity
  8
0
100
AcDbLine
 10
649.085343
 20
424.372872
 30
0.0
 11
647.585343
 21
422.872872
 31
0.0
  0
LINE
  5
21EC0
100
AcDbEntity
  8
0
100
AcDbLine
 10
686.585343
 20
422.872872
 30
0.0
 11
686.585343
 21
402.18658
 31
0.0
  0
LINE
  5
21EC1
100
AcDbEntity
  8
0
100
AcDbLine
 10
683.825272
 20
416.978757
 30
0.0
 11
683.825272
 21
408.880875
 31
0.0
  0
LINE
  5
21EC2
100
AcDbEntity
  8
0
100
AcDbLine
 10
686.58562
 20
416.872356
 30
0.0
 11
686.58562
 21
408.872515
 31
0.0
  0
LINE
  5
21EC3
100
AcDbEntity
  8
0
100
AcDbLine
 10
699.057988
 20
392.372872
 30
0.0
 11
700.104277
 21
392.372872
 31
0.0
  0
ARC
  5
21EC5
100
AcDbEntity
  8
0
100
AcDbCircle
 10
685.58486
 20
408.872345
 30
0.0
 40
1.0
100
AcDbArc
 50
269.990253
 51
0.009747
  0
ARC
  5
21EC6
100
AcDbEntity
  8
0
100
AcDbCircle
 10
678.585343
 20
402.18658
 30
0.0
 40
8.0
100
AcDbArc
 50
315.0
 51
0.0
  0
LINE
  5
21EC7
100
AcDbEntity
  8
0
100
AcDbLine
 10
685.58469
 20
407.872345
 30
0.0
 11
684.824682
 21
407.872345
 31
0.0
  0
ARC
  5
21EC8
100
AcDbEntity
  8
0
100
AcDbCircle
 10
684.824512
 20
406.872345
 30
0.0
 40
1.0
100
AcDbArc
 50
89.990253
 51
180.009747
  0
LINE
  5
21EC9
100
AcDbEntity
  8
0
100
AcDbLine
 10
684.824682
 20
407.872345
 30
0.0
 11
685.58469
 21
407.872345
 31
0.0
  0
LINE
  5
21ECA
100
AcDbEntity
  8
0
100
AcDbLine
 10
680.342703
 20
392.630231
 30
0.0
 11
684.242198
 21
396.529726
 31
0.0
  0
ARC
  5
21ECC
100
AcDbEntity
  8
0
100
AcDbCircle
 10
684.585343
 20
388.38759
 30
0.0
 40
6.0
100
AcDbArc
 50
135.0
 51
180.0
  0
LINE
  5
21ECE
100
AcDbEntity
  8
0
100
AcDbLine
 10
684.824682
 20
417.872526
 30
0.0
 11
685.58469
 21
417.872526
 31
0.0
  0
ARC
  5
21ECF
100
AcDbEntity
  8
0
100
AcDbCircle
 10
684.824512
 20
418.872526
 30
0.0
 40
1.0
100
AcDbArc
 50
179.990253
 51
270.009747
  0
ARC
  5
21ED0
100
AcDbEntity
  8
0
100
AcDbCircle
 10
685.58486
 20
416.872526
 30
0.0
 40
1.0
100
AcDbArc
 50
359.990253
 51
90.009747
  0
LINE
  5
21ED1
100
AcDbEntity
  8
0
100
AcDbLine
 10
685.085343
 20
424.372872
 30
0.0
 11
686.585343
 21
422.872872
 31
0.0
  0
LINE
  5
21ED9
100
AcDbEntity
  8
0
100
AcDbLine
 10
277.744837
 20
424.372872
 30
0.0
 11
241.744837
 21
424.372872
 31
0.0
  0
ARC
  5
21EDA
100
AcDbEntity
  8
0
100
AcDbCircle
 10
259.744837
 20
382.372872
 30
0.0
 40
33.5
100
AcDbArc
 50
73.527355
 51
106.472645
  0
LINE
  5
21EDB
100
AcDbEntity
  8
0
100
AcDbLine
 10
243.004908
 20
416.978757
 30
0.0
 11
243.004908
 21
412.604719
 31
0.0
  0
LINE
  5
21EDC
100
AcDbEntity
  8
0
100
AcDbLine
 10
240.244837
 20
422.872872
 30
0.0
 11
240.244837
 21
411.578162
 31
0.0
  0
LINE
  5
21EDD
100
AcDbEntity
  8
0
100
AcDbLine
 10
240.244837
 20
422.872872
 30
0.0
 11
240.244837
 21
411.578162
 31
0.0
  0
ARC
  5
21EDF
100
AcDbEntity
  8
0
100
AcDbCircle
 10
241.24532
 20
416.872526
 30
0.0
 40
1.0
100
AcDbArc
 50
89.990253
 51
180.009747
  0
LINE
  5
21EE0
100
AcDbEntity
  8
0
100
AcDbLine
 10
241.744837
 20
424.372872
 30
0.0
 11
240.244837
 21
422.872872
 31
0.0
  0
LINE
  5
21EE1
100
AcDbEntity
  8
0
100
AcDbLine
 10
242.005498
 20
417.872526
 30
0.0
 11
241.24549
 21
417.872526
 31
0.0
  0
ARC
  5
21EE2
100
AcDbEntity
  8
0
100
AcDbCircle
 10
242.005668
 20
418.872526
 30
0.0
 40
1.0
100
AcDbArc
 50
269.990253
 51
0.009747
  0
LINE
  5
21EE3
100
AcDbEntity
  8
0
100
AcDbLine
 10
276.484766
 20
416.978757
 30
0.0
 11
276.484766
 21
412.604719
 31
0.0
  0
LINE
  5
21EE4
100
AcDbEntity
  8
0
100
AcDbLine
 10
279.245114
 20
416.872356
 30
0.0
 11
279.245114
 21
411.57805
 31
0.0
  0
LINE
  5
21EE5
100
AcDbEntity
  8
0
100
AcDbLine
 10
279.244837
 20
422.872872
 30
0.0
 11
279.244837
 21
411.578162
 31
0.0
  0
LINE
  5
21EEC
100
AcDbEntity
  8
0
100
AcDbLine
 10
277.744837
 20
424.372872
 30
0.0
 11
279.244837
 21
422.872872
 31
0.0
  0
ARC
  5
21EED
100
AcDbEntity
  8
0
100
AcDbCircle
 10
278.244354
 20
416.872526
 30
0.0
 40
1.0
100
AcDbArc
 50
359.990253
 51
90.009747
  0
ARC
  5
21EEE
100
AcDbEntity
  8
0
100
AcDbCircle
 10
277.484006
 20
418.872526
 30
0.0
 40
1.0
100
AcDbArc
 50
179.990253
 51
270.009747
  0
LINE
  5
21EEF
100
AcDbEntity
  8
0
100
AcDbLine
 10
277.484176
 20
417.872526
 30
0.0
 11
278.244184
 21
417.872526
 31
0.0
  0
LINE
  5
21EF2
100
AcDbEntity
  8
0
100
AcDbLine
 10
652.192189
 20
445.372872
 30
0.0
 11
656.235343
 21
441.630941
 31
0.0
  0
LINE
  5
21EF3
100
AcDbEntity
  8
0
100
AcDbLine
 10
667.085343
 20
459.372872
 30
0.0
 11
619.585343
 21
459.372872
 31
0.0
  0
LINE
  5
21EF4
100
AcDbEntity
  8
0
100
AcDbLine
 10
714.585343
 20
445.372872
 30
0.0
 11
619.585343
 21
445.372872
 31
0.0
  0
LINE
  5
21EF5
100
AcDbEntity
  8
0
100
AcDbLine
 10
619.585343
 20
445.372872
 30
0.0
 11
619.585343
 21
459.372872
 31
0.0
  0
LINE
  5
21EF6
100
AcDbEntity
  8
0
100
AcDbLine
 10
681.978497
 20
445.372872
 30
0.0
 11
677.935343
 21
441.630941
 31
0.0
  0
LINE
  5
21EF7
100
AcDbEntity
  8
0
100
AcDbLine
 10
656.235343
 20
441.630941
 30
0.0
 11
677.935343
 21
441.630941
 31
0.0
  0
LINE
  5
21EF8
100
AcDbEntity
  8
0
100
AcDbLine
 10
656.235343
 20
428.114803
 30
0.0
 11
677.935343
 21
428.114803
 31
0.0
  0
LINE
  5
21EF9
100
AcDbEntity
  8
0
100
AcDbLine
 10
677.935343
 20
441.630941
 30
0.0
 11
677.935343
 21
428.114803
 31
0.0
  0
LINE
  5
21EFA
100
AcDbEntity
  8
0
100
AcDbLine
 10
656.235343
 20
441.630941
 30
0.0
 11
656.235343
 21
428.114803
 31
0.0
  0
LINE
  5
21EFB
100
AcDbEntity
  8
0
100
AcDbLine
 10
667.085343
 20
459.372872
 30
0.0
 11
714.585343
 21
459.372872
 31
0.0
  0
LINE
  5
21EFC
100
AcDbEntity
  8
0
100
AcDbLine
 10
714.585343
 20
445.372872
 30
0.0
 11
714.585343
 21
459.372872
 31
0.0
  0
LINE
  5
21EFD
100
AcDbEntity
  8
0
100
AcDbLine
 10
652.192189
 20
424.372872
 30
0.0
 11
656.235343
 21
428.114803
 31
0.0
  0
LINE
  5
21EFE
100
AcDbEntity
  8
0
100
AcDbLine
 10
681.978497
 20
424.372872
 30
0.0
 11
677.935343
 21
428.114803
 31
0.0
  0
LINE
  5
21EFF
100
AcDbEntity
  8
0
100
AcDbLine
 10
652.192189
 20
344.372872
 30
0.0
 11
656.235343
 21
340.630941
 31
0.0
  0
LINE
  5
21F00
100
AcDbEntity
  8
0
100
AcDbLine
 10
652.192189
 20
323.372872
 30
0.0
 11
656.235343
 21
327.114803
 31
0.0
  0
LINE
  5
21F01
100
AcDbEntity
  8
0
100
AcDbLine
 10
681.978497
 20
323.372872
 30
0.0
 11
677.935343
 21
327.114803
 31
0.0
  0
LINE
  5
21F02
100
AcDbEntity
  8
0
100
AcDbLine
 10
681.978497
 20
344.372872
 30
0.0
 11
677.935343
 21
340.630941
 31
0.0
  0
LINE
  5
21F03
100
AcDbEntity
  8
0
100
AcDbLine
 10
677.935343
 20
327.114803
 30
0.0
 11
677.935343
 21
340.630941
 31
0.0
  0
LINE
  5
21F04
100
AcDbEntity
  8
0
100
AcDbLine
 10
656.235343
 20
327.114803
 30
0.0
 11
656.235343
 21
340.630941
 31
0.0
  0
LINE
  5
21F05
100
AcDbEntity
  8
0
100
AcDbLine
 10
656.235343
 20
340.630941
 30
0.0
 11
677.935343
 21
340.630941
 31
0.0
  0
LINE
  5
21F06
100
AcDbEntity
  8
0
100
AcDbLine
 10
656.235343
 20
327.114803
 30
0.0
 11
677.935343
 21
327.114803
 31
0.0
  0
LINE
  5
21F07
100
AcDbEntity
  8
0
100
AcDbLine
 10
714.585343
 20
323.372872
 30
0.0
 11
619.585343
 21
323.372872
 31
0.0
  0
LINE
  5
21F08
100
AcDbEntity
  8
0
100
AcDbLine
 10
667.085343
 20
309.372872
 30
0.0
 11
619.585343
 21
309.372872
 31
0.0
  0
LINE
  5
21F09
100
AcDbEntity
  8
0
100
AcDbLine
 10
619.585343
 20
323.372872
 30
0.0
 11
619.585343
 21
309.372872
 31
0.0
  0
LINE
  5
21F0A
100
AcDbEntity
  8
0
100
AcDbLine
 10
667.085343
 20
309.372872
 30
0.0
 11
714.585343
 21
309.372872
 31
0.0
  0
LINE
  5
21F0B
100
AcDbEntity
  8
0
100
AcDbLine
 10
714.585343
 20
323.372872
 30
0.0
 11
714.585343
 21
309.372872
 31
0.0
  0
LINE
  5
21F0E
100
AcDbEntity
  8
0
100
AcDbLine
 10
259.744837
 20
459.372872
 30
0.0
 11
307.244837
 21
459.372872
 31
0.0
  0
LINE
  5
21F0F
100
AcDbEntity
  8
0
100
AcDbLine
 10
248.894837
 20
428.114803
 30
0.0
 11
270.594837
 21
428.114803
 31
0.0
  0
LINE
  5
21F10
100
AcDbEntity
  8
0
100
AcDbLine
 10
248.894837
 20
441.630941
 30
0.0
 11
270.594837
 21
441.630941
 31
0.0
  0
LINE
  5
21F11
100
AcDbEntity
  8
0
100
AcDbLine
 10
307.244837
 20
445.372872
 30
0.0
 11
212.244837
 21
445.372872
 31
0.0
  0
LINE
  5
21F12
100
AcDbEntity
  8
0
100
AcDbLine
 10
244.851683
 20
445.372872
 30
0.0
 11
248.894837
 21
441.630941
 31
0.0
  0
LINE
  5
21F13
100
AcDbEntity
  8
0
100
AcDbLine
 10
248.894837
 20
441.630941
 30
0.0
 11
248.894837
 21
428.114803
 31
0.0
  0
LINE
  5
21F14
100
AcDbEntity
  8
0
100
AcDbLine
 10
259.744837
 20
459.372872
 30
0.0
 11
212.244837
 21
459.372872
 31
0.0
  0
LINE
  5
21F15
100
AcDbEntity
  8
0
100
AcDbLine
 10
212.244837
 20
445.372872
 30
0.0
 11
212.244837
 21
459.372872
 31
0.0
  0
LINE
  5
21F16
100
AcDbEntity
  8
0
100
AcDbLine
 10
274.637991
 20
445.372872
 30
0.0
 11
270.594837
 21
441.630941
 31
0.0
  0
LINE
  5
21F17
100
AcDbEntity
  8
0
100
AcDbLine
 10
270.594837
 20
441.630941
 30
0.0
 11
270.594837
 21
428.114803
 31
0.0
  0
LINE
  5
21F18
100
AcDbEntity
  8
0
100
AcDbLine
 10
307.244837
 20
445.372872
 30
0.0
 11
307.244837
 21
459.372872
 31
0.0
  0
LINE
  5
21F19
100
AcDbEntity
  8
0
100
AcDbLine
 10
274.637991
 20
424.372872
 30
0.0
 11
270.594837
 21
428.114803
 31
0.0
  0
LINE
  5
21F1A
100
AcDbEntity
  8
0
100
AcDbLine
 10
244.851683
 20
424.372872
 30
0.0
 11
248.894837
 21
428.114803
 31
0.0
  0
LINE
  5
21F1B
100
AcDbEntity
  8
0
100
AcDbLine
 10
307.244837
 20
323.372872
 30
0.0
 11
292.971332
 21
323.372872
 31
0.0
  0
LINE
  5
21F1F
100
AcDbEntity
  8
0
100
AcDbLine
 10
259.744837
 20
309.372872
 30
0.0
 11
212.244837
 21
309.372872
 31
0.0
  0
LINE
  5
21F20
100
AcDbEntity
  8
0
100
AcDbLine
 10
212.244837
 20
323.372872
 30
0.0
 11
212.244837
 21
309.372872
 31
0.0
  0
LINE
  5
21F21
100
AcDbEntity
  8
0
100
AcDbLine
 10
259.744837
 20
309.372872
 30
0.0
 11
307.244837
 21
309.372872
 31
0.0
  0
LINE
  5
21F22
100
AcDbEntity
  8
0
100
AcDbLine
 10
307.244837
 20
323.372872
 30
0.0
 11
307.244837
 21
309.372872
 31
0.0
  0
LINE
  5
21F30
100
AcDbEntity
  8
0
100
AcDbLine
 10
867.495085
 20
424.372872
 30
0.0
 11
831.495085
 21
424.372872
 31
0.0
  0
ARC
  5
21F31
100
AcDbEntity
  8
0
100
AcDbCircle
 10
849.495085
 20
382.372872
 30
0.0
 40
33.5
100
AcDbArc
 50
73.527355
 51
106.472645
  0
LINE
  5
21F3B
100
AcDbEntity
  8
0
100
AcDbLine
 10
832.755156
 20
416.978757
 30
0.0
 11
832.755156
 21
412.604719
 31
0.0
  0
LINE
  5
21F3C
100
AcDbEntity
  8
0
100
AcDbLine
 10
829.995085
 20
422.872872
 30
0.0
 11
829.995085
 21
411.578162
 31
0.0
  0
LINE
  5
21F3D
100
AcDbEntity
  8
0
100
AcDbLine
 10
829.995085
 20
422.872872
 30
0.0
 11
829.995085
 21
411.578162
 31
0.0
  0
ARC
  5
21F41
100
AcDbEntity
  8
0
100
AcDbCircle
 10
830.995568
 20
416.872526
 30
0.0
 40
1.0
100
AcDbArc
 50
89.990253
 51
180.009747
  0
LINE
  5
21F42
100
AcDbEntity
  8
0
100
AcDbLine
 10
831.495085
 20
424.372872
 30
0.0
 11
829.995085
 21
422.872872
 31
0.0
  0
LINE
  5
21F43
100
AcDbEntity
  8
0
100
AcDbLine
 10
831.755746
 20
417.872526
 30
0.0
 11
830.995738
 21
417.872526
 31
0.0
  0
ARC
  5
21F44
100
AcDbEntity
  8
0
100
AcDbCircle
 10
831.755916
 20
418.872526
 30
0.0
 40
1.0
100
AcDbArc
 50
269.990253
 51
0.009747
  0
LINE
  5
21F4C
100
AcDbEntity
  8
0
100
AcDbLine
 10
866.235014
 20
416.978757
 30
0.0
 11
866.235014
 21
412.604719
 31
0.0
  0
LINE
  5
21F4D
100
AcDbEntity
  8
0
100
AcDbLine
 10
868.995362
 20
416.872356
 30
0.0
 11
868.995362
 21
411.57805
 31
0.0
  0
LINE
  5
21F4E
100
AcDbEntity
  8
0
100
AcDbLine
 10
868.995085
 20
422.872872
 30
0.0
 11
868.995085
 21
411.578162
 31
0.0
  0
LINE
  5
21F58
100
AcDbEntity
  8
0
100
AcDbLine
 10
867.495085
 20
424.372872
 30
0.0
 11
868.995085
 21
422.872872
 31
0.0
  0
ARC
  5
21F59
100
AcDbEntity
  8
0
100
AcDbCircle
 10
867.994602
 20
416.872526
 30
0.0
 40
1.0
100
AcDbArc
 50
359.990253
 51
90.009747
  0
ARC
  5
21F5A
100
AcDbEntity
  8
0
100
AcDbCircle
 10
867.234254
 20
418.872526
 30
0.0
 40
1.0
100
AcDbArc
 50
179.990253
 51
270.009747
  0
LINE
  5
21F5B
100
AcDbEntity
  8
0
100
AcDbLine
 10
867.234424
 20
417.872526
 30
0.0
 11
867.994432
 21
417.872526
 31
0.0
  0
ARC
  5
21F61
100
AcDbEntity
  8
0
100
AcDbCircle
 10
1258.757593
 20
382.372872
 30
0.0
 40
33.5
100
AcDbArc
 50
125.597645
 51
234.402355
  0
ARC
  5
21F62
100
AcDbEntity
  8
0
100
AcDbCircle
 10
1258.757593
 20
382.372872
 30
0.0
 40
33.5
100
AcDbArc
 50
305.597645
 51
54.402355
  0
LINE
  5
21F63
100
AcDbEntity
  8
0
100
AcDbLine
 10
1278.257593
 20
345.872872
 30
0.0
 11
1278.257593
 21
359.213675
 31
0.0
  0
LINE
  5
21F64
100
AcDbEntity
  8
0
100
AcDbLine
 10
1278.257593
 20
345.872872
 30
0.0
 11
1278.257593
 21
362.559163
 31
0.0
  0
LINE
  5
21F65
100
AcDbEntity
  8
0
100
AcDbLine
 10
1275.497523
 20
351.766987
 30
0.0
 11
1275.497523
 21
359.864868
 31
0.0
  0
LINE
  5
21F66
100
AcDbEntity
  8
0
100
AcDbLine
 10
1278.25787
 20
351.873388
 30
0.0
 11
1278.25787
 21
359.873228
 31
0.0
  0
LINE
  5
21F67
100
AcDbEntity
  8
0
100
AcDbLine
 10
1239.257593
 20
345.872872
 30
0.0
 11
1239.257593
 21
362.559163
 31
0.0
  0
LINE
  5
21F68
100
AcDbEntity
  8
0
100
AcDbLine
 10
1239.257316
 20
351.873388
 30
0.0
 11
1239.257316
 21
359.873228
 31
0.0
  0
LINE
  5
21F69
100
AcDbEntity
  8
0
100
AcDbLine
 10
1242.017664
 20
351.766987
 30
0.0
 11
1242.017664
 21
359.864868
 31
0.0
  0
POLYLINE
  5
21F6A
100
AcDbEntity
  8
0
100
AcDb2dPolyline
 66
     1
 10
0.0
 20
0.0
 30
0.0
  0
VERTEX
  5
23562
100
AcDbEntity
  8
0
100
AcDbVertex
100
AcDb2dVertex
 10
1250.803838
 20
357.174045
 30
0.0
  0
VERTEX
  5
23563
100
AcDbEntity
  8
0
100
AcDbVertex
100
AcDb2dVertex
 10
1256.438854
 20
355.144491
 30
0.0
  0
SEQEND
  5
23564
100
AcDbEntity
  8
0
  0
POLYLINE
  5
21F6B
100
AcDbEntity
  8
0
100
AcDb2dPolyline
 66
     1
 10
0.0
 20
0.0
 30
0.0
  0
VERTEX
  5
23565
100
AcDbEntity
  8
0
100
AcDbVertex
100
AcDb2dVertex
 10
1261.076333
 20
355.144491
 30
0.0
  0
VERTEX
  5
23566
100
AcDbEntity
  8
0
100
AcDbVertex
100
AcDb2dVertex
 10
1266.711348
 20
357.174045
 30
0.0
  0
SEQEND
  5
23567
100
AcDbEntity
  8
0
  0
LINE
  5
21F74
100
AcDbEntity
  8
0
100
AcDbLine
 10
1240.757593
 20
344.372872
 30
0.0
 11
1276.757593
 21
344.372872
 31
0.0
  0
ELLIPSE
  5
21F75
100
AcDbEntity
  8
0
100
AcDbEllipse
 10
1258.757593
 20
363.289611
 30
0.0
 11
11.75
 21
0.0
 31
0.0
210
0.0
220
0.0
230
1.0
 40
0.707107
 41
4.513745654064261
 42
4.911032306705117
  0
ARC
  5
21F79
100
AcDbEntity
  8
0
100
AcDbCircle
 10
1240.258076
 20
351.873218
 30
0.0
 40
1.0
100
AcDbArc
 50
179.990253
 51
270.009747
  0
LINE
  5
21F7A
100
AcDbEntity
  8
0
100
AcDbLine
 10
1240.757593
 20
344.372872
 30
0.0
 11
1239.257593
 21
345.872872
 31
0.0
  0
LINE
  5
21F7B
100
AcDbEntity
  8
0
100
AcDbLine
 10
1241.018254
 20
350.873218
 30
0.0
 11
1240.258247
 21
350.873218
 31
0.0
  0
ARC
  5
21F7C
100
AcDbEntity
  8
0
100
AcDbCircle
 10
1241.018424
 20
349.873218
 30
0.0
 40
1.0
100
AcDbArc
 50
359.990253
 51
90.009747
  0
LINE
  5
21F7D
100
AcDbEntity
  8
0
100
AcDbLine
 10
1276.757593
 20
344.372872
 30
0.0
 11
1278.257593
 21
345.872872
 31
0.0
  0
LINE
  5
21F7E
100
AcDbEntity
  8
0
100
AcDbLine
 10
1276.496933
 20
350.873218
 30
0.0
 11
1277.25694
 21
350.873218
 31
0.0
  0
ARC
  5
21F7F
100
AcDbEntity
  8
0
100
AcDbCircle
 10
1276.496763
 20
349.873218
 30
0.0
 40
1.0
100
AcDbArc
 50
89.990253
 51
180.009747
  0
ARC
  5
21F80
100
AcDbEntity
  8
0
100
AcDbCircle
 10
1277.25711
 20
351.873218
 30
0.0
 40
1.0
100
AcDbArc
 50
269.990253
 51
0.009747
  0
LINE
  5
21F87
100
AcDbEntity
  8
0
100
AcDbLine
 10
1278.25787
 20
416.872356
 30
0.0
 11
1278.25787
 21
408.872515
 31
0.0
  0
LINE
  5
21F88
100
AcDbEntity
  8
0
100
AcDbLine
 10
1275.497523
 20
416.978757
 30
0.0
 11
1275.497523
 21
408.880875
 31
0.0
  0
LINE
  5
21F89
100
AcDbEntity
  8
0
100
AcDbLine
 10
1278.257593
 20
422.872872
 30
0.0
 11
1278.257593
 21
402.18658
 31
0.0
  0
LINE
  5
21F8A
100
AcDbEntity
  8
0
100
AcDbLine
 10
1239.257316
 20
416.872356
 30
0.0
 11
1239.257316
 21
408.872515
 31
0.0
  0
LINE
  5
21F8B
100
AcDbEntity
  8
0
100
AcDbLine
 10
1239.257593
 20
422.872872
 30
0.0
 11
1239.257593
 21
402.18658
 31
0.0
  0
LINE
  5
21F8C
100
AcDbEntity
  8
0
100
AcDbLine
 10
1242.017664
 20
416.978757
 30
0.0
 11
1242.017664
 21
408.880875
 31
0.0
  0
POLYLINE
  5
21F8D
100
AcDbEntity
  8
0
100
AcDb2dPolyline
 66
     1
 10
0.0
 20
0.0
 30
0.0
 70
     1
  0
VERTEX
  5
23568
100
AcDbEntity
  8
0
100
AcDbVertex
100
AcDb2dVertex
 10
1240.408658
 20
386.500389
 30
0.0
  0
VERTEX
  5
23569
100
AcDbEntity
  8
0
100
AcDbVertex
100
AcDb2dVertex
 10
1233.258658
 20
390.628443
 30
0.0
  0
VERTEX
  5
2356A
100
AcDbEntity
  8
0
100
AcDbVertex
100
AcDb2dVertex
 10
1226.108658
 20
386.500389
 30
0.0
  0
VERTEX
  5
2356B
100
AcDbEntity
  8
0
100
AcDbVertex
100
AcDb2dVertex
 10
1226.108658
 20
378.24428
 30
0.0
  0
VERTEX
  5
2356C
100
AcDbEntity
  8
0
100
AcDbVertex
100
AcDb2dVertex
 10
1233.258658
 20
374.116225
 30
0.0
  0
VERTEX
  5
2356D
100
AcDbEntity
  8
0
100
AcDbVertex
100
AcDb2dVertex
 10
1240.408658
 20
378.24428
 30
0.0
  0
SEQEND
  5
2356E
100
AcDbEntity
  8
0
  0
CIRCLE
  5
21F8E
100
AcDbEntity
  8
0
100
AcDbCircle
 10
1233.258658
 20
382.372334
 30
0.0
 40
6.750069
  0
LINE
  5
21F8F
100
AcDbEntity
  8
0
100
AcDbLine
 10
1224.257593
 20
368.372872
 30
0.0
 11
1224.257593
 21
396.372872
 31
0.0
  0
LINE
  5
21F90
100
AcDbEntity
  8
0
100
AcDbLine
 10
1224.257593
 20
368.372872
 30
0.0
 11
1224.257593
 21
396.372872
 31
0.0
  0
ARC
  5
21F91
100
AcDbEntity
  8
0
100
AcDbCircle
 10
1227.004641
 20
364.372872
 30
0.0
 40
3.0
100
AcDbArc
 50
29.547878
 51
90.0
  0
ARC
  5
21F92
100
AcDbEntity
  8
0
100
AcDbCircle
 10
1227.004641
 20
364.372872
 30
0.0
 40
3.0
100
AcDbArc
 50
29.547878
 51
90.0
  0
LINE
  5
21F93
100
AcDbEntity
  8
0
100
AcDbLine
 10
1225.257593
 20
367.372872
 30
0.0
 11
1227.004641
 21
367.372872
 31
0.0
  0
LINE
  5
21F94
100
AcDbEntity
  8
0
100
AcDbLine
 10
1225.257593
 20
367.372872
 30
0.0
 11
1227.004641
 21
367.372872
 31
0.0
  0
ARC
  5
21F95
100
AcDbEntity
  8
0
100
AcDbCircle
 10
1225.257593
 20
368.372872
 30
0.0
 40
1.0
100
AcDbArc
 50
180.0
 51
270.0
  0
ARC
  5
21F96
100
AcDbEntity
  8
0
100
AcDbCircle
 10
1225.257593
 20
368.372872
 30
0.0
 40
1.0
100
AcDbArc
 50
180.0
 51
270.0
  0
ARC
  5
21F97
100
AcDbEntity
  8
0
100
AcDbCircle
 10
1227.004641
 20
400.372872
 30
0.0
 40
3.0
100
AcDbArc
 50
270.0
 51
330.452122
  0
ARC
  5
21F98
100
AcDbEntity
  8
0
100
AcDbCircle
 10
1227.004641
 20
400.372872
 30
0.0
 40
3.0
100
AcDbArc
 50
270.0
 51
330.452122
  0
LINE
  5
21F99
100
AcDbEntity
  8
0
100
AcDbLine
 10
1225.257593
 20
397.372872
 30
0.0
 11
1227.004641
 21
397.372872
 31
0.0
  0
LINE
  5
21F9A
100
AcDbEntity
  8
0
100
AcDbLine
 10
1225.257593
 20
397.372872
 30
0.0
 11
1227.004641
 21
397.372872
 31
0.0
  0
ARC
  5
21F9B
100
AcDbEntity
  8
0
100
AcDbCircle
 10
1225.257593
 20
396.372872
 30
0.0
 40
1.0
100
AcDbArc
 50
90.0
 51
180.0
  0
ARC
  5
21F9C
100
AcDbEntity
  8
0
100
AcDbCircle
 10
1225.257593
 20
396.372872
 30
0.0
 40
1.0
100
AcDbArc
 50
90.0
 51
180.0
  0
ARC
  5
21F9D
100
AcDbEntity
  8
0
100
AcDbCircle
 10
1258.757593
 20
382.372872
 30
0.0
 40
34.5
100
AcDbArc
 50
343.15072
 51
16.84928
  0
CIRCLE
  5
21F9E
100
AcDbEntity
  8
0
100
AcDbCircle
 10
1284.256529
 20
382.372334
 30
0.0
 40
6.750069
  0
POLYLINE
  5
21F9F
100
AcDbEntity
  8
0
100
AcDb2dPolyline
 66
     1
 10
0.0
 20
0.0
 30
0.0
 70
     1
  0
VERTEX
  5
2356F
100
AcDbEntity
  8
0
100
AcDbVertex
100
AcDb2dVertex
 10
1291.406529
 20
378.24428
 30
0.0
  0
VERTEX
  5
23570
100
AcDbEntity
  8
0
100
AcDbVertex
100
AcDb2dVertex
 10
1284.256529
 20
374.116225
 30
0.0
  0
VERTEX
  5
23571
100
AcDbEntity
  8
0
100
AcDbVertex
100
AcDb2dVertex
 10
1277.106529
 20
378.24428
 30
0.0
  0
VERTEX
  5
23572
100
AcDbEntity
  8
0
100
AcDbVertex
100
AcDb2dVertex
 10
1277.106529
 20
386.500389
 30
0.0
  0
VERTEX
  5
23573
100
AcDbEntity
  8
0
100
AcDbVertex
100
AcDb2dVertex
 10
1284.256529
 20
390.628443
 30
0.0
  0
VERTEX
  5
23574
100
AcDbEntity
  8
0
100
AcDbVertex
100
AcDb2dVertex
 10
1291.406529
 20
386.500389
 30
0.0
  0
SEQEND
  5
23575
100
AcDbEntity
  8
0
  0
LINE
  5
21FA0
100
AcDbEntity
  8
0
100
AcDbLine
 10
1247.257593
 20
377.481999
 30
0.0
 11
1247.257593
 21
400.0046
 31
0.0
  0
LINE
  5
21FA1
100
AcDbEntity
  8
0
100
AcDbLine
 10
1270.257593
 20
377.481999
 30
0.0
 11
1270.257593
 21
400.0046
 31
0.0
  0
ELLIPSE
  5
21FA2
100
AcDbEntity
  8
0
100
AcDbEllipse
 10
1258.757593
 20
369.653572
 30
0.0
 11
-13.5
 21
0.0
 31
0.0
210
0.0
220
0.0
230
1.0
 40
0.707107
 41
2.5232060117038
 42
6.901571949065703
  0
ELLIPSE
  5
21FA3
100
AcDbEntity
  8
0
100
AcDbEllipse
 10
1258.757593
 20
363.289611
 30
0.0
 11
-10.5
 21
0.0
 31
0.0
210
0.0
220
0.0
230
1.0
 40
0.707107
 41
0.0
 42
6.283185307179586
  0
ELLIPSE
  5
21FA4
100
AcDbEntity
  8
0
100
AcDbEllipse
 10
1258.757593
 20
368.239358
 30
0.0
 11
11.5
 21
0.0
 31
0.0
210
0.0
220
0.0
230
-1.0
 40
0.707107
 41
2.845629732092404
 42
6.579148228677147
  0
ELLIPSE
  5
21FA5
100
AcDbEntity
  8
0
100
AcDbEllipse
 10
1258.757593
 20
372.481999
 30
0.0
 11
-13.5
 21
0.0
 31
0.0
210
0.0
220
0.0
230
1.0
 40
0.707107
 41
3.141592653589793
 42
6.283185307179586
  0
POLYLINE
  5
21FA6
100
AcDbEntity
  8
0
100
AcDb2dPolyline
 66
     1
 10
0.0
 20
0.0
 30
0.0
  0
VERTEX
  5
23576
100
AcDbEntity
  8
0
100
AcDbVertex
100
AcDb2dVertex
 10
1266.711348
 20
369.405176
 30
0.0
  0
VERTEX
  5
23577
100
AcDbEntity
  8
0
100
AcDbVertex
100
AcDb2dVertex
 10
1261.076333
 20
371.43473
 30
0.0
  0
SEQEND
  5
23578
100
AcDbEntity
  8
0
  0
POLYLINE
  5
21FA7
100
AcDbEntity
  8
0
100
AcDb2dPolyline
 66
     1
 10
0.0
 20
0.0
 30
0.0
  0
VERTEX
  5
23579
100
AcDbEntity
  8
0
100
AcDbVertex
100
AcDb2dVertex
 10
1266.711348
 20
371.526497
 30
0.0
  0
VERTEX
  5
2357A
100
AcDbEntity
  8
0
100
AcDbVertex
100
AcDb2dVertex
 10
1261.076333
 20
373.556051
 30
0.0
  0
SEQEND
  5
2357B
100
AcDbEntity
  8
0
  0
ELLIPSE
  5
21FA8
100
AcDbEntity
  8
0
100
AcDbEllipse
 10
1258.757593
 20
363.289611
 30
0.0
 11
11.75
 21
0.0
 31
0.0
210
0.0
220
0.0
230
1.0
 40
0.707107
 41
1.372153000474518
 42
1.769439653115324
  0
ELLIPSE
  5
21FA9
100
AcDbEntity
  8
0
100
AcDbEllipse
 10
1258.757593
 20
365.410931
 30
0.0
 11
11.75
 21
0.0
 31
0.0
210
0.0
220
0.0
230
1.0
 40
0.707107
 41
1.372153000474518
 42
1.769439653115324
  0
POLYLINE
  5
21FAA
100
AcDbEntity
  8
0
100
AcDb2dPolyline
 66
     1
 10
0.0
 20
0.0
 30
0.0
  0
VERTEX
  5
2357C
100
AcDbEntity
  8
0
100
AcDbVertex
100
AcDb2dVertex
 10
1256.438854
 20
371.43473
 30
0.0
  0
VERTEX
  5
2357D
100
AcDbEntity
  8
0
100
AcDbVertex
100
AcDb2dVertex
 10
1250.803838
 20
369.405176
 30
0.0
  0
SEQEND
  5
2357E
100
AcDbEntity
  8
0
  0
POLYLINE
  5
21FAB
100
AcDbEntity
  8
0
100
AcDb2dPolyline
 66
     1
 10
0.0
 20
0.0
 30
0.0
  0
VERTEX
  5
2357F
100
AcDbEntity
  8
0
100
AcDbVertex
100
AcDb2dVertex
 10
1250.803838
 20
369.405176
 30
0.0
  0
VERTEX
  5
23580
100
AcDbEntity
  8
0
100
AcDbVertex
100
AcDb2dVertex
 10
1256.438854
 20
371.43473
 30
0.0
  0
SEQEND
  5
23581
100
AcDbEntity
  8
0
  0
LINE
  5
21FAC
100
AcDbEntity
  8
0
100
AcDbLine
 10
1250.803838
 20
371.526497
 30
0.0
 11
1250.803838
 21
369.405176
 31
0.0
  0
LINE
  5
21FAD
100
AcDbEntity
  8
0
100
AcDbLine
 10
1245.257593
 20
372.481999
 30
0.0
 11
1245.257593
 21
369.653572
 31
0.0
  0
ELLIPSE
  5
21FAE
100
AcDbEntity
  8
0
100
AcDbEllipse
 10
1258.757593
 20
365.410931
 30
0.0
 11
11.75
 21
0.0
 31
0.0
210
0.0
220
0.0
230
1.0
 40
0.707107
 41
2.314360047727349
 42
2.782369524304982
  0
POLYLINE
  5
21FAF
100
AcDbEntity
  8
0
100
AcDb2dPolyline
 66
     1
 10
0.0
 20
0.0
 30
0.0
  0
VERTEX
  5
23582
100
AcDbEntity
  8
0
100
AcDbVertex
100
AcDb2dVertex
 10
1247.757593
 20
368.331761
 30
0.0
  0
VERTEX
  5
23583
100
AcDbEntity
  8
0
100
AcDbVertex
100
AcDb2dVertex
 10
1247.757593
 20
360.36878
 30
0.0
  0
SEQEND
  5
23584
100
AcDbEntity
  8
0
  0
ELLIPSE
  5
21FB0
100
AcDbEntity
  8
0
100
AcDbEllipse
 10
1258.757593
 20
363.289611
 30
0.0
 11
11.75
 21
0.0
 31
0.0
210
0.0
220
0.0
230
1.0
 40
0.707107
 41
2.314360047727349
 42
2.782369524304982
  0
POLYLINE
  5
21FB1
100
AcDbEntity
  8
0
100
AcDb2dPolyline
 66
     1
 10
0.0
 20
0.0
 30
0.0
  0
VERTEX
  5
23585
100
AcDbEntity
  8
0
100
AcDbVertex
100
AcDb2dVertex
 10
1256.438854
 20
373.556051
 30
0.0
  0
VERTEX
  5
23586
100
AcDbEntity
  8
0
100
AcDbVertex
100
AcDb2dVertex
 10
1250.803838
 20
371.526497
 30
0.0
  0
SEQEND
  5
23587
100
AcDbEntity
  8
0
  0
POLYLINE
  5
21FB2
100
AcDbEntity
  8
0
100
AcDb2dPolyline
 66
     1
 10
0.0
 20
0.0
 30
0.0
  0
VERTEX
  5
23588
100
AcDbEntity
  8
0
100
AcDbVertex
100
AcDb2dVertex
 10
1250.803838
 20
371.526497
 30
0.0
  0
VERTEX
  5
23589
100
AcDbEntity
  8
0
100
AcDbVertex
100
AcDb2dVertex
 10
1256.438854
 20
373.556051
 30
0.0
  0
SEQEND
  5
2358A
100
AcDbEntity
  8
0
  0
LINE
  5
21FB3
100
AcDbEntity
  8
0
100
AcDbLine
 10
1256.438854
 20
373.556051
 30
0.0
 11
1256.438854
 21
371.43473
 31
0.0
  0
ELLIPSE
  5
21FB4
100
AcDbEntity
  8
0
100
AcDbEllipse
 10
1258.757593
 20
363.289611
 30
0.0
 11
11.75
 21
0.0
 31
0.0
210
0.0
220
0.0
230
1.0
 40
0.707107
 41
3.500815782874589
 42
3.968825259452236
  0
LINE
  5
21FB5
100
AcDbEntity
  8
0
100
AcDbLine
 10
1261.076333
 20
373.556051
 30
0.0
 11
1261.076333
 21
371.43473
 31
0.0
  0
ARC
  5
21FB6
100
AcDbEntity
  8
0
100
AcDbCircle
 10
1247.257593
 20
362.559163
 30
0.0
 40
8.0
100
AcDbArc
 50
135.0
 51
180.0
  0
ARC
  5
21FB7
100
AcDbEntity
  8
0
100
AcDbCircle
 10
1240.258076
 20
359.873399
 30
0.0
 40
1.0
100
AcDbArc
 50
89.990253
 51
180.009747
  0
LINE
  5
21FBA
100
AcDbEntity
  8
0
100
AcDbLine
 10
1241.018254
 20
360.873399
 30
0.0
 11
1240.258247
 21
360.873399
 31
0.0
  0
LINE
  5
21FBB
100
AcDbEntity
  8
0
100
AcDbLine
 10
1240.258247
 20
360.873399
 30
0.0
 11
1241.018254
 21
360.873399
 31
0.0
  0
LINE
  5
21FBD
100
AcDbEntity
  8
0
100
AcDbLine
 10
1245.257593
 20
371.872872
 30
0.0
 11
1241.600739
 21
368.216018
 31
0.0
  0
ARC
  5
21FBE
100
AcDbEntity
  8
0
100
AcDbCircle
 10
1241.018424
 20
361.873399
 30
0.0
 40
1.0
100
AcDbArc
 50
269.990253
 51
0.009747
  0
ARC
  5
21FC1
100
AcDbEntity
  8
0
100
AcDbCircle
 10
1277.25711
 20
359.873399
 30
0.0
 40
1.0
100
AcDbArc
 50
359.990253
 51
90.009747
  0
LINE
  5
21FC2
100
AcDbEntity
  8
0
100
AcDbLine
 10
1277.25694
 20
360.873399
 30
0.0
 11
1276.496933
 21
360.873399
 31
0.0
  0
ARC
  5
21FC3
100
AcDbEntity
  8
0
100
AcDbCircle
 10
1276.496763
 20
361.873399
 30
0.0
 40
1.0
100
AcDbArc
 50
179.990253
 51
270.009747
  0
LINE
  5
21FC4
100
AcDbEntity
  8
0
100
AcDbLine
 10
1276.496933
 20
360.873399
 30
0.0
 11
1277.25694
 21
360.873399
 31
0.0
  0
ARC
  5
21FC5
100
AcDbEntity
  8
0
100
AcDbCircle
 10
1270.257593
 20
362.559163
 30
0.0
 40
8.0
100
AcDbArc
 50
0.0
 51
45.0
  0
LINE
  5
21FC7
100
AcDbEntity
  8
0
100
AcDbLine
 10
1290.730238
 20
372.372872
 30
0.0
 11
1291.776527
 21
372.372872
 31
0.0
  0
LINE
  5
21FC8
100
AcDbEntity
  8
0
100
AcDbLine
 10
1272.257593
 20
372.481999
 30
0.0
 11
1272.257593
 21
369.653572
 31
0.0
  0
LINE
  5
21FC9
100
AcDbEntity
  8
0
100
AcDbLine
 10
1266.711348
 20
371.526497
 30
0.0
 11
1266.711348
 21
369.405176
 31
0.0
  0
ELLIPSE
  5
21FCA
100
AcDbEntity
  8
0
100
AcDbEllipse
 10
1258.757593
 20
365.410931
 30
0.0
 11
11.75
 21
0.0
 31
0.0
210
0.0
220
0.0
230
1.0
 40
0.707107
 41
0.359223129284924
 42
0.827232605862334
  0
POLYLINE
  5
21FCB
100
AcDbEntity
  8
0
100
AcDb2dPolyline
 66
     1
 10
0.0
 20
0.0
 30
0.0
  0
VERTEX
  5
2358B
100
AcDbEntity
  8
0
100
AcDbVertex
100
AcDb2dVertex
 10
1269.757593
 20
360.36878
 30
0.0
  0
VERTEX
  5
2358C
100
AcDbEntity
  8
0
100
AcDbVertex
100
AcDb2dVertex
 10
1269.757593
 20
368.331761
 30
0.0
  0
SEQEND
  5
2358D
100
AcDbEntity
  8
0
  0
ELLIPSE
  5
21FCC
100
AcDbEntity
  8
0
100
AcDbEllipse
 10
1258.757593
 20
363.289611
 30
0.0
 11
11.75
 21
0.0
 31
0.0
210
0.0
220
0.0
230
1.0
 40
0.707107
 41
0.359223129284924
 42
0.827232605862334
  0
ELLIPSE
  5
21FCD
100
AcDbEntity
  8
0
100
AcDbEllipse
 10
1258.757593
 20
363.289611
 30
0.0
 11
11.75
 21
0.0
 31
0.0
210
0.0
220
0.0
230
1.0
 40
0.707107
 41
5.455952701317142
 42
5.923962177894978
  0
LINE
  5
21FCE
100
AcDbEntity
  8
0
100
AcDbLine
 10
1272.257593
 20
371.872872
 30
0.0
 11
1275.914448
 21
368.216018
 31
0.0
  0
ELLIPSE
  5
21FCF
100
AcDbEntity
  8
0
100
AcDbEllipse
 10
1258.757593
 20
400.0046
 30
0.0
 11
-11.5
 21
0.0
 31
0.0
210
0.0
220
0.0
230
1.0
 40
0.707107
 41
3.141592653589793
 42
6.283185307179586
  0
ARC
  5
21FD0
100
AcDbEntity
  8
0
100
AcDbCircle
 10
1241.257593
 20
388.38759
 30
0.0
 40
6.0
100
AcDbArc
 50
0.0
 51
45.0
  0
ARC
  5
21FD1
100
AcDbEntity
  8
0
100
AcDbCircle
 10
1247.257593
 20
402.18658
 30
0.0
 40
8.0
100
AcDbArc
 50
180.0
 51
225.0
  0
ARC
  5
21FD2
100
AcDbEntity
  8
0
100
AcDbCircle
 10
1240.258076
 20
408.872345
 30
0.0
 40
1.0
100
AcDbArc
 50
179.990253
 51
270.009747
  0
LINE
  5
21FD6
100
AcDbEntity
  8
0
100
AcDbLine
 10
1240.258247
 20
407.872345
 30
0.0
 11
1241.018254
 21
407.872345
 31
0.0
  0
LINE
  5
21FD7
100
AcDbEntity
  8
0
100
AcDbLine
 10
1241.018254
 20
407.872345
 30
0.0
 11
1240.258247
 21
407.872345
 31
0.0
  0
ARC
  5
21FD8
100
AcDbEntity
  8
0
100
AcDbCircle
 10
1241.018424
 20
406.872345
 30
0.0
 40
1.0
100
AcDbArc
 50
359.990253
 51
90.009747
  0
LINE
  5
21FD9
100
AcDbEntity
  8
0
100
AcDbLine
 10
1245.500234
 20
392.630231
 30
0.0
 11
1241.600739
 21
396.529726
 31
0.0
  0
LINE
  5
21FDC
100
AcDbEntity
  8
0
100
AcDbLine
 10
1276.496933
 20
407.872345
 30
0.0
 11
1277.25694
 21
407.872345
 31
0.0
  0
ARC
  5
21FDD
100
AcDbEntity
  8
0
100
AcDbCircle
 10
1276.496763
 20
406.872345
 30
0.0
 40
1.0
100
AcDbArc
 50
89.990253
 51
180.009747
  0
LINE
  5
21FDE
100
AcDbEntity
  8
0
100
AcDbLine
 10
1277.25694
 20
407.872345
 30
0.0
 11
1276.496933
 21
407.872345
 31
0.0
  0
ARC
  5
21FDF
100
AcDbEntity
  8
0
100
AcDbCircle
 10
1270.257593
 20
402.18658
 30
0.0
 40
8.0
100
AcDbArc
 50
315.0
 51
0.0
  0
ARC
  5
21FE0
100
AcDbEntity
  8
0
100
AcDbCircle
 10
1277.25711
 20
408.872345
 30
0.0
 40
1.0
100
AcDbArc
 50
269.990253
 51
0.009747
  0
LINE
  5
21FE2
100
AcDbEntity
  8
0
100
AcDbLine
 10
1290.730238
 20
392.372872
 30
0.0
 11
1291.776527
 21
392.372872
 31
0.0
  0
ARC
  5
21FE3
100
AcDbEntity
  8
0
100
AcDbCircle
 10
1276.257593
 20
388.38759
 30
0.0
 40
6.0
100
AcDbArc
 50
135.0
 51
180.0
  0
LINE
  5
21FE4
100
AcDbEntity
  8
0
100
AcDbLine
 10
1272.014953
 20
392.630231
 30
0.0
 11
1275.914448
 21
396.529726
 31
0.0
  0
LINE
  5
21FEB
100
AcDbEntity
  8
0
100
AcDbLine
 10
1240.757593
 20
424.372872
 30
0.0
 11
1276.757593
 21
424.372872
 31
0.0
  0
LINE
  5
21FEE
100
AcDbEntity
  8
0
100
AcDbLine
 10
1240.757593
 20
424.372872
 30
0.0
 11
1239.257593
 21
422.872872
 31
0.0
  0
ARC
  5
21FEF
100
AcDbEntity
  8
0
100
AcDbCircle
 10
1240.258076
 20
416.872526
 30
0.0
 40
1.0
100
AcDbArc
 50
89.990253
 51
180.009747
  0
LINE
  5
21FF0
100
AcDbEntity
  8
0
100
AcDbLine
 10
1241.018254
 20
417.872526
 30
0.0
 11
1240.258247
 21
417.872526
 31
0.0
  0
ARC
  5
21FF1
100
AcDbEntity
  8
0
100
AcDbCircle
 10
1241.018424
 20
418.872526
 30
0.0
 40
1.0
100
AcDbArc
 50
269.990253
 51
0.009747
  0
LINE
  5
21FF2
100
AcDbEntity
  8
0
100
AcDbLine
 10
1276.757593
 20
424.372872
 30
0.0
 11
1278.257593
 21
422.872872
 31
0.0
  0
ARC
  5
21FF3
100
AcDbEntity
  8
0
100
AcDbCircle
 10
1277.25711
 20
416.872526
 30
0.0
 40
1.0
100
AcDbArc
 50
359.990253
 51
90.009747
  0
ARC
  5
21FF4
100
AcDbEntity
  8
0
100
AcDbCircle
 10
1276.496763
 20
418.872526
 30
0.0
 40
1.0
100
AcDbArc
 50
179.990253
 51
270.009747
  0
LINE
  5
21FF5
100
AcDbEntity
  8
0
100
AcDbLine
 10
1276.496933
 20
417.872526
 30
0.0
 11
1277.25694
 21
417.872526
 31
0.0
  0
LINE
  5
21FF9
100
AcDbEntity
  8
0
100
AcDbLine
 10
1258.757593
 20
459.372872
 30
0.0
 11
1208.757593
 21
459.372872
 31
0.0
  0
LINE
  5
21FFD
100
AcDbEntity
  8
0
100
AcDbLine
 10
1243.864439
 20
443.372872
 30
0.0
 11
1247.907593
 21
439.630941
 31
0.0
  0
LINE
  5
21FFE
100
AcDbEntity
  8
0
100
AcDbLine
 10
1273.650748
 20
443.372872
 30
0.0
 11
1269.607593
 21
439.630941
 31
0.0
  0
LINE
  5
21FFF
100
AcDbEntity
  8
0
100
AcDbLine
 10
1247.907593
 20
428.114803
 30
0.0
 11
1269.607593
 21
428.114803
 31
0.0
  0
LINE
  5
22000
100
AcDbEntity
  8
0
100
AcDbLine
 10
1247.907593
 20
439.630941
 30
0.0
 11
1269.607593
 21
439.630941
 31
0.0
  0
LINE
  5
22001
100
AcDbEntity
  8
0
100
AcDbLine
 10
1247.907593
 20
439.630941
 30
0.0
 11
1247.907593
 21
428.114803
 31
0.0
  0
LINE
  5
22002
100
AcDbEntity
  8
0
100
AcDbLine
 10
1269.607593
 20
439.630941
 30
0.0
 11
1269.607593
 21
428.114803
 31
0.0
  0
LINE
  5
22004
100
AcDbEntity
  8
0
100
AcDbLine
 10
1273.650748
 20
424.372872
 30
0.0
 11
1269.607593
 21
428.114803
 31
0.0
  0
LINE
  5
22005
100
AcDbEntity
  8
0
100
AcDbLine
 10
1243.864439
 20
424.372872
 30
0.0
 11
1247.907593
 21
428.114803
 31
0.0
  0
LINE
  5
22006
100
AcDbEntity
  8
0
100
AcDbLine
 10
1247.907593
 20
340.630941
 30
0.0
 11
1269.607593
 21
340.630941
 31
0.0
  0
LINE
  5
22007
100
AcDbEntity
  8
0
100
AcDbLine
 10
1273.650748
 20
344.372872
 30
0.0
 11
1269.607593
 21
340.630941
 31
0.0
  0
LINE
  5
22008
100
AcDbEntity
  8
0
100
AcDbLine
 10
1269.607593
 20
329.114803
 30
0.0
 11
1269.607593
 21
340.630941
 31
0.0
  0
LINE
  5
22009
100
AcDbEntity
  8
0
100
AcDbLine
 10
1247.907593
 20
329.114803
 30
0.0
 11
1247.907593
 21
340.630941
 31
0.0
  0
LINE
  5
2200A
100
AcDbEntity
  8
0
100
AcDbLine
 10
1243.864439
 20
344.372872
 30
0.0
 11
1247.907593
 21
340.630941
 31
0.0
  0
LINE
  5
2200B
100
AcDbEntity
  8
0
100
AcDbLine
 10
1243.864439
 20
325.372872
 30
0.0
 11
1247.907593
 21
329.114803
 31
0.0
  0
LINE
  5
2200C
100
AcDbEntity
  8
0
100
AcDbLine
 10
1247.907593
 20
329.114803
 30
0.0
 11
1269.607593
 21
329.114803
 31
0.0
  0
LINE
  5
2200D
100
AcDbEntity
  8
0
100
AcDbLine
 10
1273.650748
 20
325.372872
 30
0.0
 11
1269.607593
 21
329.114803
 31
0.0
  0
LINE
  5
22013
100
AcDbEntity
  8
0
100
AcDbLine
 10
849.495085
 20
459.372872
 30
0.0
 11
799.495085
 21
459.372872
 31
0.0
  0
LINE
  5
22017
100
AcDbEntity
  8
0
100
AcDbLine
 10
834.601931
 20
443.372872
 30
0.0
 11
838.645085
 21
439.630941
 31
0.0
  0
LINE
  5
22018
100
AcDbEntity
  8
0
100
AcDbLine
 10
864.388239
 20
443.372872
 30
0.0
 11
860.345085
 21
439.630941
 31
0.0
  0
LINE
  5
22019
100
AcDbEntity
  8
0
100
AcDbLine
 10
838.645085
 20
428.114803
 30
0.0
 11
860.345085
 21
428.114803
 31
0.0
  0
LINE
  5
2201A
100
AcDbEntity
  8
0
100
AcDbLine
 10
838.645085
 20
439.630941
 30
0.0
 11
860.345085
 21
439.630941
 31
0.0
  0
LINE
  5
2201B
100
AcDbEntity
  8
0
100
AcDbLine
 10
838.645085
 20
439.630941
 30
0.0
 11
838.645085
 21
428.114803
 31
0.0
  0
LINE
  5
2201C
100
AcDbEntity
  8
0
100
AcDbLine
 10
860.345085
 20
439.630941
 30
0.0
 11
860.345085
 21
428.114803
 31
0.0
  0
LINE
  5
2201E
100
AcDbEntity
  8
0
100
AcDbLine
 10
864.388239
 20
424.372872
 30
0.0
 11
860.345085
 21
428.114803
 31
0.0
  0
LINE
  5
2201F
100
AcDbEntity
  8
0
100
AcDbLine
 10
834.601931
 20
424.372872
 30
0.0
 11
838.645085
 21
428.114803
 31
0.0
  0
LINE
  5
2203B
100
AcDbEntity
  8
0
100
AcDbLine
 10
1402.188028
 20
320.372872
 30
0.0
 11
1435.447645
 21
320.372872
 31
0.0
  0
LINE
  5
2203C
100
AcDbEntity
  8
0
100
AcDbLine
 10
1402.188028
 20
304.372872
 30
0.0
 11
1464.688028
 21
304.372872
 31
0.0
  0
LINE
  5
2203D
100
AcDbEntity
  8
0
100
AcDbLine
 10
1402.188028
 20
304.372872
 30
0.0
 11
1402.188028
 21
320.372872
 31
0.0
  0
LINE
  5
2203E
100
AcDbEntity
  8
0
100
AcDbLine
 10
1464.688028
 20
304.372872
 30
0.0
 11
1527.188028
 21
304.372872
 31
0.0
  0
LINE
  5
22051
100
AcDbEntity
  8
0
100
AcDbLine
 10
1527.188028
 20
304.372872
 30
0.0
 11
1527.188028
 21
320.372872
 31
0.0
  0
LINE
  5
22052
100
AcDbEntity
  8
0
100
AcDbLine
 10
1402.188028
 20
448.372872
 30
0.0
 11
1527.188028
 21
448.372872
 31
0.0
  0
LINE
  5
22053
100
AcDbEntity
  8
0
100
AcDbLine
 10
1402.188028
 20
464.372872
 30
0.0
 11
1464.688028
 21
464.372872
 31
0.0
  0
LINE
  5
22054
100
AcDbEntity
  8
0
100
AcDbLine
 10
1402.188028
 20
464.372872
 30
0.0
 11
1402.188028
 21
448.372872
 31
0.0
  0
LINE
  5
22055
100
AcDbEntity
  8
0
100
AcDbLine
 10
1484.188305
 20
416.872356
 30
0.0
 11
1484.188305
 21
411.57805
 31
0.0
  0
LINE
  5
22056
100
AcDbEntity
  8
0
100
AcDbLine
 10
1481.427957
 20
416.978757
 30
0.0
 11
1481.427957
 21
412.604719
 31
0.0
  0
LINE
  5
22057
100
AcDbEntity
  8
0
100
AcDbLine
 10
1484.188028
 20
422.872872
 30
0.0
 11
1484.188028
 21
411.578162
 31
0.0
  0
LINE
  5
22058
100
AcDbEntity
  8
0
100
AcDbLine
 10
1484.188028
 20
422.872872
 30
0.0
 11
1484.188028
 21
411.578162
 31
0.0
  0
LINE
  5
22059
100
AcDbEntity
  8
0
100
AcDbLine
 10
1445.187751
 20
416.872356
 30
0.0
 11
1445.187751
 21
411.57805
 31
0.0
  0
LINE
  5
2205A
100
AcDbEntity
  8
0
100
AcDbLine
 10
1447.948099
 20
416.978757
 30
0.0
 11
1447.948099
 21
412.604719
 31
0.0
  0
LINE
  5
2205B
100
AcDbEntity
  8
0
100
AcDbLine
 10
1445.188028
 20
422.872872
 30
0.0
 11
1445.188028
 21
411.578162
 31
0.0
  0
LINE
  5
220B4
100
AcDbEntity
  8
0
100
AcDbLine
 10
1464.688028
 20
464.372872
 30
0.0
 11
1527.188028
 21
464.372872
 31
0.0
  0
LINE
  5
220B5
100
AcDbEntity
  8
0
100
AcDbLine
 10
1475.538028
 20
444.630941
 30
0.0
 11
1475.538028
 21
428.114803
 31
0.0
  0
LINE
  5
220B6
100
AcDbEntity
  8
0
100
AcDbLine
 10
1453.838028
 20
444.630941
 30
0.0
 11
1453.838028
 21
428.114803
 31
0.0
  0
LINE
  5
220B7
100
AcDbEntity
  8
0
100
AcDbLine
 10
1446.688028
 20
424.372872
 30
0.0
 11
1482.688028
 21
424.372872
 31
0.0
  0
LINE
  5
220B8
100
AcDbEntity
  8
0
100
AcDbLine
 10
1475.538028
 20
428.114803
 30
0.0
 11
1453.838028
 21
428.114803
 31
0.0
  0
LINE
  5
220B9
100
AcDbEntity
  8
0
100
AcDbLine
 10
1446.948689
 20
417.872526
 30
0.0
 11
1446.188681
 21
417.872526
 31
0.0
  0
ARC
  5
220BA
100
AcDbEntity
  8
0
100
AcDbCircle
 10
1446.948859
 20
418.872526
 30
0.0
 40
1.0
100
AcDbArc
 50
269.990253
 51
0.009747
  0
ARC
  5
220BB
100
AcDbEntity
  8
0
100
AcDbCircle
 10
1446.188511
 20
416.872526
 30
0.0
 40
1.0
100
AcDbArc
 50
89.990253
 51
180.009747
  0
LINE
  5
220BC
100
AcDbEntity
  8
0
100
AcDbLine
 10
1446.688028
 20
424.372872
 30
0.0
 11
1445.188028
 21
422.872872
 31
0.0
  0
LINE
  5
220BD
100
AcDbEntity
  8
0
100
AcDbLine
 10
1449.794874
 20
424.372872
 30
0.0
 11
1453.838028
 21
428.114803
 31
0.0
  0
LINE
  5
220BE
100
AcDbEntity
  8
0
100
AcDbLine
 10
1482.688028
 20
424.372872
 30
0.0
 11
1484.188028
 21
422.872872
 31
0.0
  0
ARC
  5
220BF
100
AcDbEntity
  8
0
100
AcDbCircle
 10
1483.187545
 20
416.872526
 30
0.0
 40
1.0
100
AcDbArc
 50
359.990253
 51
90.009747
  0
ARC
  5
220C0
100
AcDbEntity
  8
0
100
AcDbCircle
 10
1482.427197
 20
418.872526
 30
0.0
 40
1.0
100
AcDbArc
 50
179.990253
 51
270.009747
  0
LINE
  5
220C1
100
AcDbEntity
  8
0
100
AcDbLine
 10
1482.427367
 20
417.872526
 30
0.0
 11
1483.187375
 21
417.872526
 31
0.0
  0
LINE
  5
220C2
100
AcDbEntity
  8
0
100
AcDbLine
 10
1479.581182
 20
424.372872
 30
0.0
 11
1475.538028
 21
428.114803
 31
0.0
  0
LINE
  5
220C3
100
AcDbEntity
  8
0
100
AcDbLine
 10
1475.538028
 20
444.630941
 30
0.0
 11
1453.838028
 21
444.630941
 31
0.0
  0
LINE
  5
220C4
100
AcDbEntity
  8
0
100
AcDbLine
 10
1449.794874
 20
448.372872
 30
0.0
 11
1453.838028
 21
444.630941
 31
0.0
  0
LINE
  5
220C5
100
AcDbEntity
  8
0
100
AcDbLine
 10
1479.581182
 20
448.372872
 30
0.0
 11
1475.538028
 21
444.630941
 31
0.0
  0
LINE
  5
220C6
100
AcDbEntity
  8
0
100
AcDbLine
 10
1527.188028
 20
464.372872
 30
0.0
 11
1527.188028
 21
448.372872
 31
0.0
  0
ARC
  5
220CE
100
AcDbEntity
  8
0
100
AcDbCircle
 10
1464.688028
 20
382.372872
 30
0.0
 40
33.5
100
AcDbArc
 50
73.527355
 51
106.472645
  0
LINE
  5
220D2
100
AcDbEntity
  8
0
100
AcDbLine
 10
421.119078
 20
882.254913
 30
0.0
 11
421.119078
 21
870.254913
 31
0.0
  0
LINE
  5
220D3
100
AcDbEntity
  8
0
100
AcDbLine
 10
382.119078
 20
890.334602
 30
0.0
 11
382.119078
 21
870.254913
 31
0.0
  0
LINE
  5
220D8
100
AcDbEntity
  8
0
100
AcDbLine
 10
409.619078
 20
875.254913
 30
0.0
 11
409.619078
 21
885.254913
 31
0.0
  0
LINE
  5
220D9
100
AcDbEntity
  8
0
100
AcDbLine
 10
393.619078
 20
875.254913
 30
0.0
 11
393.619078
 21
885.254913
 31
0.0
  0
ARC
  5
220DA
100
AcDbEntity
  8
0
100
AcDbCircle
 10
362.833037
 20
883.384686
 30
0.0
 40
3.54367
100
AcDbArc
 50
187.758785
 51
247.758785
  0
LINE
  5
220DB
100
AcDbEntity
  8
0
100
AcDbLine
 10
362.354632
 20
879.873457
 30
0.0
 11
365.576652
 21
883.095477
 31
0.0
  0
LINE
  5
220DC
100
AcDbEntity
  8
0
100
AcDbLine
 10
360.960438
 20
880.24703
 30
0.0
 11
362.354632
 21
879.873457
 31
0.0
  0
LINE
  5
220DD
100
AcDbEntity
  8
0
100
AcDbLine
 10
401.619078
 20
833.754913
 30
0.0
 11
449.119078
 21
833.754913
 31
0.0
  0
LINE
  5
220DE
100
AcDbEntity
  8
0
100
AcDbLine
 10
354.119078
 20
847.754913
 30
0.0
 11
449.119078
 21
847.754913
 31
0.0
  0
LINE
  5
220E3
100
AcDbEntity
  8
0
100
AcDbLine
 10
449.119078
 20
847.754913
 30
0.0
 11
449.119078
 21
833.754913
 31
0.0
  0
LINE
  5
220E7
100
AcDbEntity
  8
0
100
AcDbLine
 10
401.619078
 20
833.754913
 30
0.0
 11
354.119078
 21
833.754913
 31
0.0
  0
LINE
  5
220E8
100
AcDbEntity
  8
0
100
AcDbLine
 10
386.725924
 20
847.754913
 30
0.0
 11
390.769078
 21
851.496844
 31
0.0
  0
LINE
  5
220E9
100
AcDbEntity
  8
0
100
AcDbLine
 10
416.512232
 20
847.754913
 30
0.0
 11
412.469078
 21
851.496844
 31
0.0
  0
LINE
  5
220EA
100
AcDbEntity
  8
0
100
AcDbLine
 10
412.469078
 20
851.496844
 30
0.0
 11
390.769078
 21
851.496844
 31
0.0
  0
LINE
  5
220EB
100
AcDbEntity
  8
0
100
AcDbLine
 10
412.469078
 20
865.012981
 30
0.0
 11
390.769078
 21
865.012981
 31
0.0
  0
LINE
  5
220EC
100
AcDbEntity
  8
0
100
AcDbLine
 10
383.619078
 20
868.754913
 30
0.0
 11
419.619078
 21
868.754913
 31
0.0
  0
LINE
  5
220ED
100
AcDbEntity
  8
0
100
AcDbLine
 10
412.469078
 20
851.496844
 30
0.0
 11
412.469078
 21
865.012981
 31
0.0
  0
LINE
  5
220EE
100
AcDbEntity
  8
0
100
AcDbLine
 10
421.119078
 20
870.254913
 30
0.0
 11
419.619078
 21
868.754913
 31
0.0
  0
LINE
  5
220F0
100
AcDbEntity
  8
0
100
AcDbLine
 10
416.512232
 20
868.754913
 30
0.0
 11
412.469078
 21
865.012981
 31
0.0
  0
LINE
  5
220F1
100
AcDbEntity
  8
0
100
AcDbLine
 10
390.769078
 20
851.496844
 30
0.0
 11
390.769078
 21
865.012981
 31
0.0
  0
LINE
  5
220F2
100
AcDbEntity
  8
0
100
AcDbLine
 10
383.619078
 20
868.754913
 30
0.0
 11
382.119078
 21
870.254913
 31
0.0
  0
LINE
  5
220F3
100
AcDbEntity
  8
0
100
AcDbLine
 10
386.725924
 20
868.754913
 30
0.0
 11
390.769078
 21
865.012981
 31
0.0
  0
LINE
  5
220F4
100
AcDbEntity
  8
0
100
AcDbLine
 10
393.619078
 20
875.254913
 30
0.0
 11
409.619078
 21
875.254913
 31
0.0
  0
LINE
  5
220F5
100
AcDbEntity
  8
0
100
AcDbLine
 10
354.119078
 20
847.754913
 30
0.0
 11
354.119078
 21
833.754913
 31
0.0
  0
LINE
  5
220F6
100
AcDbEntity
  8
0
100
AcDbLine
 10
354.119078
 20
969.754913
 30
0.0
 11
449.119078
 21
969.754913
 31
0.0
  0
LINE
  5
220F7
100
AcDbEntity
  8
0
100
AcDbLine
 10
401.619078
 20
983.754913
 30
0.0
 11
449.119078
 21
983.754913
 31
0.0
  0
LINE
  5
22105
100
AcDbEntity
  8
0
100
AcDbLine
 10
449.119078
 20
969.754913
 30
0.0
 11
449.119078
 21
983.754913
 31
0.0
  0
LINE
  5
22106
100
AcDbEntity
  8
0
100
AcDbLine
 10
421.119078
 20
947.254913
 30
0.0
 11
421.119078
 21
931.254913
 31
0.0
  0
LINE
  5
22107
100
AcDbEntity
  8
0
100
AcDbLine
 10
409.619078
 20
942.254913
 30
0.0
 11
409.619078
 21
932.254913
 31
0.0
  0
LINE
  5
22108
100
AcDbEntity
  8
0
100
AcDbLine
 10
393.619078
 20
942.254913
 30
0.0
 11
393.619078
 21
932.254913
 31
0.0
  0
LINE
  5
22109
100
AcDbEntity
  8
0
100
AcDbLine
 10
382.119078
 20
947.254913
 30
0.0
 11
382.119078
 21
932.518369
 31
0.0
  0
ARC
  5
2210A
100
AcDbEntity
  8
0
100
AcDbCircle
 10
378.119078
 20
890.334602
 30
0.0
 40
4.0
100
AcDbArc
 50
0.0
 51
135.0
  0
LINE
  5
2210B
100
AcDbEntity
  8
0
100
AcDbLine
 10
382.119078
 20
932.518369
 30
0.0
 11
356.01069
 21
906.409981
 31
0.0
  0
LINE
  5
2210C
100
AcDbEntity
  8
0
100
AcDbLine
 10
405.219078
 20
899.604913
 30
0.0
 11
405.219078
 21
913.904913
 31
0.0
  0
LINE
  5
2210D
100
AcDbEntity
  8
0
100
AcDbLine
 10
411.619078
 20
886.595716
 30
0.0
 11
411.619078
 21
926.91411
 31
0.0
  0
ARC
  5
2210E
100
AcDbEntity
  8
0
100
AcDbCircle
 10
418.880466
 20
906.754913
 30
0.0
 40
13.661388
100
AcDbArc
 50
162.412046
 51
197.587954
  0
LINE
  5
2210F
100
AcDbEntity
  8
0
100
AcDbLine
 10
424.619078
 20
884.254913
 30
0.0
 11
424.619078
 21
929.254913
 31
0.0
  0
LINE
  5
22111
100
AcDbEntity
  8
0
100
AcDbLine
 10
405.85769
 20
902.626858
 30
0.0
 11
411.619078
 21
902.626858
 31
0.0
  0
LINE
  5
22112
100
AcDbEntity
  8
0
100
AcDbLine
 10
405.85769
 20
898.498804
 30
0.0
 11
411.619078
 21
898.498804
 31
0.0
  0
ARC
  5
22113
100
AcDbEntity
  8
0
100
AcDbCircle
 10
423.119078
 20
882.254913
 30
0.0
 40
2.0
100
AcDbArc
 50
90.0
 51
180.0
  0
LINE
  5
22114
100
AcDbEntity
  8
0
100
AcDbLine
 10
424.619078
 20
884.254913
 30
0.0
 11
423.119078
 21
884.254913
 31
0.0
  0
LINE
  5
22119
100
AcDbEntity
  8
0
100
AcDbLine
 10
424.619078
 20
886.595716
 30
0.0
 11
411.619078
 21
886.595716
 31
0.0
  0
LINE
  5
2211A
100
AcDbEntity
  8
0
100
AcDbLine
 10
421.119078
 20
884.254913
 30
0.0
 11
411.619078
 21
886.595716
 31
0.0
  0
LINE
  5
2211B
100
AcDbEntity
  8
0
100
AcDbLine
 10
393.619078
 20
885.254913
 30
0.0
 11
409.619078
 21
885.254913
 31
0.0
  0
LINE
  5
2211C
100
AcDbEntity
  8
0
100
AcDbLine
 10
402.819078
 20
898.754913
 30
0.0
 11
387.619078
 21
898.754913
 31
0.0
  0
ARC
  5
2211D
100
AcDbEntity
  8
0
100
AcDbCircle
 10
408.873904
 20
900.562831
 30
0.0
 40
3.654827
100
AcDbArc
 50
145.615753
 51
214.384247
  0
LINE
  5
2211E
100
AcDbEntity
  8
0
100
AcDbLine
 10
405.219078
 20
899.604913
 30
0.0
 11
405.85769
 21
898.498804
 31
0.0
  0
LINE
  5
2211F
100
AcDbEntity
  8
0
100
AcDbLine
 10
405.85769
 20
910.882967
 30
0.0
 11
411.619078
 21
910.882967
 31
0.0
  0
LINE
  5
22120
100
AcDbEntity
  8
0
100
AcDbLine
 10
405.85769
 20
915.011021
 30
0.0
 11
411.619078
 21
915.011021
 31
0.0
  0
ARC
  5
22124
100
AcDbEntity
  8
0
100
AcDbCircle
 10
423.119078
 20
931.254913
 30
0.0
 40
2.0
100
AcDbArc
 50
180.0
 51
270.0
  0
LINE
  5
22125
100
AcDbEntity
  8
0
100
AcDbLine
 10
424.619078
 20
929.254913
 30
0.0
 11
423.119078
 21
929.254913
 31
0.0
  0
LINE
  5
22127
100
AcDbEntity
  8
0
100
AcDbLine
 10
424.619078
 20
926.91411
 30
0.0
 11
411.619078
 21
926.91411
 31
0.0
  0
LINE
  5
22128
100
AcDbEntity
  8
0
100
AcDbLine
 10
421.119078
 20
929.254913
 30
0.0
 11
411.619078
 21
926.91411
 31
0.0
  0
ARC
  5
22129
100
AcDbEntity
  8
0
100
AcDbCircle
 10
408.873904
 20
912.946994
 30
0.0
 40
3.654827
100
AcDbArc
 50
145.615753
 51
214.384247
  0
LINE
  5
2212A
100
AcDbEntity
  8
0
100
AcDbLine
 10
393.619078
 20
932.254913
 30
0.0
 11
409.619078
 21
932.254913
 31
0.0
  0
LINE
  5
2212B
100
AcDbEntity
  8
0
100
AcDbLine
 10
404.319078
 20
914.754913
 30
0.0
 11
395.119078
 21
914.754913
 31
0.0
  0
LINE
  5
2212C
100
AcDbEntity
  8
0
100
AcDbLine
 10
405.219078
 20
913.904913
 30
0.0
 11
405.85769
 21
915.011021
 31
0.0
  0
LINE
  5
2212D
100
AcDbEntity
  8
0
100
AcDbLine
 10
346.111196
 20
895.096273
 30
0.0
 11
345.737622
 21
896.490467
 31
0.0
  0
LINE
  5
2212E
100
AcDbEntity
  8
0
100
AcDbLine
 10
375.290651
 20
893.16303
 30
0.0
 11
372.274146
 21
890.146525
 31
0.0
  0
LINE
  5
2212F
100
AcDbEntity
  8
0
100
AcDbLine
 10
351.125297
 20
891.102792
 30
0.0
 11
348.770446
 21
893.457643
 31
0.0
  0
LINE
  5
22130
100
AcDbEntity
  8
0
100
AcDbLine
 10
351.125297
 20
891.102792
 30
0.0
 11
354.347317
 21
894.324812
 31
0.0
  0
ARC
  5
22131
100
AcDbEntity
  8
0
100
AcDbCircle
 10
349.164419
 20
883.300253
 30
0.0
 40
12.182091
100
AcDbArc
 50
25.179294
 51
64.820706
  0
LINE
  5
22132
100
AcDbEntity
  8
0
100
AcDbLine
 10
350.353836
 20
900.753127
 30
0.0
 11
366.617292
 21
884.489671
 31
0.0
  0
LINE
  5
22133
100
AcDbEntity
  8
0
100
AcDbLine
 10
365.203079
 20
884.489671
 30
0.0
 11
350.353836
 21
899.338913
 31
0.0
  0
LINE
  5
22134
100
AcDbEntity
  8
0
100
AcDbLine
 10
369.445719
 20
884.489671
 30
0.0
 11
350.353836
 21
903.581554
 31
0.0
  0
LINE
  5
22135
100
AcDbEntity
  8
0
100
AcDbLine
 10
354.189891
 20
905.402354
 30
0.0
 11
371.266519
 21
888.325725
 31
0.0
  0
LINE
  5
22136
100
AcDbEntity
  8
0
100
AcDbLine
 10
356.823863
 20
905.596808
 30
0.0
 11
371.460974
 21
890.959698
 31
0.0
  0
ARC
  5
22137
100
AcDbEntity
  8
0
100
AcDbCircle
 10
362.149856
 20
896.28569
 30
0.0
 40
12.182091
100
AcDbArc
 50
205.179294
 51
244.820706
  0
LINE
  5
22138
100
AcDbEntity
  8
0
100
AcDbLine
 10
359.321809
 20
882.90628
 30
0.0
 11
362.543829
 21
886.1283
 31
0.0
  0
LINE
  5
22139
100
AcDbEntity
  8
0
100
AcDbLine
 10
362.543829
 20
886.1283
 30
0.0
 11
360.188977
 21
888.483151
 31
0.0
  0
LINE
  5
2213A
100
AcDbEntity
  8
0
100
AcDbLine
 10
359.321809
 20
882.90628
 30
0.0
 11
356.966957
 21
885.261131
 31
0.0
  0
LINE
  5
2213B
100
AcDbEntity
  8
0
100
AcDbLine
 10
356.966957
 20
885.261131
 30
0.0
 11
360.188977
 21
888.483151
 31
0.0
  0
LINE
  5
2213C
100
AcDbEntity
  8
0
100
AcDbLine
 10
372.274146
 20
887.318098
 30
0.0
 11
369.445719
 21
884.489671
 31
0.0
  0
ARC
  5
2213D
100
AcDbEntity
  8
0
100
AcDbCircle
 10
373.68836
 20
888.732312
 30
0.0
 40
2.0
100
AcDbArc
 50
135.0
 51
225.0
  0
LINE
  5
2213E
100
AcDbEntity
  8
0
100
AcDbLine
 10
365.203079
 20
884.489671
 30
0.0
 11
365.576652
 21
883.095477
 31
0.0
  0
LINE
  5
2213F
100
AcDbEntity
  8
0
100
AcDbLine
 10
365.203079
 20
884.489671
 30
0.0
 11
365.910185
 21
885.196778
 31
0.0
  0
ARC
  5
22140
100
AcDbEntity
  8
0
100
AcDbCircle
 10
362.065423
 20
882.617072
 30
0.0
 40
3.54367
100
AcDbArc
 50
22.241215
 51
82.241215
  0
LINE
  5
22141
100
AcDbEntity
  8
0
100
AcDbLine
 10
366.617292
 20
884.489671
 30
0.0
 11
369.445719
 21
884.489671
 31
0.0
  0
ARC
  5
22142
100
AcDbEntity
  8
0
100
AcDbCircle
 10
354.596477
 20
907.824195
 30
0.0
 40
2.0
100
AcDbArc
 50
225.0
 51
315.0
  0
LINE
  5
22143
100
AcDbEntity
  8
0
100
AcDbLine
 10
350.353836
 20
903.581554
 30
0.0
 11
353.182263
 21
906.409981
 31
0.0
  0
LINE
  5
22144
100
AcDbEntity
  8
0
100
AcDbLine
 10
350.353836
 20
900.753127
 30
0.0
 11
350.353836
 21
903.581554
 31
0.0
  0
LINE
  5
22145
100
AcDbEntity
  8
0
100
AcDbLine
 10
350.353836
 20
899.338913
 30
0.0
 11
351.060943
 21
900.04602
 31
0.0
  0
LINE
  5
22146
100
AcDbEntity
  8
0
100
AcDbLine
 10
350.353836
 20
899.338913
 30
0.0
 11
348.959642
 21
899.712486
 31
0.0
  0
LINE
  5
22147
100
AcDbEntity
  8
0
100
AcDbLine
 10
354.347317
 20
894.324812
 30
0.0
 11
351.992465
 21
896.679663
 31
0.0
  0
LINE
  5
22148
100
AcDbEntity
  8
0
100
AcDbLine
 10
348.770446
 20
893.457643
 30
0.0
 11
351.992465
 21
896.679663
 31
0.0
  0
ARC
  5
22149
100
AcDbEntity
  8
0
100
AcDbCircle
 10
348.481237
 20
896.201258
 30
0.0
 40
3.54367
100
AcDbArc
 50
7.758785
 51
67.758785
  0
LINE
  5
2214A
100
AcDbEntity
  8
0
100
AcDbLine
 10
360.960438
 20
880.24703
 30
0.0
 11
346.111196
 21
895.096273
 31
0.0
  0
ARC
  5
2214B
100
AcDbEntity
  8
0
100
AcDbCircle
 10
349.248851
 20
896.968872
 30
0.0
 40
3.54367
100
AcDbArc
 50
202.241215
 51
262.241215
  0
LINE
  5
2214C
100
AcDbEntity
  8
0
100
AcDbLine
 10
345.737622
 20
896.490467
 30
0.0
 11
348.959642
 21
899.712486
 31
0.0
  0
LINE
  5
2214D
100
AcDbEntity
  8
0
100
AcDbLine
 10
401.619078
 20
983.754913
 30
0.0
 11
354.119078
 21
983.754913
 31
0.0
  0
LINE
  5
2214E
100
AcDbEntity
  8
0
100
AcDbLine
 10
386.725924
 20
969.754913
 30
0.0
 11
390.769078
 21
966.012981
 31
0.0
  0
LINE
  5
2214F
100
AcDbEntity
  8
0
100
AcDbLine
 10
416.512232
 20
969.754913
 30
0.0
 11
412.469078
 21
966.012981
 31
0.0
  0
LINE
  5
22150
100
AcDbEntity
  8
0
100
AcDbLine
 10
412.469078
 20
952.496844
 30
0.0
 11
390.769078
 21
952.496844
 31
0.0
  0
LINE
  5
22151
100
AcDbEntity
  8
0
100
AcDbLine
 10
412.469078
 20
966.012981
 30
0.0
 11
390.769078
 21
966.012981
 31
0.0
  0
LINE
  5
22152
100
AcDbEntity
  8
0
100
AcDbLine
 10
383.619078
 20
948.754913
 30
0.0
 11
419.619078
 21
948.754913
 31
0.0
  0
LINE
  5
22153
100
AcDbEntity
  8
0
100
AcDbLine
 10
412.469078
 20
966.012981
 30
0.0
 11
412.469078
 21
952.496844
 31
0.0
  0
LINE
  5
22154
100
AcDbEntity
  8
0
100
AcDbLine
 10
419.619078
 20
948.754913
 30
0.0
 11
421.119078
 21
947.254913
 31
0.0
  0
LINE
  5
22156
100
AcDbEntity
  8
0
100
AcDbLine
 10
416.512232
 20
948.754913
 30
0.0
 11
412.469078
 21
952.496844
 31
0.0
  0
LINE
  5
22157
100
AcDbEntity
  8
0
100
AcDbLine
 10
390.769078
 20
966.012981
 30
0.0
 11
390.769078
 21
952.496844
 31
0.0
  0
LINE
  5
22158
100
AcDbEntity
  8
0
100
AcDbLine
 10
393.619078
 20
942.254913
 30
0.0
 11
409.619078
 21
942.254913
 31
0.0
  0
LINE
  5
22159
100
AcDbEntity
  8
0
100
AcDbLine
 10
382.119078
 20
947.254913
 30
0.0
 11
383.619078
 21
948.754913
 31
0.0
  0
LINE
  5
2215A
100
AcDbEntity
  8
0
100
AcDbLine
 10
386.725924
 20
948.754913
 30
0.0
 11
390.769078
 21
952.496844
 31
0.0
  0
LINE
  5
2215B
100
AcDbEntity
  8
0
100
AcDbLine
 10
354.119078
 20
969.754913
 30
0.0
 11
354.119078
 21
983.754913
 31
0.0
  0
LINE
  5
2215C
100
AcDbEntity
  8
0
100
AcDbLine
 10
942.709121
 20
880.24703
 30
0.0
 11
927.859878
 21
895.096273
 31
0.0
  0
LINE
  5
2215D
100
AcDbEntity
  8
0
100
AcDbLine
 10
927.486305
 20
896.490467
 30
0.0
 11
930.708325
 21
899.712486
 31
0.0
  0
ARC
  5
2215E
100
AcDbEntity
  8
0
100
AcDbCircle
 10
930.997534
 20
896.968872
 30
0.0
 40
3.54367
100
AcDbArc
 50
202.241215
 51
262.241215
  0
ARC
  5
22160
100
AcDbEntity
  8
0
100
AcDbCircle
 10
944.58172
 20
883.384686
 30
0.0
 40
3.54367
100
AcDbArc
 50
187.758785
 51
247.758785
  0
LINE
  5
22161
100
AcDbEntity
  8
0
100
AcDbLine
 10
944.103315
 20
879.873457
 30
0.0
 11
947.325335
 21
883.095477
 31
0.0
  0
LINE
  5
22162
100
AcDbEntity
  8
0
100
AcDbLine
 10
942.709121
 20
880.24703
 30
0.0
 11
944.103315
 21
879.873457
 31
0.0
  0
LINE
  5
22163
100
AcDbEntity
  8
0
100
AcDbLine
 10
963.867761
 20
890.334602
 30
0.0
 11
963.867761
 21
870.254913
 31
0.0
  0
LINE
  5
22164
100
AcDbEntity
  8
0
100
AcDbLine
 10
975.367761
 20
875.254913
 30
0.0
 11
975.367761
 21
885.254913
 31
0.0
  0
LINE
  5
22168
100
AcDbEntity
  8
0
100
AcDbLine
 10
1002.867761
 20
882.254913
 30
0.0
 11
1002.867761
 21
870.254913
 31
0.0
  0
LINE
  5
2216A
100
AcDbEntity
  8
0
100
AcDbLine
 10
991.367761
 20
875.254913
 30
0.0
 11
991.367761
 21
885.254913
 31
0.0
  0
LINE
  5
22170
100
AcDbEntity
  8
0
100
AcDbLine
 10
998.260915
 20
868.754913
 30
0.0
 11
994.217761
 21
865.012981
 31
0.0
  0
LINE
  5
22171
100
AcDbEntity
  8
0
100
AcDbLine
 10
998.260915
 20
849.754913
 30
0.0
 11
994.217761
 21
853.496844
 31
0.0
  0
LINE
  5
22174
100
AcDbEntity
  8
0
100
AcDbLine
 10
965.367761
 20
868.754913
 30
0.0
 11
1001.367761
 21
868.754913
 31
0.0
  0
LINE
  5
22178
100
AcDbEntity
  8
0
100
AcDbLine
 10
1002.867761
 20
870.254913
 30
0.0
 11
1001.367761
 21
868.754913
 31
0.0
  0
LINE
  5
2217A
100
AcDbEntity
  8
0
100
AcDbLine
 10
968.474606
 20
849.754913
 30
0.0
 11
972.517761
 21
853.496844
 31
0.0
  0
LINE
  5
2217D
100
AcDbEntity
  8
0
100
AcDbLine
 10
968.474606
 20
868.754913
 30
0.0
 11
972.517761
 21
865.012981
 31
0.0
  0
LINE
  5
2217E
100
AcDbEntity
  8
0
100
AcDbLine
 10
972.517761
 20
853.496844
 30
0.0
 11
972.517761
 21
865.012981
 31
0.0
  0
LINE
  5
2217F
100
AcDbEntity
  8
0
100
AcDbLine
 10
965.367761
 20
868.754913
 30
0.0
 11
963.867761
 21
870.254913
 31
0.0
  0
LINE
  5
22180
100
AcDbEntity
  8
0
100
AcDbLine
 10
994.217761
 20
853.496844
 30
0.0
 11
994.217761
 21
865.012981
 31
0.0
  0
LINE
  5
22181
100
AcDbEntity
  8
0
100
AcDbLine
 10
994.217761
 20
853.496844
 30
0.0
 11
972.517761
 21
853.496844
 31
0.0
  0
LINE
  5
22182
100
AcDbEntity
  8
0
100
AcDbLine
 10
994.217761
 20
865.012981
 30
0.0
 11
972.517761
 21
865.012981
 31
0.0
  0
LINE
  5
22183
100
AcDbEntity
  8
0
100
AcDbLine
 10
975.367761
 20
875.254913
 30
0.0
 11
991.367761
 21
875.254913
 31
0.0
  0
LINE
  5
22187
100
AcDbEntity
  8
0
100
AcDbLine
 10
975.367761
 20
942.254913
 30
0.0
 11
975.367761
 21
932.254913
 31
0.0
  0
LINE
  5
22188
100
AcDbEntity
  8
0
100
AcDbLine
 10
963.867761
 20
947.254913
 30
0.0
 11
963.867761
 21
932.518369
 31
0.0
  0
LINE
  5
22189
100
AcDbEntity
  8
0
100
AcDbLine
 10
991.367761
 20
942.254913
 30
0.0
 11
991.367761
 21
932.254913
 31
0.0
  0
LINE
  5
2218A
100
AcDbEntity
  8
0
100
AcDbLine
 10
1002.867761
 20
944.754913
 30
0.0
 11
1002.867761
 21
931.254913
 31
0.0
  0
LINE
  5
2218B
100
AcDbEntity
  8
0
100
AcDbLine
 10
1002.867761
 20
947.254913
 30
0.0
 11
1002.867761
 21
931.254913
 31
0.0
  0
LINE
  5
2218C
100
AcDbEntity
  8
0
100
AcDbLine
 10
1002.867761
 20
929.254913
 30
0.0
 11
993.367761
 21
926.91411
 31
0.0
  0
LINE
  5
2218D
100
AcDbEntity
  8
0
100
AcDbLine
 10
1006.367761
 20
926.91411
 30
0.0
 11
993.367761
 21
926.91411
 31
0.0
  0
LINE
  5
2218E
100
AcDbEntity
  8
0
100
AcDbLine
 10
1002.867761
 20
884.254913
 30
0.0
 11
993.367761
 21
886.595716
 31
0.0
  0
LINE
  5
2218F
100
AcDbEntity
  8
0
100
AcDbLine
 10
1006.367761
 20
886.595716
 30
0.0
 11
993.367761
 21
886.595716
 31
0.0
  0
LINE
  5
22194
100
AcDbEntity
  8
0
100
AcDbLine
 10
1006.367761
 20
884.254913
 30
0.0
 11
1006.367761
 21
929.254913
 31
0.0
  0
LINE
  5
22198
100
AcDbEntity
  8
0
100
AcDbLine
 10
1006.367761
 20
884.254913
 30
0.0
 11
1004.867761
 21
884.254913
 31
0.0
  0
ARC
  5
2219A
100
AcDbEntity
  8
0
100
AcDbCircle
 10
1004.867761
 20
882.254913
 30
0.0
 40
2.0
100
AcDbArc
 50
90.0
 51
180.0
  0
LINE
  5
221A3
100
AcDbEntity
  8
0
100
AcDbLine
 10
1006.367761
 20
929.254913
 30
0.0
 11
1004.867761
 21
929.254913
 31
0.0
  0
ARC
  5
221A5
100
AcDbEntity
  8
0
100
AcDbCircle
 10
1004.867761
 20
931.254913
 30
0.0
 40
2.0
100
AcDbArc
 50
180.0
 51
270.0
  0
LINE
  5
221A8
100
AcDbEntity
  8
0
100
AcDbLine
 10
963.867761
 20
932.518369
 30
0.0
 11
937.759373
 21
906.409981
 31
0.0
  0
LINE
  5
221A9
100
AcDbEntity
  8
0
100
AcDbLine
 10
993.367761
 20
886.595716
 30
0.0
 11
993.367761
 21
926.91411
 31
0.0
  0
LINE
  5
221AA
100
AcDbEntity
  8
0
100
AcDbLine
 10
986.967761
 20
899.604913
 30
0.0
 11
986.967761
 21
913.904913
 31
0.0
  0
ARC
  5
221AB
100
AcDbEntity
  8
0
100
AcDbCircle
 10
1000.629148
 20
906.754913
 30
0.0
 40
13.661388
100
AcDbArc
 50
162.412046
 51
197.587954
  0
ARC
  5
221AC
100
AcDbEntity
  8
0
100
AcDbCircle
 10
959.867761
 20
890.334602
 30
0.0
 40
4.0
100
AcDbArc
 50
0.0
 51
135.0
  0
LINE
  5
221AD
100
AcDbEntity
  8
0
100
AcDbLine
 10
984.567761
 20
898.754913
 30
0.0
 11
969.367761
 21
898.754913
 31
0.0
  0
LINE
  5
221AE
100
AcDbEntity
  8
0
100
AcDbLine
 10
987.606373
 20
902.626858
 30
0.0
 11
993.367761
 21
902.626858
 31
0.0
  0
LINE
  5
221AF
100
AcDbEntity
  8
0
100
AcDbLine
 10
987.606373
 20
898.498804
 30
0.0
 11
993.367761
 21
898.498804
 31
0.0
  0
ARC
  5
221B0
100
AcDbEntity
  8
0
100
AcDbCircle
 10
990.622587
 20
900.562831
 30
0.0
 40
3.654827
100
AcDbArc
 50
145.615753
 51
214.384247
  0
LINE
  5
221B1
100
AcDbEntity
  8
0
100
AcDbLine
 10
986.967761
 20
899.604913
 30
0.0
 11
987.606373
 21
898.498804
 31
0.0
  0
LINE
  5
221B2
100
AcDbEntity
  8
0
100
AcDbLine
 10
975.367761
 20
885.254913
 30
0.0
 11
991.367761
 21
885.254913
 31
0.0
  0
LINE
  5
221B3
100
AcDbEntity
  8
0
100
AcDbLine
 10
932.87398
 20
891.102792
 30
0.0
 11
930.519128
 21
893.457643
 31
0.0
  0
LINE
  5
221B4
100
AcDbEntity
  8
0
100
AcDbLine
 10
946.951761
 20
884.489671
 30
0.0
 11
932.102519
 21
899.338913
 31
0.0
  0
LINE
  5
221B5
100
AcDbEntity
  8
0
100
AcDbLine
 10
932.87398
 20
891.102792
 30
0.0
 11
936.095999
 21
894.324812
 31
0.0
  0
ARC
  5
221B6
100
AcDbEntity
  8
0
100
AcDbCircle
 10
930.913101
 20
883.300253
 30
0.0
 40
12.182091
100
AcDbArc
 50
25.179294
 51
64.820706
  0
LINE
  5
221B7
100
AcDbEntity
  8
0
100
AcDbLine
 10
941.070491
 20
882.90628
 30
0.0
 11
938.71564
 21
885.261131
 31
0.0
  0
LINE
  5
221B8
100
AcDbEntity
  8
0
100
AcDbLine
 10
938.71564
 20
885.261131
 30
0.0
 11
941.93766
 21
888.483151
 31
0.0
  0
LINE
  5
221B9
100
AcDbEntity
  8
0
100
AcDbLine
 10
941.070491
 20
882.90628
 30
0.0
 11
944.292511
 21
886.1283
 31
0.0
  0
LINE
  5
221BA
100
AcDbEntity
  8
0
100
AcDbLine
 10
946.951761
 20
884.489671
 30
0.0
 11
947.325335
 21
883.095477
 31
0.0
  0
LINE
  5
221BB
100
AcDbEntity
  8
0
100
AcDbLine
 10
946.951761
 20
884.489671
 30
0.0
 11
947.658868
 21
885.196778
 31
0.0
  0
LINE
  5
221BC
100
AcDbEntity
  8
0
100
AcDbLine
 10
944.292511
 20
886.1283
 30
0.0
 11
941.93766
 21
888.483151
 31
0.0
  0
ARC
  5
221BD
100
AcDbEntity
  8
0
100
AcDbCircle
 10
943.814106
 20
882.617072
 30
0.0
 40
3.54367
100
AcDbArc
 50
22.241215
 51
82.241215
  0
ARC
  5
221BE
100
AcDbEntity
  8
0
100
AcDbCircle
 10
943.898538
 20
896.28569
 30
0.0
 40
12.182091
100
AcDbArc
 50
205.179294
 51
244.820706
  0
ARC
  5
221BF
100
AcDbEntity
  8
0
100
AcDbCircle
 10
930.22992
 20
896.201258
 30
0.0
 40
3.54367
100
AcDbArc
 50
7.758785
 51
67.758785
  0
LINE
  5
221C0
100
AcDbEntity
  8
0
100
AcDbLine
 10
936.095999
 20
894.324812
 30
0.0
 11
933.741148
 21
896.679663
 31
0.0
  0
ARC
  5
221C1
100
AcDbEntity
  8
0
100
AcDbCircle
 10
936.34516
 20
907.824195
 30
0.0
 40
2.0
100
AcDbArc
 50
225.0
 51
315.0
  0
LINE
  5
221C2
100
AcDbEntity
  8
0
100
AcDbLine
 10
932.102519
 20
903.581554
 30
0.0
 11
934.930946
 21
906.409981
 31
0.0
  0
LINE
  5
221C3
100
AcDbEntity
  8
0
100
AcDbLine
 10
932.102519
 20
900.753127
 30
0.0
 11
932.102519
 21
903.581554
 31
0.0
  0
LINE
  5
221C4
100
AcDbEntity
  8
0
100
AcDbLine
 10
932.102519
 20
899.338913
 30
0.0
 11
932.809626
 21
900.04602
 31
0.0
  0
LINE
  5
221C5
100
AcDbEntity
  8
0
100
AcDbLine
 10
932.102519
 20
899.338913
 30
0.0
 11
930.708325
 21
899.712486
 31
0.0
  0
LINE
  5
221C6
100
AcDbEntity
  8
0
100
AcDbLine
 10
930.519128
 20
893.457643
 30
0.0
 11
933.741148
 21
896.679663
 31
0.0
  0
LINE
  5
221C7
100
AcDbEntity
  8
0
100
AcDbLine
 10
948.365975
 20
884.489671
 30
0.0
 11
951.194402
 21
884.489671
 31
0.0
  0
LINE
  5
221C8
100
AcDbEntity
  8
0
100
AcDbLine
 10
932.102519
 20
900.753127
 30
0.0
 11
948.365975
 21
884.489671
 31
0.0
  0
LINE
  5
221C9
100
AcDbEntity
  8
0
100
AcDbLine
 10
951.194402
 20
884.489671
 30
0.0
 11
932.102519
 21
903.581554
 31
0.0
  0
LINE
  5
221CA
100
AcDbEntity
  8
0
100
AcDbLine
 10
957.039334
 20
893.16303
 30
0.0
 11
954.022829
 21
890.146525
 31
0.0
  0
ARC
  5
221CB
100
AcDbEntity
  8
0
100
AcDbCircle
 10
955.437043
 20
888.732312
 30
0.0
 40
2.0
100
AcDbArc
 50
135.0
 51
225.0
  0
LINE
  5
221CC
100
AcDbEntity
  8
0
100
AcDbLine
 10
954.022829
 20
887.318098
 30
0.0
 11
951.194402
 21
884.489671
 31
0.0
  0
LINE
  5
221CD
100
AcDbEntity
  8
0
100
AcDbLine
 10
935.938573
 20
905.402354
 30
0.0
 11
953.015202
 21
888.325725
 31
0.0
  0
LINE
  5
221CE
100
AcDbEntity
  8
0
100
AcDbLine
 10
938.572546
 20
905.596808
 30
0.0
 11
953.209656
 21
890.959698
 31
0.0
  0
LINE
  5
221CF
100
AcDbEntity
  8
0
100
AcDbLine
 10
987.606373
 20
915.011021
 30
0.0
 11
993.367761
 21
915.011021
 31
0.0
  0
LINE
  5
221D0
100
AcDbEntity
  8
0
100
AcDbLine
 10
987.606373
 20
910.882967
 30
0.0
 11
993.367761
 21
910.882967
 31
0.0
  0
ARC
  5
221D1
100
AcDbEntity
  8
0
100
AcDbCircle
 10
990.622587
 20
912.946994
 30
0.0
 40
3.654827
100
AcDbArc
 50
145.615753
 51
214.384247
  0
LINE
  5
221D2
100
AcDbEntity
  8
0
100
AcDbLine
 10
986.967761
 20
913.904913
 30
0.0
 11
987.606373
 21
915.011021
 31
0.0
  0
LINE
  5
221D3
100
AcDbEntity
  8
0
100
AcDbLine
 10
975.367761
 20
932.254913
 30
0.0
 11
991.367761
 21
932.254913
 31
0.0
  0
LINE
  5
221D4
100
AcDbEntity
  8
0
100
AcDbLine
 10
986.067761
 20
914.754913
 30
0.0
 11
976.867761
 21
914.754913
 31
0.0
  0
LINE
  5
221D5
100
AcDbEntity
  8
0
100
AcDbLine
 10
998.260915
 20
948.754913
 30
0.0
 11
994.217761
 21
952.496844
 31
0.0
  0
LINE
  5
221D6
100
AcDbEntity
  8
0
100
AcDbLine
 10
998.260915
 20
967.754913
 30
0.0
 11
994.217761
 21
964.012981
 31
0.0
  0
LINE
  5
221D9
100
AcDbEntity
  8
0
100
AcDbLine
 10
965.367761
 20
948.754913
 30
0.0
 11
1001.367761
 21
948.754913
 31
0.0
  0
LINE
  5
221DA
100
AcDbEntity
  8
0
100
AcDbLine
 10
1001.367761
 20
948.754913
 30
0.0
 11
1002.867761
 21
947.254913
 31
0.0
  0
LINE
  5
221DD
100
AcDbEntity
  8
0
100
AcDbLine
 10
968.474606
 20
967.754913
 30
0.0
 11
972.517761
 21
964.012981
 31
0.0
  0
LINE
  5
221DE
100
AcDbEntity
  8
0
100
AcDbLine
 10
972.517761
 20
964.012981
 30
0.0
 11
972.517761
 21
952.496844
 31
0.0
  0
LINE
  5
221DF
100
AcDbEntity
  8
0
100
AcDbLine
 10
968.474606
 20
948.754913
 30
0.0
 11
972.517761
 21
952.496844
 31
0.0
  0
LINE
  5
221E0
100
AcDbEntity
  8
0
100
AcDbLine
 10
963.867761
 20
947.254913
 30
0.0
 11
965.367761
 21
948.754913
 31
0.0
  0
LINE
  5
221E1
100
AcDbEntity
  8
0
100
AcDbLine
 10
994.217761
 20
964.012981
 30
0.0
 11
994.217761
 21
952.496844
 31
0.0
  0
LINE
  5
221E2
100
AcDbEntity
  8
0
100
AcDbLine
 10
994.217761
 20
952.496844
 30
0.0
 11
972.517761
 21
952.496844
 31
0.0
  0
LINE
  5
221E3
100
AcDbEntity
  8
0
100
AcDbLine
 10
975.367761
 20
942.254913
 30
0.0
 11
991.367761
 21
942.254913
 31
0.0
  0
LINE
  5
221E4
100
AcDbEntity
  8
0
100
AcDbLine
 10
994.217761
 20
964.012981
 30
0.0
 11
972.517761
 21
964.012981
 31
0.0
  0
LINE
  5
221E5
100
AcDbEntity
  8
0
100
AcDbLine
 10
933.367761
 20
983.754913
 30
0.0
 11
983.367761
 21
983.754913
 31
0.0
  0
LINE
  5
221E7
100
AcDbEntity
  8
0
100
AcDbLine
 10
927.859878
 20
895.096273
 30
0.0
 11
927.486305
 21
896.490467
 31
0.0
  0
LINE
  5
221E8
100
AcDbEntity
  8
0
100
AcDbLine
 10
1586.100761
 20
887.318098
 30
0.0
 11
1583.272334
 21
884.489671
 31
0.0
  0
LINE
  5
221E9
100
AcDbEntity
  8
0
100
AcDbLine
 10
1568.016505
 20
905.402354
 30
0.0
 11
1585.093134
 21
888.325725
 31
0.0
  0
LINE
  5
221EA
100
AcDbEntity
  8
0
100
AcDbLine
 10
1570.650478
 20
905.596808
 30
0.0
 11
1585.287588
 21
890.959698
 31
0.0
  0
LINE
  5
221EB
100
AcDbEntity
  8
0
100
AcDbLine
 10
1595.945692
 20
932.518369
 30
0.0
 11
1569.837305
 21
906.409981
 31
0.0
  0
LINE
  5
221EC
100
AcDbEntity
  8
0
100
AcDbLine
 10
1552.945692
 20
988.754913
 30
0.0
 11
1615.445692
 21
988.754913
 31
0.0
  0
LINE
  5
221ED
100
AcDbEntity
  8
0
100
AcDbLine
 10
1552.945692
 20
972.754913
 30
0.0
 11
1677.945692
 21
972.754913
 31
0.0
  0
LINE
  5
221EE
100
AcDbEntity
  8
0
100
AcDbLine
 10
1552.945692
 20
844.754913
 30
0.0
 11
1677.945692
 21
844.754913
 31
0.0
  0
LINE
  5
221EF
100
AcDbEntity
  8
0
100
AcDbLine
 10
1552.945692
 20
828.754913
 30
0.0
 11
1615.445692
 21
828.754913
 31
0.0
  0
LINE
  5
221F2
100
AcDbEntity
  8
0
100
AcDbLine
 10
1607.445692
 20
875.254913
 30
0.0
 11
1607.445692
 21
885.254913
 31
0.0
  0
LINE
  5
221F3
100
AcDbEntity
  8
0
100
AcDbLine
 10
1623.445692
 20
875.254913
 30
0.0
 11
1623.445692
 21
885.254913
 31
0.0
  0
LINE
  5
221F8
100
AcDbEntity
  8
0
100
AcDbLine
 10
1595.945692
 20
890.334602
 30
0.0
 11
1595.945692
 21
870.254913
 31
0.0
  0
LINE
  5
221F9
100
AcDbEntity
  8
0
100
AcDbLine
 10
1634.945692
 20
882.254913
 30
0.0
 11
1634.945692
 21
870.254913
 31
0.0
  0
LINE
  5
221FF
100
AcDbEntity
  8
0
100
AcDbLine
 10
1615.445692
 20
828.754913
 30
0.0
 11
1677.945692
 21
828.754913
 31
0.0
  0
LINE
  5
22200
100
AcDbEntity
  8
0
100
AcDbLine
 10
1677.945692
 20
828.754913
 30
0.0
 11
1677.945692
 21
844.754913
 31
0.0
  0
LINE
  5
22204
100
AcDbEntity
  8
0
100
AcDbLine
 10
1626.295692
 20
848.496844
 30
0.0
 11
1626.295692
 21
865.012981
 31
0.0
  0
LINE
  5
22205
100
AcDbEntity
  8
0
100
AcDbLine
 10
1604.595692
 20
848.496844
 30
0.0
 11
1604.595692
 21
865.012981
 31
0.0
  0
LINE
  5
22206
100
AcDbEntity
  8
0
100
AcDbLine
 10
1626.295692
 20
848.496844
 30
0.0
 11
1604.595692
 21
848.496844
 31
0.0
  0
LINE
  5
22207
100
AcDbEntity
  8
0
100
AcDbLine
 10
1630.338846
 20
844.754913
 30
0.0
 11
1626.295692
 21
848.496844
 31
0.0
  0
LINE
  5
22208
100
AcDbEntity
  8
0
100
AcDbLine
 10
1600.552538
 20
844.754913
 30
0.0
 11
1604.595692
 21
848.496844
 31
0.0
  0
LINE
  5
22209
100
AcDbEntity
  8
0
100
AcDbLine
 10
1607.445692
 20
875.254913
 30
0.0
 11
1623.445692
 21
875.254913
 31
0.0
  0
LINE
  5
2220A
100
AcDbEntity
  8
0
100
AcDbLine
 10
1626.295692
 20
865.012981
 30
0.0
 11
1604.595692
 21
865.012981
 31
0.0
  0
LINE
  5
2220B
100
AcDbEntity
  8
0
100
AcDbLine
 10
1597.445692
 20
868.754913
 30
0.0
 11
1633.445692
 21
868.754913
 31
0.0
  0
LINE
  5
2220C
100
AcDbEntity
  8
0
100
AcDbLine
 10
1630.338846
 20
868.754913
 30
0.0
 11
1626.295692
 21
865.012981
 31
0.0
  0
LINE
  5
2220D
100
AcDbEntity
  8
0
100
AcDbLine
 10
1634.945692
 20
870.254913
 30
0.0
 11
1633.445692
 21
868.754913
 31
0.0
  0
LINE
  5
2220E
100
AcDbEntity
  8
0
100
AcDbLine
 10
1600.552538
 20
868.754913
 30
0.0
 11
1604.595692
 21
865.012981
 31
0.0
  0
LINE
  5
2220F
100
AcDbEntity
  8
0
100
AcDbLine
 10
1597.445692
 20
868.754913
 30
0.0
 11
1595.945692
 21
870.254913
 31
0.0
  0
LINE
  5
22213
100
AcDbEntity
  8
0
100
AcDbLine
 10
1623.445692
 20
942.254913
 30
0.0
 11
1623.445692
 21
932.254913
 31
0.0
  0
LINE
  5
22214
100
AcDbEntity
  8
0
100
AcDbLine
 10
1607.445692
 20
942.254913
 30
0.0
 11
1607.445692
 21
932.254913
 31
0.0
  0
LINE
  5
22215
100
AcDbEntity
  8
0
100
AcDbLine
 10
1595.945692
 20
947.254913
 30
0.0
 11
1595.945692
 21
932.518369
 31
0.0
  0
LINE
  5
22216
100
AcDbEntity
  8
0
100
AcDbLine
 10
1634.945692
 20
947.254913
 30
0.0
 11
1634.945692
 21
931.254913
 31
0.0
  0
LINE
  5
22217
100
AcDbEntity
  8
0
100
AcDbLine
 10
1634.945692
 20
944.754913
 30
0.0
 11
1634.945692
 21
931.254913
 31
0.0
  0
ARC
  5
22227
100
AcDbEntity
  8
0
100
AcDbCircle
 10
1632.70708
 20
906.754913
 30
0.0
 40
13.661388
100
AcDbArc
 50
162.412046
 51
197.587954
  0
LINE
  5
22228
100
AcDbEntity
  8
0
100
AcDbLine
 10
1638.445692
 20
884.254913
 30
0.0
 11
1638.445692
 21
929.254913
 31
0.0
  0
LINE
  5
22229
100
AcDbEntity
  8
0
100
AcDbLine
 10
1625.445692
 20
886.595716
 30
0.0
 11
1625.445692
 21
926.91411
 31
0.0
  0
LINE
  5
2222A
100
AcDbEntity
  8
0
100
AcDbLine
 10
1619.045692
 20
899.604913
 30
0.0
 11
1619.045692
 21
913.904913
 31
0.0
  0
LINE
  5
2222B
100
AcDbEntity
  8
0
100
AcDbLine
 10
1607.445692
 20
885.254913
 30
0.0
 11
1623.445692
 21
885.254913
 31
0.0
  0
LINE
  5
2222C
100
AcDbEntity
  8
0
100
AcDbLine
 10
1619.684304
 20
898.498804
 30
0.0
 11
1625.445692
 21
898.498804
 31
0.0
  0
LINE
  5
2222D
100
AcDbEntity
  8
0
100
AcDbLine
 10
1619.684304
 20
902.626858
 30
0.0
 11
1625.445692
 21
902.626858
 31
0.0
  0
LINE
  5
2222E
100
AcDbEntity
  8
0
100
AcDbLine
 10
1619.045692
 20
899.604913
 30
0.0
 11
1619.684304
 21
898.498804
 31
0.0
  0
ARC
  5
2222F
100
AcDbEntity
  8
0
100
AcDbCircle
 10
1622.700519
 20
900.562831
 30
0.0
 40
3.654827
100
AcDbArc
 50
145.615753
 51
214.384247
  0
ARC
  5
22231
100
AcDbEntity
  8
0
100
AcDbCircle
 10
1636.945692
 20
882.254913
 30
0.0
 40
2.0
100
AcDbArc
 50
90.0
 51
180.0
  0
LINE
  5
22233
100
AcDbEntity
  8
0
100
AcDbLine
 10
1638.445692
 20
884.254913
 30
0.0
 11
1636.945692
 21
884.254913
 31
0.0
  0
LINE
  5
22234
100
AcDbEntity
  8
0
100
AcDbLine
 10
1638.445692
 20
886.595716
 30
0.0
 11
1625.445692
 21
886.595716
 31
0.0
  0
LINE
  5
22235
100
AcDbEntity
  8
0
100
AcDbLine
 10
1634.945692
 20
884.254913
 30
0.0
 11
1625.445692
 21
886.595716
 31
0.0
  0
ARC
  5
22236
100
AcDbEntity
  8
0
100
AcDbCircle
 10
1587.514974
 20
888.732312
 30
0.0
 40
2.0
100
AcDbArc
 50
135.0
 51
225.0
  0
LINE
  5
22237
100
AcDbEntity
  8
0
100
AcDbLine
 10
1589.117265
 20
893.16303
 30
0.0
 11
1586.100761
 21
890.146525
 31
0.0
  0
LINE
  5
22238
100
AcDbEntity
  8
0
100
AcDbLine
 10
1616.645692
 20
898.754913
 30
0.0
 11
1601.445692
 21
898.754913
 31
0.0
  0
ARC
  5
22239
100
AcDbEntity
  8
0
100
AcDbCircle
 10
1591.945692
 20
890.334602
 30
0.0
 40
4.0
100
AcDbArc
 50
0.0
 51
135.0
  0
LINE
  5
2223A
100
AcDbEntity
  8
0
100
AcDbLine
 10
1607.445692
 20
932.254913
 30
0.0
 11
1623.445692
 21
932.254913
 31
0.0
  0
LINE
  5
2223B
100
AcDbEntity
  8
0
100
AcDbLine
 10
1618.145692
 20
914.754913
 30
0.0
 11
1608.945692
 21
914.754913
 31
0.0
  0
LINE
  5
2223C
100
AcDbEntity
  8
0
100
AcDbLine
 10
1619.684304
 20
915.011021
 30
0.0
 11
1625.445692
 21
915.011021
 31
0.0
  0
LINE
  5
2223D
100
AcDbEntity
  8
0
100
AcDbLine
 10
1619.045692
 20
913.904913
 30
0.0
 11
1619.684304
 21
915.011021
 31
0.0
  0
ARC
  5
2223E
100
AcDbEntity
  8
0
100
AcDbCircle
 10
1636.945692
 20
931.254913
 30
0.0
 40
2.0
100
AcDbArc
 50
180.0
 51
270.0
  0
LINE
  5
22240
100
AcDbEntity
  8
0
100
AcDbLine
 10
1638.445692
 20
929.254913
 30
0.0
 11
1636.945692
 21
929.254913
 31
0.0
  0
LINE
  5
22241
100
AcDbEntity
  8
0
100
AcDbLine
 10
1638.445692
 20
926.91411
 30
0.0
 11
1625.445692
 21
926.91411
 31
0.0
  0
LINE
  5
22242
100
AcDbEntity
  8
0
100
AcDbLine
 10
1634.945692
 20
929.254913
 30
0.0
 11
1625.445692
 21
926.91411
 31
0.0
  0
LINE
  5
22243
100
AcDbEntity
  8
0
100
AcDbLine
 10
1619.684304
 20
910.882967
 30
0.0
 11
1625.445692
 21
910.882967
 31
0.0
  0
ARC
  5
22245
100
AcDbEntity
  8
0
100
AcDbCircle
 10
1622.700519
 20
912.946994
 30
0.0
 40
3.654827
100
AcDbArc
 50
145.615753
 51
214.384247
  0
LINE
  5
22246
100
AcDbEntity
  8
0
100
AcDbLine
 10
1615.445692
 20
988.754913
 30
0.0
 11
1677.945692
 21
988.754913
 31
0.0
  0
LINE
  5
22248
100
AcDbEntity
  8
0
100
AcDbLine
 10
1677.945692
 20
988.754913
 30
0.0
 11
1677.945692
 21
972.754913
 31
0.0
  0
LINE
  5
22249
100
AcDbEntity
  8
0
100
AcDbLine
 10
1626.295692
 20
969.012981
 30
0.0
 11
1626.295692
 21
952.496844
 31
0.0
  0
LINE
  5
2224A
100
AcDbEntity
  8
0
100
AcDbLine
 10
1604.595692
 20
969.012981
 30
0.0
 11
1604.595692
 21
952.496844
 31
0.0
  0
LINE
  5
2224B
100
AcDbEntity
  8
0
100
AcDbLine
 10
1607.445692
 20
942.254913
 30
0.0
 11
1623.445692
 21
942.254913
 31
0.0
  0
LINE
  5
2224C
100
AcDbEntity
  8
0
100
AcDbLine
 10
1626.295692
 20
952.496844
 30
0.0
 11
1604.595692
 21
952.496844
 31
0.0
  0
LINE
  5
2224D
100
AcDbEntity
  8
0
100
AcDbLine
 10
1597.445692
 20
948.754913
 30
0.0
 11
1633.445692
 21
948.754913
 31
0.0
  0
LINE
  5
2224E
100
AcDbEntity
  8
0
100
AcDbLine
 10
1630.338846
 20
948.754913
 30
0.0
 11
1626.295692
 21
952.496844
 31
0.0
  0
LINE
  5
2224F
100
AcDbEntity
  8
0
100
AcDbLine
 10
1633.445692
 20
948.754913
 30
0.0
 11
1634.945692
 21
947.254913
 31
0.0
  0
LINE
  5
22250
100
AcDbEntity
  8
0
100
AcDbLine
 10
1600.552538
 20
948.754913
 30
0.0
 11
1604.595692
 21
952.496844
 31
0.0
  0
LINE
  5
22251
100
AcDbEntity
  8
0
100
AcDbLine
 10
1595.945692
 20
947.254913
 30
0.0
 11
1597.445692
 21
948.754913
 31
0.0
  0
LINE
  5
22252
100
AcDbEntity
  8
0
100
AcDbLine
 10
1626.295692
 20
969.012981
 30
0.0
 11
1604.595692
 21
969.012981
 31
0.0
  0
LINE
  5
22253
100
AcDbEntity
  8
0
100
AcDbLine
 10
1630.338846
 20
972.754913
 30
0.0
 11
1626.295692
 21
969.012981
 31
0.0
  0
LINE
  5
22254
100
AcDbEntity
  8
0
100
AcDbLine
 10
1600.552538
 20
972.754913
 30
0.0
 11
1604.595692
 21
969.012981
 31
0.0
  0
LINE
  5
22255
100
AcDbEntity
  8
0
100
AcDbLine
 10
1574.787052
 20
880.24703
 30
0.0
 11
1576.181246
 21
879.873457
 31
0.0
  0
LINE
  5
22256
100
AcDbEntity
  8
0
100
AcDbLine
 10
1576.181246
 20
879.873457
 30
0.0
 11
1579.403266
 21
883.095477
 31
0.0
  0
ARC
  5
22257
100
AcDbEntity
  8
0
100
AcDbCircle
 10
1576.659652
 20
883.384686
 30
0.0
 40
3.54367
100
AcDbArc
 50
187.758785
 51
247.758785
  0
LINE
  5
22258
100
AcDbEntity
  8
0
100
AcDbLine
 10
1552.945692
 20
828.754913
 30
0.0
 11
1552.945692
 21
844.754913
 31
0.0
  0
LINE
  5
22259
100
AcDbEntity
  8
0
100
AcDbLine
 10
1568.173931
 20
894.324812
 30
0.0
 11
1565.81908
 21
896.679663
 31
0.0
  0
ARC
  5
2225A
100
AcDbEntity
  8
0
100
AcDbCircle
 10
1563.075465
 20
896.968872
 30
0.0
 40
3.54367
100
AcDbArc
 50
202.241215
 51
262.241215
  0
LINE
  5
2225B
100
AcDbEntity
  8
0
100
AcDbLine
 10
1564.180451
 20
899.338913
 30
0.0
 11
1562.786257
 21
899.712486
 31
0.0
  0
LINE
  5
2225C
100
AcDbEntity
  8
0
100
AcDbLine
 10
1564.180451
 20
900.753127
 30
0.0
 11
1564.180451
 21
903.581554
 31
0.0
  0
LINE
  5
2225D
100
AcDbEntity
  8
0
100
AcDbLine
 10
1559.93781
 20
895.096273
 30
0.0
 11
1559.564237
 21
896.490467
 31
0.0
  0
LINE
  5
2225E
100
AcDbEntity
  8
0
100
AcDbLine
 10
1559.564237
 20
896.490467
 30
0.0
 11
1562.786257
 21
899.712486
 31
0.0
  0
LINE
  5
2225F
100
AcDbEntity
  8
0
100
AcDbLine
 10
1562.59706
 20
893.457643
 30
0.0
 11
1565.81908
 21
896.679663
 31
0.0
  0
LINE
  5
22260
100
AcDbEntity
  8
0
100
AcDbLine
 10
1564.180451
 20
899.338913
 30
0.0
 11
1564.887557
 21
900.04602
 31
0.0
  0
LINE
  5
22261
100
AcDbEntity
  8
0
100
AcDbLine
 10
1564.180451
 20
903.581554
 30
0.0
 11
1567.008878
 21
906.409981
 31
0.0
  0
ARC
  5
22262
100
AcDbEntity
  8
0
100
AcDbCircle
 10
1562.307851
 20
896.201258
 30
0.0
 40
3.54367
100
AcDbArc
 50
7.758785
 51
67.758785
  0
ARC
  5
22263
100
AcDbEntity
  8
0
100
AcDbCircle
 10
1568.423091
 20
907.824195
 30
0.0
 40
2.0
100
AcDbArc
 50
225.0
 51
315.0
  0
LINE
  5
22264
100
AcDbEntity
  8
0
100
AcDbLine
 10
1580.443907
 20
884.489671
 30
0.0
 11
1583.272334
 21
884.489671
 31
0.0
  0
ARC
  5
22265
100
AcDbEntity
  8
0
100
AcDbCircle
 10
1575.892038
 20
882.617072
 30
0.0
 40
3.54367
100
AcDbArc
 50
22.241215
 51
82.241215
  0
LINE
  5
22266
100
AcDbEntity
  8
0
100
AcDbLine
 10
1576.370443
 20
886.1283
 30
0.0
 11
1574.015592
 21
888.483151
 31
0.0
  0
LINE
  5
22267
100
AcDbEntity
  8
0
100
AcDbLine
 10
1579.029693
 20
884.489671
 30
0.0
 11
1579.7368
 21
885.196778
 31
0.0
  0
LINE
  5
22268
100
AcDbEntity
  8
0
100
AcDbLine
 10
1579.029693
 20
884.489671
 30
0.0
 11
1579.403266
 21
883.095477
 31
0.0
  0
LINE
  5
22269
100
AcDbEntity
  8
0
100
AcDbLine
 10
1573.148423
 20
882.90628
 30
0.0
 11
1576.370443
 21
886.1283
 31
0.0
  0
LINE
  5
2226A
100
AcDbEntity
  8
0
100
AcDbLine
 10
1570.793572
 20
885.261131
 30
0.0
 11
1574.015592
 21
888.483151
 31
0.0
  0
LINE
  5
2226B
100
AcDbEntity
  8
0
100
AcDbLine
 10
1573.148423
 20
882.90628
 30
0.0
 11
1570.793572
 21
885.261131
 31
0.0
  0
ARC
  5
2226C
100
AcDbEntity
  8
0
100
AcDbCircle
 10
1575.97647
 20
896.28569
 30
0.0
 40
12.182091
100
AcDbArc
 50
205.179294
 51
244.820706
  0
ARC
  5
2226D
100
AcDbEntity
  8
0
100
AcDbCircle
 10
1562.991033
 20
883.300253
 30
0.0
 40
12.182091
100
AcDbArc
 50
25.179294
 51
64.820706
  0
LINE
  5
2226E
100
AcDbEntity
  8
0
100
AcDbLine
 10
1583.272334
 20
884.489671
 30
0.0
 11
1564.180451
 21
903.581554
 31
0.0
  0
LINE
  5
2226F
100
AcDbEntity
  8
0
100
AcDbLine
 10
1574.787052
 20
880.24703
 30
0.0
 11
1559.93781
 21
895.096273
 31
0.0
  0
LINE
  5
22270
100
AcDbEntity
  8
0
100
AcDbLine
 10
1579.029693
 20
884.489671
 30
0.0
 11
1564.180451
 21
899.338913
 31
0.0
  0
LINE
  5
22271
100
AcDbEntity
  8
0
100
AcDbLine
 10
1564.180451
 20
900.753127
 30
0.0
 11
1580.443907
 21
884.489671
 31
0.0
  0
LINE
  5
22272
100
AcDbEntity
  8
0
100
AcDbLine
 10
1564.951911
 20
891.102792
 30
0.0
 11
1568.173931
 21
894.324812
 31
0.0
  0
LINE
  5
22273
100
AcDbEntity
  8
0
100
AcDbLine
 10
1564.951911
 20
891.102792
 30
0.0
 11
1562.59706
 21
893.457643
 31
0.0
  0
LINE
  5
22274
100
AcDbEntity
  8
0
100
AcDbLine
 10
1552.945692
 20
988.754913
 30
0.0
 11
1552.945692
 21
972.754913
 31
0.0
  0
INSERT
  5
22319
100
AcDbEntity
  8
0
100
AcDbBlockReference
  2
YA
 10
401.619078
 20
997.094611
 30
0.0
 41
-1.630435
 42
1.630435
 43
1.630435
 50
90.0
  0
INSERT
  5
2231A
100
AcDbEntity
  8
0
100
AcDbBlockReference
  2
YA
 10
983.367761
 20
997.094611
 30
0.0
 41
-1.630435
 42
1.630435
 43
1.630435
 50
90.0
  0
INSERT
  5
2231B
100
AcDbEntity
  8
0
100
AcDbBlockReference
  2
YA
 10
1615.445692
 20
1002.094611
 30
0.0
 41
-1.630435
 42
1.630435
 43
1.630435
 50
90.0
  0
INSERT
  5
2231C
100
AcDbEntity
  8
0
100
AcDbBlockReference
  2
YA
 10
1731.729257
 20
479.290522
 30
0.0
 41
-1.630435
 42
1.630435
 43
1.630435
 50
90.0
  0
INSERT
  5
2231E
100
AcDbEntity
  8
0
100
AcDbBlockReference
  2
YA
 10
1099.651325
 20
474.290522
 30
0.0
 41
-1.630435
 42
1.630435
 43
1.630435
 50
90.0
  0
INSERT
  5
2231F
100
AcDbEntity
  8
0
100
AcDbBlockReference
  2
YA
 10
517.902642
 20
474.290522
 30
0.0
 41
-1.630435
 42
1.630435
 43
1.630435
 50
90.0
  0
TEXT
  5
22320
100
AcDbEntity
  8
0
100
AcDbText
 10
1711.719733
 20
271.390159
 30
0.0
 40
17.5
  1
25A
 72
     4
 11
1735.053066
 21
280.140159
 31
0.0
100
AcDbText
  0
TEXT
  5
22321
100
AcDbEntity
  8
0
100
AcDbText
 10
1079.641801
 20
271.390159
 30
0.0
 40
17.5
  1
20A
 72
     4
 11
1102.975134
 21
280.140159
 31
0.0
100
AcDbText
  0
TEXT
  5
22322
100
AcDbEntity
  8
0
100
AcDbText
 10
499.559785
 20
271.629667
 30
0.0
 40
17.5
  1
15A
 72
     4
 11
521.226452
 21
280.379667
 31
0.0
100
AcDbText
  0
TEXT
  5
22933
100
AcDbEntity
  8
0
100
AcDbText
 10
878.033333
 20
92.553092
 30
0.0
 40
24.5
  1
TLV  FS5 (JIS20K)
 72
     4
 11
1039.5
 21
103.053092
 31
0.0
100
AcDbText
  0
LINE
  5
22D2F
100
AcDbEntity
  8
0
100
AcDbLine
 10
644.846534
 20
402.927228
 30
0.0
 11
641.698307
 21
402.651794
 31
0.0
  0
ARC
  5
22D30
100
AcDbEntity
  8
0
100
AcDbCircle
 10
641.959774
 20
399.66321
 30
0.0
 40
3.0
100
AcDbArc
 50
95.0
 51
145.46592
  0
ARC
  5
22D31
100
AcDbEntity
  8
0
100
AcDbCircle
 10
644.585066
 20
405.915812
 30
0.0
 40
3.0
100
AcDbArc
 50
275.0
 51
0.0
  0
LINE
  5
22D32
100
AcDbEntity
  8
0
100
AcDbLine
 10
689.324153
 20
402.927228
 30
0.0
 11
692.472379
 21
402.651794
 31
0.0
  0
ARC
  5
22D33
100
AcDbEntity
  8
0
100
AcDbCircle
 10
689.58562
 20
405.915812
 30
0.0
 40
3.0
100
AcDbArc
 50
180.0
 51
265.0
  0
ARC
  5
22D34
100
AcDbEntity
  8
0
100
AcDbCircle
 10
692.210912
 20
399.66321
 30
0.0
 40
3.0
100
AcDbArc
 50
34.53408
 51
85.0
  0
LINE
  5
22D3F
100
AcDbEntity
  8
0
100
AcDbLine
 10
644.846534
 20
361.818516
 30
0.0
 11
641.698307
 21
362.09395
 31
0.0
  0
ARC
  5
22D40
100
AcDbEntity
  8
0
100
AcDbCircle
 10
644.585066
 20
358.829932
 30
0.0
 40
3.0
100
AcDbArc
 50
0.0
 51
85.0
  0
ARC
  5
22D41
100
AcDbEntity
  8
0
100
AcDbCircle
 10
641.959774
 20
365.082534
 30
0.0
 40
3.0
100
AcDbArc
 50
214.53408
 51
265.0
  0
ARC
  5
22D42
100
AcDbEntity
  8
0
100
AcDbCircle
 10
692.210912
 20
365.082534
 30
0.0
 40
3.0
100
AcDbArc
 50
275.0
 51
325.46592
  0
LINE
  5
22D43
100
AcDbEntity
  8
0
100
AcDbLine
 10
689.324153
 20
361.818516
 30
0.0
 11
692.472379
 21
362.09395
 31
0.0
  0
ARC
  5
22D44
100
AcDbEntity
  8
0
100
AcDbCircle
 10
689.58562
 20
358.829932
 30
0.0
 40
3.0
100
AcDbArc
 50
95.0
 51
180.0
  0
ARC
  5
22D65
100
AcDbEntity
  8
0
100
AcDbCircle
 10
1233.632025
 20
399.66321
 30
0.0
 40
3.0
100
AcDbArc
 50
95.0
 51
145.46592
  0
LINE
  5
22D66
100
AcDbEntity
  8
0
100
AcDbLine
 10
1236.518784
 20
402.927228
 30
0.0
 11
1233.370557
 21
402.651794
 31
0.0
  0
ARC
  5
22D67
100
AcDbEntity
  8
0
100
AcDbCircle
 10
1236.257316
 20
405.915812
 30
0.0
 40
3.0
100
AcDbArc
 50
275.0
 51
0.0
  0
ARC
  5
22D68
100
AcDbEntity
  8
0
100
AcDbCircle
 10
1283.883162
 20
399.66321
 30
0.0
 40
3.0
100
AcDbArc
 50
34.53408
 51
85.0
  0
LINE
  5
22D69
100
AcDbEntity
  8
0
100
AcDbLine
 10
1280.996403
 20
402.927228
 30
0.0
 11
1284.14463
 21
402.651794
 31
0.0
  0
ARC
  5
22D6A
100
AcDbEntity
  8
0
100
AcDbCircle
 10
1281.25787
 20
405.915812
 30
0.0
 40
3.0
100
AcDbArc
 50
180.0
 51
265.0
  0
ARC
  5
22D6B
100
AcDbEntity
  8
0
100
AcDbCircle
 10
1233.632025
 20
365.082534
 30
0.0
 40
3.0
100
AcDbArc
 50
214.53408
 51
265.0
  0
LINE
  5
22D6C
100
AcDbEntity
  8
0
100
AcDbLine
 10
1236.518784
 20
361.818516
 30
0.0
 11
1233.370557
 21
362.09395
 31
0.0
  0
ARC
  5
22D6D
100
AcDbEntity
  8
0
100
AcDbCircle
 10
1236.257316
 20
358.829932
 30
0.0
 40
3.0
100
AcDbArc
 50
0.0
 51
85.0
  0
ARC
  5
22D6E
100
AcDbEntity
  8
0
100
AcDbCircle
 10
1281.25787
 20
358.829932
 30
0.0
 40
3.0
100
AcDbArc
 50
95.0
 51
180.0
  0
LINE
  5
22D6F
100
AcDbEntity
  8
0
100
AcDbLine
 10
1280.996403
 20
361.818516
 30
0.0
 11
1284.14463
 21
362.09395
 31
0.0
  0
ARC
  5
22D70
100
AcDbEntity
  8
0
100
AcDbCircle
 10
1283.883162
 20
365.082534
 30
0.0
 40
3.0
100
AcDbArc
 50
275.0
 51
325.46592
  0
ARC
  5
22D81
100
AcDbEntity
  8
0
100
AcDbCircle
 10
1878.414084
 20
399.66321
 30
0.0
 40
3.0
100
AcDbArc
 50
95.0
 51
145.46592
  0
LINE
  5
22D82
100
AcDbEntity
  8
0
100
AcDbLine
 10
1881.300843
 20
402.927228
 30
0.0
 11
1878.152617
 21
402.651794
 31
0.0
  0
ARC
  5
22D83
100
AcDbEntity
  8
0
100
AcDbCircle
 10
1881.039376
 20
405.915812
 30
0.0
 40
3.0
100
AcDbArc
 50
275.0
 51
0.0
  0
ARC
  5
22D84
100
AcDbEntity
  8
0
100
AcDbCircle
 10
1928.665222
 20
399.66321
 30
0.0
 40
3.0
100
AcDbArc
 50
34.53408
 51
85.0
  0
LINE
  5
22D85
100
AcDbEntity
  8
0
100
AcDbLine
 10
1925.778463
 20
402.927228
 30
0.0
 11
1928.926689
 21
402.651794
 31
0.0
  0
ARC
  5
22D86
100
AcDbEntity
  8
0
100
AcDbCircle
 10
1926.03993
 20
405.915812
 30
0.0
 40
3.0
100
AcDbArc
 50
180.0
 51
265.0
  0
ARC
  5
22D87
100
AcDbEntity
  8
0
100
AcDbCircle
 10
1878.414084
 20
365.082534
 30
0.0
 40
3.0
100
AcDbArc
 50
214.53408
 51
265.0
  0
LINE
  5
22D88
100
AcDbEntity
  8
0
100
AcDbLine
 10
1881.300843
 20
361.818516
 30
0.0
 11
1878.152617
 21
362.09395
 31
0.0
  0
ARC
  5
22D89
100
AcDbEntity
  8
0
100
AcDbCircle
 10
1881.039376
 20
358.829932
 30
0.0
 40
3.0
100
AcDbArc
 50
0.0
 51
85.0
  0
ARC
  5
22D8A
100
AcDbEntity
  8
0
100
AcDbCircle
 10
1926.03993
 20
358.829932
 30
0.0
 40
3.0
100
AcDbArc
 50
95.0
 51
180.0
  0
LINE
  5
22D8B
100
AcDbEntity
  8
0
100
AcDbLine
 10
1925.778463
 20
361.818516
 30
0.0
 11
1928.926689
 21
362.09395
 31
0.0
  0
ARC
  5
22D8C
100
AcDbEntity
  8
0
100
AcDbCircle
 10
1928.665222
 20
365.082534
 30
0.0
 40
3.0
100
AcDbArc
 50
275.0
 51
325.46592
  0
LINE
  5
22DEC
100
AcDbEntity
  8
0
100
AcDbLine
 10
1151.704789
 20
639.246219
 30
0.0
 11
1155.393068
 21
639.246219
 31
0.0
  0
LINE
  5
22DED
100
AcDbEntity
  8
0
100
AcDbLine
 10
1151.704789
 20
635.400763
 30
0.0
 11
1155.393068
 21
635.400763
 31
0.0
  0
POLYLINE
  5
22DEE
100
AcDbEntity
  8
0
100
AcDb2dPolyline
 66
     1
 10
0.0
 20
0.0
 30
0.0
  0
VERTEX
  5
2358E
100
AcDbEntity
  8
0
100
AcDbVertex
100
AcDb2dVertex
 10
1148.43627
 20
648.27927
 30
0.0
 42
-0.101352
  0
VERTEX
  5
2358F
100
AcDbEntity
  8
0
100
AcDbVertex
100
AcDb2dVertex
 10
1150.559631
 20
647.55697
 30
0.0
 42
-0.106756
  0
VERTEX
  5
23590
100
AcDbEntity
  8
0
100
AcDbVertex
100
AcDb2dVertex
 10
1153.234586
 20
645.101665
 30
0.0
 42
-0.082828
  0
VERTEX
  5
23591
100
AcDbEntity
  8
0
100
AcDbVertex
100
AcDb2dVertex
 10
1154.887721
 20
641.681179
 30
0.0
 42
-0.071352
  0
VERTEX
  5
23592
100
AcDbEntity
  8
0
100
AcDbVertex
100
AcDb2dVertex
 10
1155.512761
 20
637.323491
 30
0.0
 42
-0.071352
  0
VERTEX
  5
23593
100
AcDbEntity
  8
0
100
AcDbVertex
100
AcDb2dVertex
 10
1154.887721
 20
632.965802
 30
0.0
 42
-0.082828
  0
VERTEX
  5
23594
100
AcDbEntity
  8
0
100
AcDbVertex
100
AcDb2dVertex
 10
1153.234586
 20
629.545316
 30
0.0
 42
-0.106756
  0
VERTEX
  5
23595
100
AcDbEntity
  8
0
100
AcDbVertex
100
AcDb2dVertex
 10
1150.559631
 20
627.090011
 30
0.0
 42
-0.101352
  0
VERTEX
  5
23596
100
AcDbEntity
  8
0
100
AcDbVertex
100
AcDb2dVertex
 10
1148.43627
 20
626.367712
 30
0.0
 42
-0.101352
  0
SEQEND
  5
23597
100
AcDbEntity
  8
0
  0
LINE
  5
22DF0
100
AcDbEntity
  8
0
100
AcDbLine
 10
1151.704789
 20
639.246219
 30
0.0
 11
1148.850076
 21
646.238811
 31
0.0
  0
ELLIPSE
  5
22DF1
100
AcDbEntity
  8
0
100
AcDbEllipse
 10
1141.370625
 20
637.323491
 30
0.0
 11
-0.0000000000000025
 21
-13.5
 31
0.0
210
0.0
220
0.0
230
-1.0
 40
0.707107
 41
4.064725880211418
 42
5.360052080557052
  0
LINE
  5
22DF2
100
AcDbEntity
  8
0
100
AcDbLine
 10
1151.704789
 20
635.400763
 30
0.0
 11
1148.850076
 21
628.40817
 31
0.0
  0
LINE
  5
22DF3
100
AcDbEntity
  8
0
100
AcDbLine
 10
1148.820453
 20
628.246219
 30
0.0
 11
1152.104945
 21
628.246219
 31
0.0
  0
ARC
  5
22DF4
100
AcDbEntity
  8
0
100
AcDbCircle
 10
1132.429702
 20
637.323491
 30
0.0
 40
19.370748
100
AcDbArc
 50
354.303478
 51
5.696522
  0
LINE
  5
22DF8
100
AcDbEntity
  8
0
100
AcDbLine
 10
1148.783959
 20
646.400763
 30
0.0
 11
1152.104945
 21
646.400763
 31
0.0
  0
LINE
  5
22E13
100
AcDbEntity
  8
0
100
AcDbLine
 10
1149.651325
 20
443.372872
 30
0.0
 11
1149.651325
 21
459.372872
 31
0.0
  0
LINE
  5
22E14
100
AcDbEntity
  8
0
100
AcDbLine
 10
1149.651325
 20
325.372872
 30
0.0
 11
1149.651325
 21
309.372872
 31
0.0
  0
LINE
  5
22E3E
100
AcDbEntity
  8
0
100
AcDbLine
 10
899.495085
 20
443.372872
 30
0.0
 11
799.495085
 21
443.372872
 31
0.0
  0
LINE
  5
22E40
100
AcDbEntity
  8
0
100
AcDbLine
 10
799.495085
 20
443.372872
 30
0.0
 11
799.495085
 21
459.372872
 31
0.0
  0
LINE
  5
22E41
100
AcDbEntity
  8
0
100
AcDbLine
 10
899.495085
 20
459.372872
 30
0.0
 11
849.495085
 21
459.372872
 31
0.0
  0
LINE
  5
22E42
100
AcDbEntity
  8
0
100
AcDbLine
 10
899.495085
 20
443.372872
 30
0.0
 11
899.495085
 21
459.372872
 31
0.0
  0
LINE
  5
22E43
100
AcDbEntity
  8
0
100
AcDbLine
 10
849.495085
 20
309.372872
 30
0.0
 11
799.495085
 21
309.372872
 31
0.0
  0
LINE
  5
22E44
100
AcDbEntity
  8
0
100
AcDbLine
 10
899.495085
 20
325.372872
 30
0.0
 11
884.991564
 21
325.372872
 31
0.0
  0
LINE
  5
22E45
100
AcDbEntity
  8
0
100
AcDbLine
 10
799.495085
 20
325.372872
 30
0.0
 11
799.495085
 21
309.372872
 31
0.0
  0
LINE
  5
22E46
100
AcDbEntity
  8
0
100
AcDbLine
 10
899.495085
 20
309.372872
 30
0.0
 11
849.495085
 21
309.372872
 31
0.0
  0
LINE
  5
22E47
100
AcDbEntity
  8
0
100
AcDbLine
 10
899.495085
 20
325.372872
 30
0.0
 11
899.495085
 21
309.372872
 31
0.0
  0
LINE
  5
22E56
100
AcDbEntity
  8
0
100
AcDbLine
 10
1308.757593
 20
443.372872
 30
0.0
 11
1208.757593
 21
443.372872
 31
0.0
  0
LINE
  5
22E58
100
AcDbEntity
  8
0
100
AcDbLine
 10
1208.757593
 20
443.372872
 30
0.0
 11
1208.757593
 21
459.372872
 31
0.0
  0
LINE
  5
22E59
100
AcDbEntity
  8
0
100
AcDbLine
 10
1308.757593
 20
459.372872
 30
0.0
 11
1258.757593
 21
459.372872
 31
0.0
  0
LINE
  5
22E5A
100
AcDbEntity
  8
0
100
AcDbLine
 10
1308.757593
 20
443.372872
 30
0.0
 11
1308.757593
 21
459.372872
 31
0.0
  0
LINE
  5
22E5B
100
AcDbEntity
  8
0
100
AcDbLine
 10
1258.757593
 20
309.372872
 30
0.0
 11
1208.757593
 21
309.372872
 31
0.0
  0
LINE
  5
22E5C
100
AcDbEntity
  8
0
100
AcDbLine
 10
1308.757593
 20
325.372872
 30
0.0
 11
1208.757593
 21
325.372872
 31
0.0
  0
LINE
  5
22E5D
100
AcDbEntity
  8
0
100
AcDbLine
 10
1208.757593
 20
325.372872
 30
0.0
 11
1208.757593
 21
309.372872
 31
0.0
  0
LINE
  5
22E5E
100
AcDbEntity
  8
0
100
AcDbLine
 10
1308.757593
 20
309.372872
 30
0.0
 11
1258.757593
 21
309.372872
 31
0.0
  0
LINE
  5
22E5F
100
AcDbEntity
  8
0
100
AcDbLine
 10
1308.757593
 20
325.372872
 30
0.0
 11
1308.757593
 21
309.372872
 31
0.0
  0
LINE
  5
22E6E
100
AcDbEntity
  8
0
100
AcDbLine
 10
1033.367761
 20
967.754913
 30
0.0
 11
933.367761
 21
967.754913
 31
0.0
  0
LINE
  5
22E70
100
AcDbEntity
  8
0
100
AcDbLine
 10
933.367761
 20
967.754913
 30
0.0
 11
933.367761
 21
983.754913
 31
0.0
  0
LINE
  5
22E71
100
AcDbEntity
  8
0
100
AcDbLine
 10
1033.367761
 20
983.754913
 30
0.0
 11
983.367761
 21
983.754913
 31
0.0
  0
LINE
  5
22E72
100
AcDbEntity
  8
0
100
AcDbLine
 10
1033.367761
 20
967.754913
 30
0.0
 11
1033.367761
 21
983.754913
 31
0.0
  0
LINE
  5
22E73
100
AcDbEntity
  8
0
100
AcDbLine
 10
983.367761
 20
833.754913
 30
0.0
 11
933.367761
 21
833.754913
 31
0.0
  0
LINE
  5
22E74
100
AcDbEntity
  8
0
100
AcDbLine
 10
1033.367761
 20
849.754913
 30
0.0
 11
933.367761
 21
849.754913
 31
0.0
  0
LINE
  5
22E75
100
AcDbEntity
  8
0
100
AcDbLine
 10
933.367761
 20
849.754913
 30
0.0
 11
933.367761
 21
833.754913
 31
0.0
  0
LINE
  5
22E76
100
AcDbEntity
  8
0
100
AcDbLine
 10
1033.367761
 20
833.754913
 30
0.0
 11
983.367761
 21
833.754913
 31
0.0
  0
LINE
  5
22E77
100
AcDbEntity
  8
0
100
AcDbLine
 10
1033.367761
 20
849.754913
 30
0.0
 11
1033.367761
 21
833.754913
 31
0.0
  0
LINE
  5
22F12
100
AcDbEntity
  8
0
100
AcDbLine
 10
478.107642
 20
415.872872
 30
0.0
 11
491.107642
 21
415.872872
 31
0.0
  0
LINE
  5
22F13
100
AcDbEntity
  8
0
100
AcDbLine
 10
478.107642
 20
348.872872
 30
0.0
 11
491.107642
 21
348.872872
 31
0.0
  0
LINE
  5
22F14
100
AcDbEntity
  8
0
100
AcDbLine
 10
359.757642
 20
415.372872
 30
0.0
 11
446.257642
 21
415.372872
 31
0.0
  0
LINE
  5
22F15
100
AcDbEntity
  8
0
100
AcDbLine
 10
464.257642
 20
397.372872
 30
0.0
 11
464.257642
 21
367.372872
 31
0.0
  0
LINE
  5
22F16
100
AcDbEntity
  8
0
100
AcDbLine
 10
470.257642
 20
399.872872
 30
0.0
 11
470.257642
 21
364.872872
 31
0.0
  0
LINE
  5
22F17
100
AcDbEntity
  8
0
100
AcDbLine
 10
478.107642
 20
348.872872
 30
0.0
 11
478.107642
 21
415.872872
 31
0.0
  0
LINE
  5
22F18
100
AcDbEntity
  8
0
100
AcDbLine
 10
460.257642
 20
401.372872
 30
0.0
 11
460.257642
 21
343.136328
 31
0.0
  0
ARC
  5
22F19
100
AcDbEntity
  8
0
100
AcDbCircle
 10
428.494186
 20
322.872872
 30
0.0
 40
11.5
100
AcDbArc
 50
270.0
 51
315.0
  0
LINE
  5
22F1A
100
AcDbEntity
  8
0
100
AcDbLine
 10
377.521098
 20
311.372872
 30
0.0
 11
428.494186
 21
311.372872
 31
0.0
  0
LINE
  5
22F1B
100
AcDbEntity
  8
0
100
AcDbLine
 10
456.88937
 20
335.0046
 30
0.0
 11
436.625914
 21
314.741144
 31
0.0
  0
LINE
  5
22F1C
100
AcDbEntity
  8
0
100
AcDbLine
 10
460.257642
 20
363.372872
 30
0.0
 11
464.257642
 21
367.372872
 31
0.0
  0
ARC
  5
22F1D
100
AcDbEntity
  8
0
100
AcDbCircle
 10
448.757642
 20
343.136328
 30
0.0
 40
11.5
100
AcDbArc
 50
315.0
 51
0.0
  0
LINE
  5
22F1E
100
AcDbEntity
  8
0
100
AcDbLine
 10
470.257642
 20
364.872872
 30
0.0
 11
478.107642
 21
364.872872
 31
0.0
  0
LINE
  5
22F1F
100
AcDbEntity
  8
0
100
AcDbLine
 10
464.257642
 20
367.372872
 30
0.0
 11
468.257642
 21
367.372872
 31
0.0
  0
ARC
  5
22F20
100
AcDbEntity
  8
0
100
AcDbCircle
 10
468.257642
 20
365.372872
 30
0.0
 40
2.0
100
AcDbArc
 50
360.0
 51
90.0
  0
ARC
  5
22F21
100
AcDbEntity
  8
0
100
AcDbCircle
 10
446.257642
 20
401.372872
 30
0.0
 40
14.0
100
AcDbArc
 50
0.0
 51
90.0
  0
LINE
  5
22F22
100
AcDbEntity
  8
0
100
AcDbLine
 10
460.257642
 20
401.372872
 30
0.0
 11
464.257642
 21
397.372872
 31
0.0
  0
LINE
  5
22F23
100
AcDbEntity
  8
0
100
AcDbLine
 10
476.399163
 20
387.135372
 30
0.0
 11
478.107642
 21
387.135372
 31
0.0
  0
LINE
  5
22F24
100
AcDbEntity
  8
0
100
AcDbLine
 10
476.399163
 20
377.610372
 30
0.0
 11
478.107642
 21
377.610372
 31
0.0
  0
LINE
  5
22F25
100
AcDbEntity
  8
0
100
AcDbLine
 10
475.902642
 20
386.275372
 30
0.0
 11
476.399163
 21
387.135372
 31
0.0
  0
LINE
  5
22F26
100
AcDbEntity
  8
0
100
AcDbLine
 10
475.902642
 20
378.470372
 30
0.0
 11
476.399163
 21
377.610372
 31
0.0
  0
LINE
  5
22F27
100
AcDbEntity
  8
0
100
AcDbLine
 10
475.902642
 20
378.470372
 30
0.0
 11
475.902642
 21
386.275372
 31
0.0
  0
LINE
  5
22F28
100
AcDbEntity
  8
0
100
AcDbLine
 10
470.257642
 20
399.872872
 30
0.0
 11
478.107642
 21
399.872872
 31
0.0
  0
LINE
  5
22F29
100
AcDbEntity
  8
0
100
AcDbLine
 10
464.257642
 20
397.372872
 30
0.0
 11
468.257642
 21
397.372872
 31
0.0
  0
ARC
  5
22F2A
100
AcDbEntity
  8
0
100
AcDbCircle
 10
468.257642
 20
399.372872
 30
0.0
 40
2.0
100
AcDbArc
 50
270.0
 51
0.0
  0
ARC
  5
22F2B
100
AcDbEntity
  8
0
100
AcDbCircle
 10
377.521098
 20
322.872872
 30
0.0
 40
11.5
100
AcDbArc
 50
225.0
 51
270.0
  0
LINE
  5
22F2C
100
AcDbEntity
  8
0
100
AcDbLine
 10
345.757642
 20
401.372872
 30
0.0
 11
345.757642
 21
343.136328
 31
0.0
  0
LINE
  5
22F2D
100
AcDbEntity
  8
0
100
AcDbLine
 10
349.125914
 20
335.0046
 30
0.0
 11
369.38937
 21
314.741144
 31
0.0
  0
ARC
  5
22F2E
100
AcDbEntity
  8
0
100
AcDbCircle
 10
357.257642
 20
343.136328
 30
0.0
 40
11.5
100
AcDbArc
 50
180.0
 51
225.0
  0
ARC
  5
22F2F
100
AcDbEntity
  8
0
100
AcDbCircle
 10
359.757642
 20
401.372872
 30
0.0
 40
14.0
100
AcDbArc
 50
90.0
 51
180.0
  0
LINE
  5
22F30
100
AcDbEntity
  8
0
100
AcDbLine
 10
491.107642
 20
348.872872
 30
0.0
 11
491.107642
 21
415.872872
 31
0.0
  0
LINE
  5
22F31
100
AcDbEntity
  8
0
100
AcDbLine
 10
491.107642
 20
364.872872
 30
0.0
 11
494.902642
 21
364.872872
 31
0.0
  0
LINE
  5
22F32
100
AcDbEntity
  8
0
100
AcDbLine
 10
494.902642
 20
387.135372
 30
0.0
 11
491.107642
 21
387.135372
 31
0.0
  0
LINE
  5
22F33
100
AcDbEntity
  8
0
100
AcDbLine
 10
494.902642
 20
377.610372
 30
0.0
 11
491.107642
 21
377.610372
 31
0.0
  0
LINE
  5
22F34
100
AcDbEntity
  8
0
100
AcDbLine
 10
491.107642
 20
399.872872
 30
0.0
 11
494.902642
 21
399.872872
 31
0.0
  0
CIRCLE
  5
22F3F
100
AcDbEntity
  8
0
100
AcDbCircle
 10
259.744837
 20
382.372872
 30
0.0
 40
14.0
  0
ELLIPSE
  5
22F40
100
AcDbEntity
  8
0
100
AcDbEllipse
 10
259.744837
 20
324.872872
 30
0.0
 11
-18.0
 21
0.0
 31
0.0
210
0.0
220
0.0
230
1.0
 40
0.562874
 41
0.0
 42
6.283185307179586
  0
CIRCLE
  5
22F41
100
AcDbEntity
  8
0
100
AcDbCircle
 10
259.744837
 20
363.372872
 30
0.0
 40
52.0
  0
LINE
  5
22F42
100
AcDbEntity
  8
0
100
AcDbLine
 10
226.518341
 20
323.372872
 30
0.0
 11
212.244837
 21
323.372872
 31
0.0
  0
ARC
  5
22F44
100
AcDbEntity
  8
0
100
AcDbCircle
 10
667.085343
 20
363.372872
 30
0.0
 40
52.0
100
AcDbArc
 50
309.715137
 51
67.975358
  0
ELLIPSE
  5
22F45
100
AcDbEntity
  8
0
100
AcDbEllipse
 10
667.085343
 20
324.872872
 30
0.0
 11
-18.0
 21
0.0
 31
0.0
210
0.0
220
0.0
230
1.0
 40
0.562874
 41
2.992996634196072
 42
4.065411109415997
  0
ELLIPSE
  5
22F46
100
AcDbEntity
  8
0
100
AcDbEllipse
 10
667.085343
 20
324.872872
 30
0.0
 11
-18.0
 21
0.0
 31
0.0
210
0.0
220
0.0
230
1.0
 40
0.562874
 41
5.359366851353241
 42
6.431781326573307
  0
ARC
  5
22F47
100
AcDbEntity
  8
0
100
AcDbCircle
 10
667.085343
 20
363.372872
 30
0.0
 40
52.0
100
AcDbArc
 50
112.024642
 51
230.284863
  0
LINE
  5
22F6F
100
AcDbEntity
  8
0
100
AcDbLine
 10
457.092441
 20
659.728201
 30
0.0
 11
464.257642
 21
652.562999
 31
0.0
  0
LINE
  5
22F70
100
AcDbEntity
  8
0
100
AcDbLine
 10
470.257642
 20
655.062999
 30
0.0
 11
470.257642
 21
620.062999
 31
0.0
  0
LINE
  5
22F71
100
AcDbEntity
  8
0
100
AcDbLine
 10
478.107642
 20
604.062999
 30
0.0
 11
478.107642
 21
611.628313
 31
0.0
  0
ARC
  5
22F72
100
AcDbEntity
  8
0
100
AcDbCircle
 10
367.802442
 20
637.562999
 30
0.0
 40
92.0
100
AcDbArc
 50
331.280664
 51
28.719336
  0
ARC
  5
22F73
100
AcDbEntity
  8
0
100
AcDbCircle
 10
437.302442
 20
637.562999
 30
0.0
 40
92.0
100
AcDbArc
 50
151.280664
 51
208.719336
  0
LINE
  5
22F74
100
AcDbEntity
  8
0
100
AcDbLine
 10
484.227726
 20
604.062999
 30
0.0
 11
478.107642
 21
604.062999
 31
0.0
  0
ARC
  5
22F75
100
AcDbEntity
  8
0
100
AcDbCircle
 10
369.77467
 20
600.562999
 30
0.0
 40
15.0
100
AcDbArc
 50
208.719336
 51
270.0
  0
ARC
  5
22F76
100
AcDbEntity
  8
0
100
AcDbCircle
 10
435.330214
 20
600.562999
 30
0.0
 40
15.0
100
AcDbArc
 50
270.0
 51
331.280664
  0
LINE
  5
22F77
100
AcDbEntity
  8
0
100
AcDbLine
 10
457.092441
 20
615.397798
 30
0.0
 11
464.257642
 21
622.562999
 31
0.0
  0
LINE
  5
22F78
100
AcDbEntity
  8
0
100
AcDbLine
 10
464.257642
 20
652.562999
 30
0.0
 11
464.257642
 21
622.562999
 31
0.0
  0
LINE
  5
22F79
100
AcDbEntity
  8
0
100
AcDbLine
 10
473.743838
 20
620.062999
 30
0.0
 11
470.257642
 21
620.062999
 31
0.0
  0
LINE
  5
22F7A
100
AcDbEntity
  8
0
100
AcDbLine
 10
464.257642
 20
622.562999
 30
0.0
 11
468.257642
 21
622.562999
 31
0.0
  0
ARC
  5
22F7B
100
AcDbEntity
  8
0
100
AcDbCircle
 10
468.257642
 20
620.562999
 30
0.0
 40
2.0
100
AcDbArc
 50
360.0
 51
90.0
  0
LINE
  5
22F7C
100
AcDbEntity
  8
0
100
AcDbLine
 10
464.257642
 20
652.562999
 30
0.0
 11
468.257642
 21
652.562999
 31
0.0
  0
ARC
  5
22F7D
100
AcDbEntity
  8
0
100
AcDbCircle
 10
468.257642
 20
654.562999
 30
0.0
 40
2.0
100
AcDbArc
 50
270.0
 51
0.0
  0
LINE
  5
22F81
100
AcDbEntity
  8
0
100
AcDbLine
 10
484.227726
 20
671.062999
 30
0.0
 11
478.107642
 21
671.062999
 31
0.0
  0
ARC
  5
22F82
100
AcDbEntity
  8
0
100
AcDbCircle
 10
369.77467
 20
674.562999
 30
0.0
 40
15.0
100
AcDbArc
 50
90.0
 51
151.280664
  0
ARC
  5
22F83
100
AcDbEntity
  8
0
100
AcDbCircle
 10
435.330214
 20
674.562999
 30
0.0
 40
15.0
100
AcDbArc
 50
28.719336
 51
90.0
  0
LINE
  5
22F84
100
AcDbEntity
  8
0
100
AcDbLine
 10
476.399163
 20
667.825499
 30
0.0
 11
478.107642
 21
667.825499
 31
0.0
  0
LINE
  5
22F86
100
AcDbEntity
  8
0
100
AcDbLine
 10
473.743838
 20
655.062999
 30
0.0
 11
470.257642
 21
655.062999
 31
0.0
  0
LINE
  5
22F88
100
AcDbEntity
  8
0
100
AcDbLine
 10
475.902642
 20
659.749707
 30
0.0
 11
475.902642
 21
666.965499
 31
0.0
  0
LINE
  5
22F89
100
AcDbEntity
  8
0
100
AcDbLine
 10
475.902642
 20
666.965499
 30
0.0
 11
476.399163
 21
667.825499
 31
0.0
  0
LINE
  5
22F8D
100
AcDbEntity
  8
0
100
AcDbLine
 10
369.77467
 20
585.562999
 30
0.0
 11
435.330214
 21
585.562999
 31
0.0
  0
LINE
  5
22F8E
100
AcDbEntity
  8
0
100
AcDbLine
 10
369.77467
 20
689.562999
 30
0.0
 11
435.330214
 21
689.562999
 31
0.0
  0
ARC
  5
231CF
100
AcDbEntity
  8
0
100
AcDbCircle
 10
491.027534
 20
847.254913
 30
0.0
 40
11.5
100
AcDbArc
 50
225.0
 51
270.0
  0
LINE
  5
231D0
100
AcDbEntity
  8
0
100
AcDbLine
 10
559.764078
 20
939.754913
 30
0.0
 11
473.264078
 21
939.754913
 31
0.0
  0
LINE
  5
231D1
100
AcDbEntity
  8
0
100
AcDbLine
 10
459.264078
 20
925.754913
 30
0.0
 11
459.264078
 21
867.518369
 31
0.0
  0
LINE
  5
231D2
100
AcDbEntity
  8
0
100
AcDbLine
 10
428.414078
 20
873.254913
 30
0.0
 11
428.414078
 21
940.254913
 31
0.0
  0
LINE
  5
231D3
100
AcDbEntity
  8
0
100
AcDbLine
 10
441.414078
 20
873.254913
 30
0.0
 11
441.414078
 21
940.254913
 31
0.0
  0
LINE
  5
231D4
100
AcDbEntity
  8
0
100
AcDbLine
 10
441.414078
 20
873.254913
 30
0.0
 11
428.414078
 21
873.254913
 31
0.0
  0
ARC
  5
231D5
100
AcDbEntity
  8
0
100
AcDbCircle
 10
470.764078
 20
867.518369
 30
0.0
 40
11.5
100
AcDbArc
 50
180.0
 51
225.0
  0
LINE
  5
231D6
100
AcDbEntity
  8
0
100
AcDbLine
 10
462.63235
 20
859.386641
 30
0.0
 11
482.895806
 21
839.123185
 31
0.0
  0
LINE
  5
231D7
100
AcDbEntity
  8
0
100
AcDbLine
 10
441.414078
 20
940.254913
 30
0.0
 11
428.414078
 21
940.254913
 31
0.0
  0
LINE
  5
231D8
100
AcDbEntity
  8
0
100
AcDbLine
 10
428.414078
 20
889.254913
 30
0.0
 11
424.619078
 21
889.254913
 31
0.0
  0
LINE
  5
231D9
100
AcDbEntity
  8
0
100
AcDbLine
 10
424.619078
 20
911.517413
 30
0.0
 11
428.414078
 21
911.517413
 31
0.0
  0
LINE
  5
231DA
100
AcDbEntity
  8
0
100
AcDbLine
 10
424.619078
 20
901.992413
 30
0.0
 11
428.414078
 21
901.992413
 31
0.0
  0
LINE
  5
231DB
100
AcDbEntity
  8
0
100
AcDbLine
 10
428.414078
 20
924.254913
 30
0.0
 11
424.619078
 21
924.254913
 31
0.0
  0
LINE
  5
231DC
100
AcDbEntity
  8
0
100
AcDbLine
 10
455.264078
 20
921.754913
 30
0.0
 11
455.264078
 21
891.754913
 31
0.0
  0
LINE
  5
231DD
100
AcDbEntity
  8
0
100
AcDbLine
 10
449.264078
 20
924.254913
 30
0.0
 11
449.264078
 21
889.254913
 31
0.0
  0
LINE
  5
231DE
100
AcDbEntity
  8
0
100
AcDbLine
 10
449.264078
 20
889.254913
 30
0.0
 11
441.414078
 21
889.254913
 31
0.0
  0
LINE
  5
231DF
100
AcDbEntity
  8
0
100
AcDbLine
 10
459.264078
 20
887.754913
 30
0.0
 11
455.264078
 21
891.754913
 31
0.0
  0
ARC
  5
231E0
100
AcDbEntity
  8
0
100
AcDbCircle
 10
451.264078
 20
889.754913
 30
0.0
 40
2.0
100
AcDbArc
 50
90.0
 51
180.0
  0
LINE
  5
231E1
100
AcDbEntity
  8
0
100
AcDbLine
 10
455.264078
 20
891.754913
 30
0.0
 11
451.264078
 21
891.754913
 31
0.0
  0
LINE
  5
231E2
100
AcDbEntity
  8
0
100
AcDbLine
 10
443.619078
 20
910.657413
 30
0.0
 11
443.122557
 21
911.517413
 31
0.0
  0
LINE
  5
231E3
100
AcDbEntity
  8
0
100
AcDbLine
 10
443.122557
 20
911.517413
 30
0.0
 11
441.414078
 21
911.517413
 31
0.0
  0
LINE
  5
231E4
100
AcDbEntity
  8
0
100
AcDbLine
 10
443.619078
 20
902.852413
 30
0.0
 11
443.122557
 21
901.992413
 31
0.0
  0
LINE
  5
231E5
100
AcDbEntity
  8
0
100
AcDbLine
 10
443.122557
 20
901.992413
 30
0.0
 11
441.414078
 21
901.992413
 31
0.0
  0
LINE
  5
231E6
100
AcDbEntity
  8
0
100
AcDbLine
 10
443.619078
 20
902.852413
 30
0.0
 11
443.619078
 21
910.657413
 31
0.0
  0
ARC
  5
231E7
100
AcDbEntity
  8
0
100
AcDbCircle
 10
473.264078
 20
925.754913
 30
0.0
 40
14.0
100
AcDbArc
 50
90.0
 51
180.0
  0
LINE
  5
231E8
100
AcDbEntity
  8
0
100
AcDbLine
 10
449.264078
 20
924.254913
 30
0.0
 11
441.414078
 21
924.254913
 31
0.0
  0
LINE
  5
231E9
100
AcDbEntity
  8
0
100
AcDbLine
 10
459.264078
 20
925.754913
 30
0.0
 11
455.264078
 21
921.754913
 31
0.0
  0
ARC
  5
231EA
100
AcDbEntity
  8
0
100
AcDbCircle
 10
451.264078
 20
923.754913
 30
0.0
 40
2.0
100
AcDbArc
 50
180.0
 51
270.0
  0
LINE
  5
231EB
100
AcDbEntity
  8
0
100
AcDbLine
 10
455.264078
 20
921.754913
 30
0.0
 11
451.264078
 21
921.754913
 31
0.0
  0
LINE
  5
231EC
100
AcDbEntity
  8
0
100
AcDbLine
 10
573.764078
 20
925.754913
 30
0.0
 11
573.764078
 21
867.518369
 31
0.0
  0
ARC
  5
231ED
100
AcDbEntity
  8
0
100
AcDbCircle
 10
542.000622
 20
847.254913
 30
0.0
 40
11.5
100
AcDbArc
 50
270.0
 51
315.0
  0
LINE
  5
231EE
100
AcDbEntity
  8
0
100
AcDbLine
 10
542.000622
 20
835.754913
 30
0.0
 11
491.027534
 21
835.754913
 31
0.0
  0
LINE
  5
231EF
100
AcDbEntity
  8
0
100
AcDbLine
 10
570.395806
 20
859.386641
 30
0.0
 11
550.13235
 21
839.123185
 31
0.0
  0
ARC
  5
231F0
100
AcDbEntity
  8
0
100
AcDbCircle
 10
562.264078
 20
867.518369
 30
0.0
 40
11.5
100
AcDbArc
 50
315.0
 51
0.0
  0
ARC
  5
231F1
100
AcDbEntity
  8
0
100
AcDbCircle
 10
559.764078
 20
925.754913
 30
0.0
 40
14.0
100
AcDbArc
 50
0.0
 51
90.0
  0
ARC
  5
23219
100
AcDbEntity
  8
0
100
AcDbCircle
 10
1072.776217
 20
847.254913
 30
0.0
 40
11.5
100
AcDbArc
 50
225.0
 51
270.0
  0
LINE
  5
2321A
100
AcDbEntity
  8
0
100
AcDbLine
 10
1141.512761
 20
939.754913
 30
0.0
 11
1055.012761
 21
939.754913
 31
0.0
  0
LINE
  5
2321B
100
AcDbEntity
  8
0
100
AcDbLine
 10
1041.012761
 20
925.754913
 30
0.0
 11
1041.012761
 21
867.518369
 31
0.0
  0
LINE
  5
2321C
100
AcDbEntity
  8
0
100
AcDbLine
 10
1010.162761
 20
873.254913
 30
0.0
 11
1010.162761
 21
940.254913
 31
0.0
  0
LINE
  5
2321D
100
AcDbEntity
  8
0
100
AcDbLine
 10
1023.162761
 20
873.254913
 30
0.0
 11
1023.162761
 21
940.254913
 31
0.0
  0
LINE
  5
2321E
100
AcDbEntity
  8
0
100
AcDbLine
 10
1023.162761
 20
873.254913
 30
0.0
 11
1010.162761
 21
873.254913
 31
0.0
  0
ARC
  5
2321F
100
AcDbEntity
  8
0
100
AcDbCircle
 10
1052.512761
 20
867.518369
 30
0.0
 40
11.5
100
AcDbArc
 50
180.0
 51
225.0
  0
LINE
  5
23220
100
AcDbEntity
  8
0
100
AcDbLine
 10
1044.381033
 20
859.386641
 30
0.0
 11
1064.644489
 21
839.123185
 31
0.0
  0
LINE
  5
23221
100
AcDbEntity
  8
0
100
AcDbLine
 10
1023.162761
 20
940.254913
 30
0.0
 11
1010.162761
 21
940.254913
 31
0.0
  0
LINE
  5
23222
100
AcDbEntity
  8
0
100
AcDbLine
 10
1010.162761
 20
889.254913
 30
0.0
 11
1006.367761
 21
889.254913
 31
0.0
  0
LINE
  5
23223
100
AcDbEntity
  8
0
100
AcDbLine
 10
1006.367761
 20
911.517413
 30
0.0
 11
1010.162761
 21
911.517413
 31
0.0
  0
LINE
  5
23224
100
AcDbEntity
  8
0
100
AcDbLine
 10
1006.367761
 20
901.992413
 30
0.0
 11
1010.162761
 21
901.992413
 31
0.0
  0
LINE
  5
23225
100
AcDbEntity
  8
0
100
AcDbLine
 10
1010.162761
 20
924.254913
 30
0.0
 11
1006.367761
 21
924.254913
 31
0.0
  0
LINE
  5
23226
100
AcDbEntity
  8
0
100
AcDbLine
 10
1037.012761
 20
921.754913
 30
0.0
 11
1037.012761
 21
891.754913
 31
0.0
  0
LINE
  5
23227
100
AcDbEntity
  8
0
100
AcDbLine
 10
1031.012761
 20
924.254913
 30
0.0
 11
1031.012761
 21
889.254913
 31
0.0
  0
LINE
  5
23228
100
AcDbEntity
  8
0
100
AcDbLine
 10
1031.012761
 20
889.254913
 30
0.0
 11
1023.162761
 21
889.254913
 31
0.0
  0
LINE
  5
23229
100
AcDbEntity
  8
0
100
AcDbLine
 10
1041.012761
 20
887.754913
 30
0.0
 11
1037.012761
 21
891.754913
 31
0.0
  0
ARC
  5
2322A
100
AcDbEntity
  8
0
100
AcDbCircle
 10
1033.012761
 20
889.754913
 30
0.0
 40
2.0
100
AcDbArc
 50
90.0
 51
180.0
  0
LINE
  5
2322B
100
AcDbEntity
  8
0
100
AcDbLine
 10
1037.012761
 20
891.754913
 30
0.0
 11
1033.012761
 21
891.754913
 31
0.0
  0
LINE
  5
2322C
100
AcDbEntity
  8
0
100
AcDbLine
 10
1025.367761
 20
910.657413
 30
0.0
 11
1024.871239
 21
911.517413
 31
0.0
  0
LINE
  5
2322D
100
AcDbEntity
  8
0
100
AcDbLine
 10
1024.871239
 20
911.517413
 30
0.0
 11
1023.162761
 21
911.517413
 31
0.0
  0
LINE
  5
2322E
100
AcDbEntity
  8
0
100
AcDbLine
 10
1025.367761
 20
902.852413
 30
0.0
 11
1024.871239
 21
901.992413
 31
0.0
  0
LINE
  5
2322F
100
AcDbEntity
  8
0
100
AcDbLine
 10
1024.871239
 20
901.992413
 30
0.0
 11
1023.162761
 21
901.992413
 31
0.0
  0
LINE
  5
23230
100
AcDbEntity
  8
0
100
AcDbLine
 10
1025.367761
 20
902.852413
 30
0.0
 11
1025.367761
 21
910.657413
 31
0.0
  0
ARC
  5
23231
100
AcDbEntity
  8
0
100
AcDbCircle
 10
1055.012761
 20
925.754913
 30
0.0
 40
14.0
100
AcDbArc
 50
90.0
 51
180.0
  0
LINE
  5
23232
100
AcDbEntity
  8
0
100
AcDbLine
 10
1031.012761
 20
924.254913
 30
0.0
 11
1023.162761
 21
924.254913
 31
0.0
  0
LINE
  5
23233
100
AcDbEntity
  8
0
100
AcDbLine
 10
1041.012761
 20
925.754913
 30
0.0
 11
1037.012761
 21
921.754913
 31
0.0
  0
ARC
  5
23234
100
AcDbEntity
  8
0
100
AcDbCircle
 10
1033.012761
 20
923.754913
 30
0.0
 40
2.0
100
AcDbArc
 50
180.0
 51
270.0
  0
LINE
  5
23235
100
AcDbEntity
  8
0
100
AcDbLine
 10
1037.012761
 20
921.754913
 30
0.0
 11
1033.012761
 21
921.754913
 31
0.0
  0
LINE
  5
23236
100
AcDbEntity
  8
0
100
AcDbLine
 10
1155.512761
 20
925.754913
 30
0.0
 11
1155.512761
 21
867.518369
 31
0.0
  0
ARC
  5
23237
100
AcDbEntity
  8
0
100
AcDbCircle
 10
1123.749305
 20
847.254913
 30
0.0
 40
11.5
100
AcDbArc
 50
270.0
 51
315.0
  0
LINE
  5
23238
100
AcDbEntity
  8
0
100
AcDbLine
 10
1123.749305
 20
835.754913
 30
0.0
 11
1072.776217
 21
835.754913
 31
0.0
  0
LINE
  5
23239
100
AcDbEntity
  8
0
100
AcDbLine
 10
1152.144489
 20
859.386641
 30
0.0
 11
1131.881033
 21
839.123185
 31
0.0
  0
ARC
  5
2323A
100
AcDbEntity
  8
0
100
AcDbCircle
 10
1144.012761
 20
867.518369
 30
0.0
 40
11.5
100
AcDbArc
 50
315.0
 51
0.0
  0
ARC
  5
2323B
100
AcDbEntity
  8
0
100
AcDbCircle
 10
1141.512761
 20
925.754913
 30
0.0
 40
14.0
100
AcDbArc
 50
0.0
 51
90.0
  0
LINE
  5
2323C
100
AcDbEntity
  8
0
100
AcDbLine
 10
1046.006325
 20
652.323491
 30
0.0
 11
1050.006325
 21
652.323491
 31
0.0
  0
LINE
  5
2323D
100
AcDbEntity
  8
0
100
AcDbLine
 10
1046.006325
 20
622.323491
 30
0.0
 11
1050.006325
 21
622.323491
 31
0.0
  0
ARC
  5
2323E
100
AcDbEntity
  8
0
100
AcDbCircle
 10
1019.051125
 20
637.323491
 30
0.0
 40
92.0
100
AcDbArc
 50
151.280664
 51
208.719336
  0
ARC
  5
2323F
100
AcDbEntity
  8
0
100
AcDbCircle
 10
949.551125
 20
637.323491
 30
0.0
 40
92.0
100
AcDbArc
 50
331.280664
 51
28.719336
  0
LINE
  5
23240
100
AcDbEntity
  8
0
100
AcDbLine
 10
951.523353
 20
585.323491
 30
0.0
 11
1017.078897
 21
585.323491
 31
0.0
  0
ARC
  5
23241
100
AcDbEntity
  8
0
100
AcDbCircle
 10
951.523353
 20
600.323491
 30
0.0
 40
15.0
100
AcDbArc
 50
208.719336
 51
270.0
  0
ARC
  5
23242
100
AcDbEntity
  8
0
100
AcDbCircle
 10
1017.078897
 20
600.323491
 30
0.0
 40
15.0
100
AcDbArc
 50
270.0
 51
331.280664
  0
LINE
  5
23243
100
AcDbEntity
  8
0
100
AcDbLine
 10
1046.006325
 20
652.323491
 30
0.0
 11
1046.006325
 21
622.323491
 31
0.0
  0
LINE
  5
23244
100
AcDbEntity
  8
0
100
AcDbLine
 10
1038.841123
 20
615.158289
 30
0.0
 11
1046.006325
 21
622.323491
 31
0.0
  0
LINE
  5
23245
100
AcDbEntity
  8
0
100
AcDbLine
 10
1038.841123
 20
659.488692
 30
0.0
 11
1046.006325
 21
652.323491
 31
0.0
  0
LINE
  5
23246
100
AcDbEntity
  8
0
100
AcDbLine
 10
951.523353
 20
689.323491
 30
0.0
 11
1017.078897
 21
689.323491
 31
0.0
  0
ARC
  5
23247
100
AcDbEntity
  8
0
100
AcDbCircle
 10
951.523353
 20
674.323491
 30
0.0
 40
15.0
100
AcDbArc
 50
90.0
 51
151.280664
  0
ARC
  5
23248
100
AcDbEntity
  8
0
100
AcDbCircle
 10
1017.078897
 20
674.323491
 30
0.0
 40
15.0
100
AcDbArc
 50
28.719336
 51
90.0
  0
LINE
  5
23249
100
AcDbEntity
  8
0
100
AcDbLine
 10
1059.856325
 20
603.823491
 30
0.0
 11
1059.856325
 21
607.052086
 31
0.0
  0
LINE
  5
2324A
100
AcDbEntity
  8
0
100
AcDbLine
 10
1052.006325
 20
654.823491
 30
0.0
 11
1052.006325
 21
652.487724
 31
0.0
  0
ARC
  5
2324B
100
AcDbEntity
  8
0
100
AcDbCircle
 10
1050.006325
 20
620.323491
 30
0.0
 40
2.0
100
AcDbArc
 50
360.0
 51
90.0
  0
LINE
  5
2324C
100
AcDbEntity
  8
0
100
AcDbLine
 10
1052.81384
 20
619.823491
 30
0.0
 11
1052.006325
 21
619.823491
 31
0.0
  0
LINE
  5
2324D
100
AcDbEntity
  8
0
100
AcDbLine
 10
1057.651325
 20
666.725991
 30
0.0
 11
1058.147846
 21
667.585991
 31
0.0
  0
LINE
  5
2324E
100
AcDbEntity
  8
0
100
AcDbLine
 10
1057.651325
 20
664.452811
 30
0.0
 11
1057.651325
 21
666.725991
 31
0.0
  0
LINE
  5
23250
100
AcDbEntity
  8
0
100
AcDbLine
 10
1052.81384
 20
654.823491
 30
0.0
 11
1052.006325
 21
654.823491
 31
0.0
  0
LINE
  5
23252
100
AcDbEntity
  8
0
100
AcDbLine
 10
1058.147846
 20
667.585991
 30
0.0
 11
1059.856325
 21
667.585991
 31
0.0
  0
ARC
  5
23253
100
AcDbEntity
  8
0
100
AcDbCircle
 10
1050.006325
 20
654.323491
 30
0.0
 40
2.0
100
AcDbArc
 50
270.0
 51
0.0
  0
LINE
  5
23255
100
AcDbEntity
  8
0
100
AcDbLine
 10
1062.53327
 20
670.823491
 30
0.0
 11
1059.856325
 21
670.823491
 31
0.0
  0
LINE
  5
23256
100
AcDbEntity
  8
0
100
AcDbLine
 10
1062.53327
 20
603.823491
 30
0.0
 11
1059.856325
 21
603.823491
 31
0.0
  0
LINE
  5
23285
100
AcDbEntity
  8
0
100
AcDbLine
 10
1059.856325
 20
415.872872
 30
0.0
 11
1072.856325
 21
415.872872
 31
0.0
  0
LINE
  5
23286
100
AcDbEntity
  8
0
100
AcDbLine
 10
1059.856325
 20
348.872872
 30
0.0
 11
1072.856325
 21
348.872872
 31
0.0
  0
LINE
  5
23287
100
AcDbEntity
  8
0
100
AcDbLine
 10
941.506325
 20
415.372872
 30
0.0
 11
1028.006325
 21
415.372872
 31
0.0
  0
LINE
  5
23288
100
AcDbEntity
  8
0
100
AcDbLine
 10
1046.006325
 20
397.372872
 30
0.0
 11
1046.006325
 21
367.372872
 31
0.0
  0
LINE
  5
23289
100
AcDbEntity
  8
0
100
AcDbLine
 10
1052.006325
 20
399.872872
 30
0.0
 11
1052.006325
 21
364.872872
 31
0.0
  0
LINE
  5
2328A
100
AcDbEntity
  8
0
100
AcDbLine
 10
1059.856325
 20
348.872872
 30
0.0
 11
1059.856325
 21
415.872872
 31
0.0
  0
LINE
  5
2328B
100
AcDbEntity
  8
0
100
AcDbLine
 10
1042.006325
 20
401.372872
 30
0.0
 11
1042.006325
 21
343.136328
 31
0.0
  0
ARC
  5
2328C
100
AcDbEntity
  8
0
100
AcDbCircle
 10
1010.242869
 20
322.872872
 30
0.0
 40
11.5
100
AcDbArc
 50
270.0
 51
315.0
  0
LINE
  5
2328D
100
AcDbEntity
  8
0
100
AcDbLine
 10
959.269781
 20
311.372872
 30
0.0
 11
1010.242869
 21
311.372872
 31
0.0
  0
LINE
  5
2328E
100
AcDbEntity
  8
0
100
AcDbLine
 10
1038.638053
 20
335.0046
 30
0.0
 11
1018.374597
 21
314.741144
 31
0.0
  0
LINE
  5
2328F
100
AcDbEntity
  8
0
100
AcDbLine
 10
1042.006325
 20
363.372872
 30
0.0
 11
1046.006325
 21
367.372872
 31
0.0
  0
ARC
  5
23290
100
AcDbEntity
  8
0
100
AcDbCircle
 10
1030.506325
 20
343.136328
 30
0.0
 40
11.5
100
AcDbArc
 50
315.0
 51
0.0
  0
LINE
  5
23291
100
AcDbEntity
  8
0
100
AcDbLine
 10
1052.006325
 20
364.872872
 30
0.0
 11
1059.856325
 21
364.872872
 31
0.0
  0
LINE
  5
23292
100
AcDbEntity
  8
0
100
AcDbLine
 10
1046.006325
 20
367.372872
 30
0.0
 11
1050.006325
 21
367.372872
 31
0.0
  0
ARC
  5
23293
100
AcDbEntity
  8
0
100
AcDbCircle
 10
1050.006325
 20
365.372872
 30
0.0
 40
2.0
100
AcDbArc
 50
360.0
 51
90.0
  0
ARC
  5
23294
100
AcDbEntity
  8
0
100
AcDbCircle
 10
1028.006325
 20
401.372872
 30
0.0
 40
14.0
100
AcDbArc
 50
0.0
 51
90.0
  0
LINE
  5
23295
100
AcDbEntity
  8
0
100
AcDbLine
 10
1042.006325
 20
401.372872
 30
0.0
 11
1046.006325
 21
397.372872
 31
0.0
  0
LINE
  5
23296
100
AcDbEntity
  8
0
100
AcDbLine
 10
1058.147846
 20
387.135372
 30
0.0
 11
1059.856325
 21
387.135372
 31
0.0
  0
LINE
  5
23297
100
AcDbEntity
  8
0
100
AcDbLine
 10
1058.147846
 20
377.610372
 30
0.0
 11
1059.856325
 21
377.610372
 31
0.0
  0
LINE
  5
23298
100
AcDbEntity
  8
0
100
AcDbLine
 10
1057.651325
 20
386.275372
 30
0.0
 11
1058.147846
 21
387.135372
 31
0.0
  0
LINE
  5
23299
100
AcDbEntity
  8
0
100
AcDbLine
 10
1057.651325
 20
378.470372
 30
0.0
 11
1058.147846
 21
377.610372
 31
0.0
  0
LINE
  5
2329A
100
AcDbEntity
  8
0
100
AcDbLine
 10
1057.651325
 20
378.470372
 30
0.0
 11
1057.651325
 21
386.275372
 31
0.0
  0
LINE
  5
2329B
100
AcDbEntity
  8
0
100
AcDbLine
 10
1052.006325
 20
399.872872
 30
0.0
 11
1059.856325
 21
399.872872
 31
0.0
  0
LINE
  5
2329C
100
AcDbEntity
  8
0
100
AcDbLine
 10
1046.006325
 20
397.372872
 30
0.0
 11
1050.006325
 21
397.372872
 31
0.0
  0
ARC
  5
2329D
100
AcDbEntity
  8
0
100
AcDbCircle
 10
1050.006325
 20
399.372872
 30
0.0
 40
2.0
100
AcDbArc
 50
270.0
 51
0.0
  0
ARC
  5
2329E
100
AcDbEntity
  8
0
100
AcDbCircle
 10
959.269781
 20
322.872872
 30
0.0
 40
11.5
100
AcDbArc
 50
225.0
 51
270.0
  0
LINE
  5
2329F
100
AcDbEntity
  8
0
100
AcDbLine
 10
927.506325
 20
401.372872
 30
0.0
 11
927.506325
 21
343.136328
 31
0.0
  0
LINE
  5
232A0
100
AcDbEntity
  8
0
100
AcDbLine
 10
930.874597
 20
335.0046
 30
0.0
 11
951.138053
 21
314.741144
 31
0.0
  0
ARC
  5
232A1
100
AcDbEntity
  8
0
100
AcDbCircle
 10
939.006325
 20
343.136328
 30
0.0
 40
11.5
100
AcDbArc
 50
180.0
 51
225.0
  0
ARC
  5
232A2
100
AcDbEntity
  8
0
100
AcDbCircle
 10
941.506325
 20
401.372872
 30
0.0
 40
14.0
100
AcDbArc
 50
90.0
 51
180.0
  0
LINE
  5
232A3
100
AcDbEntity
  8
0
100
AcDbLine
 10
1072.856325
 20
348.872872
 30
0.0
 11
1072.856325
 21
415.872872
 31
0.0
  0
LINE
  5
232A4
100
AcDbEntity
  8
0
100
AcDbLine
 10
1072.856325
 20
364.872872
 30
0.0
 11
1076.651325
 21
364.872872
 31
0.0
  0
LINE
  5
232A5
100
AcDbEntity
  8
0
100
AcDbLine
 10
1076.651325
 20
387.135372
 30
0.0
 11
1072.856325
 21
387.135372
 31
0.0
  0
LINE
  5
232A6
100
AcDbEntity
  8
0
100
AcDbLine
 10
1076.651325
 20
377.610372
 30
0.0
 11
1072.856325
 21
377.610372
 31
0.0
  0
LINE
  5
232A7
100
AcDbEntity
  8
0
100
AcDbLine
 10
1072.856325
 20
399.872872
 30
0.0
 11
1076.651325
 21
399.872872
 31
0.0
  0
CIRCLE
  5
232B3
100
AcDbEntity
  8
0
100
AcDbCircle
 10
849.495085
 20
382.372872
 30
0.0
 40
14.0
  0
ELLIPSE
  5
232B4
100
AcDbEntity
  8
0
100
AcDbEllipse
 10
849.495085
 20
324.872872
 30
0.0
 11
-18.0
 21
0.0
 31
0.0
210
0.0
220
0.0
230
1.0
 40
0.562874
 41
0.0
 42
6.283185307179586
  0
CIRCLE
  5
232B5
100
AcDbEntity
  8
0
100
AcDbCircle
 10
849.495085
 20
363.372872
 30
0.0
 40
52.0
  0
LINE
  5
232B6
100
AcDbEntity
  8
0
100
AcDbLine
 10
813.998606
 20
325.372872
 30
0.0
 11
799.495085
 21
325.372872
 31
0.0
  0
ARC
  5
232B7
100
AcDbEntity
  8
0
100
AcDbCircle
 10
1258.757593
 20
363.372872
 30
0.0
 40
52.0
100
AcDbArc
 50
112.024313
 51
226.95092
  0
ELLIPSE
  5
232B8
100
AcDbEntity
  8
0
100
AcDbEllipse
 10
1258.757593
 20
324.872872
 30
0.0
 11
-18.0
 21
0.0
 31
0.0
210
0.0
220
0.0
230
1.0
 40
0.562874
 41
3.190962630241032
 42
4.065411109416231
  0
ARC
  5
232B9
100
AcDbEntity
  8
0
100
AcDbCircle
 10
1258.757593
 20
363.372872
 30
0.0
 40
52.0
100
AcDbArc
 50
313.04908
 51
67.975687
  0
ELLIPSE
  5
232BA
100
AcDbEntity
  8
0
100
AcDbEllipse
 10
1258.757593
 20
324.872872
 30
0.0
 11
-18.0
 21
0.0
 31
0.0
210
0.0
220
0.0
230
1.0
 40
0.562874
 41
5.359366851353463
 42
6.233815330528346
  0
LINE
  5
232E2
100
AcDbEntity
  8
0
100
AcDbLine
 10
1691.934257
 20
415.872872
 30
0.0
 11
1704.934257
 21
415.872872
 31
0.0
  0
LINE
  5
232E3
100
AcDbEntity
  8
0
100
AcDbLine
 10
1691.934257
 20
348.872872
 30
0.0
 11
1704.934257
 21
348.872872
 31
0.0
  0
LINE
  5
232E4
100
AcDbEntity
  8
0
100
AcDbLine
 10
1573.584257
 20
415.372872
 30
0.0
 11
1660.084257
 21
415.372872
 31
0.0
  0
LINE
  5
232E5
100
AcDbEntity
  8
0
100
AcDbLine
 10
1678.084257
 20
397.372872
 30
0.0
 11
1678.084257
 21
367.372872
 31
0.0
  0
LINE
  5
232E6
100
AcDbEntity
  8
0
100
AcDbLine
 10
1684.084257
 20
399.872872
 30
0.0
 11
1684.084257
 21
364.872872
 31
0.0
  0
LINE
  5
232E7
100
AcDbEntity
  8
0
100
AcDbLine
 10
1691.934257
 20
348.872872
 30
0.0
 11
1691.934257
 21
415.872872
 31
0.0
  0
LINE
  5
232E8
100
AcDbEntity
  8
0
100
AcDbLine
 10
1674.084257
 20
401.372872
 30
0.0
 11
1674.084257
 21
343.136328
 31
0.0
  0
ARC
  5
232E9
100
AcDbEntity
  8
0
100
AcDbCircle
 10
1642.320801
 20
322.872872
 30
0.0
 40
11.5
100
AcDbArc
 50
270.0
 51
315.0
  0
LINE
  5
232EA
100
AcDbEntity
  8
0
100
AcDbLine
 10
1591.347713
 20
311.372872
 30
0.0
 11
1642.320801
 21
311.372872
 31
0.0
  0
LINE
  5
232EB
100
AcDbEntity
  8
0
100
AcDbLine
 10
1670.715985
 20
335.0046
 30
0.0
 11
1650.452529
 21
314.741144
 31
0.0
  0
LINE
  5
232EC
100
AcDbEntity
  8
0
100
AcDbLine
 10
1674.084257
 20
363.372872
 30
0.0
 11
1678.084257
 21
367.372872
 31
0.0
  0
ARC
  5
232ED
100
AcDbEntity
  8
0
100
AcDbCircle
 10
1662.584257
 20
343.136328
 30
0.0
 40
11.5
100
AcDbArc
 50
315.0
 51
0.0
  0
LINE
  5
232EE
100
AcDbEntity
  8
0
100
AcDbLine
 10
1684.084257
 20
364.872872
 30
0.0
 11
1691.934257
 21
364.872872
 31
0.0
  0
LINE
  5
232EF
100
AcDbEntity
  8
0
100
AcDbLine
 10
1678.084257
 20
367.372872
 30
0.0
 11
1682.084257
 21
367.372872
 31
0.0
  0
ARC
  5
232F0
100
AcDbEntity
  8
0
100
AcDbCircle
 10
1682.084257
 20
365.372872
 30
0.0
 40
2.0
100
AcDbArc
 50
360.0
 51
90.0
  0
ARC
  5
232F1
100
AcDbEntity
  8
0
100
AcDbCircle
 10
1660.084257
 20
401.372872
 30
0.0
 40
14.0
100
AcDbArc
 50
0.0
 51
90.0
  0
LINE
  5
232F2
100
AcDbEntity
  8
0
100
AcDbLine
 10
1674.084257
 20
401.372872
 30
0.0
 11
1678.084257
 21
397.372872
 31
0.0
  0
LINE
  5
232F3
100
AcDbEntity
  8
0
100
AcDbLine
 10
1690.225778
 20
387.135372
 30
0.0
 11
1691.934257
 21
387.135372
 31
0.0
  0
LINE
  5
232F4
100
AcDbEntity
  8
0
100
AcDbLine
 10
1690.225778
 20
377.610372
 30
0.0
 11
1691.934257
 21
377.610372
 31
0.0
  0
LINE
  5
232F5
100
AcDbEntity
  8
0
100
AcDbLine
 10
1689.729257
 20
386.275372
 30
0.0
 11
1690.225778
 21
387.135372
 31
0.0
  0
LINE
  5
232F6
100
AcDbEntity
  8
0
100
AcDbLine
 10
1689.729257
 20
378.470372
 30
0.0
 11
1690.225778
 21
377.610372
 31
0.0
  0
LINE
  5
232F7
100
AcDbEntity
  8
0
100
AcDbLine
 10
1689.729257
 20
378.470372
 30
0.0
 11
1689.729257
 21
386.275372
 31
0.0
  0
LINE
  5
232F8
100
AcDbEntity
  8
0
100
AcDbLine
 10
1684.084257
 20
399.872872
 30
0.0
 11
1691.934257
 21
399.872872
 31
0.0
  0
LINE
  5
232F9
100
AcDbEntity
  8
0
100
AcDbLine
 10
1678.084257
 20
397.372872
 30
0.0
 11
1682.084257
 21
397.372872
 31
0.0
  0
ARC
  5
232FA
100
AcDbEntity
  8
0
100
AcDbCircle
 10
1682.084257
 20
399.372872
 30
0.0
 40
2.0
100
AcDbArc
 50
270.0
 51
0.0
  0
ARC
  5
232FB
100
AcDbEntity
  8
0
100
AcDbCircle
 10
1591.347713
 20
322.872872
 30
0.0
 40
11.5
100
AcDbArc
 50
225.0
 51
270.0
  0
LINE
  5
232FC
100
AcDbEntity
  8
0
100
AcDbLine
 10
1559.584257
 20
401.372872
 30
0.0
 11
1559.584257
 21
343.136328
 31
0.0
  0
LINE
  5
232FD
100
AcDbEntity
  8
0
100
AcDbLine
 10
1562.952529
 20
335.0046
 30
0.0
 11
1583.215985
 21
314.741144
 31
0.0
  0
ARC
  5
232FE
100
AcDbEntity
  8
0
100
AcDbCircle
 10
1571.084257
 20
343.136328
 30
0.0
 40
11.5
100
AcDbArc
 50
180.0
 51
225.0
  0
ARC
  5
232FF
100
AcDbEntity
  8
0
100
AcDbCircle
 10
1573.584257
 20
401.372872
 30
0.0
 40
14.0
100
AcDbArc
 50
90.0
 51
180.0
  0
LINE
  5
23300
100
AcDbEntity
  8
0
100
AcDbLine
 10
1704.934257
 20
348.872872
 30
0.0
 11
1704.934257
 21
415.872872
 31
0.0
  0
LINE
  5
23301
100
AcDbEntity
  8
0
100
AcDbLine
 10
1704.934257
 20
364.872872
 30
0.0
 11
1708.729257
 21
364.872872
 31
0.0
  0
LINE
  5
23302
100
AcDbEntity
  8
0
100
AcDbLine
 10
1708.729257
 20
387.135372
 30
0.0
 11
1704.934257
 21
387.135372
 31
0.0
  0
LINE
  5
23303
100
AcDbEntity
  8
0
100
AcDbLine
 10
1708.729257
 20
377.610372
 30
0.0
 11
1704.934257
 21
377.610372
 31
0.0
  0
LINE
  5
23304
100
AcDbEntity
  8
0
100
AcDbLine
 10
1704.934257
 20
399.872872
 30
0.0
 11
1708.729257
 21
399.872872
 31
0.0
  0
CIRCLE
  5
2330F
100
AcDbEntity
  8
0
100
AcDbCircle
 10
1464.688028
 20
382.372872
 30
0.0
 40
14.0
  0
ELLIPSE
  5
23310
100
AcDbEntity
  8
0
100
AcDbEllipse
 10
1464.688028
 20
324.872872
 30
0.0
 11
-18.0
 21
0.0
 31
0.0
210
0.0
220
0.0
230
1.0
 40
0.562874
 41
0.0
 42
6.283185307179586
  0
CIRCLE
  5
23311
100
AcDbEntity
  8
0
100
AcDbCircle
 10
1464.688028
 20
363.372872
 30
0.0
 40
52.0
  0
LINE
  5
23312
100
AcDbEntity
  8
0
100
AcDbLine
 10
1493.928411
 20
320.372872
 30
0.0
 11
1527.188028
 21
320.372872
 31
0.0
  0
ARC
  5
23313
100
AcDbEntity
  8
0
100
AcDbCircle
 10
1903.539653
 20
363.372872
 30
0.0
 40
52.0
100
AcDbArc
 50
304.216051
 51
67.975358
  0
ELLIPSE
  5
23314
100
AcDbEntity
  8
0
100
AcDbEllipse
 10
1903.539653
 20
324.872872
 30
0.0
 11
-18.0
 21
0.0
 31
0.0
210
0.0
220
0.0
230
1.0
 40
0.562874
 41
2.681368096528037
 42
4.065411109416009
  0
ELLIPSE
  5
23316
100
AcDbEntity
  8
0
100
AcDbEllipse
 10
1903.539653
 20
324.872872
 30
0.0
 11
-18.0
 21
0.0
 31
0.0
210
0.0
220
0.0
230
1.0
 40
0.562874
 41
5.359366851353241
 42
6.743409864241341
  0
ARC
  5
23317
100
AcDbEntity
  8
0
100
AcDbCircle
 10
1903.539653
 20
363.372872
 30
0.0
 40
52.0
100
AcDbArc
 50
112.024642
 51
235.783949
  0
ARC
  5
2333F
100
AcDbEntity
  8
0
100
AcDbCircle
 10
1704.854148
 20
847.254913
 30
0.0
 40
11.5
100
AcDbArc
 50
225.0
 51
270.0
  0
LINE
  5
23340
100
AcDbEntity
  8
0
100
AcDbLine
 10
1773.590692
 20
939.754913
 30
0.0
 11
1687.090692
 21
939.754913
 31
0.0
  0
LINE
  5
23341
100
AcDbEntity
  8
0
100
AcDbLine
 10
1673.090692
 20
925.754913
 30
0.0
 11
1673.090692
 21
867.518369
 31
0.0
  0
LINE
  5
23342
100
AcDbEntity
  8
0
100
AcDbLine
 10
1642.240692
 20
873.254913
 30
0.0
 11
1642.240692
 21
940.254913
 31
0.0
  0
LINE
  5
23343
100
AcDbEntity
  8
0
100
AcDbLine
 10
1655.240692
 20
873.254913
 30
0.0
 11
1655.240692
 21
940.254913
 31
0.0
  0
LINE
  5
23344
100
AcDbEntity
  8
0
100
AcDbLine
 10
1655.240692
 20
873.254913
 30
0.0
 11
1642.240692
 21
873.254913
 31
0.0
  0
ARC
  5
23345
100
AcDbEntity
  8
0
100
AcDbCircle
 10
1684.590692
 20
867.518369
 30
0.0
 40
11.5
100
AcDbArc
 50
180.0
 51
225.0
  0
LINE
  5
23346
100
AcDbEntity
  8
0
100
AcDbLine
 10
1676.458964
 20
859.386641
 30
0.0
 11
1696.72242
 21
839.123185
 31
0.0
  0
LINE
  5
23347
100
AcDbEntity
  8
0
100
AcDbLine
 10
1655.240692
 20
940.254913
 30
0.0
 11
1642.240692
 21
940.254913
 31
0.0
  0
LINE
  5
23348
100
AcDbEntity
  8
0
100
AcDbLine
 10
1642.240692
 20
889.254913
 30
0.0
 11
1638.445692
 21
889.254913
 31
0.0
  0
LINE
  5
23349
100
AcDbEntity
  8
0
100
AcDbLine
 10
1638.445692
 20
911.517413
 30
0.0
 11
1642.240692
 21
911.517413
 31
0.0
  0
LINE
  5
2334A
100
AcDbEntity
  8
0
100
AcDbLine
 10
1638.445692
 20
901.992413
 30
0.0
 11
1642.240692
 21
901.992413
 31
0.0
  0
LINE
  5
2334B
100
AcDbEntity
  8
0
100
AcDbLine
 10
1642.240692
 20
924.254913
 30
0.0
 11
1638.445692
 21
924.254913
 31
0.0
  0
LINE
  5
2334C
100
AcDbEntity
  8
0
100
AcDbLine
 10
1669.090692
 20
921.754913
 30
0.0
 11
1669.090692
 21
891.754913
 31
0.0
  0
LINE
  5
2334D
100
AcDbEntity
  8
0
100
AcDbLine
 10
1663.090692
 20
924.254913
 30
0.0
 11
1663.090692
 21
889.254913
 31
0.0
  0
LINE
  5
2334E
100
AcDbEntity
  8
0
100
AcDbLine
 10
1663.090692
 20
889.254913
 30
0.0
 11
1655.240692
 21
889.254913
 31
0.0
  0
LINE
  5
2334F
100
AcDbEntity
  8
0
100
AcDbLine
 10
1673.090692
 20
887.754913
 30
0.0
 11
1669.090692
 21
891.754913
 31
0.0
  0
ARC
  5
23350
100
AcDbEntity
  8
0
100
AcDbCircle
 10
1665.090692
 20
889.754913
 30
0.0
 40
2.0
100
AcDbArc
 50
90.0
 51
180.0
  0
LINE
  5
23351
100
AcDbEntity
  8
0
100
AcDbLine
 10
1669.090692
 20
891.754913
 30
0.0
 11
1665.090692
 21
891.754913
 31
0.0
  0
LINE
  5
23352
100
AcDbEntity
  8
0
100
AcDbLine
 10
1657.445692
 20
910.657413
 30
0.0
 11
1656.949171
 21
911.517413
 31
0.0
  0
LINE
  5
23353
100
AcDbEntity
  8
0
100
AcDbLine
 10
1656.949171
 20
911.517413
 30
0.0
 11
1655.240692
 21
911.517413
 31
0.0
  0
LINE
  5
23354
100
AcDbEntity
  8
0
100
AcDbLine
 10
1657.445692
 20
902.852413
 30
0.0
 11
1656.949171
 21
901.992413
 31
0.0
  0
LINE
  5
23355
100
AcDbEntity
  8
0
100
AcDbLine
 10
1656.949171
 20
901.992413
 30
0.0
 11
1655.240692
 21
901.992413
 31
0.0
  0
LINE
  5
23356
100
AcDbEntity
  8
0
100
AcDbLine
 10
1657.445692
 20
902.852413
 30
0.0
 11
1657.445692
 21
910.657413
 31
0.0
  0
ARC
  5
23357
100
AcDbEntity
  8
0
100
AcDbCircle
 10
1687.090692
 20
925.754913
 30
0.0
 40
14.0
100
AcDbArc
 50
90.0
 51
180.0
  0
LINE
  5
23358
100
AcDbEntity
  8
0
100
AcDbLine
 10
1663.090692
 20
924.254913
 30
0.0
 11
1655.240692
 21
924.254913
 31
0.0
  0
LINE
  5
23359
100
AcDbEntity
  8
0
100
AcDbLine
 10
1673.090692
 20
925.754913
 30
0.0
 11
1669.090692
 21
921.754913
 31
0.0
  0
ARC
  5
2335A
100
AcDbEntity
  8
0
100
AcDbCircle
 10
1665.090692
 20
923.754913
 30
0.0
 40
2.0
100
AcDbArc
 50
180.0
 51
270.0
  0
LINE
  5
2335B
100
AcDbEntity
  8
0
100
AcDbLine
 10
1669.090692
 20
921.754913
 30
0.0
 11
1665.090692
 21
921.754913
 31
0.0
  0
LINE
  5
2335C
100
AcDbEntity
  8
0
100
AcDbLine
 10
1787.590692
 20
925.754913
 30
0.0
 11
1787.590692
 21
867.518369
 31
0.0
  0
ARC
  5
2335D
100
AcDbEntity
  8
0
100
AcDbCircle
 10
1755.827236
 20
847.254913
 30
0.0
 40
11.5
100
AcDbArc
 50
270.0
 51
315.0
  0
LINE
  5
2335E
100
AcDbEntity
  8
0
100
AcDbLine
 10
1755.827236
 20
835.754913
 30
0.0
 11
1704.854148
 21
835.754913
 31
0.0
  0
LINE
  5
2335F
100
AcDbEntity
  8
0
100
AcDbLine
 10
1784.22242
 20
859.386641
 30
0.0
 11
1763.958964
 21
839.123185
 31
0.0
  0
ARC
  5
23360
100
AcDbEntity
  8
0
100
AcDbCircle
 10
1776.090692
 20
867.518369
 30
0.0
 40
11.5
100
AcDbArc
 50
315.0
 51
0.0
  0
ARC
  5
23361
100
AcDbEntity
  8
0
100
AcDbCircle
 10
1773.590692
 20
925.754913
 30
0.0
 40
14.0
100
AcDbArc
 50
0.0
 51
90.0
  0
LINE
  5
23362
100
AcDbEntity
  8
0
100
AcDbLine
 10
1058.147846
 20
607.060991
 30
0.0
 11
1059.856325
 21
607.060991
 31
0.0
  0
LINE
  5
23365
100
AcDbEntity
  8
0
100
AcDbLine
 10
1057.651325
 20
610.194171
 30
0.0
 11
1057.651325
 21
607.920991
 31
0.0
  0
LINE
  5
23366
100
AcDbEntity
  8
0
100
AcDbLine
 10
1057.651325
 20
607.920991
 30
0.0
 11
1058.147846
 21
607.060991
 31
0.0
  0
LINE
  5
23367
100
AcDbEntity
  8
0
100
AcDbLine
 10
475.902642
 20
608.160499
 30
0.0
 11
476.399163
 21
607.300499
 31
0.0
  0
LINE
  5
23368
100
AcDbEntity
  8
0
100
AcDbLine
 10
475.902642
 20
615.376292
 30
0.0
 11
475.902642
 21
608.160499
 31
0.0
  0
LINE
  5
2336B
100
AcDbEntity
  8
0
100
AcDbLine
 10
476.399163
 20
607.300499
 30
0.0
 11
478.107642
 21
607.300499
 31
0.0
  0
LINE
  5
23390
100
AcDbEntity
  8
0
100
AcDbLine
 10
1052.006325
 20
622.159257
 30
0.0
 11
1052.006325
 21
619.823491
 31
0.0
  0
LINE
  5
23391
100
AcDbEntity
  8
0
100
AcDbLine
 10
1059.856325
 20
667.594896
 30
0.0
 11
1059.856325
 21
670.823491
 31
0.0
  0
LINE
  5
23394
100
AcDbEntity
  8
0
100
AcDbLine
 10
478.107642
 20
663.497686
 30
0.0
 11
478.107642
 21
671.062999
 31
0.0
  0
LINE
  5
23395
100
AcDbEntity
  8
0
100
AcDbLine
 10
1670.919055
 20
659.488692
 30
0.0
 11
1672.660486
 21
657.747261
 31
0.0
  0
LINE
  5
23396
100
AcDbEntity
  8
0
100
AcDbLine
 10
1670.919055
 20
615.158289
 30
0.0
 11
1672.660486
 21
616.899721
 31
0.0
  0
ARC
  5
23397
100
AcDbEntity
  8
0
100
AcDbCircle
 10
1581.629057
 20
637.323491
 30
0.0
 40
92.0
100
AcDbArc
 50
331.280664
 51
348.750678
  0
ARC
  5
23398
100
AcDbEntity
  8
0
100
AcDbCircle
 10
1651.129057
 20
637.323491
 30
0.0
 40
92.0
100
AcDbArc
 50
151.280664
 51
208.719336
  0
LINE
  5
23399
100
AcDbEntity
  8
0
100
AcDbLine
 10
1583.601284
 20
585.323491
 30
0.0
 11
1649.156829
 21
585.323491
 31
0.0
  0
ARC
  5
2339A
100
AcDbEntity
  8
0
100
AcDbCircle
 10
1583.601284
 20
600.323491
 30
0.0
 40
15.0
100
AcDbArc
 50
208.719336
 51
270.0
  0
ARC
  5
2339B
100
AcDbEntity
  8
0
100
AcDbCircle
 10
1649.156829
 20
600.323491
 30
0.0
 40
15.0
100
AcDbArc
 50
270.0
 51
331.280664
  0
LINE
  5
2339D
100
AcDbEntity
  8
0
100
AcDbLine
 10
1583.601284
 20
689.323491
 30
0.0
 11
1649.156829
 21
689.323491
 31
0.0
  0
ARC
  5
2339E
100
AcDbEntity
  8
0
100
AcDbCircle
 10
1583.601284
 20
674.323491
 30
0.0
 40
15.0
100
AcDbArc
 50
90.0
 51
151.280664
  0
ARC
  5
2339F
100
AcDbEntity
  8
0
100
AcDbCircle
 10
1649.156829
 20
674.323491
 30
0.0
 40
15.0
100
AcDbArc
 50
28.719336
 51
90.0
  0
ARC
  5
233B3
100
AcDbEntity
  8
0
100
AcDbCircle
 10
1581.629057
 20
637.323491
 30
0.0
 40
92.0
100
AcDbArc
 50
11.249322
 51
28.719336
  0
VIEWPORT
  5
41
100
AcDbEntity
 67
     1
  8
0
100
AcDbViewport
 10
117.358407
 20
73.5
 30
0.0
 40
234.716814
 41
147.0
 68
    -1
 69
     1
1001
ACAD
1000
MVIEW
1002
{
1070
    16
1010
0.0
1020
0.0
1030
0.0
1010
0.0
1020
0.0
1030
1.0
1040
0.0
1040
147.0
1040
117.358407
1040
73.5
1040
50.0
1040
0.0
1040
0.0
1070
     0
1070
   100
1070
     1
1070
     1
1070
     0
1070
     0
1070
     0
1070
     0
1040
0.0
1040
0.0
1040
0.0
1040
1.0
1040
1.0
1040
0.0
1040
0.0
1070
     0
1002
{
1002
}
1002
}
  0
ENDSEC
  0
SECTION
  2
OBJECTS
  0
DICTIONARY
  5
C
100
AcDbDictionary
  3
ACAD_GROUP
350
D
  3
ACAD_MLINESTYLE
350
E
  0
DICTIONARY
  5
D
102
{ACAD_REACTORS
330
C
102
}
100
AcDbDictionary
  0
DICTIONARY
  5
E
102
{ACAD_REACTORS
330
C
102
}
100
AcDbDictionary
  3
STANDARD
350
1B
  0
MLINESTYLE
  5
1B
102
{ACAD_REACTORS
330
E
102
}
100
AcDbMlineStyle
  2
STANDARD
 70
     0
  3

 62
     0
 51
90.0
 52
90.0
 71
     2
 49
0.5
 62
   256
  6
BYLAYER
 49
-0.5
 62
   256
  6
BYLAYER
  0
ENDSEC
  0
EOF
