  0
SECTION
  2
HEADER
  9
$ACADVER
  1
AC1009
  9
$INSBASE
 10
0.0
 20
0.0
 30
0.0
  9
$EXTMIN
 10
164.71047504189301
 20
74.88556650337523
 30
-0.0015258207003583
  9
$EXTMAX
 10
4290.2895457033192
 20
2865.0695870805889
 30
0.0000000349246037
  9
$LIMMIN
 10
0.0
 20
0.0
  9
$LIMMAX
 10
4455.0
 20
3150.0
  9
$ORTHOMODE
 70
     1
  9
$REGENMODE
 70
     1
  9
$FILLMODE
 70
     1
  9
$QTEXTMODE
 70
     0
  9
$MIRRTEXT
 70
     1
  9
$DRAGMODE
 70
     2
  9
$LTSCALE
 40
60.0
  9
$OSMODE
 70
   163
  9
$ATTMODE
 70
     1
  9
$TEXTSIZE
 40
60.0
  9
$TRACEWID
 40
0.05
  9
$TEXTSTYLE
  7
STANDARD
  9
$CLAYER
  8
0
  9
$CELTYPE
  6
BYLAYER
  9
$CECOLOR
 62
   256
  9
$DIMSCALE
 40
15.0
  9
$DIMASZ
 40
2.7999999999999989
  9
$DIMEXO
 40
1.0
  9
$DIMDLI
 40
5.0
  9
$DIMRND
 40
0.1
  9
$DIMDLE
 40
0.0
  9
$DIMEXE
 40
1.0
  9
$DIMTP
 40
0.0
  9
$DIMTM
 40
0.0
  9
$DIMTXT
 40
2.5
  9
$DIMCEN
 40
0.0
  9
$DIMTSZ
 40
0.0
  9
$DIMTOL
 70
     0
  9
$DIMLIM
 70
     0
  9
$DIMTIH
 70
     0
  9
$DIMTOH
 70
     0
  9
$DIMSE1
 70
     0
  9
$DIMSE2
 70
     0
  9
$DIMTAD
 70
     3
  9
$DIMZIN
 70
     8
  9
$DIMBLK
  1

  9
$DIMASO
 70
     1
  9
$DIMSHO
 70
     1
  9
$DIMPOST
  1
 
  9
$DIMAPOST
  1

  9
$DIMALT
 70
     0
  9
$DIMALTD
 70
     2
  9
$DIMALTF
 40
1.0
  9
$DIMLFAC
 40
1.0
  9
$DIMTOFL
 70
     1
  9
$DIMTVP
 40
0.0
  9
$DIMTIX
 70
     0
  9
$DIMSOXD
 70
     0
  9
$DIMSAH
 70
     1
  9
$DIMBLK1
  1
OPEN
  9
$DIMBLK2
  1
OPEN
  9
$DIMSTYLE
  2
DIM1
  9
$DIMCLRD
 70
     2
  9
$DIMCLRE
 70
     2
  9
$DIMCLRT
 70
     2
  9
$DIMTFAC
 40
0.7
  9
$DIMGAP
 40
0.85
  9
$LUNITS
 70
     2
  9
$LUPREC
 70
     4
  9
$SKETCHINC
 40
0.1
  9
$FILLETRAD
 40
0.0
  9
$AUNITS
 70
     0
  9
$AUPREC
 70
     0
  9
$MENU
  1
C:\ACADR13\WIN\SUPPORT\ACAD.mnc
  9
$ELEVATION
 40
0.0
  9
$PELEVATION
 40
0.0
  9
$THICKNESS
 40
0.0
  9
$LIMCHECK
 70
     0
  9
$BLIPMODE
 70
     0
  9
$CHAMFERA
 40
0.0
  9
$CHAMFERB
 40
0.0
  9
$SKPOLY
 70
     0
  9
$TDCREATE
 40
2451589.540470243
  9
$TDUPDATE
 40
2453208.6390957749
  9
$TDINDWG
 40
0.1148366551
  9
$TDUSRTIMER
 40
0.1148366551
  9
$USRTIMER
 70
     1
  9
$ANGBASE
 50
0.0
  9
$ANGDIR
 70
     0
  9
$PDMODE
 70
     0
  9
$PDSIZE
 40
0.0
  9
$PLINEWID
 40
0.0
  9
$COORDS
 70
     1
  9
$SPLFRAME
 70
     0
  9
$SPLINETYPE
 70
     6
  9
$SPLINESEGS
 70
     8
  9
$ATTDIA
 70
     0
  9
$ATTREQ
 70
     1
  9
$HANDLING
 70
     1
  9
$HANDSEED
  5
1A446
  9
$SURFTAB1
 70
     6
  9
$SURFTAB2
 70
     6
  9
$SURFTYPE
 70
     6
  9
$SURFU
 70
     6
  9
$SURFV
 70
     6
  9
$UCSNAME
  2

  9
$UCSORG
 10
0.0
 20
0.0
 30
0.0
  9
$UCSXDIR
 10
1.0
 20
0.0
 30
0.0
  9
$UCSYDIR
 10
0.0
 20
1.0
 30
0.0
  9
$PUCSNAME
  2

  9
$PUCSORG
 10
0.0
 20
0.0
 30
0.0
  9
$PUCSXDIR
 10
1.0
 20
0.0
 30
0.0
  9
$PUCSYDIR
 10
0.0
 20
1.0
 30
0.0
  9
$USERI1
 70
     0
  9
$USERI2
 70
     0
  9
$USERI3
 70
     0
  9
$USERI4
 70
     0
  9
$USERI5
 70
     0
  9
$USERR1
 40
0.0
  9
$USERR2
 40
0.0
  9
$USERR3
 40
0.0
  9
$USERR4
 40
0.0
  9
$USERR5
 40
0.0
  9
$WORLDVIEW
 70
     1
  9
$SHADEDGE
 70
     3
  9
$SHADEDIF
 70
    70
  9
$TILEMODE
 70
     1
  9
$MAXACTVP
 70
    16
  9
$PLIMCHECK
 70
     0
  9
$PEXTMIN
 10
1.0000000000000000E+020
 20
1.0000000000000000E+020
 30
1.0000000000000000E+020
  9
$PEXTMAX
 10
-1.0000000000000000E+020
 20
-1.0000000000000000E+020
 30
-1.0000000000000000E+020
  9
$PLIMMIN
 10
0.0
 20
0.0
  9
$PLIMMAX
 10
20.0
 20
147.0
  9
$UNITMODE
 70
     0
  9
$VISRETAIN
 70
     0
  9
$PLINEGEN
 70
     0
  9
$PSLTSCALE
 70
     1
  0
ENDSEC
  0
SECTION
  2
TABLES
  0
TABLE
  2
VPORT
 70
     4
  0
VPORT
  2
*ACTIVE
 70
     0
 10
0.0
 20
0.0
 11
1.0
 21
1.0
 12
2227.5
 22
1575.0
 13
0.0
 23
0.0
 14
1.0
 24
1.0
 15
0.0
 25
0.0
 16
0.0
 26
0.0
 36
1.0
 17
0.0
 27
0.0
 37
0.0
 40
3297.1837746183951
 41
1.359289617486338
 42
50.0
 43
0.0
 44
0.0
 50
0.0
 51
0.0
 71
     0
 72
   100
 73
     1
 74
     1
 75
     0
 76
     0
 77
     0
 78
     0
  0
ENDTAB
  0
TABLE
  2
LTYPE
 70
     1
  0
LTYPE
  2
CONTINUOUS
 70
     0
  3
Solid line
 72
    65
 73
     0
 40
0.0
  0
ENDTAB
  0
TABLE
  2
LAYER
 70
     1
  0
LAYER
  2
0
 70
     0
 62
     7
  6
CONTINUOUS
  0
ENDTAB
  0
TABLE
  2
STYLE
 70
     3
  0
STYLE
  2
STANDARD
 70
     0
 40
0.0
 41
0.8
 50
0.0
 71
     0
 42
60.0
  3
simplex
  4
extfont
  0
STYLE
  2
PTSH
 70
     0
 40
0.0
 41
0.9
 50
0.0
 71
     0
 42
4.0
  3
SIMPLEX
  4
EXTFONT
  0
STYLE
  2
DIM
 70
     0
 40
0.0
 41
0.8
 50
0.0
 71
     0
 42
4.0
  3
simplex
  4
extfont
  0
ENDTAB
  0
TABLE
  2
VIEW
 70
     0
  0
ENDTAB
  0
TABLE
  2
UCS
 70
     0
  0
ENDTAB
  0
TABLE
  2
APPID
 70
     1
  0
APPID
  2
ACAD
 70
     0
  0
ENDTAB
  0
TABLE
  2
DIMSTYLE
 70
     1
  0
DIMSTYLE
  2
DIM1
 70
     0
  3
 
  4

  5

  6
OPEN
  7
OPEN
 40
15.0
 41
2.7999999999999989
 42
1.0
 43
5.0
 44
1.0
 45
0.1
 46
0.0
 47
0.0
 48
0.0
140
2.5
141
0.0
142
0.0
143
1.0
144
1.0
145
0.0
146
0.7
147
0.85
 71
     0
 72
     0
 73
     0
 74
     0
 75
     0
 76
     0
 77
     3
 78
     8
170
     0
171
     2
172
     1
173
     1
174
     0
175
     0
176
     2
177
     2
178
     2
  0
ENDTAB
  0
ENDSEC
  0
SECTION
  2
BLOCKS
  0
BLOCK
  8
0
  2
$MODEL_SPACE
 70
     0
 10
0.0
 20
0.0
 30
0.0
  3
$MODEL_SPACE
  1

  0
ENDBLK
  5
3D
  8
0
  0
BLOCK
 67
     1
  8
0
  2
$PAPER_SPACE
 70
     0
 10
0.0
 20
0.0
 30
0.0
  3
$PAPER_SPACE
  1

  0
ENDBLK
  5
3B
 67
     1
  8
0
  0
BLOCK
  8
0
  2
_OPEN
 70
     0
 10
0.0
 20
0.0
 30
0.0
  3
_OPEN
  1
H1111.DWG
  0
LINE
  5
244A
  8
0
  6
BYBLOCK
 62
     0
 10
-1.0
 20
0.1666666666666666
 30
0.0
 11
0.0
 21
0.0
 31
0.0
  0
LINE
  5
244B
  8
0
  6
BYBLOCK
 62
     0
 10
0.0
 20
0.0
 30
0.0
 11
-1.0
 21
-0.1666666666666666
 31
0.0
  0
LINE
  5
244C
  8
0
  6
BYBLOCK
 62
     0
 10
0.0
 20
0.0
 30
0.0
 11
-1.0
 21
0.0
 31
0.0
  0
ENDBLK
  5
244D
  8
0
  0
BLOCK
  8
0
  2
YA
 70
     0
 10
0.0
 20
0.0
 30
0.0
  3
YA
  1

  0
LINE
  5
47DC
  8
0
 10
-16.806500000000032
 20
2.80099999999993
 30
0.0
 11
-8.4035000000000082
 21
2.80099999999993
 31
0.0
  0
LINE
  5
47DD
  8
0
 10
-8.4035000000000082
 20
2.80099999999993
 30
0.0
 11
-7.0024999999999968
 21
1.400499999999965
 31
0.0
  0
LINE
  5
47DE
  8
0
 10
-7.0024999999999968
 20
1.400499999999965
 30
0.0
 11
-2.8619999999999659
 21
1.400499999999965
 31
0.0
  0
LINE
  5
47DF
  8
0
 10
-2.8619999999999659
 20
1.400499999999965
 30
0.0
 11
-2.8619999999999659
 21
2.80099999999993
 31
0.0
  0
LINE
  5
47E0
  8
0
 10
-2.8619999999999659
 20
2.80099999999993
 30
0.0
 11
0.0
 21
0.0
 31
0.0
  0
LINE
  5
47E1
  8
0
 10
0.0
 20
0.0
 30
0.0
 11
-14.00549999999998
 21
0.0
 31
0.0
  0
LINE
  5
47E2
  8
0
 10
-14.00549999999998
 20
0.0
 30
0.0
 11
-16.806500000000032
 21
2.80099999999993
 31
0.0
  0
ENDBLK
  5
47E4
  8
0
  0
ENDSEC
  0
SECTION
  2
ENTITIES
  0
TEXT
  5
2529
  8
0
  6
CONTINUOUS
 10
3918.9959502250349
 20
113.5483788825085
 30
0.0
 40
40.0
  1
GPGT10-FC
 41
0.9
  7
PTSH
 72
     1
 11
4069.853093082178
 21
133.5483788825085
 31
0.0
 73
     2
  0
POLYLINE
  5
2563
  8
0
 66
     1
 10
0.0
 20
0.0
 30
0.0
 70
     1
  0
VERTEX
  5
1A397
  8
0
 10
164.99999999999989
 20
74.999999999999972
 30
0.0
  0
VERTEX
  5
1A398
  8
0
 10
4289.9999999999973
 20
74.999999999999972
 30
0.0
  0
VERTEX
  5
1A399
  8
0
 10
4289.9999999999973
 20
2864.9999999999991
 30
0.0
  0
VERTEX
  5
1A39A
  8
0
 10
164.99999999999989
 20
2864.9999999999991
 30
0.0
  0
SEQEND
  5
1A39B
  8
0
  0
TEXT
  5
396C
  8
0
 10
1643.749999999998
 20
228.99193130339231
 30
0.0
 40
52.499999999999972
  1
TLV  GP10¥GT10 (FC/Screwed)
 72
     4
 11
2227.4999999999991
 21
251.49193130339231
 31
0.0
  0
LINE
  5
19CB5
  8
0
 10
2434.2482686730332
 20
1112.9760509613179
 30
0.0
 11
2433.0082686730329
 21
1119.9760509613179
 31
0.0
  0
LINE
  5
19CB6
  8
0
 10
2546.2482686730332
 20
1109.9760509613179
 30
0.0
 11
2409.2482686730332
 21
1109.9760509613179
 31
0.0
  0
LINE
  5
19CB7
  8
0
 10
2520.2482686730332
 20
1112.9760509613179
 30
0.0
 11
2409.2482686730332
 21
1112.9760509613179
 31
0.0
  0
LINE
  5
19CB8
  8
0
 10
2409.2482686730332
 20
549.97605096131792
 30
0.0
 11
2435.2482686730341
 21
549.97605096131792
 31
0.0
  0
TEXT
  5
19CBA
  8
0
 10
2123.9161785860201
 20
414.41826297895278
 30
0.0
 40
37.5
  1
80mm/3"
 72
     4
 11
2257.8447500145912
 21
430.48969155038139
 31
0.0
  0
ARC
  5
19CBB
  8
0
 10
1615.139350798592
 20
897.97605096131781
 30
0.0
 40
212.0
 50
0.0
 51
180.0
  0
LINE
  5
19CBC
  8
0
 10
1763.139350798592
 20
549.97605096131792
 30
0.0
 11
1467.1393507985929
 21
549.97605096131792
 31
0.0
  0
LINE
  5
19CBD
  8
0
 10
1403.1393507985929
 20
771.97705096131779
 30
0.0
 11
1403.1393507985929
 21
897.97605096131781
 31
0.0
  0
ARC
  5
19CBE
  8
0
 10
1615.139350798592
 20
771.97605096131792
 30
0.0
 40
212.0
 50
180.0
 51
224.9643048629076
  0
LINE
  5
19CBF
  8
0
 10
1580.0393507985921
 20
571.0730509613179
 30
0.0
 11
1589.9393507985919
 21
580.97305096131765
 31
0.0
  0
LINE
  5
19CC0
  8
0
 10
1589.9393507985919
 20
580.97305096131765
 30
0.0
 11
1580.0393507985921
 21
590.87205096131777
 31
0.0
  0
ARC
  5
19CC1
  8
0
 10
1597.6393507985929
 20
889.46294486456304
 30
0.0
 40
260.26344028384301
 50
260.97778233918478
 51
279.02221766081522
  0
CIRCLE
  5
19CC2
  8
0
 10
1580.139350798592
 20
580.97205096131802
 30
0.0
 40
10.62976594286058
  0
LINE
  5
19CC3
  8
0
 10
1615.1393507985929
 20
559.97205096131802
 30
0.0
 11
1580.139350798592
 21
559.97205096131802
 31
0.0
  0
LINE
  5
19CC4
  8
0
 10
1570.139350798592
 20
580.97305096131765
 30
0.0
 11
1580.0393507985921
 21
571.0730509613179
 31
0.0
  0
ARC
  5
19CC5
  8
0
 10
1580.139350798592
 20
599.97205096131802
 30
0.0
 40
40.0
 50
180.0
 51
270.0
  0
LINE
  5
19CC6
  8
0
 10
1465.1393507985929
 20
551.97605096131781
 30
0.0
 11
1465.1393507985929
 21
622.16283392089781
 31
0.0
  0
ARC
  5
19CC7
  8
0
 10
1467.1393507985929
 20
551.97605096131781
 30
0.0
 40
2.0
 50
180.0
 51
270.0
  0
ARC
  5
19CC8
  8
0
 10
1615.1393507985929
 20
1176.3681681308481
 30
0.0
 40
574.14593307517521
 50
256.73532925701022
 51
262.49406965974708
  0
LINE
  5
19CC9
  8
0
 10
1540.139350798592
 20
599.97205096131802
 30
0.0
 11
1540.139350798592
 21
635.63070036363024
 31
0.0
  0
LINE
  5
19CCA
  8
0
 10
1580.0393507985921
 20
590.87205096131777
 30
0.0
 11
1570.139350798592
 21
580.97305096131765
 31
0.0
  0
ARC
  5
19CCB
  8
0
 10
1615.1393507985929
 20
599.97205096131802
 30
0.0
 40
40.0
 50
270.0
 51
0.0
  0
ARC
  5
19CCC
  8
0
 10
1615.1393507985929
 20
1176.3681681308481
 30
0.0
 40
574.14593307517521
 50
273.9949585931563
 51
283.26467074298972
  0
LINE
  5
19CCD
  8
0
 10
1655.1393507985929
 20
599.97205096131802
 30
0.0
 11
1655.1393507985929
 21
635.63070036363024
 31
0.0
  0
LINE
  5
19CCE
  8
0
 10
1615.0393507985921
 20
595.0730509613179
 30
0.0
 11
1624.9393507985919
 21
604.97305096131765
 31
0.0
  0
LINE
  5
19CCF
  8
0
 10
1605.139350798592
 20
604.97305096131765
 30
0.0
 11
1615.0393507985921
 21
595.0730509613179
 31
0.0
  0
LINE
  5
19CD0
  8
0
 10
1624.9393507985919
 20
604.97305096131765
 30
0.0
 11
1615.0393507985921
 21
614.87205096131788
 31
0.0
  0
LINE
  5
19CD1
  8
0
 10
1615.0393507985921
 20
614.87205096131788
 30
0.0
 11
1605.139350798592
 21
604.97305096131765
 31
0.0
  0
CIRCLE
  5
19CD2
  8
0
 10
1615.139350798592
 20
604.97205096131802
 30
0.0
 40
10.62976594286058
  0
ARC
  5
19CD3
  8
0
 10
1587.1393507985929
 20
1041.322359519713
 30
0.0
 40
4.0
 50
270.0
 51
0.000000000000007
  0
LINE
  5
19CD4
  8
0
 10
1591.1393507985929
 20
1064.9770509613179
 30
0.0
 11
1591.1393507985929
 21
1041.322359519713
 31
0.0
  0
LINE
  5
19CD5
  8
0
 10
1639.1393507985929
 20
1064.9770509613179
 30
0.0
 11
1639.139350798592
 21
1041.322359519713
 31
0.0
  0
ARC
  5
19CD6
  8
0
 10
1615.139350798592
 20
1064.9770509613179
 30
0.0
 40
24.0
 50
359.99999999999892
 51
180.0
  0
ARC
  5
19CD7
  8
0
 10
1615.1393507985929
 20
983.72812786480995
 30
0.0
 40
57.594231654903602
 50
72.458048743163872
 51
107.5419512568365
  0
ARC
  5
19CD8
  8
0
 10
1643.139350798592
 20
1041.322359519713
 30
0.0
 40
4.0
 50
180.0
 51
270.0
  0
LINE
  5
19CD9
  8
0
 10
1615.0393507985921
 20
1055.0785509613179
 30
0.0
 11
1624.9393507985919
 21
1064.978550961318
 31
0.0
  0
LINE
  5
19CDA
  8
0
 10
1605.139350798592
 20
1064.978550961318
 30
0.0
 11
1615.0393507985921
 21
1055.0785509613179
 31
0.0
  0
LINE
  5
19CDB
  8
0
 10
1624.9393507985919
 20
1064.978550961318
 30
0.0
 11
1615.0393507985921
 21
1074.8775509613181
 31
0.0
  0
LINE
  5
19CDC
  8
0
 10
1615.0393507985921
 20
1074.8775509613181
 30
0.0
 11
1605.139350798592
 21
1064.978550961318
 31
0.0
  0
CIRCLE
  5
19CDD
  8
0
 10
1615.139350798592
 20
1064.977550961318
 30
0.0
 40
10.62976594286058
  0
ARC
  5
19CDE
  8
0
 10
1615.139350798592
 20
1133.9780509613181
 30
0.0
 40
20.5
 50
111.4601277494256
 51
209.19640440963209
  0
LINE
  5
19CDF
  8
0
 10
1607.639350798592
 20
1156.9760509613179
 30
0.0
 11
1607.639350798592
 21
1109.8433443314841
 31
0.0
  0
LINE
  5
19CE0
  8
0
 10
1622.639350798592
 20
1109.8433443314841
 30
0.0
 11
1622.639350798592
 21
1156.9760509613179
 31
0.0
  0
ARC
  5
19CE1
  8
0
 10
1615.139350798592
 20
1133.9780509613181
 30
0.0
 40
20.5
 50
330.80359559036788
 51
68.539872250574376
  0
LINE
  5
19CE2
  8
0
 10
1622.639350798592
 20
1112.9800509613181
 30
0.0
 11
1637.1393507985929
 21
1112.9800509613181
 31
0.0
  0
LINE
  5
19CE3
  8
0
 10
1622.639350798592
 20
1112.9800509613181
 30
0.0
 11
1634.1393507985929
 21
1112.9800509613181
 31
0.0
  0
LINE
  5
19CE4
  8
0
 10
1622.639350798592
 20
1113.9780509613181
 30
0.0
 11
1633.6393507985929
 21
1113.9780509613181
 31
0.0
  0
ARC
  5
19CE5
  8
0
 10
1631.6543507986009
 20
1124.687897496063
 30
0.0
 40
10.31984774599181
 50
245.7716518860052
 51
294.22834811390959
  0
ARC
  5
19CE6
  8
0
 10
1631.6543507986059
 20
1113.1343729925079
 30
0.0
 40
10.44203536329989
 50
66.073006421132305
 51
113.9269935790057
  0
LINE
  5
19CE7
  8
0
 10
1622.639350798592
 20
1123.9780509613181
 30
0.0
 11
1633.6393507985929
 21
1123.9780509613181
 31
0.0
  0
ARC
  5
19CE8
  8
0
 10
1615.1393507986099
 20
1151.2547679425929
 30
0.0
 40
36.931716981267421
 50
281.7169796289391
 51
283.05122866643018
  0
ARC
  5
19CE9
  8
0
 10
1615.139350798574
 20
1086.701333980043
 30
0.0
 40
36.931716981267421
 50
101.7169796289391
 51
103.05122866643021
  0
LINE
  5
19CEA
  8
0
 10
1607.639350798592
 20
1113.9780509613181
 30
0.0
 11
1596.639350798592
 21
1113.9780509613181
 31
0.0
  0
ARC
  5
19CEB
  8
0
 10
1615.1393507986099
 20
1151.2547679425929
 30
0.0
 40
36.931716981267421
 50
256.94877133351503
 51
258.28302037100332
  0
LINE
  5
19CEC
  8
0
 10
1602.859350798575
 20
1115.2770509613181
 30
0.0
 11
1606.7993507985759
 21
1115.2770509613181
 31
0.0
  0
LINE
  5
19CED
  8
0
 10
1596.639350798592
 20
1112.9780509613181
 30
0.0
 11
1596.639350798592
 21
1113.9780509613181
 31
0.0
  0
ARC
  5
19CEE
  8
0
 10
1598.624350798578
 20
1124.8217289301281
 30
0.0
 40
10.44203536329989
 50
246.07300642113231
 51
293.92699357900568
  0
LINE
  5
19CEF
  8
0
 10
1596.639350798592
 20
1113.9780509613181
 30
0.0
 11
1594.389350798592
 21
1115.2770509613181
 31
0.0
  0
LINE
  5
19CF0
  8
0
 10
1623.4793507985919
 20
1115.2770509613181
 30
0.0
 11
1627.4193507985931
 21
1115.2770509613181
 31
0.0
  0
ARC
  5
19CF1
  8
0
 10
1593.139350798592
 20
1110.9800509613181
 30
0.0
 40
2.0
 50
89.999999999999986
 51
180.0
  0
ARC
  5
19CF2
  8
0
 10
1593.139350798592
 20
1110.9800509613181
 30
0.0
 40
2.0
 50
90.0
 51
180.0
  0
ARC
  5
19CF3
  8
0
 10
1596.139350798592
 20
1110.9800509613181
 30
0.0
 40
2.0
 50
90.0
 51
180.00000000000421
  0
LINE
  5
19CF4
  8
0
 10
1596.139350798592
 20
1112.9800509613181
 30
0.0
 11
1607.639350798592
 21
1112.9800509613181
 31
0.0
  0
LINE
  5
19CF5
  8
0
 10
1593.139350798592
 20
1112.9800509613181
 30
0.0
 11
1607.639350798592
 21
1112.9800509613181
 31
0.0
  0
LINE
  5
19CF6
  8
0
 10
1594.1393507985929
 20
1108.9333926207159
 30
0.0
 11
1594.1393507985929
 21
1110.9800509613181
 31
0.0
  0
LINE
  5
19CF7
  8
0
 10
1591.1393507985929
 20
1108.613179692223
 30
0.0
 11
1591.1393507985929
 21
1110.9800509613181
 31
0.0
  0
ARC
  5
19CF8
  8
0
 10
1615.139350798592
 20
1133.9780509613181
 30
0.0
 40
12.5
 50
126.86989764584401
 51
233.13010235415601
  0
LINE
  5
19CF9
  8
0
 10
1596.639350798592
 20
1123.9780509613181
 30
0.0
 11
1594.389350798592
 21
1122.6790509613179
 31
0.0
  0
LINE
  5
19CFA
  8
0
 10
1606.7993507985921
 20
1122.6790509613179
 30
0.0
 11
1602.859350798592
 21
1122.6790509613179
 31
0.0
  0
LINE
  5
19CFB
  8
0
 10
1607.639350798592
 20
1123.9780509613181
 30
0.0
 11
1596.639350798592
 21
1123.9780509613181
 31
0.0
  0
ARC
  5
19CFC
  8
0
 10
1598.6243507985839
 20
1113.268204426573
 30
0.0
 40
10.31984774599181
 50
65.771651886005216
 51
114.2283481139096
  0
LINE
  5
19CFD
  8
0
 10
1606.7993507985921
 20
1115.2770509613181
 30
0.0
 11
1606.7993507985921
 21
1122.6790509613179
 31
0.0
  0
LINE
  5
19CFE
  8
0
 10
1594.389350798592
 20
1122.6790509613179
 30
0.0
 11
1594.389350798592
 21
1115.2770509613181
 31
0.0
  0
LINE
  5
19CFF
  8
0
 10
1602.859350798592
 20
1122.6790509613179
 30
0.0
 11
1602.859350798592
 21
1115.2770509613181
 31
0.0
  0
LINE
  5
19D00
  8
0
 10
1627.4193507986099
 20
1122.6790509613179
 30
0.0
 11
1623.4793507986089
 21
1122.6790509613179
 31
0.0
  0
LINE
  5
19D01
  8
0
 10
1627.4193507985919
 20
1122.6790509613179
 30
0.0
 11
1627.4193507985919
 21
1115.2770509613181
 31
0.0
  0
LINE
  5
19D02
  8
0
 10
1623.4793507985919
 20
1115.2770509613181
 30
0.0
 11
1623.4793507985919
 21
1122.6790509613179
 31
0.0
  0
ARC
  5
19D03
  8
0
 10
1615.139350798592
 20
1133.9780509613181
 30
0.0
 40
12.5
 50
306.86989764584399
 51
53.130102354155959
  0
ARC
  5
19D04
  8
0
 10
1615.139350798574
 20
1086.701333980043
 30
0.0
 40
36.931716981267421
 50
76.948771333515069
 51
78.283020371003261
  0
LINE
  5
19D05
  8
0
 10
1633.6393507985929
 20
1113.9780509613181
 30
0.0
 11
1633.6393507985929
 21
1112.9780509613181
 31
0.0
  0
LINE
  5
19D06
  8
0
 10
1633.6393507985929
 20
1113.9780509613181
 30
0.0
 11
1635.889350798592
 21
1115.2770509613181
 31
0.0
  0
ARC
  5
19D07
  8
0
 10
1634.1393507985929
 20
1110.9800509613181
 30
0.0
 40
2.0
 50
359.99999999999579
 51
90.0
  0
ARC
  5
19D08
  8
0
 10
1637.1393507985929
 20
1110.9800509613181
 30
0.0
 40
2.0
 50
0.0
 51
90.0
  0
LINE
  5
19D09
  8
0
 10
1636.1393507985929
 20
1110.9800509613181
 30
0.0
 11
1636.1393507985929
 21
1108.9333926207159
 31
0.0
  0
LINE
  5
19D0A
  8
0
 10
1639.1393507985929
 20
1110.9800509613181
 30
0.0
 11
1639.1393507985929
 21
1108.613179692223
 31
0.0
  0
LINE
  5
19D0B
  8
0
 10
1633.6393507985929
 20
1123.9780509613181
 30
0.0
 11
1635.889350798592
 21
1122.6790509613179
 31
0.0
  0
LINE
  5
19D0C
  8
0
 10
1635.889350798592
 20
1122.6790509613179
 30
0.0
 11
1635.889350798592
 21
1115.2770509613181
 31
0.0
  0
ARC
  5
19D0D
  8
0
 10
1610.639350798592
 20
1156.9760509613179
 30
0.0
 40
3.0
 50
90.0
 51
180.0
  0
LINE
  5
19D0E
  8
0
 10
1619.6393507985929
 20
1159.9760509613179
 30
0.0
 11
1610.639350798592
 21
1159.9760509613179
 31
0.0
  0
ARC
  5
19D0F
  8
0
 10
1619.6393507985929
 20
1156.9760509613179
 30
0.0
 40
3.0
 50
0.000000000000007
 51
89.999999999999275
  0
LINE
  5
19D10
  8
0
 10
1827.139350798592
 20
897.97605096131781
 30
0.0
 11
1827.139350798592
 21
771.97605096131792
 31
0.0
  0
LINE
  5
19D11
  8
0
 10
2404.1282686730342
 20
844.90605096131765
 30
0.0
 11
2404.1282686730342
 21
990.19605096131772
 31
0.0
  0
LINE
  5
19D12
  8
0
 10
2409.2482686730332
 20
1112.9760509613179
 30
0.0
 11
2409.2482686730332
 21
549.97605096131792
 31
0.0
  0
LINE
  5
19D13
  8
0
 10
2407.7482686730332
 20
549.97205096131802
 30
0.0
 11
2407.7482686730332
 21
1109.972050961318
 31
0.0
  0
LINE
  5
19D14
  8
0
 10
2008.748268673033
 20
771.97205096131802
 30
0.0
 11
2008.748268673033
 21
897.97205096131802
 31
0.0
  0
LINE
  5
19D15
  8
0
 10
2113.7482686730332
 20
549.97205096131802
 30
0.0
 11
2093.7482686730332
 21
549.97205096131802
 31
0.0
  0
ARC
  5
19D16
  8
0
 10
1615.139350798592
 20
771.97605096131792
 30
0.0
 40
212.0
 50
315.03569513709232
 51
0.000000000000007
  0
ARC
  5
19D17
  8
0
 10
2220.7482686730332
 20
771.97205096131802
 30
0.0
 40
212.0
 50
180.0
 51
233.19763829517481
  0
LINE
  5
19D18
  8
0
 10
2093.7482686730332
 20
709.97205096131802
 30
0.0
 11
2093.7482686730332
 21
549.97205096131802
 31
0.0
  0
LINE
  5
19D19
  8
0
 10
1765.139350798592
 20
551.97605096131781
 30
0.0
 11
1765.139350798592
 21
622.16283392089758
 31
0.0
  0
ARC
  5
19D1A
  8
0
 10
1763.139350798592
 20
551.97605096131781
 30
0.0
 40
2.0
 50
270.0
 51
0.000000000000007
  0
LINE
  5
19D1B
  8
0
 10
2060.7482686730332
 20
564.97205096131768
 30
0.0
 11
2060.7482686730332
 21
629.19950458072014
 31
0.0
  0
LINE
  5
19D1C
  8
0
 10
2055.7482686730332
 20
592.10505096131783
 30
0.0
 11
2055.7482686730332
 21
571.83805096131789
 31
0.0
  0
LINE
  5
19D1D
  8
0
 10
2045.7482686730341
 20
571.07155096131783
 30
0.0
 11
2045.7482686730341
 21
590.87055096131769
 31
0.0
  0
LINE
  5
19D1E
  8
0
 10
2055.7482686730332
 20
591.10455096131773
 30
0.0
 11
2055.7482686730332
 21
571.30555096131775
 31
0.0
  0
LINE
  5
19D1F
  8
0
 10
2055.7482686730332
 20
571.07155096131783
 30
0.0
 11
2045.7482686730341
 21
571.07155096131783
 31
0.0
  0
ARC
  5
19D20
  8
0
 10
2065.7482686730332
 20
564.97205096131768
 30
0.0
 40
5.0
 50
180.0
 51
270.0
  0
LINE
  5
19D21
  8
0
 10
2055.7482686730332
 20
570.8375509613179
 30
0.0
 11
2056.2482686730341
 21
570.35255096131777
 31
0.0
  0
LINE
  5
19D22
  8
0
 10
2056.2482686730341
 20
570.35255096131777
 30
0.0
 11
2060.7482686730341
 21
570.49355096131785
 31
0.0
  0
LINE
  5
19D23
  8
0
 10
2065.7482686730332
 20
559.97205096131768
 30
0.0
 11
2093.7482686730332
 21
559.97205096131802
 31
0.0
  0
ARC
  5
19D24
  8
0
 10
2050.7482686730332
 20
629.19950458072014
 30
0.0
 40
10.0
 50
0.0
 51
40.024833885499852
  0
LINE
  5
19D25
  8
0
 10
2045.7482686730341
 20
604.97205096131802
 30
0.0
 11
2055.7482686730332
 21
604.97205096131802
 31
0.0
  0
LINE
  5
19D26
  8
0
 10
2045.7482686730341
 20
614.87105096131791
 30
0.0
 11
2055.7482686730332
 21
614.87105096131791
 31
0.0
  0
LINE
  5
19D27
  8
0
 10
2045.7482686730341
 20
590.87055096131769
 30
0.0
 11
2055.7482686730332
 21
590.87055096131769
 31
0.0
  0
LINE
  5
19D28
  8
0
 10
2055.7482686730332
 20
595.07205096131793
 30
0.0
 11
2045.7482686730341
 21
595.07205096131793
 31
0.0
  0
LINE
  5
19D29
  8
0
 10
2045.7482686730341
 20
580.9715509613178
 30
0.0
 11
2055.7482686730332
 21
580.9715509613178
 31
0.0
  0
LINE
  5
19D2A
  8
0
 10
2045.7482686730341
 20
595.07205096131793
 30
0.0
 11
2045.7482686730341
 21
614.87105096131791
 31
0.0
  0
LINE
  5
19D2B
  8
0
 10
2056.2482686730341
 20
615.59005096131796
 30
0.0
 11
2055.7482686730332
 21
615.10605096131803
 31
0.0
  0
LINE
  5
19D2C
  8
0
 10
2056.2482686730341
 20
591.58955096131785
 30
0.0
 11
2055.7482686730332
 21
591.10455096131773
 31
0.0
  0
LINE
  5
19D2D
  8
0
 10
2055.7482686730332
 20
594.838050961318
 30
0.0
 11
2056.2482686730341
 21
594.35405096131797
 31
0.0
  0
LINE
  5
19D2E
  8
0
 10
2055.7482686730332
 20
615.10605096131803
 30
0.0
 11
2055.7482686730332
 21
594.838050961318
 31
0.0
  0
LINE
  5
19D2F
  8
0
 10
2055.7482686730332
 20
614.87105096131791
 30
0.0
 11
2055.7482686730332
 21
595.07205096131793
 31
0.0
  0
LINE
  5
19D30
  8
0
 10
2060.7482686730341
 20
615.44905096131788
 30
0.0
 11
2056.2482686730341
 21
615.59005096131796
 31
0.0
  0
LINE
  5
19D31
  8
0
 10
2060.7482686730341
 20
591.44855096131778
 30
0.0
 11
2056.2482686730341
 21
591.58955096131785
 31
0.0
  0
LINE
  5
19D32
  8
0
 10
2056.2482686730341
 20
594.35405096131797
 30
0.0
 11
2060.7482686730341
 21
594.49405096131795
 31
0.0
  0
LINE
  5
19D33
  8
0
 10
2402.7482686730332
 20
549.97205096131802
 30
0.0
 11
2402.7482686730332
 21
709.97205096131802
 31
0.0
  0
LINE
  5
19D34
  8
0
 10
2381.7482686730341
 20
549.97205096131802
 30
0.0
 11
2381.7482686730341
 21
709.97205096131802
 31
0.0
  0
LINE
  5
19D35
  8
0
 10
2113.7482686730332
 20
709.97205096131802
 30
0.0
 11
2113.7482686730332
 21
549.97205096131802
 31
0.0
  0
ARC
  5
19D36
  8
0
 10
2071.110145704145
 20
792.43812867944939
 30
0.0
 40
299.90466107656539
 50
317.94735679390482
 51
2.3233669499972538
  0
LINE
  5
19D37
  8
0
 10
2113.7482686730332
 20
559.97205096131802
 30
0.0
 11
2359.7196711439169
 21
559.97205096131802
 31
0.0
  0
ARC
  5
19D38
  8
0
 10
2220.7482686730332
 20
771.97205096131802
 30
0.0
 40
212.0
 50
239.68743325643081
 51
270.0
  0
ARC
  5
19D39
  8
0
 10
2371.448268673033
 20
576.17205096131795
 30
0.0
 40
20.0
 50
90.0
 51
270.0
  0
LINE
  5
19D3A
  8
0
 10
2381.7482686730341
 20
549.97205096131802
 30
0.0
 11
2407.7482686730332
 21
549.97205096131802
 31
0.0
  0
LINE
  5
19D3B
  8
0
 10
2371.448268673033
 20
556.17205096131795
 30
0.0
 11
2376.7482686730332
 21
556.17205096131795
 31
0.0
  0
ARC
  5
19D3C
  8
0
 10
2376.7482686730332
 20
551.17205096131795
 30
0.0
 40
5.0
 50
0.0
 51
90.0
  0
ARC
  5
19D3D
  8
0
 10
2371.448268673033
 20
635.67205096131806
 30
0.0
 40
20.0
 50
90.0
 51
270.0
  0
ARC
  5
19D3E
  8
0
 10
2376.7482686730332
 20
610.67205096131806
 30
0.0
 40
5.0
 50
0.0
 51
90.0
  0
ARC
  5
19D3F
  8
0
 10
2376.7482686730332
 20
601.17205096131795
 30
0.0
 40
5.0
 50
270.0
 51
0.0
  0
LINE
  5
19D40
  8
0
 10
2371.448268673033
 20
596.17205096131795
 30
0.0
 11
2376.7482686730332
 21
596.17205096131795
 31
0.0
  0
LINE
  5
19D41
  8
0
 10
2371.448268673033
 20
615.67205096131795
 30
0.0
 11
2376.7482686730332
 21
615.67205096131795
 31
0.0
  0
ARC
  5
19D42
  8
0
 10
2376.7482686730332
 20
660.67205096131806
 30
0.0
 40
5.0
 50
270.0
 51
0.0
  0
LINE
  5
19D43
  8
0
 10
2371.448268673033
 20
655.67205096131795
 30
0.0
 11
2376.7482686730332
 21
655.67205096131795
 31
0.0
  0
ARC
  5
19D44
  8
0
 10
2352.8057601071991
 20
853.42071322269828
 30
0.0
 40
52.024026746452087
 50
290.19848127795859
 51
350.5801422419878
  0
LINE
  5
19D45
  8
0
 10
2128.753703616178
 20
1088.972050961318
 30
0.0
 11
2065.7482686730332
 21
1088.972050961318
 31
0.0
  0
ARC
  5
19D46
  8
0
 10
2220.7482686730332
 20
897.97205096131802
 30
0.0
 40
212.0
 50
40.585677366996109
 51
180.0
  0
LINE
  5
19D47
  8
0
 10
2060.7482686730332
 20
1040.744597341916
 30
0.0
 11
2060.7482686730332
 21
1083.972050961318
 31
0.0
  0
ARC
  5
19D48
  8
0
 10
2050.7482686730332
 20
1040.744597341916
 30
0.0
 40
10.0
 50
319.9751661145001
 51
0.0
  0
LINE
  5
19D49
  8
0
 10
2045.748268673033
 20
1064.9770509613179
 30
0.0
 11
2055.7482686730332
 21
1064.9770509613179
 31
0.0
  0
LINE
  5
19D4A
  8
0
 10
2045.748268673033
 20
1074.877050961318
 30
0.0
 11
2055.7482686730332
 21
1074.877050961318
 31
0.0
  0
LINE
  5
19D4B
  8
0
 10
2055.7482686730332
 20
1055.077050961318
 30
0.0
 11
2045.748268673033
 21
1055.077050961318
 31
0.0
  0
LINE
  5
19D4C
  8
0
 10
2045.748268673033
 20
1055.077050961318
 30
0.0
 11
2045.748268673033
 21
1074.877050961318
 31
0.0
  0
ARC
  5
19D4D
  8
0
 10
2065.7482686730332
 20
1083.972050961318
 30
0.0
 40
5.0
 50
90.0
 51
180.0
  0
LINE
  5
19D4E
  8
0
 10
2056.2482686730332
 20
1075.587050961318
 30
0.0
 11
2055.7482686730332
 21
1075.107050961318
 31
0.0
  0
LINE
  5
19D4F
  8
0
 10
2060.7482686730332
 20
1075.4470509613179
 30
0.0
 11
2056.2482686730332
 21
1075.587050961318
 31
0.0
  0
LINE
  5
19D50
  8
0
 10
2055.7482686730332
 20
1054.837050961318
 30
0.0
 11
2056.2482686730332
 21
1054.357050961318
 31
0.0
  0
LINE
  5
19D51
  8
0
 10
2056.2482686730332
 20
1054.357050961318
 30
0.0
 11
2060.7482686730332
 21
1054.4970509613181
 31
0.0
  0
LINE
  5
19D52
  8
0
 10
2055.7482686730332
 20
1075.107050961318
 30
0.0
 11
2055.7482686730332
 21
1054.837050961318
 31
0.0
  0
LINE
  5
19D53
  8
0
 10
2055.7482686730332
 20
1074.877050961318
 30
0.0
 11
2055.7482686730332
 21
1055.077050961318
 31
0.0
  0
ARC
  5
19D54
  8
0
 10
2270.7482686730332
 20
1127.472050961318
 30
0.0
 40
32.5
 50
0.0
 51
180.0000000000006
  0
CIRCLE
  5
19D55
  8
0
 10
2270.7482686730332
 20
1127.472050961318
 30
0.0
 40
17.5
  0
ARC
  5
19D56
  8
0
 10
2223.2482686730332
 20
1124.972050961318
 30
0.0
 40
15.0
 50
270.0
 51
0.0
  0
LINE
  5
19D57
  8
0
 10
2238.2482686730332
 20
1127.472050961318
 30
0.0
 11
2238.2482686730332
 21
1124.972050961318
 31
0.0
  0
LINE
  5
19D58
  8
0
 10
2407.7482686730332
 20
1109.972050961318
 30
0.0
 11
2318.2482686730332
 21
1109.972050961318
 31
0.0
  0
ARC
  5
19D59
  8
0
 10
2318.2482686730332
 20
1124.972050961318
 30
0.0
 40
15.0
 50
180.0
 51
270.0
  0
LINE
  5
19D5A
  8
0
 10
2303.2482686730341
 20
1127.472050961318
 30
0.0
 11
2303.2482686730341
 21
1124.972050961318
 31
0.0
  0
ARC
  5
19D5B
  8
0
 10
2424.2482686730341
 20
1150.458580810729
 30
0.0
 40
4.0000381505882627
 50
0.2502398829081893
 51
179.7497601170918
  0
LINE
  5
19D5C
  8
0
 10
2420.2482686730332
 20
1120.7860509613181
 30
0.0
 11
2415.4782686730332
 21
1119.9760509613179
 31
0.0
  0
LINE
  5
19D5D
  8
0
 10
2415.4782686730332
 20
1119.9760509613179
 30
0.0
 11
2420.2482686730332
 21
1119.9760509613179
 31
0.0
  0
LINE
  5
19D5E
  8
0
 10
2415.4782686730332
 20
1119.9760509613179
 30
0.0
 11
2414.2482686730332
 21
1112.9760509613179
 31
0.0
  0
LINE
  5
19D5F
  8
0
 10
2433.0082686730329
 20
1119.9760509613179
 30
0.0
 11
2428.2482686730341
 21
1120.7860509613181
 31
0.0
  0
LINE
  5
19D60
  8
0
 10
2428.2482686730341
 20
1119.9760509613179
 30
0.0
 11
2433.0082686730329
 21
1119.9760509613179
 31
0.0
  0
LINE
  5
19D61
  8
0
 10
2428.2482686730341
 20
1150.4760509613179
 30
0.0
 11
2428.2482686730341
 21
1112.9760509613179
 31
0.0
  0
LINE
  5
19D62
  8
0
 10
2420.2482686730332
 20
1112.9760509613179
 30
0.0
 11
2420.2482686730332
 21
1150.4760509613179
 31
0.0
  0
ARC
  5
19D63
  8
0
 10
3122.837204519818
 20
726.14828115385444
 30
0.0
 40
25.00078145074022
 50
135.6492498473678
 51
247.5991392012121
  0
LINE
  5
19D64
  8
0
 10
3129.0498000593111
 20
768.26005096131803
 30
0.0
 11
3104.959800059311
 21
743.62505096131804
 31
0.0
  0
LINE
  5
19D65
  8
0
 10
3141.2498000593109
 20
664.5360509613181
 30
0.0
 11
3106.919800059311
 21
661.59605096131804
 31
0.0
  0
LINE
  5
19D66
  8
0
 10
3125.7998000593111
 20
644.37405096131806
 30
0.0
 11
3110.7998000593111
 21
653.03405096131792
 31
0.0
  0
LINE
  5
19D67
  8
0
 10
3124.7998000593111
 20
743.87005096131793
 30
0.0
 11
3109.7998000593111
 21
735.20905096131776
 31
0.0
  0
LINE
  5
19D68
  8
0
 10
3109.7998000593111
 20
717.88905096131793
 30
0.0
 11
3124.7998000593111
 21
709.2280509613181
 31
0.0
  0
CIRCLE
  5
19D69
  8
0
 10
3124.7998000593111
 20
726.5490509613179
 30
0.0
 40
15.0
  0
LINE
  5
19D6A
  8
0
 10
3077.97980005931
 20
782.86205096131812
 30
0.0
 11
3126.4498000593098
 21
773.14105096131777
 31
0.0
  0
LINE
  5
19D6B
  8
0
 10
3110.7998000593111
 20
618.39305096131807
 30
0.0
 11
3125.7998000593111
 21
627.05305096131792
 31
0.0
  0
LINE
  5
19D6C
  8
0
 10
2847.49980005931
 20
549.97205096131802
 30
0.0
 11
3143.4998000593109
 21
549.97205096131802
 31
0.0
  0
CIRCLE
  5
19D6D
  8
0
 10
3110.7998000593111
 20
635.71405096131798
 30
0.0
 40
15.0
  0
ARC
  5
19D6E
  8
0
 10
2995.49980005931
 20
699.97205096131802
 30
0.0
 40
150.0
 50
290.78355959584559
 51
41.658687242419731
  0
ARC
  5
19D6F
  8
0
 10
2995.49980005931
 20
897.97205096131802
 30
0.0
 40
212.0
 50
0.0
 51
83.499750107956118
  0
LINE
  5
19D70
  8
0
 10
3049.9998000593109
 20
703.92767918667823
 30
0.0
 11
3049.9998000593109
 21
924.97205096131802
 31
0.0
  0
LINE
  5
19D71
  8
0
 10
2940.9998000593109
 20
703.92767918667823
 30
0.0
 11
2940.9998000593109
 21
924.97205096131802
 31
0.0
  0
CIRCLE
  5
19D72
  8
0
 10
2995.49980005931
 20
924.97205096131802
 30
0.0
 40
54.5
  0
LINE
  5
19D73
  8
0
 10
2575.2482686730332
 20
924.97605096131804
 30
0.0
 11
2575.2482686730332
 21
870.47605096131781
 31
0.0
  0
ARC
  5
19D74
  8
0
 10
2416.0884304229648
 20
897.87105096131791
 30
0.0
 40
30.800861390068931
 50
343.6801846146634
 51
16.31981538533697
  0
LINE
  5
19D75
  8
0
 10
2447.2482686730332
 20
883.31605096131807
 30
0.0
 11
2447.2482686730332
 21
912.42605096131774
 31
0.0
  0
POLYLINE
  5
19D76
  8
0
 66
     1
 10
0.0
 20
0.0
 30
0.0
  0
VERTEX
  5
1A39C
  8
0
 10
2435.2482686730341
 20
857.87605096131801
 30
0.0
 42
0.0759324646691649
  0
VERTEX
  5
1A39D
  8
0
 10
2454.6075081229878
 20
860.83309000835152
 30
0.0
 42
0.0861204956053751
  0
VERTEX
  5
1A39E
  8
0
 10
2469.9884248327289
 20
868.74238937929715
 30
0.0
 42
0.1059698406576102
  0
VERTEX
  5
1A39F
  8
0
 10
2480.8859650459422
 20
881.34772379283709
 30
0.0
 42
0.126089610326612
  0
VERTEX
  5
1A3A0
  8
0
 10
2484.3782686730342
 20
894.97605096131792
 30
0.0
 42
0.1260896103266131
  0
SEQEND
  5
1A3A1
  8
0
  0
LINE
  5
19D77
  8
0
 10
2435.2482686730341
 20
1109.9760509613179
 30
0.0
 11
2435.2482686730341
 21
549.97605096131792
 31
0.0
  0
LINE
  5
19D78
  8
0
 10
2511.7482686730332
 20
1010.476050961317
 30
0.0
 11
2511.7482686730332
 21
745.26202131063974
 31
0.0
  0
LINE
  5
19D79
  8
0
 10
3084.49980005931
 20
915.19405096131788
 30
0.0
 11
3069.4998000593109
 21
906.53405096131803
 31
0.0
  0
LINE
  5
19D7A
  8
0
 10
3099.4998000593109
 20
906.53405096131803
 30
0.0
 11
3084.49980005931
 21
915.19405096131788
 31
0.0
  0
LINE
  5
19D7B
  8
0
 10
2921.4898000593098
 20
906.53405096131803
 30
0.0
 11
2906.4898000593098
 21
915.19405096131788
 31
0.0
  0
LINE
  5
19D7C
  8
0
 10
2906.4898000593098
 20
915.19405096131788
 30
0.0
 11
2891.4898000593098
 21
906.53405096131803
 31
0.0
  0
LINE
  5
19D7D
  8
0
 10
3102.509800293285
 20
812.96860771582715
 30
0.0
 11
3102.4997964950621
 21
1002.944433046014
 31
0.0
  0
LINE
  5
19D7E
  8
0
 10
2888.4998000593109
 20
1002.972050961318
 30
0.0
 11
2888.4998000593109
 21
812.98090017234233
 31
0.0
  0
CIRCLE
  5
19D7F
  8
0
 10
3084.49980005931
 20
897.87305096131797
 30
0.0
 40
15.0
  0
CIRCLE
  5
19D80
  8
0
 10
2906.4898000593098
 20
897.87305096131797
 30
0.0
 40
15.0
  0
ARC
  5
19D81
  8
0
 10
2908.5220542836391
 20
897.87357219927708
 30
0.0
 40
25.0
 50
299.43090869714689
 51
60.570493769105873
  0
ARC
  5
19D82
  8
0
 10
3082.4775458349818
 20
897.87357219935302
 30
0.0
 40
25.0
 50
119.4295062309812
 51
240.56909130294039
  0
ARC
  5
19D83
  8
0
 10
2995.49980005931
 20
1002.972050961318
 30
0.0
 40
107.0
 50
359.98521130868681
 51
180.0
  0
ARC
  5
19D84
  8
0
 10
2995.49980005931
 20
897.97205096131802
 30
0.0
 40
212.0
 50
96.500249892043868
 51
180.0
  0
ARC
  5
19D85
  8
0
 10
2995.49980005931
 20
771.97205096131802
 30
0.0
 40
212.0
 50
180.0
 51
224.96430486290771
  0
LINE
  5
19D86
  8
0
 10
2575.2482686730332
 20
662.97605096131792
 30
0.0
 11
2575.2482686730332
 21
703.97605096131792
 31
0.0
  0
ARC
  5
19D87
  8
0
 10
2356.2482686730332
 20
699.97605096131792
 30
0.0
 40
162.0
 50
344.93197801159693
 51
15.068021988403061
  0
ARC
  5
19D88
  8
0
 10
2463.6552351874511
 20
698.74488792065085
 30
0.0
 40
82.758529754391674
 50
303.72016061161969
 51
355.42299372567578
  0
INSERT
  5
19D89
  8
0
  2
YA
 10
2694.294518673034
 20
662.97605096131792
 30
0.0
 41
5.0
 42
5.0
 43
5.0
  0
ARC
  5
19D8A
  8
0
 10
2416.0745541218121
 20
578.01205096131798
 30
0.0
 40
30.81530258422212
 50
343.68029689768622
 51
16.319703102313969
  0
LINE
  5
19D8B
  8
0
 10
2447.2482686730332
 20
563.45405096131799
 30
0.0
 11
2447.2482686730332
 21
588.42766930735115
 31
0.0
  0
ARC
  5
19D8C
  8
0
 10
2414.3482686730331
 20
684.97605096131792
 30
0.0
 40
102.0
 50
281.82375998798159
 51
346.46362532490451
  0
ARC
  5
19D8D
  8
0
 10
2438.7172373350941
 20
565.02205096131775
 30
0.0
 40
8.1729282639390188
 50
327.99993496086358
 51
32.00006503913702
  0
LINE
  5
19D8E
  8
0
 10
2445.6482686730328
 20
560.69205096131782
 30
0.0
 11
2447.2482686730332
 21
563.45405096131799
 31
0.0
  0
LINE
  5
19D8F
  8
0
 10
2435.2482686730341
 20
560.69205096131782
 30
0.0
 11
2445.6482686730328
 21
560.69205096131782
 31
0.0
  0
LINE
  5
19D90
  8
0
 10
2445.6482686730328
 20
569.35305096131788
 30
0.0
 11
2435.2482686730341
 21
569.35305096131788
 31
0.0
  0
LINE
  5
19D91
  8
0
 10
2575.2482686730332
 20
621.97605096131792
 30
0.0
 11
2494.5667204157589
 21
621.97605096131792
 31
0.0
  0
POLYLINE
  5
19D92
  8
0
 66
     1
 10
0.0
 20
0.0
 30
0.0
  0
VERTEX
  5
1A3A2
  8
0
 10
2435.2482686730341
 20
594.65405096131735
 30
0.0
 42
0.107696942501049
  0
VERTEX
  5
1A3A3
  8
0
 10
2453.902434441422
 20
598.71919429687921
 30
0.0
 42
0.1018398349839665
  0
VERTEX
  5
1A3A4
  8
0
 10
2470.1715739390979
 20
610.63401208656114
 30
0.0
 42
0.0945211726760977
  0
VERTEX
  5
1A3A5
  8
0
 10
2480.8073002886249
 20
628.09002235925789
 30
0.0
 42
0.0899257565637016
  0
VERTEX
  5
1A3A6
  8
0
 10
2484.637280623198
 20
649.213050961318
 30
0.0
 42
0.0899257565637006
  0
SEQEND
  5
1A3A7
  8
0
  0
ARC
  5
19D93
  8
0
 10
2416.0745541218121
 20
636.68605096131796
 30
0.0
 40
30.81530258422212
 50
343.68029689768622
 51
16.319703102313969
  0
LINE
  5
19D94
  8
0
 10
2447.2482686730332
 20
622.12805096131797
 30
0.0
 11
2447.2482686730332
 21
651.24505096131759
 31
0.0
  0
LINE
  5
19D95
  8
0
 10
2445.6482686730328
 20
586.67105096131809
 30
0.0
 11
2441.5535434373151
 21
586.67105096131809
 31
0.0
  0
ARC
  5
19D96
  8
0
 10
2438.716980806711
 20
591.00205096131765
 30
0.0
 40
8.1731458133220531
 50
328.00088793103208
 51
339.44804399590112
  0
LINE
  5
19D97
  8
0
 10
2445.6482686730328
 20
619.36605096131768
 30
0.0
 11
2447.2482686730332
 21
622.12805096131797
 31
0.0
  0
ARC
  5
19D98
  8
0
 10
2438.7172373350941
 20
623.69605096131772
 30
0.0
 40
8.1729282639390188
 50
327.99993496086358
 51
32.00006503913702
  0
LINE
  5
19D99
  8
0
 10
2445.6482686730328
 20
628.02705096131785
 30
0.0
 11
2435.2482686730341
 21
628.02705096131785
 31
0.0
  0
LINE
  5
19D9A
  8
0
 10
2435.2482686730341
 20
619.36605096131768
 30
0.0
 11
2445.6482686730328
 21
619.36605096131768
 31
0.0
  0
POLYLINE
  5
19D9B
  8
0
 66
     1
 10
0.0
 20
0.0
 30
0.0
  0
VERTEX
  5
1A3A8
  8
0
 10
2484.6370020045292
 20
649.213050961318
 30
0.0
 42
0.2303778337445353
  0
VERTEX
  5
1A3A9
  8
0
 10
2482.3297955503399
 20
653.72709784471363
 30
0.0
 42
0.0857134771080596
  0
VERTEX
  5
1A3AA
  8
0
 10
2470.2004378577899
 20
659.95616788705865
 30
0.0
 42
0.043280060836277
  0
VERTEX
  5
1A3AB
  8
0
 10
2455.546342345639
 20
663.18568985352886
 30
0.0
 42
0.0319607229775014
  0
VERTEX
  5
1A3AC
  8
0
 10
2435.2882686730331
 20
664.53505096131812
 30
0.0
 42
0.0319607229775038
  0
SEQEND
  5
1A3AD
  8
0
  0
LINE
  5
19D9C
  8
0
 10
2447.2482686730332
 20
651.24505096131759
 30
0.0
 11
2445.6482686730328
 21
654.00705096131787
 31
0.0
  0
ARC
  5
19D9D
  8
0
 10
2438.716980806711
 20
649.67605096131774
 30
0.0
 40
8.1731458133220531
 50
328.00088793103208
 51
31.999112068968572
  0
LINE
  5
19D9E
  8
0
 10
2445.6482686730328
 20
654.00705096131787
 30
0.0
 11
2435.2482686730341
 21
654.00705096131787
 31
0.0
  0
LINE
  5
19D9F
  8
0
 10
2445.6482686730328
 20
645.34505096131807
 30
0.0
 11
2435.2482686730341
 21
645.34505096131807
 31
0.0
  0
LINE
  5
19DA0
  8
0
 10
2575.2482686730332
 20
662.97605096131792
 30
0.0
 11
2575.2482686730332
 21
621.97605096131792
 31
0.0
  0
POLYLINE
  5
19DA1
  8
0
 66
     1
 10
0.0
 20
0.0
 30
0.0
  0
VERTEX
  5
1A3AE
  8
0
 10
2435.2482686730341
 20
773.13605096131766
 30
0.0
 42
0.070022296758922
  0
VERTEX
  5
1A3AF
  8
0
 10
2454.8438406346709
 20
775.89382658187105
 30
0.0
 42
0.0818203175941617
  0
VERTEX
  5
1A3B0
  8
0
 10
2470.1722725958371
 20
783.16471477349069
 30
0.0
 42
0.1069143253087146
  0
VERTEX
  5
1A3B1
  8
0
 10
2481.2181838481242
 20
794.9839432151166
 30
0.0
 42
0.1354622733701762
  0
VERTEX
  5
1A3B2
  8
0
 10
2484.6382686730331
 20
807.37605096131801
 30
0.0
 42
0.1354622733701786
  0
SEQEND
  5
1A3B3
  8
0
  0
LINE
  5
19DA2
  8
0
 10
2546.2482686730332
 20
865.47605096131792
 30
0.0
 11
2546.2482686730332
 21
703.97605096131792
 31
0.0
  0
ARC
  5
19DA3
  8
0
 10
2416.0745541218112
 20
726.14505096131779
 30
0.0
 40
30.815302584222341
 50
343.68029689768611
 51
16.319703102313849
  0
LINE
  5
19DA4
  8
0
 10
2447.2482686730332
 20
711.58605096131805
 30
0.0
 11
2447.2482686730332
 21
740.70405096131799
 31
0.0
  0
POLYLINE
  5
19DA5
  8
0
 66
     1
 10
0.0
 20
0.0
 30
0.0
  0
VERTEX
  5
1A3B4
  8
0
 10
2484.6382686730331
 20
726.14605096131845
 30
0.0
 42
0.1135446756219572
  0
VERTEX
  5
1A3B5
  8
0
 10
2481.0106847878219
 20
741.91436254085693
 30
0.0
 42
0.1035052482649747
  0
VERTEX
  5
1A3B6
  8
0
 10
2470.1722725958371
 20
755.92231751708368
 30
0.0
 42
0.0918863226898913
  0
VERTEX
  5
1A3B7
  8
0
 10
2454.4911514117089
 20
764.95796504096234
 30
0.0
 42
0.085075990665343
  0
VERTEX
  5
1A3B8
  8
0
 10
2435.2482686730341
 20
768.25605096131812
 30
0.0
 42
0.0850759906653445
  0
SEQEND
  5
1A3B9
  8
0
  0
POLYLINE
  5
19DA6
  8
0
 66
     1
 10
0.0
 20
0.0
 30
0.0
  0
VERTEX
  5
1A3BA
  8
0
 10
2435.2482686730341
 20
689.89805096131795
 30
0.0
 42
0.0739141019569554
  0
VERTEX
  5
1A3BB
  8
0
 10
2454.7563967616452
 20
692.79774437737933
 30
0.0
 42
0.0847033099063923
  0
VERTEX
  5
1A3BC
  8
0
 10
2470.1722725958371
 20
700.51484435686825
 30
0.0
 42
0.1063598999383303
  0
VERTEX
  5
1A3BD
  8
0
 10
2481.1569627026838
 20
712.89492360963675
 30
0.0
 42
0.1291672456714229
  0
VERTEX
  5
1A3BE
  8
0
 10
2484.6382686730331
 20
726.14605096131788
 30
0.0
 42
0.1291672456714209
  0
SEQEND
  5
1A3BF
  8
0
  0
ARC
  5
19DA7
  8
0
 10
2438.7169808067119
 20
713.1550509613179
 30
0.0
 40
8.1731458133218027
 50
328.00088793103203
 51
31.999112068968738
  0
LINE
  5
19DA8
  8
0
 10
2445.6482686730328
 20
708.82505096131808
 30
0.0
 11
2447.2482686730332
 21
711.58605096131805
 31
0.0
  0
LINE
  5
19DA9
  8
0
 10
2435.2482686730341
 20
708.82505096131808
 30
0.0
 11
2445.6482686730328
 21
708.82505096131808
 31
0.0
  0
LINE
  5
19DAA
  8
0
 10
2445.6482686730328
 20
717.48605096131814
 30
0.0
 11
2435.2482686730341
 21
717.48605096131814
 31
0.0
  0
ARC
  5
19DAB
  8
0
 10
2438.7169808067119
 20
739.13505096131803
 30
0.0
 40
8.1731458133218027
 50
328.00088793103129
 51
31.999112068968738
  0
LINE
  5
19DAC
  8
0
 10
2447.2482686730332
 20
740.70405096131799
 30
0.0
 11
2445.6482686730328
 21
743.46605096131805
 31
0.0
  0
LINE
  5
19DAD
  8
0
 10
2445.6482686730328
 20
743.46605096131805
 30
0.0
 11
2435.2482686730341
 21
743.46605096131805
 31
0.0
  0
LINE
  5
19DAE
  8
0
 10
2445.6482686730328
 20
734.8040509613179
 30
0.0
 11
2435.2482686730341
 21
734.8040509613179
 31
0.0
  0
ARC
  5
19DAF
  8
0
 10
2414.3482686730331
 20
714.97605096131792
 30
0.0
 40
102.0
 50
13.53637467509547
 51
17.272781430665329
  0
LINE
  5
19DB0
  8
0
 10
2575.2482686730332
 20
703.97605096131792
 30
0.0
 11
2546.2482686730332
 21
703.97605096131792
 31
0.0
  0
POLYLINE
  5
19DB1
  8
0
 66
     1
 10
0.0
 20
0.0
 30
0.0
  0
VERTEX
  5
1A3C0
  8
0
 10
2484.6382686730331
 20
807.37605096131801
 30
0.0
 42
0.1110900395357144
  0
VERTEX
  5
1A3C1
  8
0
 10
2480.9885133174362
 20
823.60033961577801
 30
0.0
 42
0.1028481776418138
  0
VERTEX
  5
1A3C2
  8
0
 10
2470.1722725958371
 20
837.90185070514144
 30
0.0
 42
0.0929995041670857
  0
VERTEX
  5
1A3C3
  8
0
 10
2454.4419801583672
 20
847.17847691308486
 30
0.0
 42
0.0870610434407608
  0
VERTEX
  5
1A3C4
  8
0
 10
2435.2482686730341
 20
850.54605096131809
 30
0.0
 42
0.0870610434407572
  0
SEQEND
  5
1A3C5
  8
0
  0
LINE
  5
19DB2
  8
0
 10
2447.2482686730332
 20
821.93605096131796
 30
0.0
 11
2445.6482686730328
 21
824.69605096131772
 31
0.0
  0
LINE
  5
19DB3
  8
0
 10
2445.6482686730328
 20
824.69605096131772
 30
0.0
 11
2435.2482686730341
 21
824.69605096131772
 31
0.0
  0
ARC
  5
19DB4
  8
0
 10
2416.0713536822082
 20
807.37605096131801
 30
0.0
 40
30.818655070825589
 50
343.68018461466318
 51
16.319815385336831
  0
ARC
  5
19DB5
  8
0
 10
2438.7189231519928
 20
794.38605096131778
 30
0.0
 40
8.1709686910404002
 50
327.99961730515059
 51
32.000382694849421
  0
LINE
  5
19DB6
  8
0
 10
2445.6482686730328
 20
790.05605096131785
 30
0.0
 11
2447.2482686730332
 21
792.81605096131807
 31
0.0
  0
LINE
  5
19DB7
  8
0
 10
2445.6482686730328
 20
798.71605096131759
 30
0.0
 11
2435.2482686730341
 21
798.71605096131759
 31
0.0
  0
LINE
  5
19DB8
  8
0
 10
2435.2482686730341
 20
790.05605096131785
 30
0.0
 11
2445.6482686730328
 21
790.05605096131785
 31
0.0
  0
LINE
  5
19DB9
  8
0
 10
2445.6482686730328
 20
816.03605096131787
 30
0.0
 11
2435.2482686730341
 21
816.03605096131787
 31
0.0
  0
LINE
  5
19DBA
  8
0
 10
2447.2482686730332
 20
792.81605096131807
 30
0.0
 11
2447.2482686730332
 21
821.93605096131796
 31
0.0
  0
ARC
  5
19DBB
  8
0
 10
2438.718809169744
 20
820.36605096131768
 30
0.0
 40
8.1710653532897517
 50
328.0000408462127
 51
31.999959153787259
  0
ARC
  5
19DBC
  8
0
 10
2438.710864541707
 20
884.88105096131824
 30
0.0
 40
8.1804523763262136
 50
327.99982907556819
 51
32.000170924430449
  0
LINE
  5
19DBD
  8
0
 10
2445.6482686730328
 20
880.55605096131785
 30
0.0
 11
2447.2482686730332
 21
883.31605096131807
 31
0.0
  0
LINE
  5
19DBE
  8
0
 10
2445.6482686730328
 20
889.21605096131771
 30
0.0
 11
2435.2482686730341
 21
889.21605096131771
 31
0.0
  0
LINE
  5
19DBF
  8
0
 10
2435.2482686730341
 20
880.55605096131785
 30
0.0
 11
2445.6482686730328
 21
880.55605096131785
 31
0.0
  0
LINE
  5
19DC0
  8
0
 10
2575.2482686730332
 20
870.47605096131781
 30
0.0
 11
2551.2482686730332
 21
870.47605096131781
 31
0.0
  0
ARC
  5
19DC1
  8
0
 10
2551.2482686730332
 20
865.47605096131792
 30
0.0
 40
5.0
 50
90.0
 51
180.0
  0
ARC
  5
19DC2
  8
0
 10
3024.9998000593109
 20
703.92767918667823
 30
0.0
 40
25.0
 50
309.3146955674269
 51
0.000000000000007
  0
ARC
  5
19DC3
  8
0
 10
2965.9998000593109
 20
703.92767918667823
 30
0.0
 40
25.0
 50
180.0
 51
230.68530443257319
  0
CIRCLE
  5
19DC4
  8
0
 10
2995.49980005931
 20
662.9720509613179
 30
0.0
 40
41.0
  0
LINE
  5
19DC5
  8
0
 10
2877.689800059311
 20
703.03405096131792
 30
0.0
 11
2845.8398000593111
 21
689.89905096131793
 31
0.0
  0
ARC
  5
19DC6
  8
0
 10
2868.162395598803
 20
726.14828115385444
 30
0.0
 40
25.00078145074006
 50
292.40086079878739
 51
44.350750152632521
  0
ARC
  5
19DC7
  8
0
 10
2995.49980005931
 20
699.97205096131802
 30
0.0
 40
150.0
 50
138.3362423749555
 51
249.21644040415441
  0
LINE
  5
19DC8
  8
0
 10
2949.8098000593109
 20
593.45305096131801
 30
0.0
 11
2934.8098000593109
 21
584.79305096131793
 31
0.0
  0
ARC
  5
19DC9
  8
0
 10
2950.5019991517252
 20
578.01060478060435
 30
0.0
 40
24.997463279661709
 50
12.46949297234095
 51
124.2874526236688
  0
LINE
  5
19DCA
  8
0
 10
2934.8098000593109
 20
567.4720509613179
 30
0.0
 11
2949.8098000593109
 21
558.81205096131794
 31
0.0
  0
ARC
  5
19DCB
  8
0
 10
2940.4998000593109
 20
555.0582834994234
 30
0.0
 40
5.0
 50
359.99999999999972
 51
69.216440404154781
  0
CIRCLE
  5
19DCC
  8
0
 10
2949.8098000593109
 20
576.13305096131808
 30
0.0
 40
15.0
  0
LINE
  5
19DCD
  8
0
 10
2904.2498000593109
 20
625.39805096131795
 30
0.0
 11
2888.6898000593101
 21
594.65505096131801
 31
0.0
  0
LINE
  5
19DCE
  8
0
 10
2907.1798000593112
 20
578.72905096131797
 30
0.0
 11
2936.419800059311
 21
598.66405096131803
 31
0.0
  0
LINE
  5
19DCF
  8
0
 10
2845.4998000593109
 20
699.97205096131802
 30
0.0
 11
2845.4998000593109
 21
551.97205096131802
 31
0.0
  0
ARC
  5
19DD0
  8
0
 10
2847.49980005931
 20
551.97205096131802
 30
0.0
 40
2.0
 50
180.0
 51
270.0
  0
LINE
  5
19DD1
  8
0
 10
2942.2698000593109
 20
559.73305096131787
 30
0.0
 11
2942.2698000593109
 21
559.73305096131787
 31
0.0
  0
LINE
  5
19DD2
  8
0
 10
2934.8098000593109
 20
584.79305096131793
 30
0.0
 11
2934.8098000593109
 21
567.4720509613179
 31
0.0
  0
LINE
  5
19DD3
  8
0
 10
2849.74980005931
 20
664.5360509613181
 30
0.0
 11
2884.0798000593109
 21
661.59605096131804
 31
0.0
  0
LINE
  5
19DD4
  8
0
 10
2880.1998000593098
 20
653.03405096131792
 30
0.0
 11
2865.1998000593098
 21
644.37405096131806
 31
0.0
  0
LINE
  5
19DD5
  8
0
 10
2895.1998000593112
 20
644.37405096131806
 30
0.0
 11
2880.1998000593098
 21
653.03405096131792
 31
0.0
  0
ARC
  5
19DD6
  8
0
 10
2881.9453104026788
 20
636.68819117972055
 30
0.0
 40
24.99915048544602
 50
333.15226960267211
 51
85.101980244558945
  0
LINE
  5
19DD7
  8
0
 10
2865.1998000593098
 20
627.05305096131792
 30
0.0
 11
2880.1998000593098
 21
618.39305096131807
 31
0.0
  0
LINE
  5
19DD8
  8
0
 10
2880.1998000593098
 20
618.39305096131807
 30
0.0
 11
2895.1998000593112
 21
627.05305096131792
 31
0.0
  0
LINE
  5
19DD9
  8
0
 10
2895.1998000593112
 20
627.05305096131792
 30
0.0
 11
2895.1998000593112
 21
644.37405096131806
 31
0.0
  0
LINE
  5
19DDA
  8
0
 10
2865.1998000593098
 20
644.37405096131806
 30
0.0
 11
2865.1998000593098
 21
627.05305096131792
 31
0.0
  0
CIRCLE
  5
19DDB
  8
0
 10
2880.1998000593098
 20
635.71405096131798
 30
0.0
 40
15.0
  0
LINE
  5
19DDC
  8
0
 10
3086.74980005931
 20
625.39805096131795
 30
0.0
 11
3102.3098000593109
 21
594.65505096131801
 31
0.0
  0
LINE
  5
19DDD
  8
0
 10
3083.8198000593102
 20
578.72905096131797
 30
0.0
 11
3054.5898000593111
 21
598.66405096131803
 31
0.0
  0
ARC
  5
19DDE
  8
0
 10
3040.5026009668968
 20
578.00722066884009
 30
0.0
 40
25.003076130779469
 50
55.707449399901172
 51
167.52540905122891
  0
LINE
  5
19DDF
  8
0
 10
3041.189800059311
 20
593.45305096131801
 30
0.0
 11
3026.189800059311
 21
584.79305096131793
 31
0.0
  0
LINE
  5
19DE0
  8
0
 10
3026.189800059311
 20
567.4720509613179
 30
0.0
 11
3041.189800059311
 21
558.81205096131794
 31
0.0
  0
CIRCLE
  5
19DE1
  8
0
 10
3041.189800059311
 20
576.13305096131808
 30
0.0
 40
15.0
  0
LINE
  5
19DE2
  8
0
 10
2945.4998000593109
 20
549.97205096131802
 30
0.0
 11
3045.4998000593109
 21
549.97205096131802
 31
0.0
  0
LINE
  5
19DE3
  8
0
 10
2964.8098000593109
 20
584.79305096131793
 30
0.0
 11
2949.8098000593109
 21
593.45305096131801
 31
0.0
  0
LINE
  5
19DE4
  8
0
 10
2945.4998000593109
 20
555.0582834994234
 30
0.0
 11
2945.4998000593109
 21
549.97205096131802
 31
0.0
  0
LINE
  5
19DE5
  8
0
 10
2949.8098000593109
 20
558.81205096131794
 30
0.0
 11
2964.8098000593109
 21
567.4720509613179
 31
0.0
  0
LINE
  5
19DE6
  8
0
 10
2974.9098000593108
 20
583.40805096131794
 30
0.0
 11
2982.169800059311
 21
550.56605096131796
 31
0.0
  0
LINE
  5
19DE7
  8
0
 10
2964.8098000593109
 20
567.4720509613179
 30
0.0
 11
2964.8098000593109
 21
584.79305096131793
 31
0.0
  0
LINE
  5
19DE8
  8
0
 10
3026.189800059311
 20
584.79305096131793
 30
0.0
 11
3026.189800059311
 21
567.4720509613179
 31
0.0
  0
LINE
  5
19DE9
  8
0
 10
3016.0898000593111
 20
583.40805096131794
 30
0.0
 11
3008.8298000593109
 21
550.56605096131796
 31
0.0
  0
LINE
  5
19DEA
  8
0
 10
3056.189800059311
 20
584.79305096131793
 30
0.0
 11
3041.189800059311
 21
593.45305096131801
 31
0.0
  0
LINE
  5
19DEB
  8
0
 10
3045.4998000593109
 20
549.97205096131802
 30
0.0
 11
3045.4998000593109
 21
555.0582834994234
 31
0.0
  0
LINE
  5
19DEC
  8
0
 10
3041.189800059311
 20
558.81205096131794
 30
0.0
 11
3056.189800059311
 21
567.4720509613179
 31
0.0
  0
ARC
  5
19DED
  8
0
 10
3050.4998000593109
 20
555.0582834994234
 30
0.0
 40
5.0
 50
110.7835595958453
 51
180.0
  0
LINE
  5
19DEE
  8
0
 10
3056.189800059311
 20
567.4720509613179
 30
0.0
 11
3056.189800059311
 21
584.79305096131793
 31
0.0
  0
ARC
  5
19DEF
  8
0
 10
2945.962381196905
 20
675.09822646930616
 30
0.0
 40
10.0
 50
346.24514804621191
 51
50.685304432562901
  0
LINE
  5
19DF0
  8
0
 10
2951.5398000593109
 20
683.45605096131794
 30
0.0
 11
2951.5398000593109
 21
683.45605096131794
 31
0.0
  0
LINE
  5
19DF1
  8
0
 10
2950.1603167842968
 20
684.58573591355935
 30
0.0
 11
2952.298174506911
 21
682.83500377855239
 31
0.0
  0
LINE
  5
19DF2
  8
0
 10
3110.7998000593111
 20
653.03405096131792
 30
0.0
 11
3095.7998000593111
 21
644.37405096131806
 31
0.0
  0
ARC
  5
19DF3
  8
0
 10
3109.0542897159421
 20
636.68819117972055
 30
0.0
 40
24.999150485446108
 50
94.898019755440515
 51
206.84773039732761
  0
LINE
  5
19DF4
  8
0
 10
3095.7998000593111
 20
627.05305096131792
 30
0.0
 11
3110.7998000593111
 21
618.39305096131807
 31
0.0
  0
LINE
  5
19DF5
  8
0
 10
3095.7998000593111
 20
644.37405096131806
 30
0.0
 11
3095.7998000593111
 21
627.05305096131792
 31
0.0
  0
LINE
  5
19DF6
  8
0
 10
3039.459800059311
 20
683.45605096131794
 30
0.0
 11
3039.459800059311
 21
683.45605096131794
 31
0.0
  0
LINE
  5
19DF7
  8
0
 10
3040.8392833343241
 20
684.58573591355935
 30
0.0
 11
3038.70142561171
 21
682.83500377855239
 31
0.0
  0
ARC
  5
19DF8
  8
0
 10
3045.0372189217169
 20
675.09822646930616
 30
0.0
 40
10.0
 50
129.3146955674371
 51
193.75485195378809
  0
LINE
  5
19DF9
  8
0
 10
2921.1198000593099
 20
798.99305096131798
 30
0.0
 11
2921.1198000593099
 21
816.31405096131778
 31
0.0
  0
LINE
  5
19DFA
  8
0
 10
2891.1198000593108
 20
816.31405096131778
 30
0.0
 11
2891.1198000593108
 21
798.99305096131798
 31
0.0
  0
CIRCLE
  5
19DFB
  8
0
 10
2906.1198000593108
 20
807.65305096131794
 30
0.0
 40
15.0
  0
ARC
  5
19DFC
  8
0
 10
2868.4998000593109
 20
812.98090017234233
 30
0.0
 40
20.0
 50
318.3362423749557
 51
0.0000000000001628
  0
ARC
  5
19DFD
  8
0
 10
2908.1053190403718
 20
807.3745034416711
 30
0.0
 40
25.000249004501349
 50
281.33687881283493
 51
56.235977782445261
  0
LINE
  5
19DFE
  8
0
 10
2783.4998000593109
 20
897.97205096131802
 30
0.0
 11
2783.4998000593109
 21
771.97205096131802
 31
0.0
  0
LINE
  5
19DFF
  8
0
 10
2851.1998000593098
 20
717.88905096131793
 30
0.0
 11
2866.1998000593112
 21
709.2280509613181
 31
0.0
  0
LINE
  5
19E00
  8
0
 10
2866.1998000593112
 20
743.87005096131793
 30
0.0
 11
2851.1998000593098
 21
735.20905096131776
 31
0.0
  0
CIRCLE
  5
19E01
  8
0
 10
2866.1998000593112
 20
726.5490509613179
 30
0.0
 40
15.0
  0
LINE
  5
19E02
  8
0
 10
2851.1998000593098
 20
735.20905096131776
 30
0.0
 11
2851.1998000593098
 21
717.88905096131793
 31
0.0
  0
LINE
  5
19E03
  8
0
 10
2861.9498000593098
 20
768.26005096131803
 30
0.0
 11
2886.0398000593109
 21
743.62505096131804
 31
0.0
  0
LINE
  5
19E04
  8
0
 10
2881.1998000593098
 20
717.88905096131793
 30
0.0
 11
2881.1998000593098
 21
735.20905096131776
 31
0.0
  0
LINE
  5
19E05
  8
0
 10
2866.1998000593112
 20
709.2280509613181
 30
0.0
 11
2881.1998000593098
 21
717.88905096131793
 31
0.0
  0
LINE
  5
19E06
  8
0
 10
2881.1998000593098
 20
735.20905096131776
 30
0.0
 11
2866.1998000593112
 21
743.87005096131793
 31
0.0
  0
LINE
  5
19E07
  8
0
 10
2891.1198000593108
 20
798.99305096131798
 30
0.0
 11
2906.1198000593108
 21
790.33305096131812
 31
0.0
  0
LINE
  5
19E08
  8
0
 10
2913.0198000593109
 20
782.86205096131812
 30
0.0
 11
2864.5598000593109
 21
773.14105096131777
 31
0.0
  0
LINE
  5
19E09
  8
0
 10
2906.1198000593108
 20
790.33305096131812
 30
0.0
 11
2921.1198000593099
 21
798.99305096131798
 31
0.0
  0
LINE
  5
19E0A
  8
0
 10
2920.806395930796
 20
876.09985064562625
 30
0.0
 11
2888.4998000593109
 21
857.87305096131797
 31
0.0
  0
LINE
  5
19E0B
  8
0
 10
2906.1198000593108
 20
824.97405096131786
 30
0.0
 11
2891.1198000593108
 21
816.31405096131778
 31
0.0
  0
LINE
  5
19E0C
  8
0
 10
2888.4998000593109
 20
850.54805096131804
 30
0.0
 11
2921.9998000593109
 21
828.15805096131805
 31
0.0
  0
LINE
  5
19E0D
  8
0
 10
2921.1198000593099
 20
816.31405096131778
 30
0.0
 11
2906.1198000593108
 21
824.97405096131786
 31
0.0
  0
LINE
  5
19E0E
  8
0
 10
2891.4898000593098
 20
889.21305096131789
 30
0.0
 11
2906.4898000593098
 21
880.55305096131792
 31
0.0
  0
LINE
  5
19E0F
  8
0
 10
2891.4898000593098
 20
906.53405096131803
 30
0.0
 11
2891.4898000593098
 21
889.21305096131789
 31
0.0
  0
LINE
  5
19E10
  8
0
 10
2906.4898000593098
 20
880.55305096131792
 30
0.0
 11
2921.4898000593098
 21
889.21305096131789
 31
0.0
  0
LINE
  5
19E11
  8
0
 10
2921.4898000593098
 20
889.21305096131789
 30
0.0
 11
2921.4898000593098
 21
906.53405096131803
 31
0.0
  0
LINE
  5
19E12
  8
0
 10
3099.879800059311
 20
798.99305096131798
 30
0.0
 11
3099.879800059311
 21
816.31405096131778
 31
0.0
  0
LINE
  5
19E13
  8
0
 10
3069.879800059311
 20
816.31405096131778
 30
0.0
 11
3069.879800059311
 21
798.99305096131798
 31
0.0
  0
CIRCLE
  5
19E14
  8
0
 10
3084.879800059311
 20
807.65405096131792
 30
0.0
 40
15.0
  0
ARC
  5
19E15
  8
0
 10
3122.509800265555
 20
812.9696608812169
 30
0.0
 40
20.0
 50
180.00301709659979
 51
221.65868724241989
  0
ARC
  5
19E16
  8
0
 10
3082.8992810782502
 20
807.37242721396456
 30
0.0
 40
24.999196737935439
 50
123.7518508715724
 51
258.6509498411823
  0
LINE
  5
19E17
  8
0
 10
3109.7998000593111
 20
735.20905096131776
 30
0.0
 11
3109.7998000593111
 21
717.88905096131793
 31
0.0
  0
LINE
  5
19E18
  8
0
 10
3069.879800059311
 20
798.99305096131798
 30
0.0
 11
3084.879800059311
 21
790.33305096131812
 31
0.0
  0
LINE
  5
19E19
  8
0
 10
3084.879800059311
 20
790.33305096131812
 30
0.0
 11
3099.879800059311
 21
798.99305096131798
 31
0.0
  0
LINE
  5
19E1A
  8
0
 10
3070.1932041878581
 20
876.09985064568298
 30
0.0
 11
3102.4998000593109
 21
857.87305096131797
 31
0.0
  0
LINE
  5
19E1B
  8
0
 10
3084.879800059311
 20
824.97405096131786
 30
0.0
 11
3069.879800059311
 21
816.31405096131778
 31
0.0
  0
LINE
  5
19E1C
  8
0
 10
3102.5098000593111
 20
850.54805096131804
 30
0.0
 11
3069.0098000593111
 21
828.15805096131805
 31
0.0
  0
LINE
  5
19E1D
  8
0
 10
3099.879800059311
 20
816.31405096131778
 30
0.0
 11
3084.879800059311
 21
824.97405096131786
 31
0.0
  0
LINE
  5
19E1E
  8
0
 10
3069.4998000593109
 20
889.21305096131789
 30
0.0
 11
3084.49980005931
 21
880.55305096131792
 31
0.0
  0
LINE
  5
19E1F
  8
0
 10
3069.4998000593109
 20
906.53405096131803
 30
0.0
 11
3069.4998000593109
 21
889.21305096131789
 31
0.0
  0
LINE
  5
19E20
  8
0
 10
3084.49980005931
 20
880.55305096131792
 30
0.0
 11
3099.4998000593109
 21
889.21305096131789
 31
0.0
  0
LINE
  5
19E21
  8
0
 10
3099.4998000593109
 20
889.21305096131789
 30
0.0
 11
3099.4998000593109
 21
906.53405096131803
 31
0.0
  0
POLYLINE
  5
19E22
  8
0
 66
     1
 10
0.0
 20
0.0
 30
0.0
  0
VERTEX
  5
1A3C6
  8
0
 10
2484.6382686730331
 20
1073.9260509613171
 30
0.0
 42
0.1427397834356985
  0
VERTEX
  5
1A3C7
  8
0
 10
2481.2904076952118
 20
1085.4142619469089
 30
0.0
 42
0.107172048130841
  0
VERTEX
  5
1A3C8
  8
0
 10
2470.1722725958371
 20
1096.63832077303
 30
0.0
 42
0.0785305341780621
  0
VERTEX
  5
1A3C9
  8
0
 10
2454.9337242316501
 20
1103.441073975946
 30
0.0
 42
0.0658778674229943
  0
VERTEX
  5
1A3CA
  8
0
 10
2435.2482686730341
 20
1106.0460509613181
 30
0.0
 42
0.0658778674229922
  0
SEQEND
  5
1A3CB
  8
0
  0
LINE
  5
19E23
  8
0
 10
2546.2482686730332
 20
984.47605096131747
 30
0.0
 11
2546.2482686730332
 21
1109.9760509613179
 31
0.0
  0
ARC
  5
19E24
  8
0
 10
2416.0884304229648
 20
988.37105096131779
 30
0.0
 40
30.800861390068931
 50
343.6801846146634
 51
16.31981538533697
  0
LINE
  5
19E25
  8
0
 10
2447.2482686730332
 20
973.81605096131796
 30
0.0
 11
2447.2482686730332
 21
1002.936050961318
 31
0.0
  0
POLYLINE
  5
19E26
  8
0
 66
     1
 10
0.0
 20
0.0
 30
0.0
  0
VERTEX
  5
1A3CC
  8
0
 10
2484.6382686730331
 20
988.37605096131801
 30
0.0
 42
0.1228007391858371
  0
VERTEX
  5
1A3CD
  8
0
 10
2481.0963263001609
 20
1002.580077047432
 30
0.0
 42
0.1054625936846602
  0
VERTEX
  5
1A3CE
  8
0
 10
2470.1722725958371
 20
1015.578448833564
 30
0.0
 42
0.0876370767901639
  0
VERTEX
  5
1A3CF
  8
0
 10
2454.657398382974
 20
1023.792541861391
 30
0.0
 42
0.0781808700096935
  0
VERTEX
  5
1A3D0
  8
0
 10
2435.2482686730341
 20
1026.8460509613169
 30
0.0
 42
0.0781808700096899
  0
SEQEND
  5
1A3D1
  8
0
  0
POLYLINE
  5
19E27
  8
0
 66
     1
 10
0.0
 20
0.0
 30
0.0
  0
VERTEX
  5
1A3D2
  8
0
 10
2484.3782686730342
 20
894.97605096131792
 30
0.0
 42
0.1111876059378975
  0
VERTEX
  5
1A3D3
  8
0
 10
2480.7485985572239
 20
911.09654218847209
 30
0.0
 42
0.1028754415618672
  0
VERTEX
  5
1A3D4
  8
0
 10
2469.9884248327289
 20
925.31093187422073
 30
0.0
 42
0.0929554327226999
  0
VERTEX
  5
1A3D5
  8
0
 10
2454.3429285115049
 20
934.52899146786433
 30
0.0
 42
0.0869807794646978
  0
VERTEX
  5
1A3D6
  8
0
 10
2435.2482686730341
 20
937.8760509613179
 30
0.0
 42
0.0869807794646999
  0
SEQEND
  5
1A3D7
  8
0
  0
LINE
  5
19E28
  8
0
 10
2445.6482686730328
 20
915.19605096131772
 30
0.0
 11
2435.2482686730341
 21
915.19605096131772
 31
0.0
  0
LINE
  5
19E29
  8
0
 10
2445.6482686730328
 20
906.52605096131799
 30
0.0
 11
2435.2482686730341
 21
906.52605096131799
 31
0.0
  0
ARC
  5
19E2A
  8
0
 10
2438.7106648379322
 20
910.86105096131826
 30
0.0
 40
8.1806217351014201
 50
328.00057027380382
 51
31.99942972619489
  0
LINE
  5
19E2B
  8
0
 10
2447.2482686730332
 20
912.42605096131774
 30
0.0
 11
2445.6482686730328
 21
915.19605096131772
 31
0.0
  0
POLYLINE
  5
19E2C
  8
0
 66
     1
 10
0.0
 20
0.0
 30
0.0
  0
VERTEX
  5
1A3D8
  8
0
 10
2435.2482686730341
 20
948.37605096131801
 30
0.0
 42
0.0810936847216324
  0
VERTEX
  5
1A3D9
  8
0
 10
2454.5880666466091
 20
951.53348579804367
 30
0.0
 42
0.0895054263486445
  0
VERTEX
  5
1A3DA
  8
0
 10
2470.1722725958371
 20
960.09177971385577
 30
0.0
 42
0.104703589997003
  0
VERTEX
  5
1A3DB
  8
0
 10
2481.0584162428531
 20
973.5148824281722
 30
0.0
 42
0.118744877453476
  0
VERTEX
  5
1A3DC
  8
0
 10
2484.6382686730331
 20
988.37605096131801
 30
0.0
 42
0.1187448774534761
  0
SEQEND
  5
1A3DD
  8
0
  0
LINE
  5
19E2D
  8
0
 10
2445.6482686730328
 20
971.05605096131785
 30
0.0
 11
2447.2482686730332
 21
973.81605096131796
 31
0.0
  0
ARC
  5
19E2E
  8
0
 10
2438.7186666878001
 20
975.38605096131766
 30
0.0
 40
8.1711861852340117
 50
328.0005702738045
 51
31.999429726195569
  0
LINE
  5
19E2F
  8
0
 10
2445.6482686730328
 20
979.71605096131759
 30
0.0
 11
2435.2482686730341
 21
979.71605096131759
 31
0.0
  0
LINE
  5
19E30
  8
0
 10
2435.2482686730341
 20
971.05605096131785
 30
0.0
 11
2445.6482686730328
 21
971.05605096131785
 31
0.0
  0
LINE
  5
19E31
  8
0
 10
2575.2482686730332
 20
924.97605096131804
 30
0.0
 11
2575.2482686730332
 21
979.47605096131804
 31
0.0
  0
LINE
  5
19E32
  8
0
 10
2575.2482686730332
 20
979.47605096131804
 30
0.0
 11
2551.2482686730332
 21
979.47605096131804
 31
0.0
  0
ARC
  5
19E33
  8
0
 10
2551.2482686730332
 20
984.47605096131747
 30
0.0
 40
5.0
 50
180.0
 51
270.0
  0
ARC
  5
19E34
  8
0
 10
2513.2482686730332
 20
1015.476050961318
 30
0.0
 40
5.0
 50
270.0
 51
0.0
  0
ARC
  5
19E35
  8
0
 10
2513.2482686730332
 20
1040.0760509613181
 30
0.0
 40
5.0
 50
0.0
 51
90.0
  0
ARC
  5
19E36
  8
0
 10
2449.7482686730341
 20
1036.703425956611
 30
0.0
 40
62.0
 50
7.7610681416650911
 51
66.924638796299945
  0
ARC
  5
19E37
  8
0
 10
2438.7106648379322
 20
1001.361050961318
 30
0.0
 40
8.1806217351014201
 50
328.00057027380382
 51
31.99942972619489
  0
LINE
  5
19E38
  8
0
 10
2447.2482686730332
 20
1002.936050961318
 30
0.0
 11
2445.6482686730328
 21
1005.696050961317
 31
0.0
  0
LINE
  5
19E39
  8
0
 10
2445.6482686730328
 20
997.02605096131811
 30
0.0
 11
2435.2482686730341
 21
997.02605096131811
 31
0.0
  0
LINE
  5
19E3A
  8
0
 10
2445.6482686730328
 20
1005.696050961317
 30
0.0
 11
2435.2482686730341
 21
1005.696050961317
 31
0.0
  0
POLYLINE
  5
19E3B
  8
0
 66
     1
 10
0.0
 20
0.0
 30
0.0
  0
VERTEX
  5
1A3DE
  8
0
 10
2480.469414880582
 20
1045.0760509613181
 30
0.0
 42
0.2737655090992032
  0
VERTEX
  5
1A3DF
  8
0
 10
2479.4845927600172
 20
1044.2160047635771
 30
0.0
 42
0.069712757009029
  0
VERTEX
  5
1A3E0
  8
0
 10
2478.6286207279222
 20
1039.493112858132
 30
0.0
 42
0.0324214035618574
  0
VERTEX
  5
1A3E1
  8
0
 10
2478.7586206647252
 20
1034.2369142049231
 30
0.0
 42
0.0234750353699549
  0
VERTEX
  5
1A3E2
  8
0
 10
2479.7461775727161
 20
1027.0464788069571
 30
0.0
 42
0.0234750353699555
  0
VERTEX
  5
1A3E3
  8
0
 10
2481.4034532055371
 20
1019.980286951673
 30
0.0
 42
0.0324214035618601
  0
VERTEX
  5
1A3E4
  8
0
 10
2483.167435772009
 20
1015.027218229077
 30
0.0
 42
0.069712757009031
  0
VERTEX
  5
1A3E5
  8
0
 10
2485.6604911288009
 20
1010.925624507337
 30
0.0
 42
0.2737655090991966
  0
VERTEX
  5
1A3E6
  8
0
 10
2486.888268673034
 20
1010.476050961317
 30
0.0
 42
0.2737655090991943
  0
SEQEND
  5
1A3E7
  8
0
  0
LINE
  5
19E3C
  8
0
 10
2513.2482686730332
 20
1010.476050961317
 30
0.0
 11
2486.8882686730331
 21
1010.476050961318
 31
0.0
  0
LINE
  5
19E3D
  8
0
 10
2480.469414880582
 20
1045.0760509613181
 30
0.0
 11
2513.2482686730332
 21
1045.0760509613181
 31
0.0
  0
POLYLINE
  5
19E3E
  8
0
 66
     1
 10
0.0
 20
0.0
 30
0.0
  0
VERTEX
  5
1A3E8
  8
0
 10
2435.2482686730341
 20
1060.2360509613179
 30
0.0
 42
0.0285857464481538
  0
VERTEX
  5
1A3E9
  8
0
 10
2455.548277602888
 20
1061.397581916742
 30
0.0
 42
0.0390401790878681
  0
VERTEX
  5
1A3EA
  8
0
 10
2470.1722725958371
 20
1064.245759126874
 30
0.0
 42
0.0800061155234741
  0
VERTEX
  5
1A3EB
  8
0
 10
2482.4845623946321
 20
1069.8934091849389
 30
0.0
 42
0.2503039277320076
  0
VERTEX
  5
1A3EC
  8
0
 10
2484.6382686730331
 20
1073.9260509613171
 30
0.0
 42
0.2503039277320068
  0
SEQEND
  5
1A3ED
  8
0
  0
ARC
  5
19E3F
  8
0
 10
2438.7186096937362
 20
1086.936050961318
 30
0.0
 40
8.1712345192972577
 50
328.00078204523351
 51
31.999217954767872
  0
LINE
  5
19E40
  8
0
 10
2447.2482686730332
 20
1088.5060509613179
 30
0.0
 11
2447.2482686730332
 21
1060.641070290902
 31
0.0
  0
LINE
  5
19E41
  8
0
 10
2442.3982686730328
 20
1060.386050961318
 30
0.0
 11
2449.7582686730329
 21
1060.846050961318
 31
0.0
  0
ARC
  5
19E42
  8
0
 10
2438.7186096937362
 20
1060.9560509613179
 30
0.0
 40
8.1712345192972577
 50
357.96895040859499
 51
31.999217954766511
  0
ARC
  5
19E43
  8
0
 10
2416.0713536822082
 20
1073.946050961318
 30
0.0
 40
30.818655070825368
 50
343.68018461466301
 51
16.31981538533654
  0
LINE
  5
19E44
  8
0
 10
2445.6482686730328
 20
1091.2660509613179
 30
0.0
 11
2447.2482686730332
 21
1088.5060509613179
 31
0.0
  0
LINE
  5
19E45
  8
0
 10
2435.2482686730341
 20
1082.606050961318
 30
0.0
 11
2435.2482686730341
 21
1082.606050961318
 31
0.0
  0
LINE
  5
19E46
  8
0
 10
2435.2482686730341
 20
1082.606050961318
 30
0.0
 11
2445.6482686730328
 21
1082.606050961318
 31
0.0
  0
LINE
  5
19E47
  8
0
 10
2435.2482686730341
 20
1082.606050961318
 30
0.0
 11
2445.6482686730328
 21
1082.606050961318
 31
0.0
  0
LINE
  5
19E48
  8
0
 10
2435.2482686730341
 20
1065.2860509613181
 30
0.0
 11
2445.6482686730328
 21
1065.2860509613181
 31
0.0
  0
LINE
  5
19E49
  8
0
 10
2435.2482686730341
 20
1060.2360509613179
 30
0.0
 11
2442.3982686730328
 21
1060.386050961318
 31
0.0
  0
LINE
  5
19E4A
  8
0
 10
2435.2482686730341
 20
1091.2660509613179
 30
0.0
 11
2445.6482686730328
 21
1091.2660509613179
 31
0.0
  0
LINE
  5
19E4B
  8
0
 10
2435.2482686730341
 20
1091.2660509613179
 30
0.0
 11
2445.6482686730328
 21
1091.2660509613179
 31
0.0
  0
LINE
  5
19E4C
  8
0
 10
2548.2482686730332
 20
1045.4760509613179
 30
0.0
 11
2548.2482686730332
 21
1010.476050961318
 31
0.0
  0
LINE
  5
19E4D
  8
0
 10
2533.2482686730332
 20
1027.7760509613181
 30
0.0
 11
2523.2482686730332
 21
1027.7760509613181
 31
0.0
  0
LINE
  5
19E4E
  8
0
 10
2533.2482686730332
 20
1037.676050961318
 30
0.0
 11
2523.2482686730332
 21
1037.676050961318
 31
0.0
  0
LINE
  5
19E4F
  8
0
 10
2523.2482686730332
 20
1017.876050961318
 30
0.0
 11
2533.2482686730332
 21
1017.876050961318
 31
0.0
  0
LINE
  5
19E50
  8
0
 10
2522.7482686730341
 20
1038.396050961318
 30
0.0
 11
2523.2482686730332
 21
1037.906050961318
 31
0.0
  0
LINE
  5
19E51
  8
0
 10
2523.2482686730332
 20
1017.646050961318
 30
0.0
 11
2522.7482686730341
 21
1017.156050961318
 31
0.0
  0
LINE
  5
19E52
  8
0
 10
2523.2482686730332
 20
1037.906050961318
 30
0.0
 11
2523.2482686730332
 21
1017.646050961318
 31
0.0
  0
LINE
  5
19E53
  8
0
 10
2523.2482686730332
 20
1037.676050961318
 30
0.0
 11
2523.2482686730332
 21
1017.876050961318
 31
0.0
  0
LINE
  5
19E54
  8
0
 10
2548.2482686730332
 20
1010.476050961318
 30
0.0
 11
2546.2482686730332
 21
1010.476050961318
 31
0.0
  0
LINE
  5
19E55
  8
0
 10
2533.2482686730332
 20
1017.876050961318
 30
0.0
 11
2533.2482686730332
 21
1037.676050961318
 31
0.0
  0
LINE
  5
19E56
  8
0
 10
2548.2482686730332
 20
1045.4760509613179
 30
0.0
 11
2546.2482686730332
 21
1045.4760509613179
 31
0.0
  0
LINE
  5
19E57
  8
0
 10
2518.2482686730332
 20
1040.0760509613181
 30
0.0
 11
2518.2482686730332
 21
1015.476050961318
 31
0.0
  0
LINE
  5
19E58
  8
0
 10
2518.2482686730332
 20
1038.2560509613179
 30
0.0
 11
2522.7482686730341
 21
1038.396050961318
 31
0.0
  0
LINE
  5
19E59
  8
0
 10
2522.7482686730341
 20
1017.156050961318
 30
0.0
 11
2518.2482686730332
 21
1017.296050961318
 31
0.0
  0
INSERT
  5
19E5A
  8
0
  2
YA
 10
2610.2620186730328
 20
924.97605096131804
 30
0.0
 41
-5.0
 42
5.0
 43
5.0
  0
ARC
  5
19E5B
  8
0
 10
2515.763268673275
 20
1113.791289056556
 30
0.0
 40
9.8424701728936501
 50
64.514785547754173
 51
115.4852144522459
  0
LINE
  5
19E5C
  8
0
 10
2499.2482686730341
 20
1123.9760509613179
 30
0.0
 11
2517.7482686730332
 21
1123.9760509613179
 31
0.0
  0
ARC
  5
19E5D
  8
0
 10
2515.763268673275
 20
1124.1608128660801
 30
0.0
 40
9.8424701728936501
 50
244.51478554775409
 51
295.48521445224583
  0
LINE
  5
19E5E
  8
0
 10
2517.7482686730332
 20
1113.9760509613179
 30
0.0
 11
2514.2482686730332
 21
1113.9760509613179
 31
0.0
  0
LINE
  5
19E5F
  8
0
 10
2480.7482686730332
 20
1113.9760509613179
 30
0.0
 11
2517.7482686730332
 21
1113.9760509613179
 31
0.0
  0
LINE
  5
19E60
  8
0
 10
2517.7482686730332
 20
1112.9760509613179
 30
0.0
 11
2480.7482686730332
 21
1112.9760509613179
 31
0.0
  0
LINE
  5
19E61
  8
0
 10
2507.5882686730338
 20
1122.676050961318
 30
0.0
 11
2511.5382686730331
 21
1122.676050961318
 31
0.0
  0
LINE
  5
19E62
  8
0
 10
2511.5382686730331
 20
1115.2760509613181
 30
0.0
 11
2507.5882686730338
 21
1115.2760509613181
 31
0.0
  0
LINE
  5
19E63
  8
0
 10
2499.2482686730341
 20
1113.9760509613179
 30
0.0
 11
2514.2482686730332
 21
1113.9760509613179
 31
0.0
  0
LINE
  5
19E64
  8
0
 10
2511.5382686730331
 20
1122.676050961318
 30
0.0
 11
2511.5382686730331
 21
1115.2760509613181
 31
0.0
  0
LINE
  5
19E65
  8
0
 10
2507.5882686730338
 20
1115.2760509613181
 30
0.0
 11
2507.5882686730338
 21
1122.676050961318
 31
0.0
  0
LINE
  5
19E66
  8
0
 10
2490.908268673033
 20
1122.676050961318
 30
0.0
 11
2486.968268673033
 21
1122.676050961318
 31
0.0
  0
ARC
  5
19E67
  8
0
 10
2482.7332686730342
 20
1113.791289056556
 30
0.0
 40
9.8424701728936501
 50
64.514785547754087
 51
115.4852144522458
  0
LINE
  5
19E68
  8
0
 10
2480.7482686730332
 20
1123.9760509613179
 30
0.0
 11
2478.4982686730332
 21
1122.676050961318
 31
0.0
  0
LINE
  5
19E69
  8
0
 10
2480.7482686730332
 20
1113.9760509613179
 30
0.0
 11
2484.2482686730332
 21
1113.9760509613179
 31
0.0
  0
LINE
  5
19E6A
  8
0
 10
2486.968268673033
 20
1115.2760509613181
 30
0.0
 11
2490.908268673033
 21
1115.2760509613181
 31
0.0
  0
LINE
  5
19E6B
  8
0
 10
2480.7482686730332
 20
1112.9760509613179
 30
0.0
 11
2480.7482686730332
 21
1113.9760509613179
 31
0.0
  0
LINE
  5
19E6C
  8
0
 10
2478.4982686730332
 20
1115.2760509613181
 30
0.0
 11
2480.7482686730332
 21
1113.9760509613179
 31
0.0
  0
ARC
  5
19E6D
  8
0
 10
2482.7332686730342
 20
1124.1608128660801
 30
0.0
 40
9.8424701728936501
 50
244.5147855477542
 51
295.485214452246
  0
LINE
  5
19E6E
  8
0
 10
2478.4982686730332
 20
1122.676050961318
 30
0.0
 11
2478.4982686730332
 21
1115.2760509613181
 31
0.0
  0
LINE
  5
19E6F
  8
0
 10
2486.968268673033
 20
1122.676050961318
 30
0.0
 11
2486.968268673033
 21
1115.2760509613181
 31
0.0
  0
LINE
  5
19E70
  8
0
 10
2490.908268673033
 20
1115.2760509613181
 30
0.0
 11
2490.908268673033
 21
1122.676050961318
 31
0.0
  0
LINE
  5
19E71
  8
0
 10
2499.2482686730341
 20
1123.9760509613179
 30
0.0
 11
2480.7482686730332
 21
1123.9760509613179
 31
0.0
  0
ARC
  5
19E72
  8
0
 10
2499.2482686730341
 20
1086.542840435003
 30
0.0
 40
37.08321052631436
 50
77.003024399666273
 51
102.9969756003337
  0
LINE
  5
19E73
  8
0
 10
2499.2482686730341
 20
1113.9760509613179
 30
0.0
 11
2484.2482686730332
 21
1113.9760509613179
 31
0.0
  0
ARC
  5
19E74
  8
0
 10
2499.2482686730341
 20
1151.4092614876331
 30
0.0
 40
37.08321052631436
 50
257.00302439966617
 51
282.99697560033383
  0
LINE
  5
19E75
  8
0
 10
2517.7482686730332
 20
1123.9760509613179
 30
0.0
 11
2519.9982686730332
 21
1122.676050961318
 31
0.0
  0
LINE
  5
19E76
  8
0
 10
2519.9982686730332
 20
1115.2760509613181
 30
0.0
 11
2517.7482686730332
 21
1113.9760509613179
 31
0.0
  0
LINE
  5
19E77
  8
0
 10
2517.7482686730332
 20
1113.9760509613179
 30
0.0
 11
2517.7482686730332
 21
1112.9760509613179
 31
0.0
  0
LINE
  5
19E78
  8
0
 10
2519.9982686730332
 20
1122.676050961318
 30
0.0
 11
2519.9982686730332
 21
1115.2760509613181
 31
0.0
  0
LINE
  5
19E79
  8
0
 10
3016.24980005931
 20
1122.675050961318
 30
0.0
 11
3016.24980005931
 21
1115.2730509613179
 31
0.0
  0
LINE
  5
19E7A
  8
0
 10
3007.7798000593111
 20
1122.675050961318
 30
0.0
 11
3007.7798000593111
 21
1115.2730509613179
 31
0.0
  0
LINE
  5
19E7B
  8
0
 10
3003.8398000593102
 20
1115.2730509613179
 30
0.0
 11
3003.8398000593102
 21
1122.675050961318
 31
0.0
  0
LINE
  5
19E7C
  8
0
 10
2983.2198000593112
 20
1122.675050961318
 30
0.0
 11
2983.2198000593112
 21
1115.2730509613179
 31
0.0
  0
LINE
  5
19E7D
  8
0
 10
2987.1598000593108
 20
1115.2730509613179
 30
0.0
 11
2987.1598000593108
 21
1122.675050961318
 31
0.0
  0
LINE
  5
19E7E
  8
0
 10
2974.74980005931
 20
1122.675050961318
 30
0.0
 11
2974.74980005931
 21
1115.2730509613179
 31
0.0
  0
ARC
  5
19E7F
  8
0
 10
2995.49980005931
 20
1133.974050961318
 30
0.0
 40
20.5
 50
330.80359559036788
 51
209.19640440963209
  0
CIRCLE
  5
19E80
  8
0
 10
2951.5998000593108
 20
1027.772050961318
 30
0.0
 40
10.62976594286058
  0
ARC
  5
19E81
  8
0
 10
2951.5998000593108
 20
1027.772050961318
 30
0.0
 40
17.300000000000001
 50
90.0
 51
269.66880867871049
  0
LINE
  5
19E82
  8
0
 10
2956.78980005931
 20
1082.606050961318
 30
0.0
 11
2941.7898000593109
 21
1091.2660509613179
 31
0.0
  0
LINE
  5
19E83
  8
0
 10
2941.7898000593109
 20
1056.625050961318
 30
0.0
 11
2956.78980005931
 21
1065.2850509613179
 31
0.0
  0
ARC
  5
19E84
  8
0
 10
2941.76980005931
 20
1071.940559640623
 30
0.0
 40
25.0
 50
247.17608478236869
 51
0.0
  0
CIRCLE
  5
19E85
  8
0
 10
2941.7898000593109
 20
1073.945050961318
 30
0.0
 40
15.0
  0
LINE
  5
19E86
  8
0
 10
2941.5998000593099
 20
1027.773050961317
 30
0.0
 11
2951.4998000593109
 21
1017.873050961318
 31
0.0
  0
LINE
  5
19E87
  8
0
 10
2951.4998000593109
 20
1037.6720509613181
 30
0.0
 11
2941.5998000593099
 21
1027.773050961317
 31
0.0
  0
LINE
  5
19E88
  8
0
 10
2891.1998000593112
 20
1026.8510509613179
 30
0.0
 11
2920.8065163857341
 21
1010.1471697561381
 31
0.0
  0
LINE
  5
19E89
  8
0
 10
2920.8063462684918
 20
966.59982262675931
 30
0.0
 11
2888.4998000593109
 21
948.37305096131809
 31
0.0
  0
LINE
  5
19E8A
  8
0
 10
2888.4998000593109
 20
937.87305096131797
 30
0.0
 11
2920.805862957498
 21
919.64759443826688
 31
0.0
  0
LINE
  5
19E8B
  8
0
 10
2891.4898000593098
 20
979.71305096131812
 30
0.0
 11
2906.4898000593098
 21
971.05305096131815
 31
0.0
  0
CIRCLE
  5
19E8C
  8
0
 10
2906.4898000593098
 20
988.37305096131774
 30
0.0
 40
15.0
  0
LINE
  5
19E8D
  8
0
 10
2906.4898000593098
 20
1005.694050961318
 30
0.0
 11
2891.4898000593098
 21
997.0340509613178
 31
0.0
  0
LINE
  5
19E8E
  8
0
 10
2891.4898000593098
 20
997.0340509613178
 30
0.0
 11
2891.4898000593098
 21
979.71305096131812
 31
0.0
  0
LINE
  5
19E8F
  8
0
 10
2921.4898000593098
 20
979.71305096131812
 30
0.0
 11
2921.4898000593098
 21
997.0340509613178
 31
0.0
  0
LINE
  5
19E90
  8
0
 10
2906.4898000593098
 20
971.05305096131815
 30
0.0
 11
2921.4898000593098
 21
979.71305096131812
 31
0.0
  0
LINE
  5
19E91
  8
0
 10
2921.4898000593098
 20
997.0340509613178
 30
0.0
 11
2906.4898000593098
 21
1005.694050961318
 31
0.0
  0
ARC
  5
19E92
  8
0
 10
2908.522004621369
 20
988.37354418042923
 30
0.0
 40
25.0
 50
299.43090869705958
 51
60.568643652251872
  0
LINE
  5
19E93
  8
0
 10
2926.7898000593109
 20
1082.606050961318
 30
0.0
 11
2926.7898000593109
 21
1065.2850509613179
 31
0.0
  0
LINE
  5
19E94
  8
0
 10
2905.1198000593099
 20
1060.241050961318
 30
0.0
 11
2932.0722916166092
 21
1048.898026576662
 31
0.0
  0
LINE
  5
19E95
  8
0
 10
2926.7898000593109
 20
1065.2850509613179
 30
0.0
 11
2941.7898000593109
 21
1056.625050961318
 31
0.0
  0
LINE
  5
19E96
  8
0
 10
2941.7898000593109
 20
1091.2660509613179
 30
0.0
 11
2926.7898000593109
 21
1082.606050961318
 31
0.0
  0
LINE
  5
19E97
  8
0
 10
3099.7998000593111
 20
1026.8510509613179
 30
0.0
 11
3070.1930837328869
 21
1010.1471697561381
 31
0.0
  0
LINE
  5
19E98
  8
0
 10
3021.99980005931
 20
1043.272050961318
 30
0.0
 11
3021.99980005931
 21
1012.272050961318
 31
0.0
  0
LINE
  5
19E99
  8
0
 10
3022.9998000593109
 20
978.06405096131812
 30
0.0
 11
3022.9998000593109
 21
1098.856050961318
 31
0.0
  0
LINE
  5
19E9A
  8
0
 10
2968.9998000593109
 20
1012.272050961318
 30
0.0
 11
2968.9998000593109
 21
1043.272050961318
 31
0.0
  0
LINE
  5
19E9B
  8
0
 10
3035.0498000593111
 20
963.18905096131823
 30
0.0
 11
3027.22980005931
 21
969.89605096131788
 31
0.0
  0
LINE
  5
19E9C
  8
0
 10
3019.9998000593109
 20
1010.272050961318
 30
0.0
 11
2970.9998000593109
 21
1010.272050961318
 31
0.0
  0
LINE
  5
19E9D
  8
0
 10
2951.49980005931
 20
1010.472050961318
 30
0.0
 11
2963.1997600553132
 21
1010.472050961318
 31
0.0
  0
ARC
  5
19E9E
  8
0
 10
2962.9998000593109
 20
1005.476050961318
 30
0.0
 40
5.0
 50
0.0
 51
90.0
  0
ARC
  5
19E9F
  8
0
 10
2970.9998000593109
 20
1012.272050961318
 30
0.0
 40
2.0
 50
180.0
 51
270.0
  0
LINE
  5
19EA0
  8
0
 10
2951.5998000593108
 20
1010.476050961318
 30
0.0
 11
2962.9998000593109
 21
1010.476050961318
 31
0.0
  0
LINE
  5
19EA1
  8
0
 10
2967.9998000593109
 20
978.06405096131812
 30
0.0
 11
2967.9998000593109
 21
1005.476050961318
 31
0.0
  0
ARC
  5
19EA2
  8
0
 10
2958.000147160848
 20
978.0633126851792
 30
0.0
 40
9.9996529257164735
 50
305.23878393913128
 51
0.0042301575086022
  0
LINE
  5
19EA3
  8
0
 10
3027.22980005931
 20
969.89605096131788
 30
0.0
 11
3027.22980005931
 21
969.89605096131788
 31
0.0
  0
ARC
  5
19EA4
  8
0
 10
3032.9994529577739
 20
978.0633126851792
 30
0.0
 40
9.9996529257164735
 50
179.9957698424914
 51
234.76121606086869
  0
ARC
  5
19EA5
  8
0
 10
3019.9998000593109
 20
1012.272050961318
 30
0.0
 40
2.0
 50
270.0
 51
0.0
  0
LINE
  5
19EA6
  8
0
 10
3070.1932538501292
 20
966.59982262675931
 30
0.0
 11
3102.4998000593109
 21
948.37305096131809
 31
0.0
  0
LINE
  5
19EA7
  8
0
 10
3102.4998000593109
 20
937.87305096131797
 30
0.0
 11
3070.1937371610888
 21
919.64759443832395
 31
0.0
  0
LINE
  5
19EA8
  8
0
 10
3069.4998000593109
 20
979.71305096131812
 30
0.0
 11
3084.49980005931
 21
971.05305096131815
 31
0.0
  0
CIRCLE
  5
19EA9
  8
0
 10
3084.49980005931
 20
988.37305096131774
 30
0.0
 40
15.0
  0
LINE
  5
19EAA
  8
0
 10
3084.49980005931
 20
1005.694050961318
 30
0.0
 11
3069.4998000593109
 21
997.0340509613178
 31
0.0
  0
LINE
  5
19EAB
  8
0
 10
3069.4998000593109
 20
997.0340509613178
 30
0.0
 11
3069.4998000593109
 21
979.71305096131812
 31
0.0
  0
ARC
  5
19EAC
  8
0
 10
3082.4775954972529
 20
988.37354418042923
 30
0.0
 40
25.0
 50
119.43135634774789
 51
240.56909130294039
  0
LINE
  5
19EAD
  8
0
 10
3099.4998000593109
 20
979.71305096131812
 30
0.0
 11
3099.4998000593109
 21
997.0340509613178
 31
0.0
  0
LINE
  5
19EAE
  8
0
 10
3084.49980005931
 20
971.05305096131815
 30
0.0
 11
3099.4998000593109
 21
979.71305096131812
 31
0.0
  0
LINE
  5
19EAF
  8
0
 10
3099.4998000593109
 20
997.0340509613178
 30
0.0
 11
3084.49980005931
 21
1005.694050961318
 31
0.0
  0
ARC
  5
19EB0
  8
0
 10
3049.22980005931
 20
1071.940559640623
 30
0.0
 40
25.0
 50
180.0
 51
292.82391521763122
  0
CIRCLE
  5
19EB1
  8
0
 10
2995.49980005931
 20
1081.972050961318
 30
0.0
 40
15.1454
  0
LINE
  5
19EB2
  8
0
 10
2956.78980005931
 20
1065.2850509613179
 30
0.0
 11
2956.78980005931
 21
1082.606050961318
 31
0.0
  0
LINE
  5
19EB3
  8
0
 10
2967.9998000593109
 20
1050.0720509613179
 30
0.0
 11
2967.9998000593109
 21
1106.2796836175439
 31
0.0
  0
LINE
  5
19EB4
  8
0
 10
2970.9998000593109
 20
1045.272050961318
 30
0.0
 11
3019.9998000593109
 21
1045.272050961318
 31
0.0
  0
ARC
  5
19EB5
  8
0
 10
2962.9998000593109
 20
1050.0720509613179
 30
0.0
 40
5.0
 50
270.0
 51
0.0
  0
LINE
  5
19EB6
  8
0
 10
2951.4998000593109
 20
1045.0720509613179
 30
0.0
 11
2962.9998000593109
 21
1045.0720509613179
 31
0.0
  0
ARC
  5
19EB7
  8
0
 10
2970.9998000593109
 20
1043.272050961318
 30
0.0
 40
2.0
 50
90.0
 51
180.0
  0
LINE
  5
19EB8
  8
0
 10
2951.4998000593109
 20
1017.873050961318
 30
0.0
 11
2961.399800059311
 21
1027.773050961317
 31
0.0
  0
LINE
  5
19EB9
  8
0
 10
2961.399800059311
 20
1027.773050961317
 30
0.0
 11
2951.4998000593109
 21
1037.6720509613181
 31
0.0
  0
ARC
  5
19EBA
  8
0
 10
3019.9998000593109
 20
1043.272050961318
 30
0.0
 40
2.0
 50
0.0
 51
90.0
  0
LINE
  5
19EBB
  8
0
 10
2983.219800059293
 20
1115.2730509613179
 30
0.0
 11
2987.159800059294
 21
1115.2730509613179
 31
0.0
  0
LINE
  5
19EBC
  8
0
 10
2995.49980005931
 20
1113.974050961318
 30
0.0
 11
2976.99980005931
 21
1113.974050961318
 31
0.0
  0
LINE
  5
19EBD
  8
0
 10
2976.4998000593109
 20
1112.9760509613179
 30
0.0
 11
3014.4998000593109
 21
1112.9760509613179
 31
0.0
  0
LINE
  5
19EBE
  8
0
 10
2973.4998000593109
 20
1112.9760509613179
 30
0.0
 11
3017.4998000593109
 21
1112.9760509613179
 31
0.0
  0
LINE
  5
19EBF
  8
0
 10
2976.99980005931
 20
1112.974050961318
 30
0.0
 11
2976.99980005931
 21
1113.974050961318
 31
0.0
  0
LINE
  5
19EC0
  8
0
 10
2974.4998000593109
 20
1107.89106735015
 30
0.0
 11
2974.4998000593109
 21
1110.9760509613179
 31
0.0
  0
LINE
  5
19EC1
  8
0
 10
2971.4998000593109
 20
1107.2457293274331
 30
0.0
 11
2971.4998000593109
 21
1110.9760509613179
 31
0.0
  0
ARC
  5
19EC2
  8
0
 10
2973.4998000593109
 20
1110.9760509613179
 30
0.0
 40
2.0
 50
89.999999999999986
 51
180.0
  0
ARC
  5
19EC3
  8
0
 10
2973.4998000593109
 20
1110.9760509613179
 30
0.0
 40
2.0
 50
90.0
 51
180.0
  0
ARC
  5
19EC4
  8
0
 10
2978.984800059297
 20
1124.8177289301279
 30
0.0
 40
10.44203536329989
 50
246.07300642113231
 51
293.92699357900568
  0
LINE
  5
19EC5
  8
0
 10
2976.99980005931
 20
1113.974050961318
 30
0.0
 11
2974.74980005931
 21
1115.2730509613179
 31
0.0
  0
ARC
  5
19EC6
  8
0
 10
2976.4998000593109
 20
1110.9760509613179
 30
0.0
 40
2.0
 50
90.0
 51
180.00000000000421
  0
LINE
  5
19EC7
  8
0
 10
2966.76980005931
 20
1071.940559640623
 30
0.0
 11
2966.76980005931
 21
1106.0430509613179
 31
0.0
  0
LINE
  5
19EC8
  8
0
 10
3024.22980005931
 20
1071.940559640623
 30
0.0
 11
3024.2298000593109
 21
1106.042837802207
 31
0.0
  0
LINE
  5
19EC9
  8
0
 10
3022.9998000593109
 20
1098.856050961318
 30
0.0
 11
3022.9998000593109
 21
1106.377805153239
 31
0.0
  0
LINE
  5
19ECA
  8
0
 10
3016.4998000593109
 20
1110.9760509613179
 30
0.0
 11
3016.4998000593109
 21
1107.89106735015
 31
0.0
  0
LINE
  5
19ECB
  8
0
 10
3019.4998000593109
 20
1110.9760509613179
 30
0.0
 11
3019.4998000593109
 21
1107.2457293274331
 31
0.0
  0
LINE
  5
19ECC
  8
0
 10
3013.9998000593109
 20
1113.974050961318
 30
0.0
 11
3013.9998000593109
 21
1112.974050961318
 31
0.0
  0
ARC
  5
19ECD
  8
0
 10
3012.014800059319
 20
1124.6838974960631
 30
0.0
 40
10.31984774599181
 50
245.7716518860052
 51
294.22834811390959
  0
LINE
  5
19ECE
  8
0
 10
3003.8398000593102
 20
1115.2730509613179
 30
0.0
 11
3007.7798000593111
 21
1115.2730509613179
 31
0.0
  0
LINE
  5
19ECF
  8
0
 10
3013.9998000593109
 20
1113.974050961318
 30
0.0
 11
3016.24980005931
 21
1115.2730509613179
 31
0.0
  0
ARC
  5
19ED0
  8
0
 10
3014.4998000593109
 20
1110.9760509613179
 30
0.0
 40
2.0
 50
359.99999999999579
 51
90.0
  0
ARC
  5
19ED1
  8
0
 10
3017.4998000593109
 20
1110.9760509613179
 30
0.0
 40
2.0
 50
0.0
 51
90.0
  0
ARC
  5
19ED2
  8
0
 10
2995.4998000593291
 20
1151.250767942593
 30
0.0
 40
36.931716981267421
 50
256.94877133351503
 51
283.05122866643018
  0
LINE
  5
19ED3
  8
0
 10
2995.49980005931
 20
1113.974050961318
 30
0.0
 11
3013.9998000593109
 21
1113.974050961318
 31
0.0
  0
LINE
  5
19ED4
  8
0
 10
3064.209800059311
 20
1065.282050961318
 30
0.0
 11
3064.209800059311
 21
1082.6030509613181
 31
0.0
  0
LINE
  5
19ED5
  8
0
 10
3034.2098000593101
 20
1082.6020509613179
 30
0.0
 11
3034.2098000593101
 21
1065.282050961318
 31
0.0
  0
CIRCLE
  5
19ED6
  8
0
 10
3049.209800059311
 20
1073.942050961318
 30
0.0
 40
15.0
  0
LINE
  5
19ED7
  8
0
 10
3085.879800059311
 20
1060.241050961318
 30
0.0
 11
3058.9273085020118
 21
1048.898026576662
 31
0.0
  0
LINE
  5
19ED8
  8
0
 10
3049.209800059311
 20
1056.6220509613181
 30
0.0
 11
3064.209800059311
 21
1065.282050961318
 31
0.0
  0
LINE
  5
19ED9
  8
0
 10
3034.2098000593101
 20
1065.282050961318
 30
0.0
 11
3049.209800059311
 21
1056.6220509613181
 31
0.0
  0
LINE
  5
19EDA
  8
0
 10
3064.209800059311
 20
1082.6030509613181
 30
0.0
 11
3049.209800059311
 21
1091.263050961318
 31
0.0
  0
LINE
  5
19EDB
  8
0
 10
3049.209800059311
 20
1091.263050961318
 30
0.0
 11
3034.2098000593101
 21
1082.6020509613179
 31
0.0
  0
LINE
  5
19EDC
  8
0
 10
2995.49980005931
 20
1123.974050961318
 30
0.0
 11
2976.99980005931
 21
1123.974050961318
 31
0.0
  0
LINE
  5
19EDD
  8
0
 10
2983.219800059293
 20
1122.675050961318
 30
0.0
 11
2987.159800059294
 21
1122.675050961318
 31
0.0
  0
ARC
  5
19EDE
  8
0
 10
2995.49980005931
 20
1133.974050961318
 30
0.0
 40
12.5
 50
306.86989764584399
 51
233.13010235415601
  0
LINE
  5
19EDF
  8
0
 10
2976.99980005931
 20
1123.974050961318
 30
0.0
 11
2974.74980005931
 21
1122.675050961318
 31
0.0
  0
ARC
  5
19EE0
  8
0
 10
2978.984800059297
 20
1113.130372992508
 30
0.0
 40
10.44203536329989
 50
66.073006420994332
 51
113.92699357886769
  0
LINE
  5
19EE1
  8
0
 10
3002.9998000593109
 20
1156.972050961318
 30
0.0
 11
3002.9998000593109
 21
1153.0530509613179
 31
0.0
  0
ARC
  5
19EE2
  8
0
 10
2999.9998000593109
 20
1156.972050961318
 30
0.0
 40
3.0
 50
0.0
 51
90.0
  0
LINE
  5
19EE3
  8
0
 10
2987.9998000593109
 20
1153.0530509613179
 30
0.0
 11
2987.9998000593109
 21
1156.972050961318
 31
0.0
  0
ARC
  5
19EE4
  8
0
 10
2990.9998000593109
 20
1156.972050961318
 30
0.0
 40
3.0
 50
90.000000000000725
 51
180.0
  0
LINE
  5
19EE5
  8
0
 10
2990.9998000593109
 20
1159.972050961318
 30
0.0
 11
2999.9998000593109
 21
1159.972050961318
 31
0.0
  0
LINE
  5
19EE6
  8
0
 10
3013.9998000593109
 20
1123.974050961318
 30
0.0
 11
3016.24980005931
 21
1122.675050961318
 31
0.0
  0
LINE
  5
19EE7
  8
0
 10
3003.8398000593102
 20
1122.675050961318
 30
0.0
 11
3007.7798000593111
 21
1122.675050961318
 31
0.0
  0
ARC
  5
19EE8
  8
0
 10
3012.014800059319
 20
1113.2642044265731
 30
0.0
 40
10.31984774599181
 50
65.77165188609041
 51
114.2283481139948
  0
LINE
  5
19EE9
  8
0
 10
2995.49980005931
 20
1123.974050961318
 30
0.0
 11
3013.9998000593109
 21
1123.974050961318
 31
0.0
  0
ARC
  5
19EEA
  8
0
 10
2995.4998000593291
 20
1086.6973339800429
 30
0.0
 40
36.931716981267421
 50
76.948771333569738
 51
103.0512286664849
  0
LINE
  5
19EEB
  8
0
 10
2987.9998000593109
 20
1123.974050961318
 30
0.0
 11
2987.9998000593109
 21
1143.974050961318
 31
0.0
  0
LINE
  5
19EEC
  8
0
 10
3002.9998000593109
 20
1143.974050961318
 30
0.0
 11
3002.9998000593109
 21
1123.974050961318
 31
0.0
  0
LINE
  5
19EED
  8
0
 10
3113.3098000593109
 20
703.03405096131792
 30
0.0
 11
3145.1598000593108
 21
689.89905096131793
 31
0.0
  0
ARC
  5
19EEE
  8
0
 10
2995.49980005931
 20
771.97205096131802
 30
0.0
 40
212.0
 50
315.03569513709238
 51
0.0
  0
LINE
  5
19EEF
  8
0
 10
3145.49980005931
 20
551.97205096131802
 30
0.0
 11
3145.49980005931
 21
699.97205096131802
 31
0.0
  0
ARC
  5
19EF0
  8
0
 10
3143.4998000593109
 20
551.97205096131802
 30
0.0
 40
2.0
 50
270.0
 51
0.0
  0
LINE
  5
19EF1
  8
0
 10
3125.7998000593111
 20
627.05305096131792
 30
0.0
 11
3125.7998000593111
 21
644.37405096131806
 31
0.0
  0
LINE
  5
19EF2
  8
0
 10
3207.4998000593109
 20
771.97305096131799
 30
0.0
 11
3207.4998000593109
 21
897.97205096131802
 31
0.0
  0
LINE
  5
19EF3
  8
0
 10
3139.7998000593111
 20
717.88905096131793
 30
0.0
 11
3139.7998000593111
 21
735.20905096131776
 31
0.0
  0
LINE
  5
19EF4
  8
0
 10
3124.7998000593111
 20
709.2280509613181
 30
0.0
 11
3139.7998000593111
 21
717.88905096131793
 31
0.0
  0
LINE
  5
19EF5
  8
0
 10
3139.7998000593111
 20
735.20905096131776
 30
0.0
 11
3124.7998000593111
 21
743.87005096131793
 31
0.0
  0
LINE
  5
19EF6
  8
0
 10
2437.5537044831922
 20
1823.15386820447
 30
0.0
 11
2413.5537044831922
 21
1823.15386820447
 31
0.0
  0
LINE
  5
19EF7
  8
0
 10
2413.5537044831922
 20
1780.15386820447
 30
0.0
 11
2437.5537044831922
 21
1780.15386820447
 31
0.0
  0
LINE
  5
19EF8
  8
0
 10
2503.543704483192
 20
1652.15386820447
 30
0.0
 11
2413.5537044831922
 21
1649.15386820447
 31
0.0
  0
LINE
  5
19EF9
  8
0
 10
2413.5537044831922
 20
1697.15386820447
 30
0.0
 11
2503.543704483192
 21
1694.15386820447
 31
0.0
  0
ARC
  5
19EFA
  8
0
 10
2469.5537044831922
 20
1775.0116121417871
 30
0.0
 40
30.0
 50
180.0
 51
258.35056208918019
  0
ARC
  5
19EFB
  8
0
 10
2469.5532077689409
 20
1809.928501532632
 30
0.0
 40
29.999503765777309
 50
179.98975024219069
 51
245.7054856194199
  0
LINE
  5
19EFC
  8
0
 10
2413.5537044831922
 20
1566.15386820447
 30
0.0
 11
2437.5537044831922
 21
1566.15386820447
 31
0.0
  0
LINE
  5
19EFD
  8
0
 10
2437.5537044831922
 20
1523.15386820447
 30
0.0
 11
2413.5537044831922
 21
1523.15386820447
 31
0.0
  0
ARC
  5
19EFE
  8
0
 10
2469.5532077689409
 20
1536.3792348763079
 30
0.0
 40
29.999503765777309
 50
112.7052037224686
 51
180.01024975780931
  0
ARC
  5
19EFF
  8
0
 10
2469.5537044831922
 20
1571.2961242671529
 30
0.0
 40
30.0
 50
101.6494379108198
 51
180.0
  0
ARC
  5
19F00
  8
0
 10
2367.5537044831908
 20
2400.058287489589
 30
0.0
 40
212.0
 50
0.0
 51
139.41432263300391
  0
ARC
  5
19F01
  8
0
 10
2367.5537044831908
 20
2274.058287489589
 30
0.0
 40
212.0
 50
270.0
 51
300.31256674356911
  0
LINE
  5
19F02
  8
0
 10
2474.5537044831922
 20
2062.058287489589
 30
0.0
 11
2228.582302012308
 21
2062.058287489589
 31
0.0
  0
INSERT
  5
19F03
  8
0
  2
YA
 10
1894.0074544831909
 20
2165.0622874895889
 30
0.0
 41
-5.0
 42
5.0
 43
5.0
  0
LINE
  5
19F04
  8
0
 10
2013.053704483191
 20
2165.0622874895889
 30
0.0
 11
2013.053704483191
 21
2206.0622874895889
 31
0.0
  0
ARC
  5
19F05
  8
0
 10
2232.0537044831922
 20
2202.0622874895889
 30
0.0
 40
162.0
 50
164.9319780115969
 51
195.06802198840299
  0
POLYLINE
  5
19F06
  8
0
 66
     1
 10
0.0
 20
0.0
 30
0.0
  0
VERTEX
  5
1A3EE
  8
0
 10
2103.6649711516961
 20
2151.299287489589
 30
0.0
 42
-0.2303778337445353
  0
VERTEX
  5
1A3EF
  8
0
 10
2105.972177605885
 20
2155.8133343729851
 30
0.0
 42
-0.0857134771080596
  0
VERTEX
  5
1A3F0
  8
0
 10
2118.101535298435
 20
2162.0424044153301
 30
0.0
 42
-0.043280060836277
  0
VERTEX
  5
1A3F1
  8
0
 10
2132.755630810585
 20
2165.2719263817999
 30
0.0
 42
-0.0319607229775014
  0
VERTEX
  5
1A3F2
  8
0
 10
2153.0137044831922
 20
2166.6212874895891
 30
0.0
 42
-0.0319607229775038
  0
SEQEND
  5
1A3F3
  8
0
  0
ARC
  5
19F07
  8
0
 10
2124.6467379687738
 20
2200.8311244489219
 30
0.0
 40
82.758529754391674
 50
184.57700627432411
 51
236.27983938838031
  0
LINE
  5
19F08
  8
0
 10
2206.5537044831922
 20
2052.058287489589
 30
0.0
 11
2206.5537044831922
 21
2212.058287489589
 31
0.0
  0
LINE
  5
19F09
  8
0
 10
2185.5537044831922
 20
2052.058287489589
 30
0.0
 11
2185.5537044831922
 21
2212.058287489589
 31
0.0
  0
ARC
  5
19F0A
  8
0
 10
2517.1918274520808
 20
2294.5243652077202
 30
0.0
 40
299.90466107656539
 50
177.67663305000269
 51
222.05264320609521
  0
LINE
  5
19F0B
  8
0
 10
2180.5537044831922
 20
2052.058287489589
 30
0.0
 11
2180.5537044831922
 21
2612.058287489589
 31
0.0
  0
LINE
  5
19F0C
  8
0
 10
2179.0537044831922
 20
2615.0622874895889
 30
0.0
 11
2179.0537044831922
 21
2052.0622874895889
 31
0.0
  0
LINE
  5
19F0D
  8
0
 10
2153.0537044831922
 20
2612.0622874895889
 30
0.0
 11
2153.0537044831922
 21
2052.0622874895889
 31
0.0
  0
LINE
  5
19F0E
  8
0
 10
2412.0537044831922
 20
1523.15386820447
 30
0.0
 11
2412.0537044831922
 21
1823.15386820447
 31
0.0
  0
LINE
  5
19F0F
  8
0
 10
2413.5537044831922
 20
1543.15386820447
 30
0.0
 11
2413.5537044831922
 21
1823.15386820447
 31
0.0
  0
ARC
  5
19F10
  8
0
 10
2114.76464331635
 20
1773.4144706675279
 30
0.0
 40
40.060602474058349
 50
205.49060145633729
 51
269.9986572549019
  0
ARC
  5
19F11
  8
0
 10
2225.0537044831922
 20
1673.15386820447
 30
0.0
 40
212.0
 50
45.035695137092283
 51
314.96430486290768
  0
ARC
  5
19F12
  8
0
 10
2242.218086855501
 20
1905.3301091209989
 30
0.0
 40
185.80076405148159
 50
296.0775389767926
 51
317.6457754349538
  0
ARC
  5
19F13
  8
0
 10
2062.028990884261
 20
1134.8410099644359
 30
0.0
 40
561.33108233101984
 50
82.144018469982328
 51
89.1747544383811
  0
ARC
  5
19F14
  8
0
 10
2062.028990884261
 20
2211.476726444504
 30
0.0
 40
561.33108233101984
 50
270.82524556161889
 51
277.85598153001769
  0
ARC
  5
19F15
  8
0
 10
2114.76464331635
 20
1572.8932657414121
 30
0.0
 40
40.060602474058349
 50
90.001342745098071
 51
154.50939854366749
  0
ARC
  5
19F16
  8
0
 10
2403.4002168897191
 20
1435.2463860202561
 30
0.0
 40
359.83733353948759
 50
154.50467181985479
 51
161.2379663601547
  0
ARC
  5
19F17
  8
0
 10
2070.0508200645968
 20
1691.1171472360879
 30
0.0
 40
4.9971166572303369
 50
89.278962823482303
 51
180.03759661800581
  0
LINE
  5
19F18
  8
0
 10
2050.0537044831922
 20
1683.0538682044701
 30
0.0
 11
2060.0537044831922
 21
1683.0538682044701
 31
0.0
  0
LINE
  5
19F19
  8
0
 10
2060.0537044831922
 20
1663.2538682044701
 30
0.0
 11
2050.0537044831922
 21
1663.2538682044701
 31
0.0
  0
LINE
  5
19F1A
  8
0
 10
2050.0537044831922
 20
1673.15386820447
 30
0.0
 11
2060.0537044831922
 21
1673.15386820447
 31
0.0
  0
LINE
  5
19F1B
  8
0
 10
2050.0537044831922
 20
1663.2538682044701
 30
0.0
 11
2050.0537044831922
 21
1683.0538682044701
 31
0.0
  0
LINE
  5
19F1C
  8
0
 10
2060.5537044831922
 20
1683.7738682044701
 30
0.0
 11
2060.0537044831922
 21
1683.2938682044701
 31
0.0
  0
LINE
  5
19F1D
  8
0
 10
2065.0537044831922
 20
1683.63386820447
 30
0.0
 11
2060.5537044831922
 21
1683.7738682044701
 31
0.0
  0
LINE
  5
19F1E
  8
0
 10
2070.1137044831921
 20
1650.2038682044699
 30
0.0
 11
2070.1137044831921
 21
1650.2038682044699
 31
0.0
  0
ARC
  5
19F1F
  8
0
 10
2070.0506856558382
 20
1655.200453151188
 30
0.0
 40
4.9969823396097564
 50
179.9608427363151
 51
270.72259782219589
  0
LINE
  5
19F20
  8
0
 10
2060.0537044831922
 20
1663.0238682044701
 30
0.0
 11
2060.5537044831922
 21
1662.5338682044701
 31
0.0
  0
LINE
  5
19F21
  8
0
 10
2060.5537044831922
 20
1662.5338682044701
 30
0.0
 11
2065.0537044831922
 21
1662.6838682044699
 31
0.0
  0
LINE
  5
19F22
  8
0
 10
2065.0537044831922
 20
1691.11386820447
 30
0.0
 11
2065.0537044831922
 21
1655.2038682044699
 31
0.0
  0
LINE
  5
19F23
  8
0
 10
2060.0537044831922
 20
1683.0538682044701
 30
0.0
 11
2060.0537044831922
 21
1663.2538682044701
 31
0.0
  0
LINE
  5
19F24
  8
0
 10
2060.0537044831922
 20
1683.2938682044701
 30
0.0
 11
2060.0537044831922
 21
1663.0238682044701
 31
0.0
  0
LINE
  5
19F25
  8
0
 10
2413.5537044831922
 20
1523.15386820447
 30
0.0
 11
2413.5537044831922
 21
1733.35386820447
 31
0.0
  0
LINE
  5
19F26
  8
0
 10
2378.9437044831921
 20
1523.15386820447
 30
0.0
 11
2412.0537044831922
 21
1523.15386820447
 31
0.0
  0
LINE
  5
19F27
  8
0
 10
2374.8669215236118
 20
1523.15386820447
 30
0.0
 11
2412.0537044831922
 21
1523.15386820447
 31
0.0
  0
LINE
  5
19F28
  8
0
 10
2245.5537044831922
 20
1680.65386820447
 30
0.0
 11
2304.5537044831922
 21
1680.65386820447
 31
0.0
  0
LINE
  5
19F29
  8
0
 10
2304.5537044831922
 20
1665.65386820447
 30
0.0
 11
2245.5537044831922
 21
1665.65386820447
 31
0.0
  0
LINE
  5
19F2A
  8
0
 10
2245.5537044831922
 20
1680.65386820447
 30
0.0
 11
2304.5537044831922
 21
1680.65386820447
 31
0.0
  0
LINE
  5
19F2B
  8
0
 10
2304.5537044831922
 20
1665.65386820447
 30
0.0
 11
2245.5537044831922
 21
1665.65386820447
 31
0.0
  0
LINE
  5
19F2C
  8
0
 10
2134.7637044831922
 20
1612.9538682044699
 30
0.0
 11
2114.7637044831922
 21
1612.9538682044699
 31
0.0
  0
LINE
  5
19F2D
  8
0
 10
2134.7637044831922
 20
1733.35386820447
 30
0.0
 11
2114.7637044831922
 21
1733.35386820447
 31
0.0
  0
LINE
  5
19F2E
  8
0
 10
2244.6637044831919
 20
1680.5238682044701
 30
0.0
 11
2245.5537044831922
 21
1680.65386820447
 31
0.0
  0
LINE
  5
19F2F
  8
0
 10
2245.5537044831922
 20
1665.65386820447
 30
0.0
 11
2245.1137044831921
 21
1665.6838682044699
 31
0.0
  0
LINE
  5
19F30
  8
0
 10
2244.6637044831919
 20
1680.5238682044701
 30
0.0
 11
2245.5537044831922
 21
1680.65386820447
 31
0.0
  0
LINE
  5
19F31
  8
0
 10
2245.5537044831922
 20
1665.65386820447
 30
0.0
 11
2245.1137044831921
 21
1665.6838682044699
 31
0.0
  0
LINE
  5
19F32
  8
0
 10
2244.2237044831918
 20
1680.3538682044709
 30
0.0
 11
2244.6637044831919
 21
1680.5238682044701
 31
0.0
  0
LINE
  5
19F33
  8
0
 10
2243.8037044831922
 20
1680.09386820447
 30
0.0
 11
2244.2237044831918
 21
1680.3538682044709
 31
0.0
  0
LINE
  5
19F34
  8
0
 10
2243.4237044831921
 20
1679.7738682044701
 30
0.0
 11
2243.8037044831922
 21
1680.09386820447
 31
0.0
  0
LINE
  5
19F35
  8
0
 10
2243.1037044831919
 20
1679.40386820447
 30
0.0
 11
2243.4237044831921
 21
1679.7738682044701
 31
0.0
  0
LINE
  5
19F36
  8
0
 10
2242.8537044831919
 20
1678.9838682044699
 30
0.0
 11
2243.1037044831919
 21
1679.40386820447
 31
0.0
  0
LINE
  5
19F37
  8
0
 10
2242.6837044831918
 20
1678.5338682044701
 30
0.0
 11
2242.8537044831919
 21
1678.9838682044699
 31
0.0
  0
LINE
  5
19F38
  8
0
 10
2242.5837044831919
 20
1678.09386820447
 30
0.0
 11
2242.6837044831918
 21
1678.5338682044701
 31
0.0
  0
LINE
  5
19F39
  8
0
 10
2242.5537044831922
 20
1677.65386820447
 30
0.0
 11
2242.5837044831919
 21
1678.09386820447
 31
0.0
  0
LINE
  5
19F3A
  8
0
 10
2242.5537044831922
 20
1677.65386820447
 30
0.0
 11
2242.5537044831922
 21
1677.65386820447
 31
0.0
  0
LINE
  5
19F3B
  8
0
 10
2242.5537044831922
 20
1668.65386820447
 30
0.0
 11
2242.5537044831922
 21
1677.65386820447
 31
0.0
  0
LINE
  5
19F3C
  8
0
 10
2242.6837044831918
 20
1667.7738682044701
 30
0.0
 11
2242.5537044831922
 21
1668.65386820447
 31
0.0
  0
LINE
  5
19F3D
  8
0
 10
2242.8537044831919
 20
1667.33386820447
 30
0.0
 11
2242.6837044831918
 21
1667.7738682044701
 31
0.0
  0
LINE
  5
19F3E
  8
0
 10
2243.1037044831919
 20
1666.91386820447
 30
0.0
 11
2242.8537044831919
 21
1667.33386820447
 31
0.0
  0
LINE
  5
19F3F
  8
0
 10
2243.4237044831921
 20
1666.5338682044701
 30
0.0
 11
2243.1037044831919
 21
1666.91386820447
 31
0.0
  0
LINE
  5
19F40
  8
0
 10
2243.8037044831922
 20
1666.2138682044699
 30
0.0
 11
2243.4237044831921
 21
1666.5338682044701
 31
0.0
  0
LINE
  5
19F41
  8
0
 10
2244.2237044831918
 20
1665.9638682044699
 30
0.0
 11
2243.8037044831922
 21
1666.2138682044699
 31
0.0
  0
LINE
  5
19F42
  8
0
 10
2244.6637044831919
 20
1665.7938682044701
 30
0.0
 11
2244.2237044831918
 21
1665.9638682044699
 31
0.0
  0
LINE
  5
19F43
  8
0
 10
2245.1137044831921
 20
1665.6838682044699
 30
0.0
 11
2244.6637044831919
 21
1665.7938682044701
 31
0.0
  0
LINE
  5
19F44
  8
0
 10
2244.2237044831918
 20
1680.3538682044709
 30
0.0
 11
2244.6637044831919
 21
1680.5238682044701
 31
0.0
  0
LINE
  5
19F45
  8
0
 10
2243.8037044831922
 20
1680.09386820447
 30
0.0
 11
2244.2237044831918
 21
1680.3538682044709
 31
0.0
  0
LINE
  5
19F46
  8
0
 10
2243.4237044831921
 20
1679.7738682044701
 30
0.0
 11
2243.8037044831922
 21
1680.09386820447
 31
0.0
  0
LINE
  5
19F47
  8
0
 10
2243.1037044831919
 20
1679.40386820447
 30
0.0
 11
2243.4237044831921
 21
1679.7738682044701
 31
0.0
  0
LINE
  5
19F48
  8
0
 10
2242.8537044831919
 20
1678.9838682044699
 30
0.0
 11
2243.1037044831919
 21
1679.40386820447
 31
0.0
  0
LINE
  5
19F49
  8
0
 10
2242.6837044831918
 20
1678.5338682044701
 30
0.0
 11
2242.8537044831919
 21
1678.9838682044699
 31
0.0
  0
LINE
  5
19F4A
  8
0
 10
2242.5837044831919
 20
1678.09386820447
 30
0.0
 11
2242.6837044831918
 21
1678.5338682044701
 31
0.0
  0
LINE
  5
19F4B
  8
0
 10
2242.5537044831922
 20
1677.65386820447
 30
0.0
 11
2242.5837044831919
 21
1678.09386820447
 31
0.0
  0
LINE
  5
19F4C
  8
0
 10
2242.5537044831922
 20
1677.65386820447
 30
0.0
 11
2242.5537044831922
 21
1677.65386820447
 31
0.0
  0
LINE
  5
19F4D
  8
0
 10
2242.5537044831922
 20
1668.65386820447
 30
0.0
 11
2242.5537044831922
 21
1677.65386820447
 31
0.0
  0
LINE
  5
19F4E
  8
0
 10
2242.6837044831918
 20
1667.7738682044701
 30
0.0
 11
2242.5537044831922
 21
1668.65386820447
 31
0.0
  0
LINE
  5
19F4F
  8
0
 10
2242.8537044831919
 20
1667.33386820447
 30
0.0
 11
2242.6837044831918
 21
1667.7738682044701
 31
0.0
  0
LINE
  5
19F50
  8
0
 10
2243.1037044831919
 20
1666.91386820447
 30
0.0
 11
2242.8537044831919
 21
1667.33386820447
 31
0.0
  0
LINE
  5
19F51
  8
0
 10
2243.4237044831921
 20
1666.5338682044701
 30
0.0
 11
2243.1037044831919
 21
1666.91386820447
 31
0.0
  0
LINE
  5
19F52
  8
0
 10
2243.8037044831922
 20
1666.2138682044699
 30
0.0
 11
2243.4237044831921
 21
1666.5338682044701
 31
0.0
  0
LINE
  5
19F53
  8
0
 10
2244.2237044831918
 20
1665.9638682044699
 30
0.0
 11
2243.8037044831922
 21
1666.2138682044699
 31
0.0
  0
LINE
  5
19F54
  8
0
 10
2244.6637044831919
 20
1665.7938682044701
 30
0.0
 11
2244.2237044831918
 21
1665.9638682044699
 31
0.0
  0
LINE
  5
19F55
  8
0
 10
2245.1137044831921
 20
1665.6838682044699
 30
0.0
 11
2244.6637044831919
 21
1665.7938682044701
 31
0.0
  0
LINE
  5
19F56
  8
0
 10
2245.5537044831922
 20
1665.65386820447
 30
0.0
 11
2245.5537044831922
 21
1665.65386820447
 31
0.0
  0
LINE
  5
19F57
  8
0
 10
2245.5537044831922
 20
1665.65386820447
 30
0.0
 11
2245.5537044831922
 21
1665.65386820447
 31
0.0
  0
LINE
  5
19F58
  8
0
 10
2412.0537044831922
 20
1673.15386820447
 30
0.0
 11
2412.0537044831922
 21
1543.15386820447
 31
0.0
  0
ARC
  5
19F59
  8
0
 10
2242.218086855501
 20
1440.977627287941
 30
0.0
 40
185.80076405148159
 50
42.354224565046273
 51
63.922461023207397
  0
LINE
  5
19F5A
  8
0
 10
2412.0537044831922
 20
1566.15386820447
 30
0.0
 11
2379.523704483192
 21
1566.15386820447
 31
0.0
  0
LINE
  5
19F5B
  8
0
 10
2307.5537044831922
 20
1677.65386820447
 30
0.0
 11
2307.5537044831922
 21
1668.65386820447
 31
0.0
  0
LINE
  5
19F5C
  8
0
 10
2307.4137044831919
 20
1678.5338682044701
 30
0.0
 11
2307.5537044831922
 21
1677.65386820447
 31
0.0
  0
LINE
  5
19F5D
  8
0
 10
2307.2437044831918
 20
1678.9838682044699
 30
0.0
 11
2307.4137044831919
 21
1678.5338682044701
 31
0.0
  0
LINE
  5
19F5E
  8
0
 10
2306.9937044831918
 20
1679.40386820447
 30
0.0
 11
2307.2437044831918
 21
1678.9838682044699
 31
0.0
  0
LINE
  5
19F5F
  8
0
 10
2306.6737044831921
 20
1679.7738682044701
 30
0.0
 11
2306.9937044831918
 21
1679.40386820447
 31
0.0
  0
LINE
  5
19F60
  8
0
 10
2306.9937044831918
 20
1666.91386820447
 30
0.0
 11
2306.6737044831921
 21
1666.5338682044701
 31
0.0
  0
LINE
  5
19F61
  8
0
 10
2307.2437044831918
 20
1667.33386820447
 30
0.0
 11
2306.9937044831918
 21
1666.91386820447
 31
0.0
  0
LINE
  5
19F62
  8
0
 10
2307.4137044831919
 20
1667.7738682044701
 30
0.0
 11
2307.2437044831918
 21
1667.33386820447
 31
0.0
  0
LINE
  5
19F63
  8
0
 10
2307.5137044831922
 20
1668.2238682044699
 30
0.0
 11
2307.4137044831919
 21
1667.7738682044701
 31
0.0
  0
LINE
  5
19F64
  8
0
 10
2307.5537044831922
 20
1668.65386820447
 30
0.0
 11
2307.5137044831922
 21
1668.2238682044699
 31
0.0
  0
LINE
  5
19F65
  8
0
 10
2307.5537044831922
 20
1677.65386820447
 30
0.0
 11
2307.5537044831922
 21
1668.65386820447
 31
0.0
  0
LINE
  5
19F66
  8
0
 10
2307.4137044831919
 20
1678.5338682044701
 30
0.0
 11
2307.5537044831922
 21
1677.65386820447
 31
0.0
  0
LINE
  5
19F67
  8
0
 10
2307.2437044831918
 20
1678.9838682044699
 30
0.0
 11
2307.4137044831919
 21
1678.5338682044701
 31
0.0
  0
LINE
  5
19F68
  8
0
 10
2306.9937044831918
 20
1679.40386820447
 30
0.0
 11
2307.2437044831918
 21
1678.9838682044699
 31
0.0
  0
LINE
  5
19F69
  8
0
 10
2306.6737044831921
 20
1679.7738682044701
 30
0.0
 11
2306.9937044831918
 21
1679.40386820447
 31
0.0
  0
LINE
  5
19F6A
  8
0
 10
2306.9937044831918
 20
1666.91386820447
 30
0.0
 11
2306.6737044831921
 21
1666.5338682044701
 31
0.0
  0
LINE
  5
19F6B
  8
0
 10
2307.2437044831918
 20
1667.33386820447
 30
0.0
 11
2306.9937044831918
 21
1666.91386820447
 31
0.0
  0
LINE
  5
19F6C
  8
0
 10
2307.4137044831919
 20
1667.7738682044701
 30
0.0
 11
2307.2437044831918
 21
1667.33386820447
 31
0.0
  0
LINE
  5
19F6D
  8
0
 10
2307.5137044831922
 20
1668.2238682044699
 30
0.0
 11
2307.4137044831919
 21
1667.7738682044701
 31
0.0
  0
LINE
  5
19F6E
  8
0
 10
2307.5537044831922
 20
1668.65386820447
 30
0.0
 11
2307.5137044831922
 21
1668.2238682044699
 31
0.0
  0
LINE
  5
19F6F
  8
0
 10
2305.4337044831918
 20
1680.5238682044701
 30
0.0
 11
2305.8737044831919
 21
1680.3538682044709
 31
0.0
  0
LINE
  5
19F70
  8
0
 10
2305.8737044831919
 20
1665.9638682044699
 30
0.0
 11
2305.4337044831918
 21
1665.7938682044701
 31
0.0
  0
LINE
  5
19F71
  8
0
 10
2305.4337044831918
 20
1680.5238682044701
 30
0.0
 11
2305.8737044831919
 21
1680.3538682044709
 31
0.0
  0
LINE
  5
19F72
  8
0
 10
2305.8737044831919
 20
1665.9638682044699
 30
0.0
 11
2305.4337044831918
 21
1665.7938682044701
 31
0.0
  0
LINE
  5
19F73
  8
0
 10
2304.9837044831911
 20
1680.62386820447
 30
0.0
 11
2305.4337044831918
 21
1680.5238682044701
 31
0.0
  0
LINE
  5
19F74
  8
0
 10
2304.5537044831922
 20
1680.65386820447
 30
0.0
 11
2304.9837044831911
 21
1680.62386820447
 31
0.0
  0
LINE
  5
19F75
  8
0
 10
2304.5537044831922
 20
1680.65386820447
 30
0.0
 11
2304.5537044831922
 21
1680.65386820447
 31
0.0
  0
LINE
  5
19F76
  8
0
 10
2305.4337044831918
 20
1665.7938682044701
 30
0.0
 11
2304.5537044831922
 21
1665.65386820447
 31
0.0
  0
LINE
  5
19F77
  8
0
 10
2304.9837044831911
 20
1680.62386820447
 30
0.0
 11
2305.4337044831918
 21
1680.5238682044701
 31
0.0
  0
LINE
  5
19F78
  8
0
 10
2304.5537044831922
 20
1680.65386820447
 30
0.0
 11
2304.9837044831911
 21
1680.62386820447
 31
0.0
  0
LINE
  5
19F79
  8
0
 10
2304.5537044831922
 20
1680.65386820447
 30
0.0
 11
2304.5537044831922
 21
1680.65386820447
 31
0.0
  0
LINE
  5
19F7A
  8
0
 10
2305.4337044831918
 20
1665.7938682044701
 30
0.0
 11
2304.5537044831922
 21
1665.65386820447
 31
0.0
  0
LINE
  5
19F7B
  8
0
 10
2305.8737044831919
 20
1680.3538682044709
 30
0.0
 11
2306.293704483191
 21
1680.09386820447
 31
0.0
  0
LINE
  5
19F7C
  8
0
 10
2306.293704483191
 20
1666.2138682044699
 30
0.0
 11
2305.8737044831919
 21
1665.9638682044699
 31
0.0
  0
LINE
  5
19F7D
  8
0
 10
2305.8737044831919
 20
1680.3538682044709
 30
0.0
 11
2306.293704483191
 21
1680.09386820447
 31
0.0
  0
LINE
  5
19F7E
  8
0
 10
2306.293704483191
 20
1666.2138682044699
 30
0.0
 11
2305.8737044831919
 21
1665.9638682044699
 31
0.0
  0
LINE
  5
19F7F
  8
0
 10
2306.293704483191
 20
1680.09386820447
 30
0.0
 11
2306.6737044831921
 21
1679.7738682044701
 31
0.0
  0
LINE
  5
19F80
  8
0
 10
2306.6737044831921
 20
1666.5338682044701
 30
0.0
 11
2306.293704483191
 21
1666.2138682044699
 31
0.0
  0
LINE
  5
19F81
  8
0
 10
2306.293704483191
 20
1680.09386820447
 30
0.0
 11
2306.6737044831921
 21
1679.7738682044701
 31
0.0
  0
LINE
  5
19F82
  8
0
 10
2306.6737044831921
 20
1666.5338682044701
 30
0.0
 11
2306.293704483191
 21
1666.2138682044699
 31
0.0
  0
LINE
  5
19F83
  8
0
 10
2412.0537044831922
 20
1733.35386820447
 30
0.0
 11
2412.0637044831919
 21
1673.15386820447
 31
0.0
  0
ARC
  5
19F84
  8
0
 10
2428.5537044831922
 20
1673.265172365667
 30
0.0
 40
8.2590998339217094
 50
118.9675557494832
 51
241.03244425051679
  0
ARC
  5
19F85
  8
0
 10
2428.5537044831922
 20
1673.265172365667
 30
0.0
 40
6.5181996678431906
 50
127.85508093788511
 51
232.14491906211481
  0
ARC
  5
19F86
  8
0
 10
2428.5537044831922
 20
1689.765172365667
 30
0.0
 40
4.0
 50
0.0
 51
180.0
  0
ARC
  5
19F87
  8
0
 10
2428.5537044831922
 20
1673.265172365667
 30
0.0
 40
8.2590998339217094
 50
298.96755574948321
 51
61.032444250516761
  0
ARC
  5
19F88
  8
0
 10
2428.5537044831922
 20
1673.265172365667
 30
0.0
 40
6.5181996678431906
 50
307.85508093788508
 51
52.144919062114852
  0
ARC
  5
19F89
  8
0
 10
2428.5537044831922
 20
1656.765172365667
 30
0.0
 40
4.0
 50
180.0
 51
0.0
  0
LINE
  5
19F8A
  8
0
 10
2424.5537044831922
 20
1689.765172365667
 30
0.0
 11
2424.5537044831922
 21
1656.765172365667
 31
0.0
  0
LINE
  5
19F8B
  8
0
 10
2432.5537044831922
 20
1656.765172365667
 30
0.0
 11
2432.5537044831922
 21
1689.765172365667
 31
0.0
  0
ARC
  5
19F8C
  8
0
 10
2173.9537044831909
 20
2187.0622874895889
 30
0.0
 40
102.0
 50
193.5363746750954
 51
258.1762400120183
  0
ARC
  5
19F8D
  8
0
 10
2403.4002168897191
 20
1911.0613503886841
 30
0.0
 40
359.83733353948759
 50
198.7620336398453
 51
205.4953281801501
  0
LINE
  5
19F8E
  8
0
 10
2013.053704483191
 20
2124.0622874895889
 30
0.0
 11
2093.735252740466
 21
2124.0622874895889
 31
0.0
  0
LINE
  5
19F8F
  8
0
 10
2013.053704483191
 20
2165.0622874895889
 30
0.0
 11
2013.053704483191
 21
2124.0622874895889
 31
0.0
  0
LINE
  5
19F90
  8
0
 10
2412.0537044831922
 20
1780.15386820447
 30
0.0
 11
2379.523704483192
 21
1780.15386820447
 31
0.0
  0
LINE
  5
19F91
  8
0
 10
2374.8669215236118
 20
1823.15386820447
 30
0.0
 11
2412.0537044831922
 21
1823.15386820447
 31
0.0
  0
ARC
  5
19F92
  8
0
 10
2216.8537044831919
 20
2078.2582874895888
 30
0.0
 40
20.0
 50
270.0
 51
90.0
  0
LINE
  5
19F93
  8
0
 10
2206.5537044831922
 20
2052.058287489589
 30
0.0
 11
2180.5537044831922
 21
2052.058287489589
 31
0.0
  0
LINE
  5
19F94
  8
0
 10
2179.0537044831922
 20
2052.0622874895889
 30
0.0
 11
2153.0537044831922
 21
2052.0622874895889
 31
0.0
  0
ARC
  5
19F95
  8
0
 10
2211.5537044831922
 20
2053.2582874895888
 30
0.0
 40
5.0
 50
90.0
 51
180.0
  0
LINE
  5
19F96
  8
0
 10
2216.8537044831919
 20
2058.2582874895888
 30
0.0
 11
2211.5537044831922
 21
2058.2582874895888
 31
0.0
  0
POLYLINE
  5
19F97
  8
0
 66
     1
 10
0.0
 20
0.0
 30
0.0
  0
VERTEX
  5
1A3F4
  8
0
 10
2153.0537044831922
 20
2096.7402874895888
 30
0.0
 42
-0.107696942501049
  0
VERTEX
  5
1A3F5
  8
0
 10
2134.399538714802
 20
2100.8054308251499
 30
0.0
 42
-0.1018398349839665
  0
VERTEX
  5
1A3F6
  8
0
 10
2118.130399217127
 20
2112.7202486148321
 30
0.0
 42
-0.0945211726760977
  0
VERTEX
  5
1A3F7
  8
0
 10
2107.4946728676
 20
2130.176258887529
 30
0.0
 42
-0.0899257565637016
  0
VERTEX
  5
1A3F8
  8
0
 10
2103.6646925330269
 20
2151.299287489589
 30
0.0
 42
-0.0899257565637006
  0
SEQEND
  5
1A3F9
  8
0
  0
ARC
  5
19F98
  8
0
 10
2149.5849923495139
 20
2093.0882874895892
 30
0.0
 40
8.1731458133220531
 50
200.5519560040988
 51
211.99911206896789
  0
LINE
  5
19F99
  8
0
 10
2142.6537044831912
 20
2062.7782874895888
 30
0.0
 11
2141.0537044831922
 21
2065.540287489589
 31
0.0
  0
ARC
  5
19F9A
  8
0
 10
2149.5847358211308
 20
2067.1082874895892
 30
0.0
 40
8.1729282639390188
 50
147.9999349608629
 51
212.0000650391363
  0
ARC
  5
19F9B
  8
0
 10
2172.2274190344128
 20
2080.098287489589
 30
0.0
 40
30.81530258422212
 50
163.68029689768599
 51
196.31970310231381
  0
LINE
  5
19F9C
  8
0
 10
2141.0537044831922
 20
2065.540287489589
 30
0.0
 11
2141.0537044831922
 21
2090.5139058356231
 31
0.0
  0
LINE
  5
19F9D
  8
0
 10
2142.6537044831912
 20
2088.7572874895891
 30
0.0
 11
2146.7484297189098
 21
2088.7572874895891
 31
0.0
  0
LINE
  5
19F9E
  8
0
 10
2142.6537044831912
 20
2071.4392874895889
 30
0.0
 11
2153.0537044831922
 21
2071.4392874895889
 31
0.0
  0
LINE
  5
19F9F
  8
0
 10
2153.0537044831922
 20
2062.7782874895888
 30
0.0
 11
2142.6537044831912
 21
2062.7782874895888
 31
0.0
  0
ARC
  5
19FA0
  8
0
 10
2149.5849923495139
 20
2151.7622874895892
 30
0.0
 40
8.1731458133220531
 50
148.0008879310314
 51
211.99911206896789
  0
LINE
  5
19FA1
  8
0
 10
2141.0537044831922
 20
2153.3312874895892
 30
0.0
 11
2142.6537044831912
 21
2156.0932874895889
 31
0.0
  0
ARC
  5
19FA2
  8
0
 10
2149.5847358211308
 20
2125.7822874895892
 30
0.0
 40
8.1729282639390188
 50
147.9999349608629
 51
212.0000650391363
  0
LINE
  5
19FA3
  8
0
 10
2142.6537044831912
 20
2121.4522874895888
 30
0.0
 11
2141.0537044831922
 21
2124.214287489589
 31
0.0
  0
ARC
  5
19FA4
  8
0
 10
2172.2274190344128
 20
2138.772287489589
 30
0.0
 40
30.81530258422212
 50
163.68029689768599
 51
196.31970310231381
  0
LINE
  5
19FA5
  8
0
 10
2141.0537044831922
 20
2124.214287489589
 30
0.0
 11
2141.0537044831922
 21
2153.3312874895892
 31
0.0
  0
LINE
  5
19FA6
  8
0
 10
2142.6537044831912
 20
2147.4312874895891
 30
0.0
 11
2153.0537044831922
 21
2147.4312874895891
 31
0.0
  0
LINE
  5
19FA7
  8
0
 10
2142.6537044831912
 20
2156.0932874895889
 30
0.0
 11
2153.0537044831922
 21
2156.0932874895889
 31
0.0
  0
LINE
  5
19FA8
  8
0
 10
2153.0537044831922
 20
2121.4522874895888
 30
0.0
 11
2142.6537044831912
 21
2121.4522874895888
 31
0.0
  0
LINE
  5
19FA9
  8
0
 10
2142.6537044831912
 20
2130.1132874895889
 30
0.0
 11
2153.0537044831922
 21
2130.1132874895889
 31
0.0
  0
ARC
  5
19FAA
  8
0
 10
2211.5537044831922
 20
2112.7582874895888
 30
0.0
 40
5.0
 50
90.0
 51
180.0
  0
ARC
  5
19FAB
  8
0
 10
2211.5537044831922
 20
2103.2582874895888
 30
0.0
 40
5.0
 50
180.0
 51
270.0
  0
LINE
  5
19FAC
  8
0
 10
2216.8537044831919
 20
2098.2582874895888
 30
0.0
 11
2211.5537044831922
 21
2098.2582874895888
 31
0.0
  0
ARC
  5
19FAD
  8
0
 10
2216.8537044831919
 20
2137.7582874895888
 30
0.0
 40
20.0
 50
270.0
 51
90.0
  0
ARC
  5
19FAE
  8
0
 10
2211.5537044831922
 20
2162.7582874895888
 30
0.0
 40
5.0
 50
180.0
 51
270.0
  0
LINE
  5
19FAF
  8
0
 10
2216.8537044831919
 20
2157.7582874895888
 30
0.0
 11
2211.5537044831922
 21
2157.7582874895888
 31
0.0
  0
LINE
  5
19FB0
  8
0
 10
2216.8537044831919
 20
2117.7582874895888
 30
0.0
 11
2211.5537044831922
 21
2117.7582874895888
 31
0.0
  0
LINE
  5
19FB1
  8
0
 10
2141.0537044831922
 20
2590.5922874895891
 30
0.0
 11
2141.0537044831922
 21
2562.727306819173
 31
0.0
  0
ARC
  5
19FB2
  8
0
 10
2172.2306194740172
 20
2576.0322874895892
 30
0.0
 40
30.818655070825368
 50
163.68018461466349
 51
196.31981538533691
  0
ARC
  5
19FB3
  8
0
 10
2138.5537044831922
 20
2538.7896624848818
 30
0.0
 40
62.0
 50
113.0753612037
 51
180.0
  0
POLYLINE
  5
19FB4
  8
0
 66
     1
 10
0.0
 20
0.0
 30
0.0
  0
VERTEX
  5
1A3FA
  8
0
 10
2103.6637044831909
 20
2576.0122874895892
 30
0.0
 42
-0.1427397834356985
  0
VERTEX
  5
1A3FB
  8
0
 10
2107.0115654610131
 20
2587.5004984751799
 30
0.0
 42
-0.107172048130841
  0
VERTEX
  5
1A3FC
  8
0
 10
2118.1297005603878
 20
2598.724557301301
 30
0.0
 42
-0.0785305341780621
  0
VERTEX
  5
1A3FD
  8
0
 10
2133.3682489245739
 20
2605.527310504217
 30
0.0
 42
-0.0658778674229943
  0
VERTEX
  5
1A3FE
  8
0
 10
2153.0537044831922
 20
2608.1322874895891
 30
0.0
 42
-0.0658778674229922
  0
SEQEND
  5
1A3FF
  8
0
  0
LINE
  5
19FB5
  8
0
 10
2042.053704483191
 20
2486.5622874895889
 30
0.0
 11
2042.053704483191
 21
2612.0622874895889
 31
0.0
  0
LINE
  5
19FB8
  8
0
 10
2076.5537044831922
 20
2538.7896624848818
 30
0.0
 11
2076.5537044831922
 21
2247.3482578389112
 31
0.0
  0
LINE
  5
19FB9
  8
0
 10
2013.053704483191
 20
2427.0622874895889
 30
0.0
 11
2013.053704483191
 21
2372.5622874895889
 31
0.0
  0
LINE
  5
19FBA
  8
0
 10
2042.053704483191
 20
2367.5622874895889
 30
0.0
 11
2042.053704483191
 21
2206.0622874895889
 31
0.0
  0
LINE
  5
19FBB
  8
0
 10
2013.053704483191
 20
2206.0622874895889
 30
0.0
 11
2042.053704483191
 21
2206.0622874895889
 31
0.0
  0
ARC
  5
19FBC
  8
0
 10
2173.9537044831909
 20
2217.0622874895889
 30
0.0
 40
102.0
 50
162.72721856933461
 51
166.46362532490451
  0
LINE
  5
19FBD
  8
0
 10
2013.053704483191
 20
2372.5622874895889
 30
0.0
 11
2037.053704483192
 21
2372.5622874895889
 31
0.0
  0
ARC
  5
19FBE
  8
0
 10
2037.053704483192
 20
2367.5622874895889
 30
0.0
 40
5.0
 50
0.0
 51
90.0
  0
INSERT
  5
19FBF
  8
0
  2
YA
 10
1978.039954483191
 20
2427.0622874895889
 30
0.0
 41
5.0
 42
5.0
 43
5.0
  0
LINE
  5
19FC0
  8
0
 10
2013.053704483191
 20
2427.0622874895889
 30
0.0
 11
2013.053704483191
 21
2481.5622874895889
 31
0.0
  0
LINE
  5
19FC1
  8
0
 10
2013.053704483191
 20
2481.5622874895889
 30
0.0
 11
2037.053704483192
 21
2481.5622874895889
 31
0.0
  0
LINE
  5
19FC6
  8
0
 10
2040.053704483192
 20
2547.5622874895889
 30
0.0
 11
2040.053704483192
 21
2512.5622874895889
 31
0.0
  0
LINE
  5
19FC9
  8
0
 10
2040.053704483192
 20
2512.5622874895889
 30
0.0
 11
2042.053704483191
 21
2512.5622874895889
 31
0.0
  0
ARC
  5
19FCA
  8
0
 10
2037.053704483192
 20
2486.5622874895889
 30
0.0
 40
5.0
 50
270.0
 51
0.0
  0
LINE
  5
19FCF
  8
0
 10
2040.053704483192
 20
2547.5622874895889
 30
0.0
 11
2042.053704483191
 21
2547.5622874895889
 31
0.0
  0
LINE
  5
19FD3
  8
0
 10
2184.1737044831921
 20
2346.9922874895892
 30
0.0
 11
2184.1737044831921
 21
2492.2822874895892
 31
0.0
  0
POLYLINE
  5
19FD4
  8
0
 66
     1
 10
0.0
 20
0.0
 30
0.0
  0
VERTEX
  5
1A400
  8
0
 10
2153.0537044831922
 20
2359.962287489589
 30
0.0
 42
-0.0759324646691649
  0
VERTEX
  5
1A401
  8
0
 10
2133.6944650332371
 20
2362.919326536623
 30
0.0
 42
-0.0861204956053751
  0
VERTEX
  5
1A402
  8
0
 10
2118.313548323496
 20
2370.828625907568
 30
0.0
 42
-0.1059698406576102
  0
VERTEX
  5
1A403
  8
0
 10
2107.4160081102832
 20
2383.4339603211079
 30
0.0
 42
-0.126089610326612
  0
VERTEX
  5
1A404
  8
0
 10
2103.9237044831921
 20
2397.0622874895889
 30
0.0
 42
-0.1260896103266131
  0
SEQEND
  5
1A405
  8
0
  0
POLYLINE
  5
19FD5
  8
0
 66
     1
 10
0.0
 20
0.0
 30
0.0
  0
VERTEX
  5
1A406
  8
0
 10
2103.6637044831909
 20
2228.232287489589
 30
0.0
 42
-0.1135446756219572
  0
VERTEX
  5
1A407
  8
0
 10
2107.291288368403
 20
2244.0005990691279
 30
0.0
 42
-0.1035052482649747
  0
VERTEX
  5
1A408
  8
0
 10
2118.1297005603878
 20
2258.0085540453551
 30
0.0
 42
-0.0918863226898913
  0
VERTEX
  5
1A409
  8
0
 10
2133.8108217445151
 20
2267.0442015692338
 30
0.0
 42
-0.085075990665343
  0
VERTEX
  5
1A40A
  8
0
 10
2153.0537044831922
 20
2270.3422874895891
 30
0.0
 42
-0.0850759906653445
  0
SEQEND
  5
1A40B
  8
0
  0
ARC
  5
19FD6
  8
0
 10
2149.5849923495139
 20
2215.241287489589
 30
0.0
 40
8.1731458133218027
 50
148.00088793103129
 51
211.99911206896809
  0
LINE
  5
19FD7
  8
0
 10
2141.0537044831922
 20
2213.6722874895891
 30
0.0
 11
2141.0537044831922
 21
2242.790287489589
 31
0.0
  0
POLYLINE
  5
19FD8
  8
0
 66
     1
 10
0.0
 20
0.0
 30
0.0
  0
VERTEX
  5
1A40C
  8
0
 10
2153.0537044831908
 20
2191.984287489589
 30
0.0
 42
-0.0739141019569554
  0
VERTEX
  5
1A40D
  8
0
 10
2133.5455763945788
 20
2194.8839809056499
 30
0.0
 42
-0.0847033099063923
  0
VERTEX
  5
1A40E
  8
0
 10
2118.1297005603878
 20
2202.6010808851388
 30
0.0
 42
-0.1063598999383303
  0
VERTEX
  5
1A40F
  8
0
 10
2107.145010453542
 20
2214.9811601379079
 30
0.0
 42
-0.1291672456714229
  0
VERTEX
  5
1A410
  8
0
 10
2103.6637044831909
 20
2228.232287489589
 30
0.0
 42
-0.1291672456714209
  0
SEQEND
  5
1A411
  8
0
  0
LINE
  5
19FD9
  8
0
 10
2142.6537044831912
 20
2210.9112874895891
 30
0.0
 11
2141.0537044831922
 21
2213.6722874895891
 31
0.0
  0
LINE
  5
19FDA
  8
0
 10
2153.0537044831922
 20
2210.9112874895891
 30
0.0
 11
2142.6537044831912
 21
2210.9112874895891
 31
0.0
  0
LINE
  5
19FDB
  8
0
 10
2141.0537044831922
 20
2242.790287489589
 30
0.0
 11
2142.6537044831912
 21
2245.5522874895892
 31
0.0
  0
ARC
  5
19FDC
  8
0
 10
2149.5849923495139
 20
2241.221287489589
 30
0.0
 40
8.1731458133218027
 50
148.00088793103129
 51
211.99911206896871
  0
ARC
  5
19FDD
  8
0
 10
2172.2274190344142
 20
2228.2312874895888
 30
0.0
 40
30.815302584222341
 50
163.68029689768611
 51
196.31970310231381
  0
LINE
  5
19FDE
  8
0
 10
2142.6537044831912
 20
2236.8902874895889
 30
0.0
 11
2153.0537044831922
 21
2236.8902874895889
 31
0.0
  0
LINE
  5
19FDF
  8
0
 10
2142.6537044831912
 20
2245.5522874895892
 30
0.0
 11
2153.0537044831922
 21
2245.5522874895892
 31
0.0
  0
LINE
  5
19FE0
  8
0
 10
2142.6537044831912
 20
2219.5722874895891
 30
0.0
 11
2153.0537044831922
 21
2219.5722874895891
 31
0.0
  0
ARC
  5
19FE1
  8
0
 10
2235.4962130490262
 20
2355.5069497509689
 30
0.0
 40
52.024026746452087
 50
189.4198577580122
 51
249.80151872204141
  0
POLYLINE
  5
19FE2
  8
0
 66
     1
 10
0.0
 20
0.0
 30
0.0
  0
VERTEX
  5
1A412
  8
0
 10
2103.6637044831909
 20
2309.462287489589
 30
0.0
 42
-0.1110900395357144
  0
VERTEX
  5
1A413
  8
0
 10
2107.3134598387878
 20
2325.686576144049
 30
0.0
 42
-0.1028481776418138
  0
VERTEX
  5
1A414
  8
0
 10
2118.1297005603878
 20
2339.9880872334129
 30
0.0
 42
-0.0929995041670857
  0
VERTEX
  5
1A415
  8
0
 10
2133.8599929978582
 20
2349.264713441356
 30
0.0
 42
-0.0870610434407608
  0
VERTEX
  5
1A416
  8
0
 10
2153.0537044831922
 20
2352.6322874895891
 30
0.0
 42
-0.0870610434407572
  0
SEQEND
  5
1A417
  8
0
  0
LINE
  5
19FE3
  8
0
 10
2141.0537044831922
 20
2294.9022874895891
 30
0.0
 11
2141.0537044831922
 21
2324.022287489589
 31
0.0
  0
ARC
  5
19FE4
  8
0
 10
2149.5831639864809
 20
2322.4522874895888
 30
0.0
 40
8.1710653532897517
 50
148.0000408462127
 51
211.9999591537873
  0
ARC
  5
19FE5
  8
0
 10
2172.2306194740172
 20
2309.462287489589
 30
0.0
 40
30.818655070825589
 50
163.6801846146632
 51
196.3198153853368
  0
LINE
  5
19FE6
  8
0
 10
2142.6537044831912
 20
2292.1422874895889
 30
0.0
 11
2141.0537044831922
 21
2294.9022874895891
 31
0.0
  0
ARC
  5
19FE7
  8
0
 10
2149.5830500042321
 20
2296.4722874895888
 30
0.0
 40
8.1709686910404002
 50
147.99961730515051
 51
212.00038269484941
  0
POLYLINE
  5
19FE8
  8
0
 66
     1
 10
0.0
 20
0.0
 30
0.0
  0
VERTEX
  5
1A418
  8
0
 10
2153.0537044831908
 20
2275.2222874895888
 30
0.0
 42
-0.070022296758922
  0
VERTEX
  5
1A419
  8
0
 10
2133.458132521554
 20
2277.9800631101421
 30
0.0
 42
-0.0818203175941617
  0
VERTEX
  5
1A41A
  8
0
 10
2118.1297005603878
 20
2285.2509513017621
 30
0.0
 42
-0.1069143253087146
  0
VERTEX
  5
1A41B
  8
0
 10
2107.0837893081002
 20
2297.0701797433871
 30
0.0
 42
-0.1354622733701762
  0
VERTEX
  5
1A41C
  8
0
 10
2103.6637044831909
 20
2309.462287489589
 30
0.0
 42
-0.1354622733701786
  0
SEQEND
  5
1A41D
  8
0
  0
LINE
  5
19FE9
  8
0
 10
2153.0537044831922
 20
2292.1422874895889
 30
0.0
 11
2142.6537044831912
 21
2292.1422874895889
 31
0.0
  0
LINE
  5
19FEA
  8
0
 10
2142.6537044831912
 20
2300.8022874895892
 30
0.0
 11
2153.0537044831922
 21
2300.8022874895892
 31
0.0
  0
LINE
  5
19FEB
  8
0
 10
2142.6537044831912
 20
2318.1222874895889
 30
0.0
 11
2153.0537044831922
 21
2318.1222874895889
 31
0.0
  0
LINE
  5
19FEC
  8
0
 10
2141.0537044831922
 20
2324.022287489589
 30
0.0
 11
2142.6537044831912
 21
2326.7822874895892
 31
0.0
  0
LINE
  5
19FED
  8
0
 10
2142.6537044831912
 20
2326.7822874895892
 30
0.0
 11
2153.0537044831922
 21
2326.7822874895892
 31
0.0
  0
LINE
  5
19FEE
  8
0
 10
2141.0537044831922
 20
2475.9022874895891
 30
0.0
 11
2141.0537044831922
 21
2505.022287489589
 31
0.0
  0
ARC
  5
19FEF
  8
0
 10
2149.5833064684261
 20
2477.4722874895888
 30
0.0
 40
8.1711861852340117
 50
148.00057027380441
 51
211.9994297261955
  0
POLYLINE
  5
19FF0
  8
0
 66
     1
 10
0.0
 20
0.0
 30
0.0
  0
VERTEX
  5
1A41E
  8
0
 10
2153.0537044831922
 20
2450.462287489589
 30
0.0
 42
-0.0810936847216324
  0
VERTEX
  5
1A41F
  8
0
 10
2133.7139065096162
 20
2453.6197223263148
 30
0.0
 42
-0.0895054263486445
  0
VERTEX
  5
1A420
  8
0
 10
2118.1297005603878
 20
2462.1780162421269
 30
0.0
 42
-0.104703589997003
  0
VERTEX
  5
1A421
  8
0
 10
2107.2435569133718
 20
2475.6011189564429
 30
0.0
 42
-0.118744877453476
  0
VERTEX
  5
1A422
  8
0
 10
2103.6637044831909
 20
2490.462287489589
 30
0.0
 42
-0.1187448774534761
  0
SEQEND
  5
1A423
  8
0
  0
POLYLINE
  5
19FF1
  8
0
 66
     1
 10
0.0
 20
0.0
 30
0.0
  0
VERTEX
  5
1A424
  8
0
 10
2103.9237044831921
 20
2397.0622874895889
 30
0.0
 42
-0.1111876059378975
  0
VERTEX
  5
1A425
  8
0
 10
2107.553374599001
 20
2413.1827787167431
 30
0.0
 42
-0.1028754415618672
  0
VERTEX
  5
1A426
  8
0
 10
2118.313548323496
 20
2427.3971684024918
 30
0.0
 42
-0.0929554327226999
  0
VERTEX
  5
1A427
  8
0
 10
2133.9590446447191
 20
2436.6152279961352
 30
0.0
 42
-0.0869807794646978
  0
VERTEX
  5
1A428
  8
0
 10
2153.0537044831922
 20
2439.962287489589
 30
0.0
 42
-0.0869807794646999
  0
SEQEND
  5
1A429
  8
0
  0
ARC
  5
19FF2
  8
0
 10
2172.213542733261
 20
2399.9572874895889
 30
0.0
 40
30.800861390068931
 50
163.68018461466301
 51
196.3198153853366
  0
LINE
  5
19FF3
  8
0
 10
2142.6537044831912
 20
2382.6422874895889
 30
0.0
 11
2141.0537044831922
 21
2385.4022874895891
 31
0.0
  0
ARC
  5
19FF4
  8
0
 10
2149.5911086145179
 20
2386.9672874895891
 30
0.0
 40
8.1804523763262136
 50
147.99982907556949
 51
212.00017092443181
  0
LINE
  5
19FF5
  8
0
 10
2141.0537044831922
 20
2414.5122874895892
 30
0.0
 11
2142.6537044831912
 21
2417.2822874895892
 31
0.0
  0
ARC
  5
19FF6
  8
0
 10
2149.5913083182932
 20
2412.9472874895891
 30
0.0
 40
8.1806217351014201
 50
148.0005702738051
 51
211.9994297261963
  0
LINE
  5
19FF7
  8
0
 10
2141.0537044831922
 20
2385.4022874895891
 30
0.0
 11
2141.0537044831922
 21
2414.5122874895892
 31
0.0
  0
LINE
  5
19FF8
  8
0
 10
2142.6537044831912
 20
2417.2822874895892
 30
0.0
 11
2153.0537044831922
 21
2417.2822874895892
 31
0.0
  0
LINE
  5
19FF9
  8
0
 10
2153.0537044831922
 20
2382.6422874895889
 30
0.0
 11
2142.6537044831912
 21
2382.6422874895889
 31
0.0
  0
LINE
  5
19FFA
  8
0
 10
2142.6537044831912
 20
2391.3022874895892
 30
0.0
 11
2153.0537044831922
 21
2391.3022874895892
 31
0.0
  0
LINE
  5
19FFB
  8
0
 10
2142.6537044831912
 20
2408.6122874895891
 30
0.0
 11
2153.0537044831922
 21
2408.6122874895891
 31
0.0
  0
LINE
  5
19FFC
  8
0
 10
2142.6537044831912
 20
2473.1422874895889
 30
0.0
 11
2141.0537044831922
 21
2475.9022874895891
 31
0.0
  0
LINE
  5
19FFD
  8
0
 10
2153.0537044831922
 20
2473.1422874895889
 30
0.0
 11
2142.6537044831912
 21
2473.1422874895889
 31
0.0
  0
ARC
  5
19FFF
  8
0
 10
2172.213542733261
 20
2490.4572874895889
 30
0.0
 40
30.800861390068931
 50
163.68018461466301
 51
196.3198153853366
  0
LINE
  5
1A000
  8
0
 10
2141.0537044831922
 20
2505.022287489589
 30
0.0
 11
2142.6537044831912
 21
2507.7822874895892
 31
0.0
  0
ARC
  5
1A001
  8
0
 10
2149.5913083182932
 20
2503.4472874895891
 30
0.0
 40
8.1806217351014201
 50
148.0005702738051
 51
211.9994297261963
  0
POLYLINE
  5
1A002
  8
0
 66
     1
 10
0.0
 20
0.0
 30
0.0
  0
VERTEX
  5
1A42A
  8
0
 10
2103.6637044831909
 20
2490.462287489589
 30
0.0
 42
-0.1228007391858371
  0
VERTEX
  5
1A42B
  8
0
 10
2107.2056468560631
 20
2504.666313575703
 30
0.0
 42
-0.1054625936846602
  0
VERTEX
  5
1A42C
  8
0
 10
2118.1297005603878
 20
2517.6646853618358
 30
0.0
 42
-0.0876370767901639
  0
VERTEX
  5
1A42D
  8
0
 10
2133.644574773251
 20
2525.8787783896619
 30
0.0
 42
-0.0781808700096935
  0
VERTEX
  5
1A42E
  8
0
 10
2153.0537044831922
 20
2528.9322874895888
 30
0.0
 42
-0.0781808700096899
  0
SEQEND
  5
1A42F
  8
0
  0
LINE
  5
1A003
  8
0
 10
2142.6537044831912
 20
2481.8022874895892
 30
0.0
 11
2153.0537044831922
 21
2481.8022874895892
 31
0.0
  0
LINE
  5
1A004
  8
0
 10
2142.6537044831912
 20
2507.7822874895892
 30
0.0
 11
2153.0537044831922
 21
2507.7822874895892
 31
0.0
  0
LINE
  5
1A005
  8
0
 10
2142.6537044831912
 20
2499.11228748959
 30
0.0
 11
2153.0537044831922
 21
2499.11228748959
 31
0.0
  0
LINE
  5
1A006
  8
0
 10
2145.9037044831912
 20
2562.4722874895888
 30
0.0
 11
2138.543704483192
 21
2562.9322874895888
 31
0.0
  0
ARC
  5
1A007
  8
0
 10
2149.5833634624892
 20
2563.0422874895889
 30
0.0
 40
8.1712345192972577
 50
148.00078204523351
 51
182.03104959140501
  0
POLYLINE
  5
1A008
  8
0
 66
     1
 10
0.0
 20
0.0
 30
0.0
  0
VERTEX
  5
1A430
  8
0
 10
2153.0537044831922
 20
2562.3222874895891
 30
0.0
 42
-0.0285857464481538
  0
VERTEX
  5
1A431
  8
0
 10
2132.753695553336
 20
2563.4838184450141
 30
0.0
 42
-0.0390401790878681
  0
VERTEX
  5
1A432
  8
0
 10
2118.1297005603878
 20
2566.331995655145
 30
0.0
 42
-0.0800061155234741
  0
VERTEX
  5
1A433
  8
0
 10
2105.8174107615928
 20
2571.9796457132111
 30
0.0
 42
-0.2503039277320076
  0
VERTEX
  5
1A434
  8
0
 10
2103.6637044831909
 20
2576.0122874895878
 30
0.0
 42
-0.2503039277320068
  0
SEQEND
  5
1A435
  8
0
  0
LINE
  5
1A009
  8
0
 10
2153.0537044831922
 20
2562.3222874895891
 30
0.0
 11
2145.9037044831912
 21
2562.4722874895888
 31
0.0
  0
LINE
  5
1A00A
  8
0
 10
2153.0537044831922
 20
2567.3722874895889
 30
0.0
 11
2142.6537044831912
 21
2567.3722874895889
 31
0.0
  0
LINE
  5
1A00B
  8
0
 10
2101.3337044831919
 20
2617.3622874895891
 30
0.0
 11
2097.3937044831919
 21
2617.3622874895891
 31
0.0
  0
LINE
  5
1A00C
  8
0
 10
2097.3937044831919
 20
2624.7622874895892
 30
0.0
 11
2101.3337044831919
 21
2624.7622874895892
 31
0.0
  0
LINE
  5
1A00D
  8
0
 10
2089.0537044831922
 20
2616.0622874895889
 30
0.0
 11
2104.0537044831922
 21
2616.0622874895889
 31
0.0
  0
LINE
  5
1A00E
  8
0
 10
2089.0537044831922
 20
2626.0622874895889
 30
0.0
 11
2107.5537044831922
 21
2626.0622874895889
 31
0.0
  0
LINE
  5
1A00F
  8
0
 10
2070.5537044831922
 20
2615.0622874895889
 30
0.0
 11
2107.5537044831922
 21
2615.0622874895889
 31
0.0
  0
LINE
  5
1A010
  8
0
 10
2107.5537044831922
 20
2616.0622874895889
 30
0.0
 11
2070.5537044831922
 21
2616.0622874895889
 31
0.0
  0
LINE
  5
1A011
  8
0
 10
2068.0537044831922
 20
2615.0622874895889
 30
0.0
 11
2179.0537044831922
 21
2615.0622874895889
 31
0.0
  0
LINE
  5
1A012
  8
0
 10
2042.053704483191
 20
2612.0622874895889
 30
0.0
 11
2179.0537044831922
 21
2612.0622874895889
 31
0.0
  0
ARC
  5
1A013
  8
0
 10
2089.0537044831908
 20
2653.4954980159041
 30
0.0
 40
37.08321052631436
 50
257.00302439966617
 51
282.99697560033383
  0
ARC
  5
1A014
  8
0
 10
2089.0537044831908
 20
2588.6290769632751
 30
0.0
 40
37.08321052631436
 50
77.003024399666259
 51
102.9969756003337
  0
LINE
  5
1A015
  8
0
 10
2080.713704483192
 20
2617.3622874895891
 30
0.0
 11
2080.713704483192
 21
2624.7622874895892
 31
0.0
  0
LINE
  5
1A016
  8
0
 10
2097.3937044831919
 20
2617.3622874895891
 30
0.0
 11
2097.3937044831919
 21
2624.7622874895892
 31
0.0
  0
LINE
  5
1A017
  8
0
 10
2076.7637044831922
 20
2624.7622874895892
 30
0.0
 11
2076.7637044831922
 21
2617.3622874895891
 31
0.0
  0
LINE
  5
1A018
  8
0
 10
2068.3037044831922
 20
2624.7622874895892
 30
0.0
 11
2068.3037044831922
 21
2617.3622874895891
 31
0.0
  0
LINE
  5
1A019
  8
0
 10
2070.5537044831922
 20
2616.0622874895889
 30
0.0
 11
2070.5537044831922
 21
2615.0622874895889
 31
0.0
  0
LINE
  5
1A01A
  8
0
 10
2068.3037044831922
 20
2617.3622874895891
 30
0.0
 11
2070.5537044831922
 21
2616.0622874895889
 31
0.0
  0
LINE
  5
1A01B
  8
0
 10
2070.5537044831922
 20
2616.0622874895889
 30
0.0
 11
2074.0537044831922
 21
2616.0622874895889
 31
0.0
  0
ARC
  5
1A01C
  8
0
 10
2072.538704482949
 20
2626.2470493943511
 30
0.0
 40
9.8424701728936501
 50
244.5147855477542
 51
295.485214452246
  0
LINE
  5
1A01D
  8
0
 10
2070.5537044831922
 20
2626.0622874895889
 30
0.0
 11
2068.3037044831922
 21
2624.7622874895892
 31
0.0
  0
ARC
  5
1A01E
  8
0
 10
2072.538704482949
 20
2615.8775255848268
 30
0.0
 40
9.8424701728936501
 50
64.514785547754087
 51
115.4852144522458
  0
LINE
  5
1A01F
  8
0
 10
2089.0537044831922
 20
2616.0622874895889
 30
0.0
 11
2074.0537044831922
 21
2616.0622874895889
 31
0.0
  0
LINE
  5
1A020
  8
0
 10
2089.0537044831922
 20
2626.0622874895889
 30
0.0
 11
2070.5537044831922
 21
2626.0622874895889
 31
0.0
  0
LINE
  5
1A021
  8
0
 10
2076.7637044831922
 20
2617.3622874895891
 30
0.0
 11
2080.713704483192
 21
2617.3622874895891
 31
0.0
  0
LINE
  5
1A022
  8
0
 10
2080.713704483192
 20
2624.7622874895892
 30
0.0
 11
2076.7637044831922
 21
2624.7622874895892
 31
0.0
  0
LINE
  5
1A023
  8
0
 10
2180.5537044831922
 20
2612.058287489589
 30
0.0
 11
2270.0537044831922
 21
2612.058287489589
 31
0.0
  0
LINE
  5
1A024
  8
0
 10
2168.0537044831922
 20
2615.0622874895889
 30
0.0
 11
2168.0537044831922
 21
2652.5622874895889
 31
0.0
  0
LINE
  5
1A025
  8
0
 10
2160.0537044831922
 20
2652.5622874895889
 30
0.0
 11
2160.0537044831922
 21
2615.0622874895889
 31
0.0
  0
ARC
  5
1A026
  8
0
 10
2149.5833634624892
 20
2589.022287489589
 30
0.0
 40
8.1712345192972577
 50
148.00078204523211
 51
211.99921795476649
  0
LINE
  5
1A027
  8
0
 10
2142.6537044831912
 20
2593.3522874895889
 30
0.0
 11
2141.0537044831922
 21
2590.5922874895891
 31
0.0
  0
LINE
  5
1A028
  8
0
 10
2109.8037044831922
 20
2624.7622874895892
 30
0.0
 11
2109.8037044831922
 21
2617.3622874895891
 31
0.0
  0
LINE
  5
1A029
  8
0
 10
2109.8037044831922
 20
2617.3622874895891
 30
0.0
 11
2107.5537044831922
 21
2616.0622874895889
 31
0.0
  0
LINE
  5
1A02A
  8
0
 10
2107.5537044831922
 20
2615.0622874895889
 30
0.0
 11
2107.5537044831922
 21
2616.0622874895889
 31
0.0
  0
LINE
  5
1A02B
  8
0
 10
2107.5537044831922
 20
2626.0622874895889
 30
0.0
 11
2109.8037044831922
 21
2624.7622874895892
 31
0.0
  0
LINE
  5
1A02C
  8
0
 10
2101.3337044831919
 20
2624.7622874895892
 30
0.0
 11
2101.3337044831919
 21
2617.3622874895891
 31
0.0
  0
ARC
  5
1A02D
  8
0
 10
2105.5687044831911
 20
2626.2470493943511
 30
0.0
 40
9.8424701728936501
 50
244.51478554775409
 51
295.48521445224583
  0
LINE
  5
1A02E
  8
0
 10
2107.5537044831922
 20
2616.0622874895889
 30
0.0
 11
2104.0537044831922
 21
2616.0622874895889
 31
0.0
  0
ARC
  5
1A02F
  8
0
 10
2105.5687044831911
 20
2615.8775255848268
 30
0.0
 40
9.8424701728936501
 50
64.514785547754158
 51
115.4852144522459
  0
LINE
  5
1A030
  8
0
 10
2172.8237044831908
 20
2622.0622874895889
 30
0.0
 11
2174.0537044831922
 21
2615.0622874895889
 31
0.0
  0
LINE
  5
1A031
  8
0
 10
2172.8237044831908
 20
2622.0622874895889
 30
0.0
 11
2168.0537044831922
 21
2622.0622874895889
 31
0.0
  0
LINE
  5
1A032
  8
0
 10
2168.0537044831922
 20
2622.8722874895889
 30
0.0
 11
2172.8237044831908
 21
2622.0622874895889
 31
0.0
  0
LINE
  5
1A033
  8
0
 10
2154.0537044831922
 20
2615.0622874895889
 30
0.0
 11
2155.293704483192
 21
2622.0622874895889
 31
0.0
  0
LINE
  5
1A034
  8
0
 10
2160.0537044831922
 20
2622.0622874895889
 30
0.0
 11
2155.293704483192
 21
2622.0622874895889
 31
0.0
  0
LINE
  5
1A035
  8
0
 10
2155.293704483192
 20
2622.0622874895889
 30
0.0
 11
2160.0537044831922
 21
2622.8722874895889
 31
0.0
  0
LINE
  5
1A036
  8
0
 10
2153.0537044831922
 20
2584.692287489589
 30
0.0
 11
2153.0537044831922
 21
2584.692287489589
 31
0.0
  0
LINE
  5
1A037
  8
0
 10
2153.0537044831922
 20
2584.692287489589
 30
0.0
 11
2142.6537044831912
 21
2584.692287489589
 31
0.0
  0
LINE
  5
1A038
  8
0
 10
2153.0537044831922
 20
2584.692287489589
 30
0.0
 11
2142.6537044831912
 21
2584.692287489589
 31
0.0
  0
LINE
  5
1A039
  8
0
 10
2153.0537044831922
 20
2593.3522874895889
 30
0.0
 11
2142.6537044831912
 21
2593.3522874895889
 31
0.0
  0
LINE
  5
1A03A
  8
0
 10
2153.0537044831922
 20
2593.3522874895889
 30
0.0
 11
2142.6537044831912
 21
2593.3522874895889
 31
0.0
  0
ARC
  5
1A03B
  8
0
 10
2164.0537044831922
 20
2652.5448173390009
 30
0.0
 40
4.0000381505882627
 50
0.2502398829081767
 51
179.7497601170918
  0
ARC
  5
1A03C
  8
0
 10
2365.0537044831908
 20
2627.058287489589
 30
0.0
 40
15.0
 50
180.0
 51
270.0
  0
CIRCLE
  5
1A03D
  8
0
 10
2317.5537044831908
 20
2629.558287489589
 30
0.0
 40
17.5
  0
ARC
  5
1A03E
  8
0
 10
2317.5537044831908
 20
2629.558287489589
 30
0.0
 40
32.5
 50
359.99999999999937
 51
180.0
  0
LINE
  5
1A03F
  8
0
 10
2285.0537044831922
 20
2629.558287489589
 30
0.0
 11
2285.0537044831922
 21
2627.058287489589
 31
0.0
  0
ARC
  5
1A040
  8
0
 10
2270.0537044831922
 20
2627.058287489589
 30
0.0
 40
15.0
 50
270.0
 51
0.0
  0
LINE
  5
1A041
  8
0
 10
2350.0537044831908
 20
2629.558287489589
 30
0.0
 11
2350.0537044831908
 21
2627.058287489589
 31
0.0
  0
ARC
  5
1A042
  8
0
 10
2367.5537044831908
 20
2274.058287489589
 30
0.0
 40
212.0
 50
306.80236170482539
 51
0.0
  0
LINE
  5
1A043
  8
0
 10
2494.5537044831922
 20
2212.058287489589
 30
0.0
 11
2494.5537044831922
 21
2052.058287489589
 31
0.0
  0
LINE
  5
1A044
  8
0
 10
2474.5537044831922
 20
2212.058287489589
 30
0.0
 11
2474.5537044831922
 21
2052.058287489589
 31
0.0
  0
ARC
  5
1A045
  8
0
 10
2418.6537044831921
 20
1688.15386820447
 30
0.0
 40
102.0
 50
31.770298621189909
 51
67.789604288942201
  0
ARC
  5
1A046
  8
0
 10
2452.2088513638851
 20
1710.5956266144949
 30
0.0
 40
36.807301081914801
 50
3.5954643979455132
 51
72.113273324379094
  0
ARC
  5
1A047
  8
0
 10
2448.5537044831922
 20
1673.15386820447
 30
0.0
 40
74.0
 50
21.815661699382499
 51
78.350562089180229
  0
LINE
  5
1A048
  8
0
 10
2439.5537044831922
 20
1821.15386820447
 30
0.0
 11
2439.5537044831922
 21
1705.65386820447
 31
0.0
  0
ARC
  5
1A049
  8
0
 10
2420.3767894923672
 20
1545.82386820447
 30
0.0
 40
30.818655070825091
 50
343.6801846146634
 51
16.319815385336661
  0
LINE
  5
1A04A
  8
0
 10
2451.5537044831922
 20
1560.38386820447
 30
0.0
 11
2451.5537044831922
 21
1531.2638682044701
 31
0.0
  0
LINE
  5
1A04B
  8
0
 10
2439.5537044831922
 20
1568.15386820447
 30
0.0
 11
2439.5537044831922
 21
1525.15386820447
 31
0.0
  0
LINE
  5
1A04C
  8
0
 10
2439.5537044831922
 20
1525.15386820447
 30
0.0
 11
2439.5537044831922
 21
1640.65386820447
 31
0.0
  0
ARC
  5
1A04D
  8
0
 10
2443.024301971393
 20
1532.83386820447
 30
0.0
 40
8.1710170217982867
 50
327.9998290755679
 51
32.000170924429383
  0
LINE
  5
1A04E
  8
0
 10
2451.5537044831922
 20
1531.2638682044701
 30
0.0
 11
2449.9537044831918
 21
1528.5038682044701
 31
0.0
  0
LINE
  5
1A04F
  8
0
 10
2439.5537044831922
 20
1536.37386820447
 30
0.0
 11
2439.5537044831922
 21
1525.15386820447
 31
0.0
  0
LINE
  5
1A050
  8
0
 10
2449.9537044831918
 20
1528.5038682044701
 30
0.0
 11
2439.5537044831922
 21
1528.5038682044701
 31
0.0
  0
LINE
  5
1A051
  8
0
 10
2449.9537044831918
 20
1537.16386820447
 30
0.0
 11
2439.5537044831922
 21
1537.16386820447
 31
0.0
  0
ARC
  5
1A052
  8
0
 10
2437.5537044831922
 20
1525.15386820447
 30
0.0
 40
2.0
 50
269.99999999999977
 51
0.0
  0
LINE
  5
1A053
  8
0
 10
2579.5537044831922
 20
1621.65386820447
 30
0.0
 11
2579.5537044831922
 21
1673.15386820447
 31
0.0
  0
ARC
  5
1A054
  8
0
 10
2524.5537044831922
 20
1643.65386820447
 30
0.0
 40
2.0
 50
90.0
 51
180.0
  0
ARC
  5
1A055
  8
0
 10
2444.5537044831922
 20
1640.65386820447
 30
0.0
 40
5.0
 50
90.0
 51
180.0
  0
POLYLINE
  5
1A056
  8
0
 66
     1
 10
0.0
 20
0.0
 30
0.0
  0
VERTEX
  5
1A436
  8
0
 10
2488.9437044831921
 20
1633.40386820447
 30
0.0
 42
0.2595968202081764
  0
VERTEX
  5
1A437
  8
0
 10
2486.9016981297468
 20
1637.0718532442149
 30
0.0
 42
0.0760313483859624
  0
VERTEX
  5
1A438
  8
0
 10
2474.4777084059951
 20
1642.369564113096
 30
0.0
 42
0.0363546497566322
  0
VERTEX
  5
1A439
  8
0
 10
2459.8756175684689
 20
1645.0058288621981
 30
0.0
 42
0.0097698732499574
  0
VERTEX
  5
1A43A
  8
0
 10
2452.393812545165
 20
1645.65386820447
 30
0.0
 42
0.026490910793451
  0
SEQEND
  5
1A43B
  8
0
  0
ARC
  5
1A057
  8
0
 10
2520.5537044831922
 20
1613.65386820447
 30
0.0
 40
2.0
 50
270.0
 51
0.0
  0
ARC
  5
1A058
  8
0
 10
2420.3767894923658
 20
1584.15386820447
 30
0.0
 40
30.818655070825649
 50
343.68018461466357
 51
16.319815385337229
  0
LINE
  5
1A059
  8
0
 10
2451.5537044831922
 20
1569.59386820447
 30
0.0
 11
2451.5537044831922
 21
1595.3038682044701
 31
0.0
  0
ARC
  5
1A05A
  8
0
 10
2418.6537044831921
 20
1658.15386820447
 30
0.0
 40
102.0
 50
292.2103957110578
 51
328.22970137881009
  0
LINE
  5
1A05B
  8
0
 10
2449.9537044831918
 20
1575.4938682044699
 30
0.0
 11
2439.8488404734589
 21
1575.4938682044699
 31
0.0
  0
LINE
  5
1A05C
  8
0
 10
2449.9537044831918
 20
1566.83386820447
 30
0.0
 11
2451.5537044831922
 21
1569.59386820447
 31
0.0
  0
LINE
  5
1A05D
  8
0
 10
2451.5637044831919
 20
1560.38386820447
 30
0.0
 11
2451.5537044831922
 21
1560.38386820447
 31
0.0
  0
LINE
  5
1A05E
  8
0
 10
2449.9537044831918
 20
1554.4838682044699
 30
0.0
 11
2445.6337044831921
 21
1554.4838682044699
 31
0.0
  0
ARC
  5
1A05F
  8
0
 10
2443.027976752835
 20
1558.810878473407
 30
0.0
 40
8.1663163337286644
 50
328.0039551396772
 51
8.5420793091430056
  0
LINE
  5
1A060
  8
0
 10
2439.5537044831922
 20
1566.83386820447
 30
0.0
 11
2449.9537044831918
 21
1566.83386820447
 31
0.0
  0
ARC
  5
1A061
  8
0
 10
2443.024216483881
 20
1571.16386820447
 30
0.0
 40
8.1710895193112627
 50
328.00014673161871
 51
31.999853268381251
  0
LINE
  5
1A062
  8
0
 10
2439.5537044831922
 20
1571.3038682044701
 30
0.0
 11
2439.5537044831922
 21
1568.15386820447
 31
0.0
  0
LINE
  5
1A063
  8
0
 10
2439.5537044831922
 20
1571.3038682044701
 30
0.0
 11
2439.5537044831922
 21
1568.15386820447
 31
0.0
  0
ARC
  5
1A064
  8
0
 10
2437.5537044831922
 20
1568.15386820447
 30
0.0
 40
2.0
 50
270.0
 51
0.0
  0
ARC
  5
1A065
  8
0
 10
2448.5537044831922
 20
1673.15386820447
 30
0.0
 40
74.0
 50
281.64943791081981
 51
303.79004815631311
  0
ARC
  5
1A066
  8
0
 10
2452.2088513638851
 20
1635.712109794445
 30
0.0
 40
36.807301081914801
 50
287.88672667562088
 51
356.40453560205452
  0
ARC
  5
1A067
  8
0
 10
2443.0243019713939
 20
1632.4338682044699
 30
0.0
 40
8.1710170217978533
 50
327.99982907556978
 51
32.000170924430222
  0
LINE
  5
1A068
  8
0
 10
2451.5537044831922
 20
1634.0038682044701
 30
0.0
 11
2449.9537044831918
 21
1636.7638682044701
 31
0.0
  0
LINE
  5
1A069
  8
0
 10
2449.9537044831918
 20
1628.10386820447
 30
0.0
 11
2439.5537044831922
 21
1628.10386820447
 31
0.0
  0
LINE
  5
1A06A
  8
0
 10
2449.9537044831918
 20
1636.7638682044701
 30
0.0
 11
2439.5537044831922
 21
1636.7638682044701
 31
0.0
  0
LINE
  5
1A06B
  8
0
 10
2449.9537044831918
 20
1602.12386820447
 30
0.0
 11
2451.5537044831922
 21
1604.88386820447
 31
0.0
  0
ARC
  5
1A06C
  8
0
 10
2443.0243019713939
 20
1606.4538682044699
 30
0.0
 40
8.1710170217978533
 50
327.99982907556978
 51
32.000170924430222
  0
LINE
  5
1A06D
  8
0
 10
2451.5537044831922
 20
1595.3038682044701
 30
0.0
 11
2450.3237044831922
 21
1593.7838682044701
 31
0.0
  0
LINE
  5
1A06E
  8
0
 10
2449.9537044831918
 20
1592.8138682044701
 30
0.0
 11
2448.6337044831921
 21
1592.8138682044701
 31
0.0
  0
LINE
  5
1A06F
  8
0
 10
2449.9537044831918
 20
1592.8138682044701
 30
0.0
 11
2449.9537044831918
 21
1592.8138682044701
 31
0.0
  0
LINE
  5
1A070
  8
0
 10
2450.3237044831922
 20
1593.7838682044701
 30
0.0
 11
2449.9537044831918
 21
1592.8138682044701
 31
0.0
  0
LINE
  5
1A071
  8
0
 10
2439.5537044831922
 20
1602.12386820447
 30
0.0
 11
2449.9537044831918
 21
1602.12386820447
 31
0.0
  0
LINE
  5
1A072
  8
0
 10
2449.9537044831918
 20
1610.7838682044701
 30
0.0
 11
2439.5537044831922
 21
1610.7838682044701
 31
0.0
  0
LINE
  5
1A073
  8
0
 10
2451.5537044831922
 20
1604.88386820447
 30
0.0
 11
2451.5537044831922
 21
1634.0038682044701
 31
0.0
  0
ARC
  5
1A074
  8
0
 10
2420.3767894923658
 20
1619.4438682044699
 30
0.0
 40
30.818655070825649
 50
343.68018461466357
 51
16.319815385337229
  0
ARC
  5
1A075
  8
0
 10
2530.8755829205088
 20
1588.65386820447
 30
0.0
 40
30.0
 50
129.94450518981489
 51
148.22970137881001
  0
LINE
  5
1A076
  8
0
 10
2520.5537044831922
 20
1611.65386820447
 30
0.0
 11
2489.708898566078
 21
1611.65386820447
 31
0.0
  0
ARC
  5
1A077
  8
0
 10
2448.5537044831922
 20
1673.15386820447
 30
0.0
 40
74.0
 50
308.77342714135523
 51
334.53940583978221
  0
LINE
  5
1A078
  8
0
 10
2576.5537044831922
 20
1618.65386820447
 30
0.0
 11
2563.5537044831922
 21
1618.65386820447
 31
0.0
  0
LINE
  5
1A079
  8
0
 10
2576.5537044831922
 20
1618.65386820447
 30
0.0
 11
2530.8737044831919
 21
1618.65386820447
 31
0.0
  0
LINE
  5
1A07A
  8
0
 10
2537.5537044831922
 20
1639.15386820447
 30
0.0
 11
2527.5537044831922
 21
1639.15386820447
 31
0.0
  0
LINE
  5
1A07B
  8
0
 10
2527.5537044831922
 20
1619.35386820447
 30
0.0
 11
2537.5537044831922
 21
1619.35386820447
 31
0.0
  0
LINE
  5
1A07C
  8
0
 10
2537.5537044831922
 20
1629.2538682044701
 30
0.0
 11
2527.5537044831922
 21
1629.2538682044701
 31
0.0
  0
LINE
  5
1A07D
  8
0
 10
2527.5537044831922
 20
1639.15386820447
 30
0.0
 11
2527.5537044831922
 21
1619.35386820447
 31
0.0
  0
LINE
  5
1A07E
  8
0
 10
2527.5537044831922
 20
1639.39386820447
 30
0.0
 11
2527.5537044831922
 21
1619.12386820447
 31
0.0
  0
LINE
  5
1A07F
  8
0
 10
2527.5537044831922
 20
1619.12386820447
 30
0.0
 11
2527.0537044831922
 21
1618.63386820447
 31
0.0
  0
LINE
  5
1A080
  8
0
 10
2527.0537044831922
 20
1639.87386820447
 30
0.0
 11
2527.5537044831922
 21
1639.39386820447
 31
0.0
  0
LINE
  5
1A081
  8
0
 10
2537.5537044831922
 20
1619.35386820447
 30
0.0
 11
2537.5537044831922
 21
1639.15386820447
 31
0.0
  0
LINE
  5
1A082
  8
0
 10
2527.0537044831922
 20
1618.63386820447
 30
0.0
 11
2522.5537044831922
 21
1618.7838682044701
 31
0.0
  0
LINE
  5
1A083
  8
0
 10
2522.5537044831922
 20
1639.7338682044699
 30
0.0
 11
2527.0537044831922
 21
1639.87386820447
 31
0.0
  0
LINE
  5
1A084
  8
0
 10
2522.5537044831922
 20
1643.65386820447
 30
0.0
 11
2522.5537044831922
 21
1613.65386820447
 31
0.0
  0
ARC
  5
1A085
  8
0
 10
2530.8755829205088
 20
1588.65386820447
 30
0.0
 40
30.0
 50
90.0
 51
106.1048480390226
  0
ARC
  5
1A086
  8
0
 10
2576.5537044831922
 20
1621.65386820447
 30
0.0
 40
3.0
 50
270.0
 51
0.0
  0
LINE
  5
1A087
  8
0
 10
2498.6037044831919
 20
1727.65386820447
 30
0.0
 11
2530.8737044831919
 21
1727.65386820447
 31
0.0
  0
ARC
  5
1A088
  8
0
 10
2530.8755829205088
 20
1757.65386820447
 30
0.0
 40
30.0
 50
211.77029862118999
 51
270.0
  0
LINE
  5
1A089
  8
0
 10
2520.4937044831918
 20
1685.12386820447
 30
0.0
 11
2522.043704483192
 21
1682.5538682044701
 31
0.0
  0
LINE
  5
1A08A
  8
0
 10
2522.043704483192
 20
1663.7638682044701
 30
0.0
 11
2520.9337044831918
 21
1661.83386820447
 31
0.0
  0
ARC
  5
1A08B
  8
0
 10
2503.543704483192
 20
1673.15386820447
 30
0.0
 40
21.0
 50
270.0
 51
90.0
  0
CIRCLE
  5
1A08C
  8
0
 10
2503.543704483192
 20
1673.15386820447
 30
0.0
 40
18.5
  0
LINE
  5
1A08D
  8
0
 10
2547.543704483192
 20
1700.65386820447
 30
0.0
 11
2444.5537044831922
 21
1700.65386820447
 31
0.0
  0
LINE
  5
1A08E
  8
0
 10
2444.5537044831922
 20
1645.65386820447
 30
0.0
 11
2547.543704483192
 21
1645.65386820447
 31
0.0
  0
CIRCLE
  5
1A08F
  8
0
 10
2458.5537044831922
 20
1673.15386820447
 30
0.0
 40
4.9999199999999986
  0
LINE
  5
1A090
  8
0
 10
2438.5537044831922
 20
1673.15386820447
 30
0.0
 11
2438.5537044831922
 21
1673.15386820447
 31
0.0
  0
CIRCLE
  5
1A091
  8
0
 10
2458.5537044831922
 20
1673.15386820447
 30
0.0
 40
10.0
  0
CIRCLE
  5
1A092
  8
0
 10
2458.5537044831922
 20
1673.15386820447
 30
0.0
 40
15.1454
  0
LINE
  5
1A093
  8
0
 10
2503.543704483192
 20
1694.15386820447
 30
0.0
 11
2503.543704483192
 21
1694.15386820447
 31
0.0
  0
LINE
  5
1A094
  8
0
 10
2503.543704483192
 20
1694.15386820447
 30
0.0
 11
2503.543704483192
 21
1694.15386820447
 31
0.0
  0
LINE
  5
1A095
  8
0
 10
2502.4337044831918
 20
1693.87386820447
 30
0.0
 11
2504.6637044831919
 21
1693.87386820447
 31
0.0
  0
LINE
  5
1A096
  8
0
 10
2504.6637044831919
 20
1693.87386820447
 30
0.0
 11
2520.4937044831918
 21
1685.12386820447
 31
0.0
  0
LINE
  5
1A097
  8
0
 10
2504.6637044831919
 20
1652.4338682044699
 30
0.0
 11
2502.4337044831918
 21
1652.4338682044699
 31
0.0
  0
LINE
  5
1A098
  8
0
 10
2520.9337044831918
 20
1661.83386820447
 30
0.0
 11
2504.6637044831919
 21
1652.4338682044699
 31
0.0
  0
LINE
  5
1A099
  8
0
 10
2485.043704483192
 20
1682.5538682044701
 30
0.0
 11
2486.1637044831919
 21
1684.4838682044699
 31
0.0
  0
LINE
  5
1A09A
  8
0
 10
2486.1637044831919
 20
1661.83386820447
 30
0.0
 11
2485.043704483192
 21
1663.7638682044701
 31
0.0
  0
LINE
  5
1A09B
  8
0
 10
2485.043704483192
 20
1663.7638682044701
 30
0.0
 11
2485.043704483192
 21
1682.5538682044701
 31
0.0
  0
LINE
  5
1A09C
  8
0
 10
2502.4337044831918
 20
1652.4338682044699
 30
0.0
 11
2486.1637044831919
 21
1661.83386820447
 31
0.0
  0
LINE
  5
1A09D
  8
0
 10
2486.1637044831919
 20
1684.4838682044699
 30
0.0
 11
2502.4337044831918
 21
1693.87386820447
 31
0.0
  0
POLYLINE
  5
1A09E
  8
0
 66
     1
 10
0.0
 20
0.0
 30
0.0
  0
VERTEX
  5
1A43C
  8
0
 10
2488.9437044831921
 20
1712.90386820447
 30
0.0
 42
-0.2595968202081764
  0
VERTEX
  5
1A43D
  8
0
 10
2486.9016981297468
 20
1709.235883164725
 30
0.0
 42
-0.0760313483859624
  0
VERTEX
  5
1A43E
  8
0
 10
2474.4777084059951
 20
1703.938172295844
 30
0.0
 42
-0.0363546497566322
  0
VERTEX
  5
1A43F
  8
0
 10
2459.8756175684689
 20
1701.3019075467409
 30
0.0
 42
-0.0097698732499574
  0
VERTEX
  5
1A440
  8
0
 10
2452.393812545165
 20
1700.65386820447
 30
0.0
 42
-0.026490910793451
  0
SEQEND
  5
1A441
  8
0
  0
LINE
  5
1A09F
  8
0
 10
2439.5537044831922
 20
1744.1838682044699
 30
0.0
 11
2449.9537044831918
 21
1744.1838682044699
 31
0.0
  0
ARC
  5
1A0A0
  8
0
 10
2420.3767894923658
 20
1726.86386820447
 30
0.0
 40
30.818655070825649
 50
343.68018461466278
 51
16.319815385336419
  0
LINE
  5
1A0A1
  8
0
 10
2451.5537044831922
 20
1741.42386820447
 30
0.0
 11
2451.5537044831922
 21
1712.3038682044701
 31
0.0
  0
LINE
  5
1A0A2
  8
0
 10
2449.9537044831918
 20
1735.5238682044701
 30
0.0
 11
2439.5537044831922
 21
1735.5238682044701
 31
0.0
  0
LINE
  5
1A0A3
  8
0
 10
2449.9537044831918
 20
1718.2038682044699
 30
0.0
 11
2439.5537044831922
 21
1718.2038682044699
 31
0.0
  0
ARC
  5
1A0A4
  8
0
 10
2443.0243019713939
 20
1739.85386820447
 30
0.0
 40
8.1710170217978533
 50
327.99982907556978
 51
32.000170924430208
  0
LINE
  5
1A0A5
  8
0
 10
2449.9537044831918
 20
1744.1838682044699
 30
0.0
 11
2451.5537044831922
 21
1741.42386820447
 31
0.0
  0
ARC
  5
1A0A6
  8
0
 10
2444.5537044831922
 20
1705.65386820447
 30
0.0
 40
5.0
 50
180.0
 51
270.0
  0
LINE
  5
1A0A7
  8
0
 10
2449.9537044831918
 20
1709.5438682044701
 30
0.0
 11
2439.5537044831922
 21
1709.5438682044701
 31
0.0
  0
LINE
  5
1A0A8
  8
0
 10
2451.5537044831922
 20
1712.3038682044701
 30
0.0
 11
2449.9537044831918
 21
1709.5438682044701
 31
0.0
  0
ARC
  5
1A0A9
  8
0
 10
2443.0243019713939
 20
1713.87386820447
 30
0.0
 40
8.1710170217978533
 50
327.99982907556978
 51
32.000170924430208
  0
LINE
  5
1A0AA
  8
0
 10
2579.5537044831922
 20
1673.15386820447
 30
0.0
 11
2579.5537044831922
 21
1724.65386820447
 31
0.0
  0
LINE
  5
1A0AB
  8
0
 10
2552.543704483192
 20
1648.65386820447
 30
0.0
 11
2552.543704483192
 21
1697.65386820447
 31
0.0
  0
LINE
  5
1A0AC
  8
0
 10
2550.543704483192
 20
1648.65386820447
 30
0.0
 11
2550.543704483192
 21
1697.65386820447
 31
0.0
  0
LINE
  5
1A0AD
  8
0
 10
2549.7837044831922
 20
1646.65386820447
 30
0.0
 11
2550.543704483192
 21
1646.65386820447
 31
0.0
  0
ARC
  5
1A0AE
  8
0
 10
2547.543704483192
 20
1648.65386820447
 30
0.0
 40
3.0
 50
270.0
 51
0.0
  0
ARC
  5
1A0AF
  8
0
 10
2550.543704483192
 20
1648.65386820447
 30
0.0
 40
2.0
 50
270.0
 51
0.0
  0
LINE
  5
1A0B0
  8
0
 10
2524.543704483192
 20
1673.15386820447
 30
0.0
 11
2524.543704483192
 21
1673.15386820447
 31
0.0
  0
LINE
  5
1A0B1
  8
0
 10
2522.043704483192
 20
1682.5538682044701
 30
0.0
 11
2522.043704483192
 21
1673.15386820447
 31
0.0
  0
LINE
  5
1A0B2
  8
0
 10
2527.5537044831922
 20
1645.65386820447
 30
0.0
 11
2524.5537044831922
 21
1645.65386820447
 31
0.0
  0
LINE
  5
1A0B3
  8
0
 10
2522.043704483192
 20
1673.15386820447
 30
0.0
 11
2522.043704483192
 21
1663.7638682044701
 31
0.0
  0
LINE
  5
1A0B4
  8
0
 10
2547.543704483192
 20
1645.65386820447
 30
0.0
 11
2527.5537044831922
 21
1645.65386820447
 31
0.0
  0
LINE
  5
1A0B5
  8
0
 10
2563.5537044831922
 20
1727.65386820447
 30
0.0
 11
2576.5537044831922
 21
1727.65386820447
 31
0.0
  0
LINE
  5
1A0B6
  8
0
 10
2530.8737044831919
 20
1727.65386820447
 30
0.0
 11
2576.5537044831922
 21
1727.65386820447
 31
0.0
  0
ARC
  5
1A0B7
  8
0
 10
2547.543704483192
 20
1697.65386820447
 30
0.0
 40
3.0
 50
0.0
 51
90.0
  0
LINE
  5
1A0B8
  8
0
 10
2549.7837044831922
 20
1699.65386820447
 30
0.0
 11
2550.543704483192
 21
1699.65386820447
 31
0.0
  0
ARC
  5
1A0B9
  8
0
 10
2550.543704483192
 20
1697.65386820447
 30
0.0
 40
2.0
 50
0.0
 51
90.0
  0
ARC
  5
1A0BA
  8
0
 10
2576.5537044831922
 20
1724.65386820447
 30
0.0
 40
3.0
 50
0.0
 51
90.0
  0
ARC
  5
1A0BB
  8
0
 10
2420.3767894923672
 20
1800.4838682044699
 30
0.0
 40
30.818655070825091
 50
343.6801846146634
 51
16.319815385336678
  0
LINE
  5
1A0BC
  8
0
 10
2451.5537044831922
 20
1785.92386820447
 30
0.0
 11
2451.5537044831922
 21
1815.0438682044701
 31
0.0
  0
LINE
  5
1A0BD
  8
0
 10
2449.9537044831918
 20
1791.82386820447
 30
0.0
 11
2445.6337044831921
 21
1791.82386820447
 31
0.0
  0
ARC
  5
1A0BE
  8
0
 10
2443.024216483881
 20
1775.14386820447
 30
0.0
 40
8.1710895193112627
 50
328.00014673161871
 51
31.999853268381269
  0
LINE
  5
1A0BF
  8
0
 10
2449.9537044831918
 20
1779.4738682044699
 30
0.0
 11
2451.5537044831922
 21
1776.7138682044699
 31
0.0
  0
ARC
  5
1A0C0
  8
0
 10
2443.027976752835
 20
1787.4968579355329
 30
0.0
 40
8.1663163337286644
 50
351.45792069085701
 51
31.996044860322868
  0
LINE
  5
1A0C1
  8
0
 10
2449.9537044831918
 20
1770.8138682044701
 30
0.0
 11
2439.8488404734589
 21
1770.8138682044701
 31
0.0
  0
LINE
  5
1A0C2
  8
0
 10
2439.5537044831922
 20
1779.4738682044699
 30
0.0
 11
2449.9537044831918
 21
1779.4738682044699
 31
0.0
  0
LINE
  5
1A0C3
  8
0
 10
2450.3237044831922
 20
1752.5238682044701
 30
0.0
 11
2449.9537044831918
 21
1753.4938682044699
 31
0.0
  0
LINE
  5
1A0C4
  8
0
 10
2449.9537044831918
 20
1753.4938682044699
 30
0.0
 11
2449.9537044831918
 21
1753.4938682044699
 31
0.0
  0
LINE
  5
1A0C5
  8
0
 10
2449.9537044831918
 20
1753.4938682044699
 30
0.0
 11
2448.6337044831921
 21
1753.4938682044699
 31
0.0
  0
LINE
  5
1A0C6
  8
0
 10
2451.5537044831922
 20
1776.7138682044699
 30
0.0
 11
2451.5537044831922
 21
1751.0038682044701
 31
0.0
  0
ARC
  5
1A0C7
  8
0
 10
2420.3767894923658
 20
1762.15386820447
 30
0.0
 40
30.818655070825649
 50
343.68018461466278
 51
16.319815385336419
  0
ARC
  5
1A0C8
  8
0
 10
2437.5537044831922
 20
1778.15386820447
 30
0.0
 40
2.0
 50
0.0
 51
90.0
  0
LINE
  5
1A0C9
  8
0
 10
2451.5537044831922
 20
1815.0438682044701
 30
0.0
 11
2449.9537044831918
 21
1817.8038682044701
 31
0.0
  0
ARC
  5
1A0CA
  8
0
 10
2443.024301971393
 20
1813.4738682044699
 30
0.0
 40
8.1710170217982867
 50
327.99982907557069
 51
32.000170924432084
  0
LINE
  5
1A0CB
  8
0
 10
2439.5537044831922
 20
1809.9338682044699
 30
0.0
 11
2439.5537044831922
 21
1821.15386820447
 31
0.0
  0
LINE
  5
1A0CC
  8
0
 10
2449.9537044831918
 20
1809.14386820447
 30
0.0
 11
2439.5537044831922
 21
1809.14386820447
 31
0.0
  0
LINE
  5
1A0CD
  8
0
 10
2449.9537044831918
 20
1817.8038682044701
 30
0.0
 11
2439.5537044831922
 21
1817.8038682044701
 31
0.0
  0
ARC
  5
1A0CE
  8
0
 10
2437.5537044831922
 20
1821.15386820447
 30
0.0
 40
2.0
 50
0.0
 51
90.000000000000171
  0
ARC
  5
1A0CF
  8
0
 10
2522.5537044831922
 20
2067.058287489589
 30
0.0
 40
5.0
 50
270.0
 51
0.000000000000007
  0
LINE
  5
1A0D0
  8
0
 10
2474.5537044831922
 20
2052.058287489589
 30
0.0
 11
2494.5537044831922
 21
2052.058287489589
 31
0.0
  0
LINE
  5
1A0D1
  8
0
 10
2522.5537044831922
 20
2062.058287489589
 30
0.0
 11
2494.5537044831922
 21
2062.058287489589
 31
0.0
  0
LINE
  5
1A0D2
  8
0
 10
2542.5537044831908
 20
2097.1582874895889
 30
0.0
 11
2542.5537044831908
 21
2116.9572874895889
 31
0.0
  0
LINE
  5
1A0D3
  8
0
 10
2532.5537044831908
 20
2116.9572874895889
 30
0.0
 11
2532.5537044831908
 21
2097.1582874895889
 31
0.0
  0
LINE
  5
1A0D4
  8
0
 10
2532.5537044831908
 20
2117.192287489589
 30
0.0
 11
2532.5537044831908
 21
2096.924287489589
 31
0.0
  0
LINE
  5
1A0D5
  8
0
 10
2527.5537044831908
 20
2067.058287489589
 30
0.0
 11
2527.5537044831908
 21
2131.2857411089908
 31
0.0
  0
LINE
  5
1A0D6
  8
0
 10
2532.5537044831908
 20
2097.1582874895889
 30
0.0
 11
2542.5537044831908
 21
2097.1582874895889
 31
0.0
  0
LINE
  5
1A0D7
  8
0
 10
2542.5537044831908
 20
2107.058287489589
 30
0.0
 11
2532.5537044831908
 21
2107.058287489589
 31
0.0
  0
LINE
  5
1A0D8
  8
0
 10
2542.5537044831908
 20
2083.0577874895889
 30
0.0
 11
2532.5537044831908
 21
2083.0577874895889
 31
0.0
  0
LINE
  5
1A0D9
  8
0
 10
2542.5537044831908
 20
2092.9567874895888
 30
0.0
 11
2532.5537044831908
 21
2092.9567874895888
 31
0.0
  0
LINE
  5
1A0DA
  8
0
 10
2532.5537044831908
 20
2096.924287489589
 30
0.0
 11
2532.0537044831908
 21
2096.4402874895891
 31
0.0
  0
LINE
  5
1A0DB
  8
0
 10
2532.0537044831908
 20
2093.6757874895889
 30
0.0
 11
2532.5537044831908
 21
2093.1907874895892
 31
0.0
  0
LINE
  5
1A0DC
  8
0
 10
2532.0537044831908
 20
2096.4402874895891
 30
0.0
 11
2527.5537044831908
 21
2096.580287489589
 31
0.0
  0
LINE
  5
1A0DD
  8
0
 10
2527.5537044831908
 20
2093.5347874895888
 30
0.0
 11
2532.0537044831908
 21
2093.6757874895889
 31
0.0
  0
LINE
  5
1A0DE
  8
0
 10
2532.5537044831908
 20
2073.1577874895888
 30
0.0
 11
2542.5537044831908
 21
2073.1577874895888
 31
0.0
  0
LINE
  5
1A0DF
  8
0
 10
2532.5537044831908
 20
2072.9237874895889
 30
0.0
 11
2532.0537044831908
 21
2072.4387874895888
 31
0.0
  0
LINE
  5
1A0E0
  8
0
 10
2532.0537044831908
 20
2072.4387874895888
 30
0.0
 11
2527.5537044831908
 21
2072.5797874895889
 31
0.0
  0
LINE
  5
1A0E1
  8
0
 10
2532.5537044831908
 20
2094.1912874895888
 30
0.0
 11
2532.5537044831908
 21
2073.924287489589
 31
0.0
  0
LINE
  5
1A0E2
  8
0
 10
2542.5537044831908
 20
2073.1577874895888
 30
0.0
 11
2542.5537044831908
 21
2092.9567874895888
 31
0.0
  0
LINE
  5
1A0E3
  8
0
 10
2532.5537044831908
 20
2093.1907874895892
 30
0.0
 11
2532.5537044831908
 21
2073.3917874895892
 31
0.0
  0
ARC
  5
1A0E4
  8
0
 10
2537.5537044831908
 20
2131.2857411089908
 30
0.0
 40
10.0
 50
139.9751661145001
 51
180.0
  0
LINE
  5
1A0E5
  8
0
 10
2542.5537044831908
 20
2116.9572874895889
 30
0.0
 11
2532.5537044831908
 21
2116.9572874895889
 31
0.0
  0
LINE
  5
1A0E6
  8
0
 10
2532.0537044831908
 20
2117.676287489589
 30
0.0
 11
2532.5537044831908
 21
2117.192287489589
 31
0.0
  0
LINE
  5
1A0E7
  8
0
 10
2527.5537044831908
 20
2117.5352874895889
 30
0.0
 11
2532.0537044831908
 21
2117.676287489589
 31
0.0
  0
LINE
  5
1A0E8
  8
0
 10
2527.5537044831908
 20
2542.8308338701868
 30
0.0
 11
2527.5537044831908
 21
2586.058287489589
 31
0.0
  0
LINE
  5
1A0E9
  8
0
 10
2579.5537044831922
 20
2274.058287489589
 30
0.0
 11
2579.5537044831922
 21
2400.058287489589
 31
0.0
  0
LINE
  5
1A0EA
  8
0
 10
2542.5537044831922
 20
2576.9632874895892
 30
0.0
 11
2532.5537044831922
 21
2576.9632874895892
 31
0.0
  0
LINE
  5
1A0EB
  8
0
 10
2527.5537044831908
 20
2577.5332874895889
 30
0.0
 11
2532.0537044831908
 21
2577.6732874895888
 31
0.0
  0
LINE
  5
1A0EC
  8
0
 10
2532.0537044831908
 20
2577.6732874895888
 30
0.0
 11
2532.5537044831922
 21
2577.1932874895888
 31
0.0
  0
LINE
  5
1A0ED
  8
0
 10
2542.5537044831922
 20
2567.0632874895891
 30
0.0
 11
2532.5537044831922
 21
2567.0632874895891
 31
0.0
  0
LINE
  5
1A0EE
  8
0
 10
2532.5537044831922
 20
2557.163287489589
 30
0.0
 11
2542.5537044831922
 21
2557.163287489589
 31
0.0
  0
LINE
  5
1A0EF
  8
0
 10
2532.5537044831922
 20
2556.9232874895888
 30
0.0
 11
2532.0537044831908
 21
2556.4432874895888
 31
0.0
  0
ARC
  5
1A0F0
  8
0
 10
2537.5537044831908
 20
2542.8308338701868
 30
0.0
 40
10.0
 50
180.0
 51
220.0248338854999
  0
LINE
  5
1A0F1
  8
0
 10
2532.0537044831908
 20
2556.4432874895888
 30
0.0
 11
2527.5537044831908
 21
2556.5832874895891
 31
0.0
  0
LINE
  5
1A0F2
  8
0
 10
2542.5537044831922
 20
2557.163287489589
 30
0.0
 11
2542.5537044831922
 21
2576.9632874895892
 31
0.0
  0
LINE
  5
1A0F3
  8
0
 10
2532.5537044831922
 20
2577.1932874895888
 30
0.0
 11
2532.5537044831922
 21
2556.9232874895888
 31
0.0
  0
LINE
  5
1A0F4
  8
0
 10
2532.5537044831922
 20
2576.9632874895892
 30
0.0
 11
2532.5537044831922
 21
2557.163287489589
 31
0.0
  0
LINE
  5
1A0F5
  8
0
 10
2459.5482695400469
 20
2591.058287489589
 30
0.0
 11
2522.5537044831922
 21
2591.058287489589
 31
0.0
  0
ARC
  5
1A0F6
  8
0
 10
2522.5537044831922
 20
2586.058287489589
 30
0.0
 40
5.0
 50
0.000000000000007
 51
90.0
  0
VIEWPORT
  5
41
 67
     1
  8
0
 10
117.358407079646
 20
73.5
 30
0.0
 40
234.716814159292
 41
147.0
 68
     1
 69
     1
1001
ACAD
1000
MVIEW
1002
{
1070
    16
1010
0.0
1020
0.0
1030
0.0
1010
0.0
1020
0.0
1030
1.0
1040
0.0
1040
147.0
1040
117.358407079646
1040
73.5
1040
50.0
1040
0.0
1040
0.0
1070
     0
1070
   100
1070
     1
1070
     1
1070
     0
1070
     0
1070
     0
1070
     0
1040
0.0
1040
0.0
1040
0.0
1040
1.0
1040
1.0
1040
0.0
1040
0.0
1070
     0
1002
{
1002
}
1002
}
  0
ENDSEC
  0
EOF
