  0
SECTION
  2
HEADER
  9
$ACADVER
  1
AC1012
  9
$DWGCODEPAGE
  3
dos932
  9
$INSBASE
 10
0.0
 20
0.0
 30
0.0
  9
$EXTMIN
 10
179.9560646758836
 20
69.92661222108472
 30
-0.000000000000013
  9
$EXTMAX
 10
4090.219125862023
 20
2820.086066310859
 30
0.0000000000000023
  9
$LIMMIN
 10
0.0
 20
0.0
  9
$LIMMAX
 10
4200.0
 20
2970.0
  9
$ORTHOMODE
 70
     1
  9
$REGENMODE
 70
     1
  9
$FILLMODE
 70
     1
  9
$QTEXTMODE
 70
     0
  9
$MIRRTEXT
 70
     1
  9
$DRAGMODE
 70
     2
  9
$LTSCALE
 40
40.0
  9
$OSMODE
 70
   163
  9
$ATTMODE
 70
     1
  9
$TEXTSIZE
 40
40.0
  9
$TRACEWID
 40
0.05
  9
$TEXTSTYLE
  7
STANDARD
  9
$CLAYER
  8
0
  9
$CELTYPE
  6
BYLAYER
  9
$CECOLOR
 62
   256
  9
$CELTSCALE
 40
1.0
  9
$DELOBJ
 70
     1
  9
$DISPSILH
 70
     0
  9
$DIMSCALE
 40
10.0
  9
$DIMASZ
 40
2.799999999999999
  9
$DIMEXO
 40
1.0
  9
$DIMDLI
 40
5.0
  9
$DIMRND
 40
0.1
  9
$DIMDLE
 40
0.0
  9
$DIMEXE
 40
1.0
  9
$DIMTP
 40
0.0
  9
$DIMTM
 40
0.0
  9
$DIMTXT
 40
2.5
  9
$DIMCEN
 40
0.0
  9
$DIMTSZ
 40
0.0
  9
$DIMTOL
 70
     0
  9
$DIMLIM
 70
     0
  9
$DIMTIH
 70
     0
  9
$DIMTOH
 70
     0
  9
$DIMSE1
 70
     0
  9
$DIMSE2
 70
     0
  9
$DIMTAD
 70
     3
  9
$DIMZIN
 70
     8
  9
$DIMBLK
  1

  9
$DIMASO
 70
     1
  9
$DIMSHO
 70
     1
  9
$DIMPOST
  1

  9
$DIMAPOST
  1

  9
$DIMALT
 70
     0
  9
$DIMALTD
 70
     2
  9
$DIMALTF
 40
1.0
  9
$DIMLFAC
 40
1.0
  9
$DIMTOFL
 70
     1
  9
$DIMTVP
 40
0.0
  9
$DIMTIX
 70
     0
  9
$DIMSOXD
 70
     0
  9
$DIMSAH
 70
     1
  9
$DIMBLK1
  1
OPEN
  9
$DIMBLK2
  1
OPEN
  9
$DIMSTYLE
  2
DIM1
  9
$DIMCLRD
 70
     2
  9
$DIMCLRE
 70
     2
  9
$DIMCLRT
 70
     2
  9
$DIMTFAC
 40
0.7
  9
$DIMGAP
 40
0.85
  9
$DIMJUST
 70
     0
  9
$DIMSD1
 70
     0
  9
$DIMSD2
 70
     0
  9
$DIMTOLJ
 70
     1
  9
$DIMTZIN
 70
     8
  9
$DIMALTZ
 70
     8
  9
$DIMALTTZ
 70
     8
  9
$DIMFIT
 70
     3
  9
$DIMUPT
 70
     0
  9
$DIMUNIT
 70
     2
  9
$DIMDEC
 70
     2
  9
$DIMTDEC
 70
     3
  9
$DIMALTU
 70
     2
  9
$DIMALTTD
 70
     3
  9
$DIMTXSTY
  7
DIM
  9
$DIMAUNIT
 70
     0
  9
$LUNITS
 70
     2
  9
$LUPREC
 70
     4
  9
$SKETCHINC
 40
0.1
  9
$FILLETRAD
 40
0.0
  9
$AUNITS
 70
     0
  9
$AUPREC
 70
     0
  9
$MENU
  1
C:\ACADR13\WIN\SUPPORT\ACAD.mnc
  9
$ELEVATION
 40
0.0
  9
$PELEVATION
 40
0.0
  9
$THICKNESS
 40
0.0
  9
$LIMCHECK
 70
     0
  9
$BLIPMODE
 70
     0
  9
$CHAMFERA
 40
0.0
  9
$CHAMFERB
 40
0.0
  9
$CHAMFERC
 40
0.0
  9
$CHAMFERD
 40
0.0
  9
$SKPOLY
 70
     0
  9
$TDCREATE
 40
2452405.582679213
  9
$TDUPDATE
 40
2452410.638740231
  9
$TDINDWG
 40
0.0764624769
  9
$TDUSRTIMER
 40
0.0764624769
  9
$USRTIMER
 70
     1
  9
$ANGBASE
 50
0.0
  9
$ANGDIR
 70
     0
  9
$PDMODE
 70
     0
  9
$PDSIZE
 40
0.0
  9
$PLINEWID
 40
0.0
  9
$COORDS
 70
     2
  9
$SPLFRAME
 70
     0
  9
$SPLINETYPE
 70
     6
  9
$SPLINESEGS
 70
     8
  9
$ATTDIA
 70
     0
  9
$ATTREQ
 70
     1
  9
$HANDLING
 70
-16383
  9
$HANDSEED
  5
3CD2
  9
$SURFTAB1
 70
     6
  9
$SURFTAB2
 70
     6
  9
$SURFTYPE
 70
     6
  9
$SURFU
 70
     6
  9
$SURFV
 70
     6
  9
$UCSNAME
  2

  9
$UCSORG
 10
0.0
 20
0.0
 30
0.0
  9
$UCSXDIR
 10
1.0
 20
0.0
 30
0.0
  9
$UCSYDIR
 10
0.0
 20
1.0
 30
0.0
  9
$PUCSNAME
  2

  9
$PUCSORG
 10
0.0
 20
0.0
 30
0.0
  9
$PUCSXDIR
 10
1.0
 20
0.0
 30
0.0
  9
$PUCSYDIR
 10
0.0
 20
1.0
 30
0.0
  9
$USERI1
 70
     0
  9
$USERI2
 70
     0
  9
$USERI3
 70
     0
  9
$USERI4
 70
     0
  9
$USERI5
 70
     0
  9
$USERR1
 40
0.0
  9
$USERR2
 40
0.0
  9
$USERR3
 40
0.0
  9
$USERR4
 40
0.0
  9
$USERR5
 40
0.0
  9
$WORLDVIEW
 70
     1
  9
$SHADEDGE
 70
     3
  9
$SHADEDIF
 70
    70
  9
$TILEMODE
 70
     1
  9
$MAXACTVP
 70
    16
  9
$PINSBASE
 10
0.0
 20
0.0
 30
0.0
  9
$PLIMCHECK
 70
     0
  9
$PEXTMIN
 10
1.000000000000000E+20
 20
1.000000000000000E+20
 30
1.000000000000000E+20
  9
$PEXTMAX
 10
-1.000000000000000E+20
 20
-1.000000000000000E+20
 30
-1.000000000000000E+20
  9
$PLIMMIN
 10
0.0
 20
0.0
  9
$PLIMMAX
 10
20.0
 20
147.0
  9
$UNITMODE
 70
     0
  9
$VISRETAIN
 70
     0
  9
$PLINEGEN
 70
     0
  9
$PSLTSCALE
 70
     1
  9
$TREEDEPTH
 70
  3020
  9
$PICKSTYLE
 70
     0
  9
$CMLSTYLE
  2
STANDARD
  9
$CMLJUST
 70
     0
  9
$CMLSCALE
 40
1.0
  9
$SAVEIMAGES
 70
     1
  0
ENDSEC
  0
SECTION
  2
CLASSES
  0
CLASS
  1
LWPOLYLINE
  2
AcDbPolyline
  3
AutoCAD 2000
 90
    32768
280
     0
281
     1
  0
CLASS
  1
ACDBDICTIONARYWDFLT
  2
AcDbDictionaryWithDefault
  3
AutoCAD 2000
 90
    32768
280
     0
281
     0
  0
CLASS
  1
ACDBPLACEHOLDER
  2
AcDbPlaceHolder
  3
AutoCAD 2000
 90
    32768
280
     0
281
     0
  0
CLASS
  1
LAYOUT
  2
AcDbLayout
  3
AutoCAD 2000
 90
    32768
280
     0
281
     0
  0
CLASS
  1
LONG_TRANSACTION
  2
AcDbLongTransaction
  3
AutoCAD 2000
 90
    32768
280
     0
281
     0
  0
CLASS
  1
LWPOLYLINE
  2
AcDbPolyline
  3
AutoCAD 2000
 90
    32768
280
     0
281
     1
  0
CLASS
  1
HATCH
  2
AcDbHatch
  3
AutoCAD 2000
 90
    32768
280
     0
281
     1
  0
CLASS
  1
XRECORD
  2
AcDbXrecord
  3
AutoCAD 2000
 90
    32768
280
     0
281
     0
  0
CLASS
  1
LONG_TRANSACTION
  2
AcDbLongTransaction
  3
AutoCAD 2000
 90
    32768
280
     0
281
     0
  0
CLASS
  1
LWPOLYLINE
  2
AcDbPolyline
  3
AutoCAD 2000
 90
    32768
280
     0
281
     1
  0
CLASS
  1
HATCH
  2
AcDbHatch
  3
AutoCAD 2000
 90
    32768
280
     0
281
     1
  0
CLASS
  1
XRECORD
  2
AcDbXrecord
  3
AutoCAD 2000
 90
    32768
280
     0
281
     0
  0
CLASS
  1
LONG_TRANSACTION
  2
AcDbLongTransaction
  3
AutoCAD 2000
 90
    32768
280
     0
281
     0
  0
CLASS
  1
LWPOLYLINE
  2
AcDbPolyline
  3
AutoCAD 2000
 90
    32768
280
     0
281
     1
  0
CLASS
  1
HATCH
  2
AcDbHatch
  3
AutoCAD 2000
 90
    32768
280
     0
281
     1
  0
CLASS
  1
XRECORD
  2
AcDbXrecord
  3
AutoCAD 2000
 90
    32768
280
     0
281
     0
  0
CLASS
  1
LONG_TRANSACTION
  2
AcDbLongTransaction
  3
AutoCAD 2000
 90
    32768
280
     0
281
     0
  0
CLASS
  1
LWPOLYLINE
  2
AcDbPolyline
  3
AutoCAD 2000
 90
    32768
280
     0
281
     1
  0
CLASS
  1
HATCH
  2
AcDbHatch
  3
AutoCAD 2000
 90
    32768
280
     0
281
     1
  0
CLASS
  1
XRECORD
  2
AcDbXrecord
  3
AutoCAD 2000
 90
    32768
280
     0
281
     0
  0
CLASS
  1
LONG_TRANSACTION
  2
AcDbLongTransaction
  3
AutoCAD 2000
 90
    32768
280
     0
281
     0
  0
CLASS
  1
LWPOLYLINE
  2
AcDbPolyline
  3
AutoCAD 2000
 90
    32768
280
     0
281
     1
  0
CLASS
  1
HATCH
  2
AcDbHatch
  3
AutoCAD 2000
 90
    32768
280
     0
281
     1
  0
CLASS
  1
XRECORD
  2
AcDbXrecord
  3
AutoCAD 2000
 90
    32768
280
     0
281
     0
  0
ENDSEC
  0
SECTION
  2
TABLES
  0
TABLE
  2
VPORT
  5
8
330
0
100
AcDbSymbolTable
 70
     4
  0
VPORT
  5
3C3A
330
8
100
AcDbSymbolTableRecord
100
AcDbViewportTableRecord
  2
*ACTIVE
 70
     0
 10
0.0
 20
0.0
 11
1.0
 21
1.0
 12
2100.0
 22
1485.0
 13
0.0
 23
0.0
 14
1.0
 24
1.0
 15
0.0
 25
0.0
 16
0.0
 26
0.0
 36
1.0
 17
0.0
 27
0.0
 37
0.0
 40
3034.618952548983
 41
1.392405063291139
 42
50.0
 43
0.0
 44
0.0
 50
0.0
 51
0.0
 71
     0
 72
   100
 73
     1
 74
     1
 75
     0
 76
     0
 77
     0
 78
     0
  0
ENDTAB
  0
TABLE
  2
LTYPE
  5
5
330
0
100
AcDbSymbolTable
 70
     1
  0
LTYPE
  5
12
330
5
100
AcDbSymbolTableRecord
100
AcDbLinetypeTableRecord
  2
BYBLOCK
 70
     0
  3

 72
    65
 73
     0
 40
0.0
  0
LTYPE
  5
13
330
5
100
AcDbSymbolTableRecord
100
AcDbLinetypeTableRecord
  2
BYLAYER
 70
     0
  3

 72
    65
 73
     0
 40
0.0
  0
LTYPE
  5
14
330
5
100
AcDbSymbolTableRecord
100
AcDbLinetypeTableRecord
  2
CONTINUOUS
 70
     0
  3
Solid line
 72
    65
 73
     0
 40
0.0
  0
ENDTAB
  0
TABLE
  2
LAYER
  5
2
330
0
100
AcDbSymbolTable
 70
     1
  0
LAYER
  5
F
330
2
100
AcDbSymbolTableRecord
100
AcDbLayerTableRecord
  2
0
 70
     0
 62
     7
  6
CONTINUOUS
  0
ENDTAB
  0
TABLE
  2
STYLE
  5
3
330
0
100
AcDbSymbolTable
 70
     3
  0
STYLE
  5
10
330
3
100
AcDbSymbolTableRecord
100
AcDbTextStyleTableRecord
  2
STANDARD
 70
     0
 40
0.0
 41
0.8
 50
0.0
 71
     0
 42
40.0
  3
simplex
  4
extfont
  0
STYLE
  5
237C
330
3
100
AcDbSymbolTableRecord
100
AcDbTextStyleTableRecord
  2
PTSH
 70
     0
 40
0.0
 41
0.9
 50
0.0
 71
     0
 42
4.0
  3
SIMPLEX
  4
EXTFONT
  0
STYLE
  5
2592
330
3
100
AcDbSymbolTableRecord
100
AcDbTextStyleTableRecord
  2
DIM
 70
     0
 40
0.0
 41
0.8
 50
0.0
 71
     0
 42
4.0
  3
simplex
  4
extfont
  0
ENDTAB
  0
TABLE
  2
VIEW
  5
6
330
0
100
AcDbSymbolTable
 70
     0
  0
ENDTAB
  0
TABLE
  2
UCS
  5
7
330
0
100
AcDbSymbolTable
 70
     0
  0
ENDTAB
  0
TABLE
  2
APPID
  5
9
330
0
100
AcDbSymbolTable
 70
     1
  0
APPID
  5
11
330
9
100
AcDbSymbolTableRecord
100
AcDbRegAppTableRecord
  2
ACAD
 70
     0
  0
ENDTAB
  0
TABLE
  2
DIMSTYLE
  5
A
330
0
100
AcDbSymbolTable
 70
     1
  0
DIMSTYLE
105
2237
330
A
100
AcDbSymbolTableRecord
100
AcDbDimStyleTableRecord
  2
DIM1
 70
     0
  3

  4

  5

  6
OPEN
  7
OPEN
 40
10.0
 41
2.799999999999999
 42
1.0
 43
5.0
 44
1.0
 45
0.1
 46
0.0
 47
0.0
 48
0.0
140
2.5
141
0.0
142
0.0
143
1.0
144
1.0
145
0.0
146
0.7
147
0.85
 71
     0
 72
     0
 73
     0
 74
     0
 75
     0
 76
     0
 77
     3
 78
     8
170
     0
171
     2
172
     1
173
     1
174
     0
175
     0
176
     2
177
     2
178
     2
270
     2
271
     2
272
     3
273
     2
274
     3
340
2592
275
     0
280
     0
281
     0
282
     0
283
     1
284
     8
285
     8
286
     8
287
     3
288
     0
  0
ENDTAB
  0
TABLE
  2
BLOCK_RECORD
  5
1
330
0
100
AcDbSymbolTable
 70
     2
  0
BLOCK_RECORD
  5
18
102
{ACAD_XDICTIONARY
360
35BE
102
}
330
1
100
AcDbSymbolTableRecord
100
AcDbBlockTableRecord
  2
*MODEL_SPACE
  0
BLOCK_RECORD
  5
15
102
{ACAD_XDICTIONARY
360
35BC
102
}
330
1
100
AcDbSymbolTableRecord
100
AcDbBlockTableRecord
  2
*PAPER_SPACE
  0
BLOCK_RECORD
  5
2448
330
1
100
AcDbSymbolTableRecord
100
AcDbBlockTableRecord
  2
_OPEN
  0
BLOCK_RECORD
  5
2648
330
1
100
AcDbSymbolTableRecord
100
AcDbBlockTableRecord
  2
YA
  0
ENDTAB
  0
ENDSEC
  0
SECTION
  2
BLOCKS
  0
BLOCK
  5
3C
330
18
100
AcDbEntity
  8
0
100
AcDbBlockBegin
  2
*MODEL_SPACE
 70
     0
 10
0.0
 20
0.0
 30
0.0
  3
*MODEL_SPACE
  1

  0
ENDBLK
  5
3D
330
18
100
AcDbEntity
  8
0
100
AcDbBlockEnd
  0
BLOCK
  5
3A
330
15
100
AcDbEntity
 67
     1
  8
0
100
AcDbBlockBegin
  2
*PAPER_SPACE
 70
     0
 10
0.0
 20
0.0
 30
0.0
  3
*PAPER_SPACE
  1

  0
ENDBLK
  5
3B
330
15
100
AcDbEntity
 67
     1
  8
0
100
AcDbBlockEnd
  0
BLOCK
  5
2449
330
2448
100
AcDbEntity
  8
0
 48
4.0
100
AcDbBlockBegin
  2
_OPEN
 70
     0
 10
0.0
 20
0.0
 30
0.0
  3
_OPEN
  1
H1111.DWG
  0
LINE
  5
244A
330
2448
100
AcDbEntity
  8
0
  6
BYBLOCK
 62
     0
 48
4.0
100
AcDbLine
 10
-1.0
 20
0.1666666666666666
 30
0.0
 11
0.0
 21
0.0
 31
0.0
  0
LINE
  5
244B
330
2448
100
AcDbEntity
  8
0
  6
BYBLOCK
 62
     0
 48
4.0
100
AcDbLine
 10
0.0
 20
0.0
 30
0.0
 11
-1.0
 21
-0.1666666666666666
 31
0.0
  0
LINE
  5
244C
330
2448
100
AcDbEntity
  8
0
  6
BYBLOCK
 62
     0
 48
4.0
100
AcDbLine
 10
0.0
 20
0.0
 30
0.0
 11
-1.0
 21
0.0
 31
0.0
  0
ENDBLK
  5
244D
330
2448
100
AcDbEntity
  8
0
 48
4.0
100
AcDbBlockEnd
  0
BLOCK
  5
2650
330
2648
100
AcDbEntity
  8
0
100
AcDbBlockBegin
  2
YA
 70
     0
 10
0.0
 20
0.0
 30
0.0
  3
YA
  1

  0
LINE
  5
2649
330
2648
100
AcDbEntity
  8
0
100
AcDbLine
 10
-16.80650000000002
 20
2.80099999999993
 30
0.0
 11
-8.403500000000008
 21
2.80099999999993
 31
0.0
  0
LINE
  5
264A
330
2648
100
AcDbEntity
  8
0
100
AcDbLine
 10
-8.403500000000008
 20
2.80099999999993
 30
0.0
 11
-7.002499999999997
 21
1.400499999999965
 31
0.0
  0
LINE
  5
264B
330
2648
100
AcDbEntity
  8
0
100
AcDbLine
 10
-7.002499999999997
 20
1.400499999999965
 30
0.0
 11
-2.861999999999966
 21
1.400499999999965
 31
0.0
  0
LINE
  5
264C
330
2648
100
AcDbEntity
  8
0
100
AcDbLine
 10
-2.861999999999966
 20
1.400499999999965
 30
0.0
 11
-2.861999999999966
 21
2.80099999999993
 31
0.0
  0
LINE
  5
264D
330
2648
100
AcDbEntity
  8
0
100
AcDbLine
 10
-2.861999999999966
 20
2.80099999999993
 30
0.0
 11
0.0
 21
0.0
 31
0.0
  0
LINE
  5
264E
330
2648
100
AcDbEntity
  8
0
100
AcDbLine
 10
0.0
 20
0.0
 30
0.0
 11
-14.00549999999998
 21
0.0
 31
0.0
  0
LINE
  5
264F
330
2648
100
AcDbEntity
  8
0
100
AcDbLine
 10
-14.00549999999998
 20
0.0
 30
0.0
 11
-16.80650000000002
 21
2.80099999999993
 31
0.0
  0
ENDBLK
  5
2651
330
2648
100
AcDbEntity
  8
0
100
AcDbBlockEnd
  0
ENDSEC
  0
SECTION
  2
ENTITIES
  0
MTEXT
  5
ADA
330
18
100
AcDbEntity
  8
0
100
AcDbMText
 10
3801.392797717078
 20
498.4631113622277
 30
0.0
 40
2.0
 41
472.2646484874622
 71
     1
 72
     1
  1

1001
ACAD
1000
MTEXTBEGIN
1070
    73
1070
     1
1070
    44
1040
1.0
1070
    74
1070
     0
1000
MTEXTEND
1000
MTEXTBEGIN
1070
    73
1070
     1
1070
    44
1040
1.0
1070
    74
1070
     0
1000
MTEXTEND
1000
MTEXTBEGIN
1070
    73
1070
     1
1070
    44
1040
1.0
1070
    74
1070
     0
1000
MTEXTEND
1000
MTEXTBEGIN
1070
    73
1070
     1
1070
    44
1040
1.0
1070
    74
1070
     0
1000
MTEXTEND
1000
MTEXTBEGIN
1070
    73
1070
     1
1070
    44
1040
1.0
1070
    74
1070
     0
1000
MTEXTEND
  0
MTEXT
  5
ADB
330
18
100
AcDbEntity
  8
0
100
AcDbMText
 10
3890.499331669145
 20
578.5079373289909
 30
0.0
 40
2.0
 41
454.4433416970469
 71
     1
 72
     1
  1

1001
ACAD
1000
MTEXTBEGIN
1070
    73
1070
     1
1070
    44
1040
1.0
1070
    74
1070
     0
1000
MTEXTEND
1000
MTEXTBEGIN
1070
    73
1070
     1
1070
    44
1040
1.0
1070
    74
1070
     0
1000
MTEXTEND
1000
MTEXTBEGIN
1070
    73
1070
     1
1070
    44
1040
1.0
1070
    74
1070
     0
1000
MTEXTEND
1000
MTEXTBEGIN
1070
    73
1070
     1
1070
    44
1040
1.0
1070
    74
1070
     0
1000
MTEXTEND
1000
MTEXTBEGIN
1070
    73
1070
     1
1070
    44
1040
1.0
1070
    74
1070
     0
1000
MTEXTEND
  0
MTEXT
  5
ADC
330
18
100
AcDbEntity
  8
0
100
AcDbMText
 10
3837.035411297904
 20
-479.8624640549269
 30
0.0
 40
2.0
 41
516.8179154634981
 71
     1
 72
     1
  1

1001
ACAD
1000
MTEXTBEGIN
1070
    73
1070
     1
1070
    44
1040
1.0
1070
    74
1070
     0
1000
MTEXTEND
1000
MTEXTBEGIN
1070
    73
1070
     1
1070
    44
1040
1.0
1070
    74
1070
     0
1000
MTEXTEND
1000
MTEXTBEGIN
1070
    73
1070
     1
1070
    44
1040
1.0
1070
    74
1070
     0
1000
MTEXTEND
1000
MTEXTBEGIN
1070
    73
1070
     1
1070
    44
1040
1.0
1070
    74
1070
     0
1000
MTEXTEND
1000
MTEXTBEGIN
1070
    73
1070
     1
1070
    44
1040
1.0
1070
    74
1070
     0
1000
MTEXTEND
  0
TEXT
  5
2529
330
18
100
AcDbEntity
  8
0
  6
CONTINUOUS
100
AcDbText
 10
3735.0
 20
152.5
 30
0.0
 40
35.0
  1
GPGT10F1
 41
0.9
  7
PTSH
 72
     1
 11
3840.0
 21
170.0
 31
0.0
100
AcDbText
 73
     2
  0
POLYLINE
  5
2563
330
18
100
AcDbEntity
  8
0
100
AcDb2dPolyline
 66
     1
 10
0.0
 20
0.0
 30
0.0
 70
     1
  0
VERTEX
  5
3C3D
330
2563
100
AcDbEntity
  8
0
100
AcDbVertex
100
AcDb2dVertex
 10
180.0
 20
70.0
 30
0.0
  0
VERTEX
  5
3C3E
330
2563
100
AcDbEntity
  8
0
100
AcDbVertex
100
AcDb2dVertex
 10
4090.0
 20
70.0
 30
0.0
  0
VERTEX
  5
3C3F
330
2563
100
AcDbEntity
  8
0
100
AcDbVertex
100
AcDb2dVertex
 10
4090.0
 20
2820.0
 30
0.0
  0
VERTEX
  5
3C40
330
2563
100
AcDbEntity
  8
0
100
AcDbVertex
100
AcDb2dVertex
 10
180.0
 20
2820.0
 30
0.0
  0
SEQEND
  5
3C41
330
2563
100
AcDbEntity
  8
0
  0
INSERT
  5
2A84
330
18
100
AcDbEntity
  8
0
100
AcDbBlockReference
  2
YA
 10
2592.435572657134
 20
512.8847462687172
 30
0.0
 41
5.0
 42
5.0
 43
5.0
  0
INSERT
  5
2A85
330
18
100
AcDbEntity
  8
0
100
AcDbBlockReference
  2
YA
 10
2508.403072657134
 20
774.8847462687172
 30
0.0
 41
-5.0
 42
5.0
 43
5.0
  0
LINE
  5
2A86
330
18
100
AcDbEntity
  8
0
100
AcDbLine
 10
2533.816767914574
 20
2541.353971795957
 30
0.0
 11
2596.822202857718
 21
2541.353971795957
 31
0.0
  0
LINE
  5
2A87
330
18
100
AcDbEntity
  8
0
100
AcDbLine
 10
2548.822202857718
 20
2002.353971795957
 30
0.0
 11
2568.822202857719
 21
2002.353971795957
 31
0.0
  0
ARC
  5
2A88
330
18
100
AcDbEntity
  8
0
100
AcDbCircle
 10
2441.822202857718
 20
2350.353971795957
 30
0.0
 40
212.0
100
AcDbArc
 50
0.0
 51
139.4143226330004
  0
LINE
  5
2A89
330
18
100
AcDbEntity
  8
0
100
AcDbLine
 10
2458.322202857719
 20
875.8305934372886
 30
0.0
 11
2458.322202857719
 21
690.8305934372886
 31
0.0
  0
LINE
  5
2A8A
330
18
100
AcDbEntity
  8
0
100
AcDbLine
 10
2440.322202857719
 20
875.8305934372886
 30
0.0
 11
2440.322202857719
 21
690.8305934372886
 31
0.0
  0
POLYLINE
  5
2A8B
330
18
100
AcDbEntity
  8
0
100
AcDb2dPolyline
 66
     1
 10
0.0
 20
0.0
 30
0.0
  0
VERTEX
  5
3C42
330
2A8B
100
AcDbEntity
  8
0
100
AcDbVertex
100
AcDb2dVertex
 10
2238.712202857719
 20
665.7305934372886
 30
0.0
 42
0.1110900395357144
  0
VERTEX
  5
3C43
330
2A8B
100
AcDbEntity
  8
0
100
AcDbVertex
100
AcDb2dVertex
 10
2235.062447502123
 20
681.9548820917487
 30
0.0
 42
0.1028481776418138
  0
VERTEX
  5
3C44
330
2A8B
100
AcDbEntity
  8
0
100
AcDbVertex
100
AcDb2dVertex
 10
2224.246206780523
 20
696.256393181112
 30
0.0
 42
0.0929995041670857
  0
VERTEX
  5
3C45
330
2A8B
100
AcDbEntity
  8
0
100
AcDbVertex
100
AcDb2dVertex
 10
2208.515914343052
 20
705.5330193890561
 30
0.0
 42
0.0870610434407608
  0
VERTEX
  5
3C46
330
2A8B
100
AcDbEntity
  8
0
100
AcDbVertex
100
AcDb2dVertex
 10
2189.32220285772
 20
708.9005934372887
 30
0.0
 42
0.0870610434407572
  0
SEQEND
  5
3C47
330
2A8B
100
AcDbEntity
  8
0
  0
LINE
  5
2A8C
330
18
100
AcDbEntity
  8
0
100
AcDbLine
 10
2158.20220285772
 20
703.2605934372884
 30
0.0
 11
2158.20220285772
 21
848.5505934372884
 31
0.0
  0
LINE
  5
2A8D
330
18
100
AcDbEntity
  8
0
100
AcDbLine
 10
2265.822202857719
 20
862.8305934372885
 30
0.0
 11
2265.822202857719
 21
603.6165637866108
 31
0.0
  0
LINE
  5
2A8E
330
18
100
AcDbEntity
  8
0
100
AcDbLine
 10
2189.322202857719
 20
968.3305934372885
 30
0.0
 11
2189.322202857719
 21
408.3305934372885
 31
0.0
  0
LINE
  5
2A8F
330
18
100
AcDbEntity
  8
0
100
AcDbLine
 10
2161.822202857719
 20
408.3265934372887
 30
0.0
 11
2161.822202857719
 21
968.3265934372887
 31
0.0
  0
LINE
  5
2A90
330
18
100
AcDbEntity
  8
0
100
AcDbLine
 10
2163.322202857719
 20
971.3305934372886
 30
0.0
 11
2163.322202857719
 21
408.3305934372885
 31
0.0
  0
LINE
  5
2A91
330
18
100
AcDbEntity
  8
0
100
AcDbLine
 10
1762.822202857719
 20
630.3265934372887
 30
0.0
 11
1762.822202857719
 21
756.3265934372886
 31
0.0
  0
LINE
  5
2A92
330
18
100
AcDbEntity
  8
0
100
AcDbLine
 10
2300.322202857719
 20
723.8305934372886
 30
0.0
 11
2300.322202857719
 21
562.3305934372885
 31
0.0
  0
LINE
  5
2A93
330
18
100
AcDbEntity
  8
0
100
AcDbLine
 10
1425.688179849819
 20
756.3305934372886
 30
0.0
 11
1425.688179849819
 21
630.3305934372886
 31
0.0
  0
LINE
  5
2A94
330
18
100
AcDbEntity
  8
0
100
AcDbLine
 10
1001.688179849819
 20
630.3315934372886
 30
0.0
 11
1001.688179849819
 21
756.3305934372886
 31
0.0
  0
LINE
  5
2A95
330
18
100
AcDbEntity
  8
0
100
AcDbLine
 10
1361.688179849819
 20
408.3305934372885
 30
0.0
 11
1065.688179849819
 21
408.3305934372885
 31
0.0
  0
ARC
  5
2A96
330
18
100
AcDbEntity
  8
0
100
AcDbCircle
 10
1213.68817984982
 20
458.3265934372887
 30
0.0
 40
40.0
100
AcDbArc
 50
270.0
 51
0.0
  0
ARC
  5
2A97
330
18
100
AcDbEntity
  8
0
100
AcDbCircle
 10
1213.688179849819
 20
630.3305934372886
 30
0.0
 40
212.0
100
AcDbArc
 50
180.0
 51
224.9643048629102
  0
LINE
  5
2A98
330
18
100
AcDbEntity
  8
0
100
AcDbLine
 10
1138.688179849819
 20
458.3265934372887
 30
0.0
 11
1138.688179849818
 21
493.9852428396009
 31
0.0
  0
LINE
  5
2A99
330
18
100
AcDbEntity
  8
0
100
AcDbLine
 10
1063.688179849819
 20
410.3305934372886
 30
0.0
 11
1063.688179849819
 21
480.5173763968684
 31
0.0
  0
ARC
  5
2A9A
330
18
100
AcDbEntity
  8
0
100
AcDbCircle
 10
1213.68817984982
 20
1034.722710606819
 30
0.0
 40
574.1459330751752
100
AcDbArc
 50
256.7353292570042
 51
262.4940696597461
  0
ARC
  5
2A9B
330
18
100
AcDbEntity
  8
0
100
AcDbCircle
 10
1065.688179849819
 20
410.3305934372886
 30
0.0
 40
2.0
100
AcDbArc
 50
180.0
 51
270.0
  0
ARC
  5
2A9C
330
18
100
AcDbEntity
  8
0
100
AcDbCircle
 10
1178.688179849819
 20
458.3265934372887
 30
0.0
 40
40.0
100
AcDbArc
 50
180.0
 51
270.0
  0
LINE
  5
2A9D
330
18
100
AcDbEntity
  8
0
100
AcDbLine
 10
1168.688179849818
 20
439.3275934372884
 30
0.0
 11
1178.588179849819
 21
429.4275934372885
 31
0.0
  0
LINE
  5
2A9E
330
18
100
AcDbEntity
  8
0
100
AcDbLine
 10
1178.588179849819
 20
449.2265934372885
 30
0.0
 11
1168.688179849818
 21
439.3275934372884
 31
0.0
  0
CIRCLE
  5
2A9F
330
18
100
AcDbEntity
  8
0
100
AcDbCircle
 10
1178.688179849819
 20
439.3265934372887
 30
0.0
 40
10.62976594286058
  0
LINE
  5
2AA0
330
18
100
AcDbEntity
  8
0
100
AcDbLine
 10
1213.68817984982
 20
418.3265934372887
 30
0.0
 11
1178.688179849819
 21
418.3265934372887
 31
0.0
  0
LINE
  5
2AA1
330
18
100
AcDbEntity
  8
0
100
AcDbLine
 10
1203.688179849819
 20
463.3275934372884
 30
0.0
 11
1213.588179849819
 21
453.4275934372885
 31
0.0
  0
LINE
  5
2AA2
330
18
100
AcDbEntity
  8
0
100
AcDbLine
 10
1213.588179849819
 20
473.2265934372885
 30
0.0
 11
1203.688179849819
 21
463.3275934372884
 31
0.0
  0
CIRCLE
  5
2AA3
330
18
100
AcDbEntity
  8
0
100
AcDbCircle
 10
1213.688179849819
 20
463.3265934372887
 30
0.0
 40
10.62976594286058
  0
LINE
  5
2AA4
330
18
100
AcDbEntity
  8
0
100
AcDbLine
 10
1178.588179849819
 20
429.4275934372885
 30
0.0
 11
1188.488179849819
 21
439.3275934372884
 31
0.0
  0
LINE
  5
2AA5
330
18
100
AcDbEntity
  8
0
100
AcDbLine
 10
1188.488179849819
 20
439.3275934372884
 30
0.0
 11
1178.588179849819
 21
449.2265934372885
 31
0.0
  0
LINE
  5
2AA6
330
18
100
AcDbEntity
  8
0
100
AcDbLine
 10
1213.588179849819
 20
453.4275934372885
 30
0.0
 11
1223.488179849819
 21
463.3275934372884
 31
0.0
  0
LINE
  5
2AA7
330
18
100
AcDbEntity
  8
0
100
AcDbLine
 10
1223.488179849819
 20
463.3275934372884
 30
0.0
 11
1213.588179849819
 21
473.2265934372885
 31
0.0
  0
ARC
  5
2AA8
330
18
100
AcDbEntity
  8
0
100
AcDbCircle
 10
1196.188179849819
 20
747.8174873405337
 30
0.0
 40
260.263440283843
100
AcDbArc
 50
260.9777823391826
 51
279.0222176608173
  0
LINE
  5
2AA9
330
18
100
AcDbEntity
  8
0
100
AcDbLine
 10
1867.82220285772
 20
418.3265934372887
 30
0.0
 11
2113.793605328603
 21
418.3265934372887
 31
0.0
  0
ARC
  5
2AAA
330
18
100
AcDbEntity
  8
0
100
AcDbCircle
 10
1974.82220285772
 20
630.3265934372887
 30
0.0
 40
212.0
100
AcDbArc
 50
239.6874332564133
 51
270.0
  0
ARC
  5
2AAB
330
18
100
AcDbEntity
  8
0
100
AcDbCircle
 10
1213.688179849819
 20
630.3305934372886
 30
0.0
 40
212.0
100
AcDbArc
 50
315.0356951370897
 51
0.0
  0
LINE
  5
2AAC
330
18
100
AcDbEntity
  8
0
100
AcDbLine
 10
1363.688179849819
 20
410.3305934372886
 30
0.0
 11
1363.688179849819
 21
480.5173763968682
 31
0.0
  0
LINE
  5
2AAD
330
18
100
AcDbEntity
  8
0
100
AcDbLine
 10
1253.68817984982
 20
458.3265934372887
 30
0.0
 11
1253.688179849819
 21
493.9852428396009
 31
0.0
  0
ARC
  5
2AAE
330
18
100
AcDbEntity
  8
0
100
AcDbCircle
 10
1213.68817984982
 20
1034.722710606819
 30
0.0
 40
574.1459330751752
100
AcDbArc
 50
273.9949585931572
 51
283.2646707429957
  0
ARC
  5
2AAF
330
18
100
AcDbEntity
  8
0
100
AcDbCircle
 10
1361.688179849819
 20
410.3305934372886
 30
0.0
 40
2.0
100
AcDbArc
 50
270.0
 51
0.0
  0
LINE
  5
2AB0
330
18
100
AcDbEntity
  8
0
100
AcDbLine
 10
1847.822202857719
 20
568.3265934372887
 30
0.0
 11
1847.822202857719
 21
408.3265934372887
 31
0.0
  0
LINE
  5
2AB1
330
18
100
AcDbEntity
  8
0
100
AcDbLine
 10
1867.82220285772
 20
568.3265934372887
 30
0.0
 11
1867.82220285772
 21
408.3265934372887
 31
0.0
  0
LINE
  5
2AB2
330
18
100
AcDbEntity
  8
0
100
AcDbLine
 10
1814.82220285772
 20
423.3265934372886
 30
0.0
 11
1814.82220285772
 21
491.2438842315789
 31
0.0
  0
ARC
  5
2AB3
330
18
100
AcDbEntity
  8
0
100
AcDbCircle
 10
1974.82220285772
 20
630.3265934372887
 30
0.0
 40
212.0
100
AcDbArc
 50
180.0
 51
233.1976382951489
  0
LINE
  5
2AB4
330
18
100
AcDbEntity
  8
0
100
AcDbLine
 10
1819.82220285772
 20
418.3265934372887
 30
0.0
 11
1847.822202857719
 21
418.3265934372887
 31
0.0
  0
ARC
  5
2AB5
330
18
100
AcDbEntity
  8
0
100
AcDbCircle
 10
1819.82220285772
 20
423.3265934372886
 30
0.0
 40
5.0
100
AcDbArc
 50
180.0
 51
270.0
  0
LINE
  5
2AB6
330
18
100
AcDbEntity
  8
0
100
AcDbLine
 10
1814.82220285772
 20
473.8035934372885
 30
0.0
 11
1810.322202857719
 21
473.9445934372886
 31
0.0
  0
LINE
  5
2AB7
330
18
100
AcDbEntity
  8
0
100
AcDbLine
 10
1810.322202857719
 20
473.9445934372886
 30
0.0
 11
1809.82220285772
 21
473.4605934372886
 31
0.0
  0
LINE
  5
2AB8
330
18
100
AcDbEntity
  8
0
100
AcDbLine
 10
1799.82220285772
 20
473.225593437289
 30
0.0
 11
1809.82220285772
 21
473.225593437289
 31
0.0
  0
LINE
  5
2AB9
330
18
100
AcDbEntity
  8
0
100
AcDbLine
 10
1799.82220285772
 20
463.3265934372887
 30
0.0
 11
1809.82220285772
 21
463.3265934372887
 31
0.0
  0
LINE
  5
2ABA
330
18
100
AcDbEntity
  8
0
100
AcDbLine
 10
1810.322202857719
 20
452.7085934372892
 30
0.0
 11
1814.82220285772
 21
452.8485934372886
 31
0.0
  0
LINE
  5
2ABB
330
18
100
AcDbEntity
  8
0
100
AcDbLine
 10
1814.82220285772
 20
451.8035934372885
 30
0.0
 11
1810.322202857719
 21
451.9445934372886
 31
0.0
  0
LINE
  5
2ABC
330
18
100
AcDbEntity
  8
0
100
AcDbLine
 10
1809.82220285772
 20
453.1925934372886
 30
0.0
 11
1810.322202857719
 21
452.7085934372892
 31
0.0
  0
LINE
  5
2ABD
330
18
100
AcDbEntity
  8
0
100
AcDbLine
 10
1810.322202857719
 20
451.9445934372886
 30
0.0
 11
1809.82220285772
 21
451.4595934372884
 31
0.0
  0
LINE
  5
2ABE
330
18
100
AcDbEntity
  8
0
100
AcDbLine
 10
1809.82220285772
 20
453.4265934372881
 30
0.0
 11
1799.82220285772
 21
453.4265934372881
 31
0.0
  0
LINE
  5
2ABF
330
18
100
AcDbEntity
  8
0
100
AcDbLine
 10
1799.82220285772
 20
451.225593437288
 30
0.0
 11
1809.82220285772
 21
451.225593437288
 31
0.0
  0
LINE
  5
2AC0
330
18
100
AcDbEntity
  8
0
100
AcDbLine
 10
1799.82220285772
 20
441.3265934372886
 30
0.0
 11
1809.82220285772
 21
441.3265934372886
 31
0.0
  0
LINE
  5
2AC1
330
18
100
AcDbEntity
  8
0
100
AcDbLine
 10
1809.82220285772
 20
473.225593437289
 30
0.0
 11
1809.82220285772
 21
453.4265934372881
 31
0.0
  0
LINE
  5
2AC2
330
18
100
AcDbEntity
  8
0
100
AcDbLine
 10
1809.82220285772
 20
473.4605934372886
 30
0.0
 11
1809.82220285772
 21
453.1925934372886
 31
0.0
  0
LINE
  5
2AC3
330
18
100
AcDbEntity
  8
0
100
AcDbLine
 10
1799.82220285772
 20
453.4265934372881
 30
0.0
 11
1799.82220285772
 21
473.225593437289
 31
0.0
  0
LINE
  5
2AC4
330
18
100
AcDbEntity
  8
0
100
AcDbLine
 10
1810.322202857719
 20
430.707593437289
 30
0.0
 11
1814.82220285772
 21
430.8485934372886
 31
0.0
  0
LINE
  5
2AC5
330
18
100
AcDbEntity
  8
0
100
AcDbLine
 10
1809.82220285772
 20
431.1925934372887
 30
0.0
 11
1810.322202857719
 21
430.707593437289
 31
0.0
  0
LINE
  5
2AC6
330
18
100
AcDbEntity
  8
0
100
AcDbLine
 10
1809.82220285772
 20
431.4265934372886
 30
0.0
 11
1799.82220285772
 21
431.4265934372886
 31
0.0
  0
LINE
  5
2AC7
330
18
100
AcDbEntity
  8
0
100
AcDbLine
 10
1809.82220285772
 20
451.225593437288
 30
0.0
 11
1809.82220285772
 21
431.4265934372886
 31
0.0
  0
LINE
  5
2AC8
330
18
100
AcDbEntity
  8
0
100
AcDbLine
 10
1799.82220285772
 20
431.4265934372886
 30
0.0
 11
1799.82220285772
 21
451.225593437288
 31
0.0
  0
LINE
  5
2AC9
330
18
100
AcDbEntity
  8
0
100
AcDbLine
 10
1809.82220285772
 20
451.4595934372884
 30
0.0
 11
1809.82220285772
 21
431.1925934372887
 31
0.0
  0
LINE
  5
2ACA
330
18
100
AcDbEntity
  8
0
100
AcDbLine
 10
1867.82220285772
 20
408.3265934372887
 30
0.0
 11
1847.822202857719
 21
408.3265934372887
 31
0.0
  0
POLYLINE
  5
2ACB
330
18
100
AcDbEntity
  8
0
100
AcDb2dPolyline
 66
     1
 10
0.0
 20
0.0
 30
0.0
  0
VERTEX
  5
3C48
330
2ACB
100
AcDbEntity
  8
0
100
AcDbVertex
100
AcDb2dVertex
 10
2189.32220285772
 20
453.008593437288
 30
0.0
 42
0.107696942501049
  0
VERTEX
  5
3C49
330
2ACB
100
AcDbEntity
  8
0
100
AcDbVertex
100
AcDb2dVertex
 10
2207.976368626108
 20
457.07373677285
 30
0.0
 42
0.1018398349839665
  0
VERTEX
  5
3C4A
330
2ACB
100
AcDbEntity
  8
0
100
AcDbVertex
100
AcDb2dVertex
 10
2224.245508123784
 20
468.9885545625318
 30
0.0
 42
0.0945211726760977
  0
VERTEX
  5
3C4B
330
2ACB
100
AcDbEntity
  8
0
100
AcDbVertex
100
AcDb2dVertex
 10
2234.881234473311
 20
486.4445648352286
 30
0.0
 42
0.0899257565637016
  0
VERTEX
  5
3C4C
330
2ACB
100
AcDbEntity
  8
0
100
AcDbVertex
100
AcDb2dVertex
 10
2238.711214807884
 20
507.5675934372886
 30
0.0
 42
0.0899257565637006
  0
SEQEND
  5
3C4D
330
2ACB
100
AcDbEntity
  8
0
  0
ARC
  5
2ACC
330
18
100
AcDbEntity
  8
0
100
AcDbCircle
 10
2168.422202857719
 20
543.3305934372886
 30
0.0
 40
102.0
100
AcDbArc
 50
281.8237599879839
 51
346.4636253248977
  0
POLYLINE
  5
2ACD
330
18
100
AcDbEntity
  8
0
100
AcDb2dPolyline
 66
     1
 10
0.0
 20
0.0
 30
0.0
  0
VERTEX
  5
3C4E
330
2ACD
100
AcDbEntity
  8
0
100
AcDbVertex
100
AcDb2dVertex
 10
2238.712202857719
 20
584.5005934372895
 30
0.0
 42
0.1135446756219572
  0
VERTEX
  5
3C4F
330
2ACD
100
AcDbEntity
  8
0
100
AcDbVertex
100
AcDb2dVertex
 10
2235.084618972507
 20
600.2689050168275
 30
0.0
 42
0.1035052482649747
  0
VERTEX
  5
3C50
330
2ACD
100
AcDbEntity
  8
0
100
AcDbVertex
100
AcDb2dVertex
 10
2224.246206780523
 20
614.2768599930543
 30
0.0
 42
0.0918863226898913
  0
VERTEX
  5
3C51
330
2ACD
100
AcDbEntity
  8
0
100
AcDbVertex
100
AcDb2dVertex
 10
2208.565085596395
 20
623.312507516933
 30
0.0
 42
0.085075990665343
  0
VERTEX
  5
3C52
330
2ACD
100
AcDbEntity
  8
0
100
AcDbVertex
100
AcDb2dVertex
 10
2189.32220285772
 20
626.6105934372887
 30
0.0
 42
0.0850759906653445
  0
SEQEND
  5
3C53
330
2ACD
100
AcDbEntity
  8
0
  0
POLYLINE
  5
2ACE
330
18
100
AcDbEntity
  8
0
100
AcDb2dPolyline
 66
     1
 10
0.0
 20
0.0
 30
0.0
  0
VERTEX
  5
3C54
330
2ACE
100
AcDbEntity
  8
0
100
AcDbVertex
100
AcDb2dVertex
 10
2238.710936189216
 20
507.5675934372886
 30
0.0
 42
0.2303778337445353
  0
VERTEX
  5
3C55
330
2ACE
100
AcDbEntity
  8
0
100
AcDbVertex
100
AcDb2dVertex
 10
2236.403729735026
 20
512.0816403206838
 30
0.0
 42
0.0857134771080596
  0
VERTEX
  5
3C56
330
2ACE
100
AcDbEntity
  8
0
100
AcDbVertex
100
AcDb2dVertex
 10
2224.274372042475
 20
518.3107103630293
 30
0.0
 42
0.043280060836277
  0
VERTEX
  5
3C57
330
2ACE
100
AcDbEntity
  8
0
100
AcDbVertex
100
AcDb2dVertex
 10
2209.620276530325
 20
521.5402323294995
 30
0.0
 42
0.0319607229775014
  0
VERTEX
  5
3C58
330
2ACE
100
AcDbEntity
  8
0
100
AcDbVertex
100
AcDb2dVertex
 10
2189.362202857719
 20
522.8895934372888
 30
0.0
 42
0.0319607229775038
  0
SEQEND
  5
3C59
330
2ACE
100
AcDbEntity
  8
0
  0
POLYLINE
  5
2ACF
330
18
100
AcDbEntity
  8
0
100
AcDb2dPolyline
 66
     1
 10
0.0
 20
0.0
 30
0.0
  0
VERTEX
  5
3C5A
330
2ACF
100
AcDbEntity
  8
0
100
AcDbVertex
100
AcDb2dVertex
 10
2189.32220285772
 20
548.252593437289
 30
0.0
 42
0.0739141019569554
  0
VERTEX
  5
3C5B
330
2ACF
100
AcDbEntity
  8
0
100
AcDbVertex
100
AcDb2dVertex
 10
2208.830330946332
 20
551.1522868533504
 30
0.0
 42
0.0847033099063923
  0
VERTEX
  5
3C5C
330
2ACF
100
AcDbEntity
  8
0
100
AcDbVertex
100
AcDb2dVertex
 10
2224.246206780523
 20
558.8693868328384
 30
0.0
 42
0.1063598999383303
  0
VERTEX
  5
3C5D
330
2ACF
100
AcDbEntity
  8
0
100
AcDbVertex
100
AcDb2dVertex
 10
2235.23089688737
 20
571.2494660856075
 30
0.0
 42
0.1291672456714229
  0
VERTEX
  5
3C5E
330
2ACF
100
AcDbEntity
  8
0
100
AcDbVertex
100
AcDb2dVertex
 10
2238.712202857719
 20
584.5005934372887
 30
0.0
 42
0.1291672456714209
  0
SEQEND
  5
3C5F
330
2ACF
100
AcDbEntity
  8
0
  0
POLYLINE
  5
2AD0
330
18
100
AcDbEntity
  8
0
100
AcDb2dPolyline
 66
     1
 10
0.0
 20
0.0
 30
0.0
  0
VERTEX
  5
3C60
330
2AD0
100
AcDbEntity
  8
0
100
AcDbVertex
100
AcDb2dVertex
 10
2189.32220285772
 20
631.4905934372884
 30
0.0
 42
0.070022296758922
  0
VERTEX
  5
3C61
330
2AD0
100
AcDbEntity
  8
0
100
AcDbVertex
100
AcDb2dVertex
 10
2208.917774819358
 20
634.2483690578417
 30
0.0
 42
0.0818203175941617
  0
VERTEX
  5
3C62
330
2AD0
100
AcDbEntity
  8
0
100
AcDbVertex
100
AcDb2dVertex
 10
2224.246206780523
 20
641.5192572494613
 30
0.0
 42
0.1069143253087146
  0
VERTEX
  5
3C63
330
2AD0
100
AcDbEntity
  8
0
100
AcDbVertex
100
AcDb2dVertex
 10
2235.29211803281
 20
653.3384856910872
 30
0.0
 42
0.1354622733701762
  0
VERTEX
  5
3C64
330
2AD0
100
AcDbEntity
  8
0
100
AcDbVertex
100
AcDb2dVertex
 10
2238.712202857719
 20
665.7305934372886
 30
0.0
 42
0.1354622733701786
  0
SEQEND
  5
3C65
330
2AD0
100
AcDbEntity
  8
0
  0
ARC
  5
2AD1
330
18
100
AcDbEntity
  8
0
100
AcDbCircle
 10
2125.522202857719
 20
494.0265934372889
 30
0.0
 40
20.0
100
AcDbArc
 50
90.0
 51
270.0
  0
LINE
  5
2AD2
330
18
100
AcDbEntity
  8
0
100
AcDbLine
 10
2135.822202857719
 20
408.3265934372887
 30
0.0
 11
2135.822202857719
 21
568.3265934372887
 31
0.0
  0
LINE
  5
2AD3
330
18
100
AcDbEntity
  8
0
100
AcDbLine
 10
2156.822202857719
 20
408.3265934372887
 30
0.0
 11
2156.822202857719
 21
568.3265934372887
 31
0.0
  0
ARC
  5
2AD4
330
18
100
AcDbEntity
  8
0
100
AcDbCircle
 10
1825.18407988883
 20
650.7926711554203
 30
0.0
 40
299.9046610765653
100
AcDbArc
 50
317.9473567938915
 51
2.323366949997997
  0
LINE
  5
2AD5
330
18
100
AcDbEntity
  8
0
100
AcDbLine
 10
2135.822202857719
 20
408.3265934372887
 30
0.0
 11
2161.822202857719
 21
408.3265934372887
 31
0.0
  0
ARC
  5
2AD6
330
18
100
AcDbEntity
  8
0
100
AcDbCircle
 10
2125.522202857719
 20
434.5265934372885
 30
0.0
 40
20.0
100
AcDbArc
 50
90.0
 51
270.0
  0
ARC
  5
2AD7
330
18
100
AcDbEntity
  8
0
100
AcDbCircle
 10
2130.822202857719
 20
409.5265934372885
 30
0.0
 40
5.0
100
AcDbArc
 50
0.0
 51
90.0
  0
LINE
  5
2AD8
330
18
100
AcDbEntity
  8
0
100
AcDbLine
 10
2125.522202857719
 20
414.5265934372885
 30
0.0
 11
2130.822202857719
 21
414.5265934372885
 31
0.0
  0
ARC
  5
2AD9
330
18
100
AcDbEntity
  8
0
100
AcDbCircle
 10
2130.822202857719
 20
469.0265934372889
 30
0.0
 40
5.0
100
AcDbArc
 50
0.0
 51
90.0
  0
LINE
  5
2ADA
330
18
100
AcDbEntity
  8
0
100
AcDbLine
 10
2125.522202857719
 20
474.026593437289
 30
0.0
 11
2130.822202857719
 21
474.026593437289
 31
0.0
  0
LINE
  5
2ADB
330
18
100
AcDbEntity
  8
0
100
AcDbLine
 10
2125.522202857719
 20
454.5265934372885
 30
0.0
 11
2130.822202857719
 21
454.5265934372885
 31
0.0
  0
ARC
  5
2ADC
330
18
100
AcDbEntity
  8
0
100
AcDbCircle
 10
2130.822202857719
 20
459.5265934372885
 30
0.0
 40
5.0
100
AcDbArc
 50
270.0
 51
0.0
  0
LINE
  5
2ADD
330
18
100
AcDbEntity
  8
0
100
AcDbLine
 10
2199.72220285772
 20
419.0465934372885
 30
0.0
 11
2201.32220285772
 21
421.8085934372886
 31
0.0
  0
ARC
  5
2ADE
330
18
100
AcDbEntity
  8
0
100
AcDbCircle
 10
2192.79117151978
 20
423.3765934372883
 30
0.0
 40
8.172928263939018
100
AcDbArc
 50
327.9999349608691
 51
32.00006503913082
  0
LINE
  5
2ADF
330
18
100
AcDbEntity
  8
0
100
AcDbLine
 10
2189.322202857719
 20
419.0465934372885
 30
0.0
 11
2199.72220285772
 21
419.0465934372885
 31
0.0
  0
LINE
  5
2AE0
330
18
100
AcDbEntity
  8
0
100
AcDbLine
 10
2163.322202857719
 20
408.3305934372885
 30
0.0
 11
2189.322202857719
 21
408.3305934372885
 31
0.0
  0
LINE
  5
2AE1
330
18
100
AcDbEntity
  8
0
100
AcDbLine
 10
2199.72220285772
 20
427.7075934372885
 30
0.0
 11
2189.322202857719
 21
427.7075934372885
 31
0.0
  0
ARC
  5
2AE2
330
18
100
AcDbEntity
  8
0
100
AcDbCircle
 10
2192.790914991397
 20
449.3565934372884
 30
0.0
 40
8.173145813322054
100
AcDbArc
 50
328.0008879310268
 51
339.4480439959015
  0
LINE
  5
2AE3
330
18
100
AcDbEntity
  8
0
100
AcDbLine
 10
2199.72220285772
 20
445.0255934372887
 30
0.0
 11
2195.627477622
 21
445.0255934372887
 31
0.0
  0
ARC
  5
2AE4
330
18
100
AcDbEntity
  8
0
100
AcDbCircle
 10
2170.148488306498
 20
436.3665934372886
 30
0.0
 40
30.81530258422212
100
AcDbArc
 50
343.6802968976994
 51
16.31970310230057
  0
LINE
  5
2AE5
330
18
100
AcDbEntity
  8
0
100
AcDbLine
 10
2201.32220285772
 20
421.8085934372886
 30
0.0
 11
2201.32220285772
 21
446.7822117833223
 31
0.0
  0
ARC
  5
2AE6
330
18
100
AcDbEntity
  8
0
100
AcDbCircle
 10
2192.790914991398
 20
597.4895934372887
 30
0.0
 40
8.173145813321802
100
AcDbArc
 50
328.0008879310268
 51
31.99911206897319
  0
LINE
  5
2AE7
330
18
100
AcDbEntity
  8
0
100
AcDbLine
 10
2201.32220285772
 20
569.9405934372887
 30
0.0
 11
2201.32220285772
 21
599.0585934372886
 31
0.0
  0
ARC
  5
2AE8
330
18
100
AcDbEntity
  8
0
100
AcDbCircle
 10
2130.822202857719
 20
519.0265934372889
 30
0.0
 40
5.0
100
AcDbArc
 50
270.0
 51
0.0
  0
LINE
  5
2AE9
330
18
100
AcDbEntity
  8
0
100
AcDbLine
 10
2125.522202857719
 20
514.0265934372889
 30
0.0
 11
2130.822202857719
 21
514.0265934372889
 31
0.0
  0
LINE
  5
2AEA
330
18
100
AcDbEntity
  8
0
100
AcDbLine
 10
2199.72220285772
 20
486.3815934372885
 30
0.0
 11
2189.322202857719
 21
486.3815934372885
 31
0.0
  0
LINE
  5
2AEB
330
18
100
AcDbEntity
  8
0
100
AcDbLine
 10
2199.72220285772
 20
503.6995934372887
 30
0.0
 11
2189.322202857719
 21
503.6995934372887
 31
0.0
  0
LINE
  5
2AEC
330
18
100
AcDbEntity
  8
0
100
AcDbLine
 10
2199.72220285772
 20
512.3615934372885
 30
0.0
 11
2189.322202857719
 21
512.3615934372885
 31
0.0
  0
LINE
  5
2AED
330
18
100
AcDbEntity
  8
0
100
AcDbLine
 10
2189.322202857719
 20
477.7205934372879
 30
0.0
 11
2199.72220285772
 21
477.7205934372879
 31
0.0
  0
ARC
  5
2AEE
330
18
100
AcDbEntity
  8
0
100
AcDbCircle
 10
2170.148488306498
 20
495.0405934372886
 30
0.0
 40
30.81530258422212
100
AcDbArc
 50
343.6802968976994
 51
16.31970310230057
  0
ARC
  5
2AEF
330
18
100
AcDbEntity
  8
0
100
AcDbCircle
 10
2192.790914991397
 20
508.0305934372884
 30
0.0
 40
8.173145813322054
100
AcDbArc
 50
328.0008879310268
 51
31.99911206897319
  0
LINE
  5
2AF0
330
18
100
AcDbEntity
  8
0
100
AcDbLine
 10
2201.32220285772
 20
509.5995934372884
 30
0.0
 11
2199.72220285772
 21
512.3615934372885
 31
0.0
  0
LINE
  5
2AF1
330
18
100
AcDbEntity
  8
0
100
AcDbLine
 10
2199.72220285772
 20
477.7205934372879
 30
0.0
 11
2201.32220285772
 21
480.4825934372886
 31
0.0
  0
LINE
  5
2AF2
330
18
100
AcDbEntity
  8
0
100
AcDbLine
 10
2201.32220285772
 20
480.4825934372886
 30
0.0
 11
2201.32220285772
 21
509.5995934372884
 31
0.0
  0
ARC
  5
2AF3
330
18
100
AcDbEntity
  8
0
100
AcDbCircle
 10
2192.79117151978
 20
482.0505934372879
 30
0.0
 40
8.172928263939018
100
AcDbArc
 50
327.9999349608691
 51
32.00006503913082
  0
LINE
  5
2AF4
330
18
100
AcDbEntity
  8
0
100
AcDbLine
 10
2199.72220285772
 20
593.1585934372885
 30
0.0
 11
2189.322202857719
 21
593.1585934372885
 31
0.0
  0
LINE
  5
2AF5
330
18
100
AcDbEntity
  8
0
100
AcDbLine
 10
2199.72220285772
 20
575.8405934372888
 30
0.0
 11
2189.322202857719
 21
575.8405934372888
 31
0.0
  0
LINE
  5
2AF6
330
18
100
AcDbEntity
  8
0
100
AcDbLine
 10
2189.322202857719
 20
567.1795934372887
 30
0.0
 11
2199.72220285772
 21
567.1795934372887
 31
0.0
  0
LINE
  5
2AF7
330
18
100
AcDbEntity
  8
0
100
AcDbLine
 10
2199.72220285772
 20
567.1795934372887
 30
0.0
 11
2201.32220285772
 21
569.9405934372887
 31
0.0
  0
ARC
  5
2AF8
330
18
100
AcDbEntity
  8
0
100
AcDbCircle
 10
2192.790914991398
 20
571.5095934372887
 30
0.0
 40
8.173145813321802
100
AcDbArc
 50
328.0008879310268
 51
31.99911206897319
  0
ARC
  5
2AF9
330
18
100
AcDbEntity
  8
0
100
AcDbCircle
 10
2170.148488306498
 20
584.4995934372884
 30
0.0
 40
30.81530258422233
100
AcDbArc
 50
343.6802968976994
 51
16.31970310230057
  0
ARC
  5
2AFA
330
18
100
AcDbEntity
  8
0
100
AcDbCircle
 10
2106.879694291885
 20
711.775255698669
 30
0.0
 40
52.0240267464521
100
AcDbArc
 50
290.1984812779728
 51
350.580142241986
  0
LINE
  5
2AFB
330
18
100
AcDbEntity
  8
0
100
AcDbLine
 10
2201.32220285772
 20
651.1705934372887
 30
0.0
 11
2201.32220285772
 21
680.2905934372886
 31
0.0
  0
ARC
  5
2AFC
330
18
100
AcDbEntity
  8
0
100
AcDbCircle
 10
2192.792857336678
 20
652.7405934372884
 30
0.0
 40
8.1709686910404
100
AcDbArc
 50
327.9996173051574
 51
32.00038269484255
  0
LINE
  5
2AFD
330
18
100
AcDbEntity
  8
0
100
AcDbLine
 10
2189.322202857719
 20
648.4105934372885
 30
0.0
 11
2199.72220285772
 21
648.4105934372885
 31
0.0
  0
LINE
  5
2AFE
330
18
100
AcDbEntity
  8
0
100
AcDbLine
 10
2199.72220285772
 20
601.8205934372892
 30
0.0
 11
2189.322202857719
 21
601.8205934372892
 31
0.0
  0
LINE
  5
2AFF
330
18
100
AcDbEntity
  8
0
100
AcDbLine
 10
2199.72220285772
 20
648.4105934372885
 30
0.0
 11
2201.32220285772
 21
651.1705934372887
 31
0.0
  0
LINE
  5
2B00
330
18
100
AcDbEntity
  8
0
100
AcDbLine
 10
2201.32220285772
 20
599.0585934372886
 30
0.0
 11
2199.72220285772
 21
601.8205934372892
 31
0.0
  0
LINE
  5
2B01
330
18
100
AcDbEntity
  8
0
100
AcDbLine
 10
2199.72220285772
 20
657.0705934372884
 30
0.0
 11
2189.322202857719
 21
657.0705934372884
 31
0.0
  0
LINE
  5
2B02
330
18
100
AcDbEntity
  8
0
100
AcDbLine
 10
2199.72220285772
 20
674.3905934372885
 30
0.0
 11
2189.322202857719
 21
674.3905934372885
 31
0.0
  0
LINE
  5
2B03
330
18
100
AcDbEntity
  8
0
100
AcDbLine
 10
2199.72220285772
 20
683.0505934372884
 30
0.0
 11
2189.322202857719
 21
683.0505934372884
 31
0.0
  0
ARC
  5
2B04
330
18
100
AcDbEntity
  8
0
100
AcDbCircle
 10
2170.145287866894
 20
665.7305934372886
 30
0.0
 40
30.81865507082559
100
AcDbArc
 50
343.6801846146565
 51
16.31981538534343
  0
ARC
  5
2B05
330
18
100
AcDbEntity
  8
0
100
AcDbCircle
 10
2192.79274335443
 20
678.7205934372884
 30
0.0
 40
8.171065353289751
100
AcDbArc
 50
328.0000408462067
 51
31.9999591537932
  0
LINE
  5
2B06
330
18
100
AcDbEntity
  8
0
100
AcDbLine
 10
2201.32220285772
 20
680.2905934372886
 30
0.0
 11
2199.72220285772
 21
683.0505934372884
 31
0.0
  0
LINE
  5
2B07
330
18
100
AcDbEntity
  8
0
100
AcDbLine
 10
2442.322202857719
 20
598.8305934372886
 30
0.0
 11
2442.322202857719
 21
443.8305934372886
 31
0.0
  0
LINE
  5
2B08
330
18
100
AcDbEntity
  8
0
100
AcDbLine
 10
2458.322202857719
 20
598.8305934372886
 30
0.0
 11
2458.322202857719
 21
443.8305934372886
 31
0.0
  0
LINE
  5
2B09
330
18
100
AcDbEntity
  8
0
100
AcDbLine
 10
2442.322202857719
 20
443.8305934372886
 30
0.0
 11
2458.322202857719
 21
443.8305934372886
 31
0.0
  0
LINE
  5
2B0A
330
18
100
AcDbEntity
  8
0
100
AcDbLine
 10
2329.322202857719
 20
551.5805934372888
 30
0.0
 11
2433.122202857719
 21
551.5805934372886
 31
0.0
  0
LINE
  5
2B0B
330
18
100
AcDbEntity
  8
0
100
AcDbLine
 10
2329.322202857719
 20
491.0805934372881
 30
0.0
 11
2433.122202857719
 21
491.0805934372886
 31
0.0
  0
ARC
  5
2B0C
330
18
100
AcDbEntity
  8
0
100
AcDbCircle
 10
2110.322202857719
 20
558.3305934372885
 30
0.0
 40
162.0
100
AcDbArc
 50
344.9319780115837
 51
15.06802198841625
  0
LINE
  5
2B0D
330
18
100
AcDbEntity
  8
0
100
AcDbLine
 10
2329.322202857719
 20
480.3305934372885
 30
0.0
 11
2248.640654600444
 21
480.3305934372885
 31
0.0
  0
LINE
  5
2B0E
330
18
100
AcDbEntity
  8
0
100
AcDbLine
 10
2329.322202857719
 20
562.3305934372885
 30
0.0
 11
2300.322202857719
 21
562.3305934372885
 31
0.0
  0
ARC
  5
2B0F
330
18
100
AcDbEntity
  8
0
100
AcDbCircle
 10
2217.729169372137
 20
557.0994303966219
 30
0.0
 40
82.75852975439168
100
AcDbArc
 50
303.7201606115925
 51
355.4229937256657
  0
LINE
  5
2B10
330
18
100
AcDbEntity
  8
0
100
AcDbLine
 10
2329.322202857719
 20
558.0805934372886
 30
0.0
 11
2329.322202857719
 21
484.5805934372886
 31
0.0
  0
LINE
  5
2B11
330
18
100
AcDbEntity
  8
0
100
AcDbLine
 10
2329.322202857719
 20
521.3305934372885
 30
0.0
 11
2329.322202857719
 21
562.3305934372885
 31
0.0
  0
LINE
  5
2B12
330
18
100
AcDbEntity
  8
0
100
AcDbLine
 10
2329.322202857719
 20
521.3305934372885
 30
0.0
 11
2329.322202857719
 21
480.3305934372885
 31
0.0
  0
ARC
  5
2B13
330
18
100
AcDbEntity
  8
0
100
AcDbCircle
 10
2168.422202857719
 20
573.3305934372886
 30
0.0
 40
102.0
100
AcDbArc
 50
13.53637467510222
 51
17.27278143065853
  0
LINE
  5
2B14
330
18
100
AcDbEntity
  8
0
100
AcDbLine
 10
2433.122202857719
 20
551.5805934372886
 30
0.0
 11
2433.122202857719
 21
491.0805934372886
 31
0.0
  0
LINE
  5
2B15
330
18
100
AcDbEntity
  8
0
100
AcDbLine
 10
2433.122202857719
 20
491.0805934372886
 30
0.0
 11
2442.322202857719
 21
481.8805934372887
 31
0.0
  0
LINE
  5
2B16
330
18
100
AcDbEntity
  8
0
100
AcDbLine
 10
2442.322202857719
 20
560.7805934372883
 30
0.0
 11
2433.122202857719
 21
551.5805934372886
 31
0.0
  0
LINE
  5
2B17
330
18
100
AcDbEntity
  8
0
100
AcDbLine
 10
2442.322202857719
 20
598.8305934372886
 30
0.0
 11
2458.322202857719
 21
598.8305934372886
 31
0.0
  0
LINE
  5
2B18
330
18
100
AcDbEntity
  8
0
100
AcDbLine
 10
2440.322202857719
 20
690.8305934372886
 30
0.0
 11
2458.322202857719
 21
690.830593437289
 31
0.0
  0
LINE
  5
2B19
330
18
100
AcDbEntity
  8
0
100
AcDbLine
 10
2253.322202857719
 20
2565.357971795957
 30
0.0
 11
2253.322202857719
 21
2002.357971795957
 31
0.0
  0
LINE
  5
2B1A
330
18
100
AcDbEntity
  8
0
100
AcDbLine
 10
2254.822202857719
 20
2002.353971795957
 30
0.0
 11
2254.822202857719
 21
2562.353971795957
 31
0.0
  0
LINE
  5
2B1B
330
18
100
AcDbEntity
  8
0
100
AcDbLine
 10
2227.322202857719
 20
2562.357971795957
 30
0.0
 11
2227.322202857719
 21
2002.357971795957
 31
0.0
  0
LINE
  5
2B1C
330
18
100
AcDbEntity
  8
0
100
AcDbLine
 10
1976.322202857719
 20
2469.857971795957
 30
0.0
 11
1976.322202857719
 21
2284.857971795957
 31
0.0
  0
LINE
  5
2B1D
330
18
100
AcDbEntity
  8
0
100
AcDbLine
 10
1958.322202857719
 20
2469.857971795957
 30
0.0
 11
1958.322202857719
 21
2284.857971795957
 31
0.0
  0
LINE
  5
2B1E
330
18
100
AcDbEntity
  8
0
100
AcDbLine
 10
2116.322202857718
 20
2436.857971795956
 30
0.0
 11
2116.322202857718
 21
2499.357971795957
 31
0.0
  0
POLYLINE
  5
2B1F
330
18
100
AcDbEntity
  8
0
100
AcDb2dPolyline
 66
     1
 10
0.0
 20
0.0
 30
0.0
  0
VERTEX
  5
3C66
330
2B1F
100
AcDbEntity
  8
0
100
AcDbVertex
100
AcDb2dVertex
 10
2177.932202857719
 20
2440.757971795957
 30
0.0
 42
-0.1228007391858371
  0
VERTEX
  5
3C67
330
2B1F
100
AcDbEntity
  8
0
100
AcDbVertex
100
AcDb2dVertex
 10
2181.474145230591
 20
2454.961997882072
 30
0.0
 42
-0.1054625936846602
  0
VERTEX
  5
3C68
330
2B1F
100
AcDbEntity
  8
0
100
AcDbVertex
100
AcDb2dVertex
 10
2192.398198934915
 20
2467.960369668204
 30
0.0
 42
-0.0876370767901639
  0
VERTEX
  5
3C69
330
2B1F
100
AcDbEntity
  8
0
100
AcDbVertex
100
AcDb2dVertex
 10
2207.913073147777
 20
2476.17446269603
 30
0.0
 42
-0.0781808700096935
  0
VERTEX
  5
3C6A
330
2B1F
100
AcDbEntity
  8
0
100
AcDbVertex
100
AcDb2dVertex
 10
2227.322202857718
 20
2479.227971795957
 30
0.0
 42
-0.0781808700096899
  0
SEQEND
  5
3C6B
330
2B1F
100
AcDbEntity
  8
0
  0
ARC
  5
2B20
330
18
100
AcDbEntity
  8
0
100
AcDbCircle
 10
1213.688179849819
 20
756.3305934372886
 30
0.0
 40
212.0
100
AcDbArc
 50
0.0
 51
180.0
  0
LINE
  5
2B21
330
18
100
AcDbEntity
  8
0
100
AcDbLine
 10
1151.188179849819
 20
1121.330593437288
 30
0.0
 11
1276.188179849819
 21
1121.330593437288
 31
0.0
  0
LINE
  5
2B22
330
18
100
AcDbEntity
  8
0
100
AcDbLine
 10
1151.188179849819
 20
1135.330593437288
 30
0.0
 11
1276.188179849819
 21
1135.330593437288
 31
0.0
  0
ARC
  5
2B23
330
18
100
AcDbEntity
  8
0
100
AcDbCircle
 10
1213.688179849819
 20
923.3315934372887
 30
0.0
 40
24.0
100
AcDbArc
 50
0.0
 51
180.0
  0
LINE
  5
2B24
330
18
100
AcDbEntity
  8
0
100
AcDbLine
 10
1213.588179849819
 20
933.2320934372885
 30
0.0
 11
1203.688179849819
 21
923.3330934372887
 31
0.0
  0
ARC
  5
2B25
330
18
100
AcDbEntity
  8
0
100
AcDbCircle
 10
1213.688179849819
 20
842.0826703407808
 30
0.0
 40
57.5942316549036
100
AcDbArc
 50
72.45804874314398
 51
107.541951256856
  0
LINE
  5
2B26
330
18
100
AcDbEntity
  8
0
100
AcDbLine
 10
1203.688179849819
 20
923.3330934372887
 30
0.0
 11
1213.588179849819
 21
913.4330934372885
 31
0.0
  0
CIRCLE
  5
2B27
330
18
100
AcDbEntity
  8
0
100
AcDbCircle
 10
1213.688179849819
 20
923.3320934372889
 30
0.0
 40
10.62976594286058
  0
ARC
  5
2B28
330
18
100
AcDbEntity
  8
0
100
AcDbCircle
 10
1185.68817984982
 20
899.6769019956843
 30
0.0
 40
4.0
100
AcDbArc
 50
270.0
 51
0.0
  0
LINE
  5
2B29
330
18
100
AcDbEntity
  8
0
100
AcDbLine
 10
1189.688179849819
 20
923.3315934372887
 30
0.0
 11
1189.688179849819
 21
899.6769019956843
 31
0.0
  0
ARC
  5
2B2A
330
18
100
AcDbEntity
  8
0
100
AcDbCircle
 10
1241.688179849819
 20
899.6769019956843
 30
0.0
 40
4.0
100
AcDbArc
 50
180.0
 51
270.0
  0
LINE
  5
2B2B
330
18
100
AcDbEntity
  8
0
100
AcDbLine
 10
1237.688179849819
 20
923.3315934372887
 30
0.0
 11
1237.688179849819
 21
899.6769019956843
 31
0.0
  0
LINE
  5
2B2C
330
18
100
AcDbEntity
  8
0
100
AcDbLine
 10
1223.488179849819
 20
923.3330934372887
 30
0.0
 11
1213.588179849819
 21
933.2320934372885
 31
0.0
  0
LINE
  5
2B2D
330
18
100
AcDbEntity
  8
0
100
AcDbLine
 10
1213.588179849819
 20
913.4330934372885
 30
0.0
 11
1223.488179849819
 21
923.3330934372887
 31
0.0
  0
LINE
  5
2B2E
330
18
100
AcDbEntity
  8
0
100
AcDbLine
 10
1196.688179849819
 20
967.6478904103475
 30
0.0
 11
1196.688179849819
 21
1113.830593437288
 31
0.0
  0
LINE
  5
2B2F
330
18
100
AcDbEntity
  8
0
100
AcDbLine
 10
1230.688179849819
 20
967.6478904103475
 30
0.0
 11
1230.688179849819
 21
1113.830593437288
 31
0.0
  0
LINE
  5
2B62
330
18
100
AcDbEntity
  8
0
100
AcDbLine
 10
1151.188179849819
 20
1135.330593437288
 30
0.0
 11
1151.188179849819
 21
1121.330593437288
 31
0.0
  0
LINE
  5
2B63
330
18
100
AcDbEntity
  8
0
100
AcDbLine
 10
1238.188179849819
 20
1121.330593437288
 30
0.0
 11
1230.688179849819
 21
1113.830593437288
 31
0.0
  0
LINE
  5
2B64
330
18
100
AcDbEntity
  8
0
100
AcDbLine
 10
1189.188179849819
 20
1121.330593437288
 30
0.0
 11
1196.688179849819
 21
1113.830593437288
 31
0.0
  0
LINE
  5
2B65
330
18
100
AcDbEntity
  8
0
100
AcDbLine
 10
1196.688179849819
 20
1113.830593437288
 30
0.0
 11
1230.688179849819
 21
1113.830593437288
 31
0.0
  0
ARC
  5
2B66
330
18
100
AcDbEntity
  8
0
100
AcDbCircle
 10
2280.638560912112
 20
1659.027816753585
 30
0.0
 40
30.00215664841054
100
AcDbArc
 50
211.7828020222236
 51
270.0126842699353
  0
ARC
  5
2B67
330
18
100
AcDbEntity
  8
0
100
AcDbCircle
 10
2199.802296332077
 20
1609.09169841623
 30
0.0
 40
40.0
100
AcDbArc
 50
35.23913664721901
 51
73.80556916465704
  0
ARC
  5
2B68
330
18
100
AcDbEntity
  8
0
100
AcDbCircle
 10
2197.597466221469
 20
1573.656850756639
 30
0.0
 40
75.0
100
AcDbArc
 50
22.22537526638953
 51
79.41123078247497
  0
ARC
  5
2B69
330
18
100
AcDbEntity
  8
0
100
AcDbCircle
 10
2192.787741669092
 20
1641.220660840379
 30
0.0
 40
8.180500763628732
100
AcDbArc
 50
328.0000408462289
 51
31.9999591537711
  0
LINE
  5
2B6A
330
18
100
AcDbEntity
  8
0
100
AcDbLine
 10
2201.325202857721
 20
1636.632761811202
 30
0.0
 11
2201.325202857721
 21
1642.78566084038
 31
0.0
  0
LINE
  5
2B6B
330
18
100
AcDbEntity
  8
0
100
AcDbLine
 10
2189.325202857721
 20
1722.525660840379
 30
0.0
 11
2189.325202857721
 21
1634.068620046318
 31
0.0
  0
ARC
  5
2B6C
330
18
100
AcDbEntity
  8
0
100
AcDbCircle
 10
1991.99208523003
 20
1806.688776533025
 30
0.0
 40
185.7900741163913
100
AcDbArc
 50
296.0800107768651
 51
317.6482472350573
  0
LINE
  5
2B6D
330
18
100
AcDbEntity
  8
0
100
AcDbLine
 10
2161.825202857721
 20
1616.290227053859
 30
0.0
 11
2161.825202857721
 21
1724.525660840379
 31
0.0
  0
LINE
  5
2B6E
330
18
100
AcDbEntity
  8
0
100
AcDbLine
 10
2163.32520285772
 20
1617.902152065467
 30
0.0
 11
2163.32520285772
 21
1704.525660840379
 31
0.0
  0
LINE
  5
2B6F
330
18
100
AcDbEntity
  8
0
100
AcDbLine
 10
2163.32520285772
 20
1724.525660840379
 30
0.0
 11
2163.32520285772
 21
1617.902152065467
 31
0.0
  0
LINE
  5
2B70
330
18
100
AcDbEntity
  8
0
100
AcDbLine
 10
2161.825202857721
 20
1704.525660840379
 30
0.0
 11
2161.825202857721
 21
1616.290227053859
 31
0.0
  0
ARC
  5
2B71
330
18
100
AcDbEntity
  8
0
100
AcDbCircle
 10
1974.82124674574
 20
1574.52433184846
 30
0.0
 40
211.9990438921857
100
AcDbArc
 50
46.11371454038086
 51
179.9996408208819
  0
LINE
  5
2B72
330
18
100
AcDbEntity
  8
0
100
AcDbLine
 10
2440.274123103602
 20
1667.05698039852
 30
0.0
 11
2440.274123103602
 21
1482.119619514799
 31
0.0
  0
LINE
  5
2B73
330
18
100
AcDbEntity
  8
0
100
AcDbLine
 10
2458.268028486882
 20
1667.05698039852
 30
0.0
 11
2458.268028486882
 21
1482.119619514799
 31
0.0
  0
ARC
  5
2B74
330
18
100
AcDbEntity
  8
0
100
AcDbCircle
 10
1974.82220285772
 20
756.3265934372886
 30
0.0
 40
212.0
100
AcDbArc
 50
40.58567736699957
 51
180.0
  0
ARC
  5
2B75
330
18
100
AcDbEntity
  8
0
100
AcDbCircle
 10
1974.823249411628
 20
1574.521694803929
 30
0.0
 40
212.0010465910055
100
AcDbArc
 50
179.9989281319497
 51
313.8850138834311
  0
LINE
  5
2B76
330
18
100
AcDbEntity
  8
0
100
AcDbLine
 10
1276.188179849819
 20
1135.330593437288
 30
0.0
 11
1276.188179849819
 21
1121.330593437288
 31
0.0
  0
LINE
  5
2B77
330
18
100
AcDbEntity
  8
0
100
AcDbLine
 10
1814.82220285772
 20
899.0991398178865
 30
0.0
 11
1814.82220285772
 21
942.3265934372887
 31
0.0
  0
LINE
  5
2B78
330
18
100
AcDbEntity
  8
0
100
AcDbLine
 10
1814.82220285772
 20
930.7965934372885
 30
0.0
 11
1810.322202857719
 21
930.9365934372888
 31
0.0
  0
LINE
  5
2B79
330
18
100
AcDbEntity
  8
0
100
AcDbLine
 10
1810.322202857719
 20
930.9365934372888
 30
0.0
 11
1809.82220285772
 21
930.4565934372888
 31
0.0
  0
LINE
  5
2B7A
330
18
100
AcDbEntity
  8
0
100
AcDbLine
 10
1799.82220285772
 20
930.2265934372892
 30
0.0
 11
1809.82220285772
 21
930.2265934372892
 31
0.0
  0
ARC
  5
2B7B
330
18
100
AcDbEntity
  8
0
100
AcDbCircle
 10
1804.82220285772
 20
899.0991398178865
 30
0.0
 40
10.0
100
AcDbArc
 50
319.9751661144847
 51
0.0
  0
LINE
  5
2B7C
330
18
100
AcDbEntity
  8
0
100
AcDbLine
 10
1799.82220285772
 20
920.3265934372886
 30
0.0
 11
1809.82220285772
 21
920.3265934372886
 31
0.0
  0
LINE
  5
2B7D
330
18
100
AcDbEntity
  8
0
100
AcDbLine
 10
1810.322202857719
 20
909.7065934372889
 30
0.0
 11
1814.82220285772
 21
909.8465934372891
 31
0.0
  0
LINE
  5
2B7E
330
18
100
AcDbEntity
  8
0
100
AcDbLine
 10
1809.82220285772
 20
910.1865934372888
 30
0.0
 11
1810.322202857719
 21
909.7065934372889
 31
0.0
  0
LINE
  5
2B7F
330
18
100
AcDbEntity
  8
0
100
AcDbLine
 10
1809.82220285772
 20
910.426593437289
 30
0.0
 11
1799.82220285772
 21
910.426593437289
 31
0.0
  0
LINE
  5
2B80
330
18
100
AcDbEntity
  8
0
100
AcDbLine
 10
1809.82220285772
 20
930.2265934372892
 30
0.0
 11
1809.82220285772
 21
910.426593437289
 31
0.0
  0
LINE
  5
2B81
330
18
100
AcDbEntity
  8
0
100
AcDbLine
 10
1809.82220285772
 20
930.4565934372888
 30
0.0
 11
1809.82220285772
 21
910.1865934372888
 31
0.0
  0
LINE
  5
2B82
330
18
100
AcDbEntity
  8
0
100
AcDbLine
 10
1799.82220285772
 20
910.426593437289
 30
0.0
 11
1799.82220285772
 21
930.2265934372892
 31
0.0
  0
LINE
  5
2B83
330
18
100
AcDbEntity
  8
0
100
AcDbLine
 10
1882.827637800864
 20
947.3265934372887
 30
0.0
 11
1819.82220285772
 21
947.3265934372887
 31
0.0
  0
ARC
  5
2B84
330
18
100
AcDbEntity
  8
0
100
AcDbCircle
 10
1819.82220285772
 20
942.3265934372887
 30
0.0
 40
5.0
100
AcDbArc
 50
90.0
 51
180.0
  0
ARC
  5
2B85
330
18
100
AcDbEntity
  8
0
100
AcDbCircle
 10
1812.630665201501
 20
1046.154328828947
 30
0.0
 40
551.3690986840762
100
AcDbArc
 50
82.08868390036828
 51
89.24580777768795
  0
LINE
  5
2B86
330
18
100
AcDbEntity
  8
0
100
AcDbLine
 10
1819.88820285772
 20
1551.565660840379
 30
0.0
 11
1826.77120285772
 21
1551.705660840379
 31
0.0
  0
LINE
  5
2B87
330
18
100
AcDbEntity
  8
0
100
AcDbLine
 10
1814.822202857721
 20
1592.475660840379
 30
0.0
 11
1814.822202857721
 21
1556.565660840379
 31
0.0
  0
LINE
  5
2B88
330
18
100
AcDbEntity
  8
0
100
AcDbLine
 10
1810.322202857721
 20
1585.145660840379
 30
0.0
 11
1810.322202857721
 21
1563.905660840378
 31
0.0
  0
LINE
  5
2B89
330
18
100
AcDbEntity
  8
0
100
AcDbLine
 10
1814.822202857721
 20
1564.045660840379
 30
0.0
 11
1814.822202857721
 21
1584.995660840379
 31
0.0
  0
LINE
  5
2B8A
330
18
100
AcDbEntity
  8
0
100
AcDbLine
 10
1809.822202857721
 20
1584.655660840379
 30
0.0
 11
1809.822202857721
 21
1564.385660840379
 31
0.0
  0
LINE
  5
2B8B
330
18
100
AcDbEntity
  8
0
100
AcDbLine
 10
1809.822202857721
 20
1584.425660840379
 30
0.0
 11
1809.822202857721
 21
1564.625660840379
 31
0.0
  0
LINE
  5
2B8C
330
18
100
AcDbEntity
  8
0
100
AcDbLine
 10
1799.822202857721
 20
1564.625660840379
 30
0.0
 11
1799.822202857721
 21
1584.425660840379
 31
0.0
  0
ARC
  5
2B8D
330
18
100
AcDbEntity
  8
0
100
AcDbCircle
 10
1819.822242833122
 20
1556.565265743455
 30
0.0
 40
5.000039991010942
100
AcDbArc
 50
179.9954725589582
 51
270.7558620842466
  0
LINE
  5
2B8E
330
18
100
AcDbEntity
  8
0
100
AcDbLine
 10
1809.822202857721
 20
1564.385660840379
 30
0.0
 11
1810.322202857721
 21
1563.905660840378
 31
0.0
  0
LINE
  5
2B8F
330
18
100
AcDbEntity
  8
0
100
AcDbLine
 10
1810.322202857721
 20
1563.905660840378
 30
0.0
 11
1814.822202857721
 21
1564.045660840379
 31
0.0
  0
LINE
  5
2B90
330
18
100
AcDbEntity
  8
0
100
AcDbLine
 10
1809.822202857721
 20
1565.055660840379
 30
0.0
 11
1814.822202857721
 21
1565.205660840379
 31
0.0
  0
LINE
  5
2B91
330
18
100
AcDbEntity
  8
0
100
AcDbLine
 10
1819.88820285772
 20
1551.565660840379
 30
0.0
 11
1819.88820285772
 21
1551.565660840379
 31
0.0
  0
LINE
  5
2B92
330
18
100
AcDbEntity
  8
0
100
AcDbLine
 10
1799.822202857721
 20
1574.525660840379
 30
0.0
 11
1809.822202857721
 21
1574.525660840379
 31
0.0
  0
LINE
  5
2B93
330
18
100
AcDbEntity
  8
0
100
AcDbLine
 10
1809.822202857721
 20
1564.625660840379
 30
0.0
 11
1799.822202857721
 21
1564.625660840379
 31
0.0
  0
LINE
  5
2B94
330
18
100
AcDbEntity
  8
0
100
AcDbLine
 10
1809.822202857721
 20
1583.995660840379
 30
0.0
 11
1814.822202857721
 21
1583.835660840379
 31
0.0
  0
LINE
  5
2B95
330
18
100
AcDbEntity
  8
0
100
AcDbLine
 10
1814.822202857721
 20
1584.995660840379
 30
0.0
 11
1810.322202857721
 21
1585.145660840379
 31
0.0
  0
LINE
  5
2B96
330
18
100
AcDbEntity
  8
0
100
AcDbLine
 10
1810.322202857721
 20
1585.145660840379
 30
0.0
 11
1809.822202857721
 21
1584.655660840379
 31
0.0
  0
LINE
  5
2B97
330
18
100
AcDbEntity
  8
0
100
AcDbLine
 10
1799.822202857721
 20
1584.425660840379
 30
0.0
 11
1809.822202857721
 21
1584.425660840379
 31
0.0
  0
ARC
  5
2B98
330
18
100
AcDbEntity
  8
0
100
AcDbCircle
 10
1819.822251233652
 20
1592.476047425885
 30
0.0
 40
5.000048390875921
100
AcDbArc
 50
89.24423545610229
 51
180.0044299007112
  0
LINE
  5
2B99
330
18
100
AcDbEntity
  8
0
100
AcDbLine
 10
1861.153202857721
 20
1553.665660840379
 30
0.0
 11
1868.01120285772
 21
1554.315660840379
 31
0.0
  0
LINE
  5
2B9A
330
18
100
AcDbEntity
  8
0
100
AcDbLine
 10
1833.65420285772
 20
1551.925660840379
 30
0.0
 11
1840.53520285772
 21
1552.225660840379
 31
0.0
  0
LINE
  5
2B9B
330
18
100
AcDbEntity
  8
0
100
AcDbLine
 10
1826.77120285772
 20
1551.705660840379
 30
0.0
 11
1833.65420285772
 21
1551.925660840379
 31
0.0
  0
LINE
  5
2B9C
330
18
100
AcDbEntity
  8
0
100
AcDbLine
 10
1854.286202857721
 20
1553.095660840379
 30
0.0
 11
1861.153202857721
 21
1553.665660840379
 31
0.0
  0
LINE
  5
2B9D
330
18
100
AcDbEntity
  8
0
100
AcDbLine
 10
1847.41320285772
 20
1552.61566084038
 30
0.0
 11
1854.286202857721
 21
1553.095660840379
 31
0.0
  0
LINE
  5
2B9E
330
18
100
AcDbEntity
  8
0
100
AcDbLine
 10
1840.53520285772
 20
1552.225660840379
 30
0.0
 11
1847.41320285772
 21
1552.61566084038
 31
0.0
  0
LINE
  5
2B9F
330
18
100
AcDbEntity
  8
0
100
AcDbLine
 10
1874.86020285772
 20
1555.045660840379
 30
0.0
 11
1888.52120285772
 21
1556.775660840379
 31
0.0
  0
LINE
  5
2BA0
330
18
100
AcDbEntity
  8
0
100
AcDbLine
 10
1868.01120285772
 20
1554.315660840379
 30
0.0
 11
1874.86020285772
 21
1555.045660840379
 31
0.0
  0
ARC
  5
2BA1
330
18
100
AcDbEntity
  8
0
100
AcDbCircle
 10
2203.82220285772
 20
895.0579684325818
 30
0.0
 40
62.0
100
AcDbArc
 50
8.134304017786746
 51
66.92463879631363
  0
POLYLINE
  5
2BA2
330
18
100
AcDbEntity
  8
0
100
AcDb2dPolyline
 66
     1
 10
0.0
 20
0.0
 30
0.0
  0
VERTEX
  5
3C6C
330
2BA2
100
AcDbEntity
  8
0
100
AcDbVertex
100
AcDb2dVertex
 10
2238.712202857719
 20
932.2805934372883
 30
0.0
 42
0.1427397834356985
  0
VERTEX
  5
3C6D
330
2BA2
100
AcDbEntity
  8
0
100
AcDbVertex
100
AcDb2dVertex
 10
2235.364341879897
 20
943.768804422879
 30
0.0
 42
0.107172048130841
  0
VERTEX
  5
3C6E
330
2BA2
100
AcDbEntity
  8
0
100
AcDbVertex
100
AcDb2dVertex
 10
2224.246206780523
 20
954.9928632490003
 30
0.0
 42
0.0785305341780621
  0
VERTEX
  5
3C6F
330
2BA2
100
AcDbEntity
  8
0
100
AcDbVertex
100
AcDb2dVertex
 10
2209.007658416337
 20
961.7956164519167
 30
0.0
 42
0.0658778674229943
  0
VERTEX
  5
3C70
330
2BA2
100
AcDbEntity
  8
0
100
AcDbVertex
100
AcDb2dVertex
 10
2189.32220285772
 20
964.4005934372888
 30
0.0
 42
0.0658778674229922
  0
SEQEND
  5
3C71
330
2BA2
100
AcDbEntity
  8
0
  0
POLYLINE
  5
2BA3
330
18
100
AcDbEntity
  8
0
100
AcDb2dPolyline
 66
     1
 10
0.0
 20
0.0
 30
0.0
  0
VERTEX
  5
3C72
330
2BA3
100
AcDbEntity
  8
0
100
AcDbVertex
100
AcDb2dVertex
 10
2189.32220285772
 20
918.5905934372888
 30
0.0
 42
0.0285857464481538
  0
VERTEX
  5
3C73
330
2BA3
100
AcDbEntity
  8
0
100
AcDbVertex
100
AcDb2dVertex
 10
2209.622211787575
 20
919.7521243927129
 30
0.0
 42
0.0390401790878681
  0
VERTEX
  5
3C74
330
2BA3
100
AcDbEntity
  8
0
100
AcDbVertex
100
AcDb2dVertex
 10
2224.246206780523
 20
922.6003016028446
 30
0.0
 42
0.0800061155234741
  0
VERTEX
  5
3C75
330
2BA3
100
AcDbEntity
  8
0
100
AcDbVertex
100
AcDb2dVertex
 10
2236.558496579318
 20
928.2479516609102
 30
0.0
 42
0.2503039277320076
  0
VERTEX
  5
3C76
330
2BA3
100
AcDbEntity
  8
0
100
AcDbVertex
100
AcDb2dVertex
 10
2238.712202857719
 20
932.280593437288
 30
0.0
 42
0.2503039277320068
  0
SEQEND
  5
3C77
330
2BA3
100
AcDbEntity
  8
0
  0
POLYLINE
  5
2BA4
330
18
100
AcDbEntity
  8
0
100
AcDb2dPolyline
 66
     1
 10
0.0
 20
0.0
 30
0.0
  0
VERTEX
  5
3C78
330
2BA4
100
AcDbEntity
  8
0
100
AcDbVertex
100
AcDb2dVertex
 10
2189.32220285772
 20
806.7305934372891
 30
0.0
 42
0.0810936847216324
  0
VERTEX
  5
3C79
330
2BA4
100
AcDbEntity
  8
0
100
AcDbVertex
100
AcDb2dVertex
 10
2208.662000831296
 20
809.8880282740148
 30
0.0
 42
0.0895054263486445
  0
VERTEX
  5
3C7A
330
2BA4
100
AcDbEntity
  8
0
100
AcDbVertex
100
AcDb2dVertex
 10
2224.246206780523
 20
818.4463221898269
 30
0.0
 42
0.104703589997003
  0
VERTEX
  5
3C7B
330
2BA4
100
AcDbEntity
  8
0
100
AcDbVertex
100
AcDb2dVertex
 10
2235.132350427539
 20
831.8694249041429
 30
0.0
 42
0.118744877453476
  0
VERTEX
  5
3C7C
330
2BA4
100
AcDbEntity
  8
0
100
AcDbVertex
100
AcDb2dVertex
 10
2238.712202857719
 20
846.7305934372891
 30
0.0
 42
0.1187448774534761
  0
SEQEND
  5
3C7D
330
2BA4
100
AcDbEntity
  8
0
  0
POLYLINE
  5
2BA5
330
18
100
AcDbEntity
  8
0
100
AcDb2dPolyline
 66
     1
 10
0.0
 20
0.0
 30
0.0
  0
VERTEX
  5
3C7E
330
2BA5
100
AcDbEntity
  8
0
100
AcDbVertex
100
AcDb2dVertex
 10
2238.712202857719
 20
846.7305934372891
 30
0.0
 42
0.1228007391858371
  0
VERTEX
  5
3C7F
330
2BA5
100
AcDbEntity
  8
0
100
AcDbVertex
100
AcDb2dVertex
 10
2235.170260484847
 20
860.9346195234026
 30
0.0
 42
0.1054625936846602
  0
VERTEX
  5
3C80
330
2BA5
100
AcDbEntity
  8
0
100
AcDbVertex
100
AcDb2dVertex
 10
2224.246206780523
 20
873.932991309535
 30
0.0
 42
0.0876370767901639
  0
VERTEX
  5
3C81
330
2BA5
100
AcDbEntity
  8
0
100
AcDbVertex
100
AcDb2dVertex
 10
2208.731332567661
 20
882.147084337361
 30
0.0
 42
0.0781808700096935
  0
VERTEX
  5
3C82
330
2BA5
100
AcDbEntity
  8
0
100
AcDbVertex
100
AcDb2dVertex
 10
2189.32220285772
 20
885.2005934372884
 30
0.0
 42
0.0781808700096899
  0
SEQEND
  5
3C83
330
2BA5
100
AcDbEntity
  8
0
  0
POLYLINE
  5
2BA6
330
18
100
AcDbEntity
  8
0
100
AcDb2dPolyline
 66
     1
 10
0.0
 20
0.0
 30
0.0
  0
VERTEX
  5
3C84
330
2BA6
100
AcDbEntity
  8
0
100
AcDbVertex
100
AcDb2dVertex
 10
2238.45220285772
 20
753.3305934372886
 30
0.0
 42
0.1111876059378975
  0
VERTEX
  5
3C85
330
2BA6
100
AcDbEntity
  8
0
100
AcDbVertex
100
AcDb2dVertex
 10
2234.822532741911
 20
769.4510846644427
 30
0.0
 42
0.1028754415618672
  0
VERTEX
  5
3C86
330
2BA6
100
AcDbEntity
  8
0
100
AcDbVertex
100
AcDb2dVertex
 10
2224.062359017414
 20
783.6654743501915
 30
0.0
 42
0.0929554327226999
  0
VERTEX
  5
3C87
330
2BA6
100
AcDbEntity
  8
0
100
AcDbVertex
100
AcDb2dVertex
 10
2208.416862696192
 20
792.8835339438348
 30
0.0
 42
0.0869807794646978
  0
VERTEX
  5
3C88
330
2BA6
100
AcDbEntity
  8
0
100
AcDbVertex
100
AcDb2dVertex
 10
2189.32220285772
 20
796.2305934372887
 30
0.0
 42
0.0869807794646999
  0
SEQEND
  5
3C89
330
2BA6
100
AcDbEntity
  8
0
  0
POLYLINE
  5
2BA7
330
18
100
AcDbEntity
  8
0
100
AcDb2dPolyline
 66
     1
 10
0.0
 20
0.0
 30
0.0
  0
VERTEX
  5
3C8A
330
2BA7
100
AcDbEntity
  8
0
100
AcDbVertex
100
AcDb2dVertex
 10
2189.32220285772
 20
716.2305934372887
 30
0.0
 42
0.0759324646691649
  0
VERTEX
  5
3C8B
330
2BA7
100
AcDbEntity
  8
0
100
AcDbVertex
100
AcDb2dVertex
 10
2208.681442307675
 20
719.1876324843217
 30
0.0
 42
0.0861204956053751
  0
VERTEX
  5
3C8C
330
2BA7
100
AcDbEntity
  8
0
100
AcDbVertex
100
AcDb2dVertex
 10
2224.062359017414
 20
727.0969318552677
 30
0.0
 42
0.1059698406576102
  0
VERTEX
  5
3C8D
330
2BA7
100
AcDbEntity
  8
0
100
AcDbVertex
100
AcDb2dVertex
 10
2234.959899230628
 20
739.702266268808
 30
0.0
 42
0.126089610326612
  0
VERTEX
  5
3C8E
330
2BA7
100
AcDbEntity
  8
0
100
AcDbVertex
100
AcDb2dVertex
 10
2238.45220285772
 20
753.3305934372886
 30
0.0
 42
0.1260896103266131
  0
SEQEND
  5
3C8F
330
2BA7
100
AcDbEntity
  8
0
  0
LINE
  5
2BA8
330
18
100
AcDbEntity
  8
0
100
AcDbLine
 10
2300.322202857719
 20
903.8305934372885
 30
0.0
 11
2231.822202857719
 21
903.8305934372885
 31
0.0
  0
LINE
  5
2BA9
330
18
100
AcDbEntity
  8
0
100
AcDbLine
 10
2145.822202857719
 20
1135.330593437288
 30
0.0
 11
2270.822202857719
 21
1135.330593437288
 31
0.0
  0
LINE
  5
2BAA
330
18
100
AcDbEntity
  8
0
100
AcDbLine
 10
2274.322202857719
 20
971.3305934372886
 30
0.0
 11
2163.322202857719
 21
971.3305934372886
 31
0.0
  0
LINE
  5
2BAB
330
18
100
AcDbEntity
  8
0
100
AcDbLine
 10
2145.822202857719
 20
1121.330593437288
 30
0.0
 11
2270.822202857719
 21
1121.330593437288
 31
0.0
  0
LINE
  5
2BAC
330
18
100
AcDbEntity
  8
0
100
AcDbLine
 10
2298.322202857719
 20
968.3305934372885
 30
0.0
 11
2163.322202857719
 21
968.3305934372885
 31
0.0
  0
LINE
  5
2BAD
330
18
100
AcDbEntity
  8
0
100
AcDbLine
 10
2253.322202857719
 20
982.3305934372886
 30
0.0
 11
2234.82220285772
 21
982.3305934372886
 31
0.0
  0
LINE
  5
2BAE
330
18
100
AcDbEntity
  8
0
100
AcDbLine
 10
2271.822202857719
 20
971.3305934372886
 30
0.0
 11
2234.82220285772
 21
971.3305934372886
 31
0.0
  0
LINE
  5
2BAF
330
18
100
AcDbEntity
  8
0
100
AcDbLine
 10
2234.82220285772
 20
972.3305934372886
 30
0.0
 11
2271.822202857719
 21
972.3305934372886
 31
0.0
  0
ARC
  5
2BB0
330
18
100
AcDbEntity
  8
0
100
AcDbCircle
 10
2236.80720285772
 20
972.1458315325273
 30
0.0
 40
9.842470172893651
100
AcDbArc
 50
64.51478554771965
 51
115.4852144522803
  0
LINE
  5
2BB1
330
18
100
AcDbEntity
  8
0
100
AcDbLine
 10
2234.82220285772
 20
972.3305934372886
 30
0.0
 11
2238.322202857719
 21
972.3305934372886
 31
0.0
  0
ARC
  5
2BB2
330
18
100
AcDbEntity
  8
0
100
AcDbCircle
 10
2236.80720285772
 20
982.5153553420507
 30
0.0
 40
9.842470172893651
100
AcDbArc
 50
244.5147855477196
 51
295.4852144522803
  0
ARC
  5
2BB3
330
18
100
AcDbEntity
  8
0
100
AcDbCircle
 10
2192.792543878423
 20
945.2905934372886
 30
0.0
 40
8.171234519297257
100
AcDbArc
 50
328.0007820452305
 51
31.99921795476944
  0
LINE
  5
2BB4
330
18
100
AcDbEntity
  8
0
100
AcDbLine
 10
2201.32220285772
 20
946.8605934372888
 30
0.0
 11
2201.32220285772
 21
918.9956127668731
 31
0.0
  0
ARC
  5
2BB5
330
18
100
AcDbEntity
  8
0
100
AcDbCircle
 10
2192.784599022619
 20
769.2155934372888
 30
0.0
 40
8.180621735101421
100
AcDbArc
 50
328.0005702738149
 51
31.9994297261851
  0
LINE
  5
2BB6
330
18
100
AcDbEntity
  8
0
100
AcDbLine
 10
2201.32220285772
 20
741.6705934372887
 30
0.0
 11
2201.32220285772
 21
770.7805934372884
 31
0.0
  0
LINE
  5
2BB7
330
18
100
AcDbEntity
  8
0
100
AcDbLine
 10
2199.72220285772
 20
764.8805934372887
 30
0.0
 11
2189.322202857719
 21
764.8805934372887
 31
0.0
  0
LINE
  5
2BB8
330
18
100
AcDbEntity
  8
0
100
AcDbLine
 10
2189.322202857719
 20
738.9105934372885
 30
0.0
 11
2199.72220285772
 21
738.9105934372885
 31
0.0
  0
LINE
  5
2BB9
330
18
100
AcDbEntity
  8
0
100
AcDbLine
 10
2199.72220285772
 20
747.5705934372883
 30
0.0
 11
2189.322202857719
 21
747.5705934372883
 31
0.0
  0
LINE
  5
2BBA
330
18
100
AcDbEntity
  8
0
100
AcDbLine
 10
2199.72220285772
 20
738.9105934372885
 30
0.0
 11
2201.32220285772
 21
741.6705934372887
 31
0.0
  0
ARC
  5
2BBB
330
18
100
AcDbEntity
  8
0
100
AcDbCircle
 10
2192.784798726393
 20
743.2355934372883
 30
0.0
 40
8.180452376326213
100
AcDbArc
 50
327.999829075573
 51
32.000170924427
  0
ARC
  5
2BBC
330
18
100
AcDbEntity
  8
0
100
AcDbCircle
 10
2170.162364607651
 20
756.2255934372881
 30
0.0
 40
30.80086139006892
100
AcDbArc
 50
343.6801846146565
 51
16.31981538534343
  0
LINE
  5
2BBD
330
18
100
AcDbEntity
  8
0
100
AcDbLine
 10
2199.72220285772
 20
773.5505934372883
 30
0.0
 11
2189.322202857719
 21
773.5505934372883
 31
0.0
  0
LINE
  5
2BBE
330
18
100
AcDbEntity
  8
0
100
AcDbLine
 10
2201.32220285772
 20
770.7805934372884
 30
0.0
 11
2199.72220285772
 21
773.5505934372883
 31
0.0
  0
LINE
  5
2BBF
330
18
100
AcDbEntity
  8
0
100
AcDbLine
 10
2199.72220285772
 20
864.0505934372889
 30
0.0
 11
2189.322202857719
 21
864.0505934372889
 31
0.0
  0
LINE
  5
2BC0
330
18
100
AcDbEntity
  8
0
100
AcDbLine
 10
2199.72220285772
 20
855.3805934372887
 30
0.0
 11
2189.322202857719
 21
855.3805934372887
 31
0.0
  0
LINE
  5
2BC1
330
18
100
AcDbEntity
  8
0
100
AcDbLine
 10
2189.322202857719
 20
829.4105934372884
 30
0.0
 11
2199.72220285772
 21
829.4105934372884
 31
0.0
  0
LINE
  5
2BC2
330
18
100
AcDbEntity
  8
0
100
AcDbLine
 10
2199.72220285772
 20
838.0705934372883
 30
0.0
 11
2189.322202857719
 21
838.0705934372883
 31
0.0
  0
LINE
  5
2BC3
330
18
100
AcDbEntity
  8
0
100
AcDbLine
 10
2201.32220285772
 20
861.2905934372886
 30
0.0
 11
2199.72220285772
 21
864.0505934372889
 31
0.0
  0
ARC
  5
2BC4
330
18
100
AcDbEntity
  8
0
100
AcDbCircle
 10
2192.784599022619
 20
859.7155934372889
 30
0.0
 40
8.180621735101421
100
AcDbArc
 50
328.0005702738149
 51
31.9994297261851
  0
ARC
  5
2BC5
330
18
100
AcDbEntity
  8
0
100
AcDbCircle
 10
2192.792600872485
 20
833.7405934372885
 30
0.0
 40
8.171186185234011
100
AcDbArc
 50
328.0005702738149
 51
31.9994297261851
  0
LINE
  5
2BC6
330
18
100
AcDbEntity
  8
0
100
AcDbLine
 10
2199.72220285772
 20
829.4105934372884
 30
0.0
 11
2201.32220285772
 21
832.1705934372888
 31
0.0
  0
ARC
  5
2BC7
330
18
100
AcDbEntity
  8
0
100
AcDbCircle
 10
2170.162364607651
 20
846.7255934372886
 30
0.0
 40
30.80086139006892
100
AcDbArc
 50
343.6801846146565
 51
16.31981538534343
  0
LINE
  5
2BC8
330
18
100
AcDbEntity
  8
0
100
AcDbLine
 10
2201.32220285772
 20
832.1705934372888
 30
0.0
 11
2201.32220285772
 21
861.2905934372886
 31
0.0
  0
LINE
  5
2BC9
330
18
100
AcDbEntity
  8
0
100
AcDbLine
 10
2189.322202857719
 20
940.9605934372887
 30
0.0
 11
2199.72220285772
 21
940.9605934372887
 31
0.0
  0
LINE
  5
2BCA
330
18
100
AcDbEntity
  8
0
100
AcDbLine
 10
2189.322202857719
 20
940.9605934372887
 30
0.0
 11
2199.72220285772
 21
940.9605934372887
 31
0.0
  0
LINE
  5
2BCB
330
18
100
AcDbEntity
  8
0
100
AcDbLine
 10
2189.322202857719
 20
918.5905934372888
 30
0.0
 11
2196.472202857719
 21
918.7405934372884
 31
0.0
  0
LINE
  5
2BCC
330
18
100
AcDbEntity
  8
0
100
AcDbLine
 10
2189.322202857719
 20
923.6405934372886
 30
0.0
 11
2199.72220285772
 21
923.6405934372886
 31
0.0
  0
LINE
  5
2BCD
330
18
100
AcDbEntity
  8
0
100
AcDbLine
 10
2189.322202857719
 20
940.9605934372887
 30
0.0
 11
2189.322202857719
 21
940.9605934372887
 31
0.0
  0
LINE
  5
2BCE
330
18
100
AcDbEntity
  8
0
100
AcDbLine
 10
2196.472202857719
 20
918.7405934372884
 30
0.0
 11
2203.832202857719
 21
919.2005934372884
 31
0.0
  0
ARC
  5
2BCF
330
18
100
AcDbEntity
  8
0
100
AcDbCircle
 10
2192.792543878423
 20
919.3105934372885
 30
0.0
 40
8.171234519297257
100
AcDbArc
 50
357.9689504085869
 51
31.99921795476944
  0
ARC
  5
2BD0
330
18
100
AcDbEntity
  8
0
100
AcDbCircle
 10
2170.145287866894
 20
932.3005934372888
 30
0.0
 40
30.81865507082537
100
AcDbArc
 50
343.6801846146565
 51
16.31981538534343
  0
ARC
  5
2BD1
330
18
100
AcDbEntity
  8
0
100
AcDbCircle
 10
2072.32220285772
 20
983.3265934372887
 30
0.0
 40
15.0
100
AcDbArc
 50
180.0
 51
270.0
  0
ARC
  5
2BD2
330
18
100
AcDbEntity
  8
0
100
AcDbCircle
 10
1977.32220285772
 20
983.3265934372887
 30
0.0
 40
15.0
100
AcDbArc
 50
270.0
 51
0.0
  0
CIRCLE
  5
2BD3
330
18
100
AcDbEntity
  8
0
100
AcDbCircle
 10
2024.82220285772
 20
985.8265934372887
 30
0.0
 40
17.5
  0
ARC
  5
2BD4
330
18
100
AcDbEntity
  8
0
100
AcDbCircle
 10
2024.82220285772
 20
985.8265934372887
 30
0.0
 40
32.5
100
AcDbArc
 50
0.0
 51
180.0
  0
LINE
  5
2BD5
330
18
100
AcDbEntity
  8
0
100
AcDbLine
 10
1992.32220285772
 20
985.8265934372887
 30
0.0
 11
1992.32220285772
 21
983.3265934372887
 31
0.0
  0
LINE
  5
2BD6
330
18
100
AcDbEntity
  8
0
100
AcDbLine
 10
2057.32220285772
 20
985.8265934372887
 30
0.0
 11
2057.32220285772
 21
983.3265934372887
 31
0.0
  0
LINE
  5
2BD7
330
18
100
AcDbEntity
  8
0
100
AcDbLine
 10
2191.322202857719
 20
971.3305934372886
 30
0.0
 11
2191.322202857719
 21
1113.830593437288
 31
0.0
  0
LINE
  5
2BD8
330
18
100
AcDbEntity
  8
0
100
AcDbLine
 10
2225.322202857718
 20
971.3305934372886
 30
0.0
 11
2225.322202857719
 21
1113.830593437288
 31
0.0
  0
LINE
  5
2BD9
330
18
100
AcDbEntity
  8
0
100
AcDbLine
 10
2161.822202857719
 20
968.3265934372887
 30
0.0
 11
2072.32220285772
 21
968.3265934372887
 31
0.0
  0
LINE
  5
2BDA
330
18
100
AcDbEntity
  8
0
100
AcDbLine
 10
2189.322202857719
 20
949.6205934372886
 30
0.0
 11
2199.72220285772
 21
949.6205934372886
 31
0.0
  0
LINE
  5
2BDB
330
18
100
AcDbEntity
  8
0
100
AcDbLine
 10
2189.322202857719
 20
949.6205934372886
 30
0.0
 11
2199.72220285772
 21
949.6205934372886
 31
0.0
  0
LINE
  5
2BDC
330
18
100
AcDbEntity
  8
0
100
AcDbLine
 10
2199.72220285772
 20
949.6205934372886
 30
0.0
 11
2201.32220285772
 21
946.8605934372888
 31
0.0
  0
LINE
  5
2BDD
330
18
100
AcDbEntity
  8
0
100
AcDbLine
 10
2234.82220285772
 20
982.3305934372886
 30
0.0
 11
2232.57220285772
 21
981.0305934372884
 31
0.0
  0
LINE
  5
2BDE
330
18
100
AcDbEntity
  8
0
100
AcDbLine
 10
2234.82220285772
 20
971.3305934372886
 30
0.0
 11
2234.82220285772
 21
972.3305934372886
 31
0.0
  0
LINE
  5
2BDF
330
18
100
AcDbEntity
  8
0
100
AcDbLine
 10
2232.57220285772
 20
973.6305934372888
 30
0.0
 11
2234.82220285772
 21
972.3305934372886
 31
0.0
  0
LINE
  5
2BE0
330
18
100
AcDbEntity
  8
0
100
AcDbLine
 10
2232.57220285772
 20
981.0305934372884
 30
0.0
 11
2232.57220285772
 21
973.6305934372888
 31
0.0
  0
LINE
  5
2BE1
330
18
100
AcDbEntity
  8
0
100
AcDbLine
 10
2145.822202857719
 20
1135.330593437288
 30
0.0
 11
2145.822202857719
 21
1121.330593437288
 31
0.0
  0
LINE
  5
2BE2
330
18
100
AcDbEntity
  8
0
100
AcDbLine
 10
2183.822202857719
 20
1121.330593437288
 30
0.0
 11
2191.322202857719
 21
1113.830593437288
 31
0.0
  0
LINE
  5
2BE3
330
18
100
AcDbEntity
  8
0
100
AcDbLine
 10
2232.822202857719
 20
1121.330593437288
 30
0.0
 11
2225.322202857719
 21
1113.830593437288
 31
0.0
  0
LINE
  5
2BE4
330
18
100
AcDbEntity
  8
0
100
AcDbLine
 10
2191.322202857719
 20
1113.830593437288
 30
0.0
 11
2225.322202857719
 21
1113.830593437288
 31
0.0
  0
LINE
  5
2BE5
330
18
100
AcDbEntity
  8
0
100
AcDbLine
 10
2298.322202857719
 20
905.3305934372886
 30
0.0
 11
2298.322202857719
 21
968.3305934372885
 31
0.0
  0
LINE
  5
2BE6
330
18
100
AcDbEntity
  8
0
100
AcDbLine
 10
2361.822202857719
 20
923.330593437288
 30
0.0
 11
2361.822202857719
 21
957.3305934372886
 31
0.0
  0
LINE
  5
2BE7
330
18
100
AcDbEntity
  8
0
100
AcDbLine
 10
2369.322202857719
 20
877.8305934372886
 30
0.0
 11
2369.322202857719
 21
1002.830593437288
 31
0.0
  0
LINE
  5
2BE8
330
18
100
AcDbEntity
  8
0
100
AcDbLine
 10
2383.322202857719
 20
877.8305934372886
 30
0.0
 11
2383.322202857719
 21
1002.830593437288
 31
0.0
  0
LINE
  5
2BE9
330
18
100
AcDbEntity
  8
0
100
AcDbLine
 10
2329.322202857719
 20
738.7805934372884
 30
0.0
 11
2427.622202857719
 21
738.7805934372884
 31
0.0
  0
LINE
  5
2BEA
330
18
100
AcDbEntity
  8
0
100
AcDbLine
 10
2329.322202857719
 20
827.8805934372892
 30
0.0
 11
2427.622202857719
 21
827.8805934372888
 31
0.0
  0
LINE
  5
2BEB
330
18
100
AcDbEntity
  8
0
100
AcDbLine
 10
2369.322202857719
 20
877.8305934372886
 30
0.0
 11
2383.322202857719
 21
877.8305934372886
 31
0.0
  0
LINE
  5
2BEC
330
18
100
AcDbEntity
  8
0
100
AcDbLine
 10
2329.322202857719
 20
783.3305934372885
 30
0.0
 11
2329.322202857719
 21
837.8305934372885
 31
0.0
  0
LINE
  5
2BED
330
18
100
AcDbEntity
  8
0
100
AcDbLine
 10
2329.322202857719
 20
728.8305934372885
 30
0.0
 11
2305.322202857719
 21
728.8305934372885
 31
0.0
  0
ARC
  5
2BEE
330
18
100
AcDbEntity
  8
0
100
AcDbCircle
 10
2305.322202857719
 20
723.8305934372886
 30
0.0
 40
5.0
100
AcDbArc
 50
90.0
 51
180.0
  0
LINE
  5
2BEF
330
18
100
AcDbEntity
  8
0
100
AcDbLine
 10
2329.322202857719
 20
783.3305934372885
 30
0.0
 11
2329.322202857719
 21
728.8305934372885
 31
0.0
  0
LINE
  5
2BF0
330
18
100
AcDbEntity
  8
0
100
AcDbLine
 10
2298.322202857719
 20
923.3305934372886
 30
0.0
 11
2361.822202857719
 21
923.3305934372886
 31
0.0
  0
LINE
  5
2BF1
330
18
100
AcDbEntity
  8
0
100
AcDbLine
 10
2329.322202857719
 20
837.8305934372885
 30
0.0
 11
2305.322202857719
 21
837.8305934372885
 31
0.0
  0
LINE
  5
2BF2
330
18
100
AcDbEntity
  8
0
100
AcDbLine
 10
2300.322202857719
 20
842.8305934372877
 30
0.0
 11
2300.322202857719
 21
905.3305934372886
 31
0.0
  0
LINE
  5
2BF3
330
18
100
AcDbEntity
  8
0
100
AcDbLine
 10
2315.322202857719
 20
873.4305934372885
 30
0.0
 11
2315.322202857719
 21
893.2305934372882
 31
0.0
  0
LINE
  5
2BF4
330
18
100
AcDbEntity
  8
0
100
AcDbLine
 10
2305.322202857719
 20
893.2305934372882
 30
0.0
 11
2305.322202857719
 21
873.4305934372885
 31
0.0
  0
LINE
  5
2BF5
330
18
100
AcDbEntity
  8
0
100
AcDbLine
 10
2305.322202857719
 20
893.4605934372887
 30
0.0
 11
2305.322202857719
 21
873.2005934372885
 31
0.0
  0
LINE
  5
2BF6
330
18
100
AcDbEntity
  8
0
100
AcDbLine
 10
2300.322202857719
 20
862.8305934372885
 30
0.0
 11
2249.566833783231
 21
862.8305934372885
 31
0.0
  0
LINE
  5
2BF7
330
18
100
AcDbEntity
  8
0
100
AcDbLine
 10
2302.32220285772
 20
872.7883712150662
 30
0.0
 11
2302.32220285772
 21
868.8305934372886
 31
0.0
  0
LINE
  5
2BF8
330
18
100
AcDbEntity
  8
0
100
AcDbLine
 10
2302.32220285772
 20
868.8305934372886
 30
0.0
 11
2300.322202857719
 21
868.8305934372886
 31
0.0
  0
LINE
  5
2BF9
330
18
100
AcDbEntity
  8
0
100
AcDbLine
 10
2304.822202857719
 20
872.7105934372877
 30
0.0
 11
2300.322202857719
 21
872.8505934372886
 31
0.0
  0
LINE
  5
2BFA
330
18
100
AcDbEntity
  8
0
100
AcDbLine
 10
2305.322202857719
 20
873.2005934372885
 30
0.0
 11
2304.822202857719
 21
872.7105934372877
 31
0.0
  0
LINE
  5
2BFB
330
18
100
AcDbEntity
  8
0
100
AcDbLine
 10
2315.322202857719
 20
883.3305934372885
 30
0.0
 11
2305.322202857719
 21
883.3305934372885
 31
0.0
  0
LINE
  5
2BFC
330
18
100
AcDbEntity
  8
0
100
AcDbLine
 10
2305.322202857719
 20
873.4305934372885
 30
0.0
 11
2315.322202857719
 21
873.4305934372885
 31
0.0
  0
ARC
  5
2BFD
330
18
100
AcDbEntity
  8
0
100
AcDbCircle
 10
2305.322202857719
 20
842.8305934372877
 30
0.0
 40
5.0
100
AcDbArc
 50
180.0
 51
270.0
  0
LINE
  5
2BFE
330
18
100
AcDbEntity
  8
0
100
AcDbLine
 10
2302.32220285772
 20
903.8305934372885
 30
0.0
 11
2302.32220285772
 21
893.8728156595114
 31
0.0
  0
LINE
  5
2BFF
330
18
100
AcDbEntity
  8
0
100
AcDbLine
 10
2300.322202857719
 20
893.8105934372886
 30
0.0
 11
2304.822202857719
 21
893.9505934372885
 31
0.0
  0
LINE
  5
2C00
330
18
100
AcDbEntity
  8
0
100
AcDbLine
 10
2304.822202857719
 20
893.9505934372885
 30
0.0
 11
2305.322202857719
 21
893.4605934372887
 31
0.0
  0
LINE
  5
2C01
330
18
100
AcDbEntity
  8
0
100
AcDbLine
 10
2300.322202857719
 20
905.3305934372886
 30
0.0
 11
2298.322202857719
 21
905.3305934372886
 31
0.0
  0
LINE
  5
2C02
330
18
100
AcDbEntity
  8
0
100
AcDbLine
 10
2302.32220285772
 20
903.8305934372885
 30
0.0
 11
2300.322202857719
 21
903.8305934372885
 31
0.0
  0
LINE
  5
2C03
330
18
100
AcDbEntity
  8
0
100
AcDbLine
 10
2315.322202857719
 20
893.2305934372882
 30
0.0
 11
2305.322202857719
 21
893.2305934372882
 31
0.0
  0
LINE
  5
2C04
330
18
100
AcDbEntity
  8
0
100
AcDbLine
 10
2369.322202857719
 20
915.8305934372886
 30
0.0
 11
2361.822202857719
 21
923.3305934372886
 31
0.0
  0
LINE
  5
2C05
330
18
100
AcDbEntity
  8
0
100
AcDbLine
 10
2427.622202857719
 20
827.8805934372888
 30
0.0
 11
2427.622202857719
 21
738.7805934372884
 31
0.0
  0
LINE
  5
2C06
330
18
100
AcDbEntity
  8
0
100
AcDbLine
 10
2427.622202857719
 20
738.7805934372884
 30
0.0
 11
2440.322202857719
 21
726.0805934372886
 31
0.0
  0
LINE
  5
2C07
330
18
100
AcDbEntity
  8
0
100
AcDbLine
 10
2427.622202857719
 20
827.8805934372888
 30
0.0
 11
2440.322202857719
 21
840.5805934372885
 31
0.0
  0
LINE
  5
2C08
330
18
100
AcDbEntity
  8
0
100
AcDbLine
 10
2440.322202857719
 20
875.8305934372886
 30
0.0
 11
2458.322202857719
 21
875.8305934372886
 31
0.0
  0
LINE
  5
2C09
330
18
100
AcDbEntity
  8
0
100
AcDbLine
 10
2369.322202857719
 20
1002.830593437288
 30
0.0
 11
2383.322202857719
 21
1002.830593437288
 31
0.0
  0
LINE
  5
2C0A
330
18
100
AcDbEntity
  8
0
100
AcDbLine
 10
2298.322202857719
 20
957.3305934372893
 30
0.0
 11
2361.822202857719
 21
957.330593437288
 31
0.0
  0
LINE
  5
2C0B
330
18
100
AcDbEntity
  8
0
100
AcDbLine
 10
2244.98220285772
 20
981.0305934372884
 30
0.0
 11
2241.042202857719
 21
981.0305934372884
 31
0.0
  0
LINE
  5
2C0C
330
18
100
AcDbEntity
  8
0
100
AcDbLine
 10
2253.322202857719
 20
972.3305934372886
 30
0.0
 11
2238.322202857719
 21
972.3305934372886
 31
0.0
  0
LINE
  5
2C0D
330
18
100
AcDbEntity
  8
0
100
AcDbLine
 10
2241.042202857719
 20
973.6305934372888
 30
0.0
 11
2244.98220285772
 21
973.6305934372888
 31
0.0
  0
LINE
  5
2C0E
330
18
100
AcDbEntity
  8
0
100
AcDbLine
 10
2241.042202857719
 20
981.0305934372884
 30
0.0
 11
2241.042202857719
 21
973.6305934372888
 31
0.0
  0
LINE
  5
2C0F
330
18
100
AcDbEntity
  8
0
100
AcDbLine
 10
2261.66220285772
 20
981.0305934372884
 30
0.0
 11
2265.612202857719
 21
981.0305934372884
 31
0.0
  0
LINE
  5
2C10
330
18
100
AcDbEntity
  8
0
100
AcDbLine
 10
2265.612202857719
 20
973.6305934372888
 30
0.0
 11
2261.66220285772
 21
973.6305934372888
 31
0.0
  0
LINE
  5
2C11
330
18
100
AcDbEntity
  8
0
100
AcDbLine
 10
2261.66220285772
 20
973.6305934372888
 30
0.0
 11
2261.66220285772
 21
981.0305934372884
 31
0.0
  0
LINE
  5
2C12
330
18
100
AcDbEntity
  8
0
100
AcDbLine
 10
2274.322202857719
 20
971.3305934372886
 30
0.0
 11
2274.322202857719
 21
968.3305934372885
 31
0.0
  0
LINE
  5
2C13
330
18
100
AcDbEntity
  8
0
100
AcDbLine
 10
2271.822202857719
 20
982.3305934372886
 30
0.0
 11
2274.072202857719
 21
981.0305934372884
 31
0.0
  0
ARC
  5
2C14
330
18
100
AcDbEntity
  8
0
100
AcDbCircle
 10
2269.837202857961
 20
972.1458315325273
 30
0.0
 40
9.842470172893651
100
AcDbArc
 50
64.51478554771965
 51
115.4852144522803
  0
LINE
  5
2C15
330
18
100
AcDbEntity
  8
0
100
AcDbLine
 10
2271.822202857719
 20
972.3305934372886
 30
0.0
 11
2271.822202857719
 21
971.3305934372886
 31
0.0
  0
LINE
  5
2C16
330
18
100
AcDbEntity
  8
0
100
AcDbLine
 10
2271.822202857719
 20
972.3305934372886
 30
0.0
 11
2268.322202857719
 21
972.3305934372886
 31
0.0
  0
LINE
  5
2C17
330
18
100
AcDbEntity
  8
0
100
AcDbLine
 10
2274.072202857719
 20
973.6305934372888
 30
0.0
 11
2271.822202857719
 21
972.3305934372886
 31
0.0
  0
ARC
  5
2C18
330
18
100
AcDbEntity
  8
0
100
AcDbCircle
 10
2269.837202857961
 20
982.5153553420507
 30
0.0
 40
9.842470172893651
100
AcDbArc
 50
244.5147855477196
 51
295.4852144522803
  0
LINE
  5
2C19
330
18
100
AcDbEntity
  8
0
100
AcDbLine
 10
2265.612202857719
 20
981.0305934372884
 30
0.0
 11
2265.612202857719
 21
973.6305934372888
 31
0.0
  0
LINE
  5
2C1A
330
18
100
AcDbEntity
  8
0
100
AcDbLine
 10
2274.072202857719
 20
981.0305934372884
 30
0.0
 11
2274.072202857719
 21
973.6305934372888
 31
0.0
  0
LINE
  5
2C1B
330
18
100
AcDbEntity
  8
0
100
AcDbLine
 10
2244.98220285772
 20
973.6305934372888
 30
0.0
 11
2244.98220285772
 21
981.0305934372884
 31
0.0
  0
LINE
  5
2C1C
330
18
100
AcDbEntity
  8
0
100
AcDbLine
 10
2253.322202857719
 20
982.3305934372886
 30
0.0
 11
2271.822202857719
 21
982.3305934372886
 31
0.0
  0
LINE
  5
2C1D
330
18
100
AcDbEntity
  8
0
100
AcDbLine
 10
2253.322202857719
 20
972.3305934372886
 30
0.0
 11
2268.322202857719
 21
972.3305934372886
 31
0.0
  0
ARC
  5
2C1E
330
18
100
AcDbEntity
  8
0
100
AcDbCircle
 10
2253.322202857719
 20
944.8973829109743
 30
0.0
 40
37.08321052631436
100
AcDbArc
 50
77.00302439966368
 51
102.9969756003363
  0
ARC
  5
2C1F
330
18
100
AcDbEntity
  8
0
100
AcDbCircle
 10
2253.322202857719
 20
1009.763803963603
 30
0.0
 40
37.08321052631436
100
AcDbArc
 50
257.0030243996636
 51
282.9969756003363
  0
LINE
  5
2C20
330
18
100
AcDbEntity
  8
0
100
AcDbLine
 10
2369.322202857719
 20
964.8305934372885
 30
0.0
 11
2361.822202857719
 21
957.3305934372886
 31
0.0
  0
LINE
  5
2C21
330
18
100
AcDbEntity
  8
0
100
AcDbLine
 10
2270.822202857719
 20
1135.330593437288
 30
0.0
 11
2270.822202857719
 21
1121.330593437288
 31
0.0
  0
CIRCLE
  5
2C22
330
18
100
AcDbEntity
  8
0
100
AcDbCircle
 10
2208.322202857719
 20
1574.525660840379
 30
0.0
 40
62.5
  0
ARC
  5
2C23
330
18
100
AcDbEntity
  8
0
100
AcDbCircle
 10
2166.372766574459
 20
1561.916924911176
 30
0.0
 40
105.0
100
AcDbArc
 50
293.2110048094148
 51
327.7101559058207
  0
ARC
  5
2C24
330
18
100
AcDbEntity
  8
0
100
AcDbCircle
 10
2197.597466221469
 20
1575.394470924119
 30
0.0
 40
75.0
100
AcDbArc
 50
280.588769217525
 51
303.7381875453356
  0
LINE
  5
2C25
330
18
100
AcDbEntity
  8
0
100
AcDbLine
 10
2248.60605306694
 20
1547.025660840379
 30
0.0
 11
2231.68396295529
 21
1547.025660840379
 31
0.0
  0
CIRCLE
  5
2C26
330
18
100
AcDbEntity
  8
0
100
AcDbCircle
 10
2240.145008011115
 20
1542.705855686985
 30
0.0
 40
9.5
  0
ARC
  5
2C27
330
18
100
AcDbEntity
  8
0
100
AcDbCircle
 10
2229.897326915924
 20
1532.306569312072
 30
0.0
 40
9.0
100
AcDbArc
 50
6.308626644146499
 51
61.7644607017978
  0
LINE
  5
2C28
330
18
100
AcDbEntity
  8
0
100
AcDbLine
 10
2231.68396295529
 20
1602.02566084038
 30
0.0
 11
2248.606053066941
 21
1602.02566084038
 31
0.0
  0
CIRCLE
  5
2C29
330
18
100
AcDbEntity
  8
0
100
AcDbCircle
 10
2240.145008011115
 20
1606.345465993774
 30
0.0
 40
9.5
  0
ARC
  5
2C2A
330
18
100
AcDbEntity
  8
0
100
AcDbCircle
 10
2229.897326915924
 20
1616.744752368686
 30
0.0
 40
9.0
100
AcDbArc
 50
298.2355392982021
 51
353.6913733558793
  0
ARC
  5
2C2B
330
18
100
AcDbEntity
  8
0
100
AcDbCircle
 10
1995.322202857721
 20
1579.025660840379
 30
0.0
 40
3.0
100
AcDbArc
 50
90.0
 51
180.0
  0
ARC
  5
2C2C
330
18
100
AcDbEntity
  8
0
100
AcDbCircle
 10
2054.322202857721
 20
1579.025660840379
 30
0.0
 40
3.0
100
AcDbArc
 50
0.0
 51
90.0
  0
LINE
  5
2C2D
330
18
100
AcDbEntity
  8
0
100
AcDbLine
 10
2054.322202857721
 20
1567.025660840379
 30
0.0
 11
1995.322202857721
 21
1567.025660840379
 31
0.0
  0
LINE
  5
2C2E
330
18
100
AcDbEntity
  8
0
100
AcDbLine
 10
2054.322202857721
 20
1567.025660840379
 30
0.0
 11
1995.322202857721
 21
1567.025660840379
 31
0.0
  0
LINE
  5
2C2F
330
18
100
AcDbEntity
  8
0
100
AcDbLine
 10
1992.322202857721
 20
1570.025660840379
 30
0.0
 11
1992.322202857721
 21
1579.025660840379
 31
0.0
  0
LINE
  5
2C30
330
18
100
AcDbEntity
  8
0
100
AcDbLine
 10
1992.322202857721
 20
1570.025660840379
 30
0.0
 11
1992.322202857721
 21
1579.025660840379
 31
0.0
  0
ARC
  5
2C31
330
18
100
AcDbEntity
  8
0
100
AcDbCircle
 10
1995.322202857721
 20
1570.025660840379
 30
0.0
 40
3.0
100
AcDbArc
 50
180.0
 51
270.0
  0
LINE
  5
2C32
330
18
100
AcDbEntity
  8
0
100
AcDbLine
 10
2057.322202857721
 20
1579.025660840379
 30
0.0
 11
2057.322202857721
 21
1570.025660840379
 31
0.0
  0
LINE
  5
2C33
330
18
100
AcDbEntity
  8
0
100
AcDbLine
 10
2057.322202857721
 20
1579.025660840379
 30
0.0
 11
2057.322202857721
 21
1570.025660840379
 31
0.0
  0
ARC
  5
2C34
330
18
100
AcDbEntity
  8
0
100
AcDbCircle
 10
2054.322202857721
 20
1570.025660840379
 30
0.0
 40
3.0
100
AcDbArc
 50
270.0
 51
0.0
  0
LINE
  5
2C35
330
18
100
AcDbEntity
  8
0
100
AcDbLine
 10
1995.322202857721
 20
1582.025660840379
 30
0.0
 11
2054.322202857721
 21
1582.025660840379
 31
0.0
  0
LINE
  5
2C36
330
18
100
AcDbEntity
  8
0
100
AcDbLine
 10
1995.322202857721
 20
1582.025660840379
 30
0.0
 11
2054.322202857721
 21
1582.025660840379
 31
0.0
  0
LINE
  5
2C37
330
18
100
AcDbEntity
  8
0
100
AcDbLine
 10
2163.32520285772
 20
1531.149169615291
 30
0.0
 11
2163.32520285772
 21
1424.525660840379
 31
0.0
  0
LINE
  5
2C38
330
18
100
AcDbEntity
  8
0
100
AcDbLine
 10
2161.825202857721
 20
1532.7610946269
 30
0.0
 11
2161.825202857721
 21
1444.525660840379
 31
0.0
  0
LINE
  5
2C39
330
18
100
AcDbEntity
  8
0
100
AcDbLine
 10
2163.32520285772
 20
1444.525660840379
 30
0.0
 11
2163.32520285772
 21
1531.149169615291
 31
0.0
  0
LINE
  5
2C3A
330
18
100
AcDbEntity
  8
0
100
AcDbLine
 10
2161.825202857721
 20
1424.525660840379
 30
0.0
 11
2161.825202857721
 21
1532.7610946269
 31
0.0
  0
LINE
  5
2C3B
330
18
100
AcDbEntity
  8
0
100
AcDbLine
 10
2128.71520285772
 20
1424.525660840379
 30
0.0
 11
2161.825202857721
 21
1424.525660840379
 31
0.0
  0
LINE
  5
2C3C
330
18
100
AcDbEntity
  8
0
100
AcDbLine
 10
2161.825202857721
 20
1467.525660840379
 30
0.0
 11
2129.295202857721
 21
1467.525660840379
 31
0.0
  0
ARC
  5
2C3D
330
18
100
AcDbEntity
  8
0
100
AcDbCircle
 10
2128.725257422714
 20
1414.52490079202
 30
0.0
 40
10.00076510268797
100
AcDbArc
 50
90.0576040163146
 51
133.9437926847717
  0
ARC
  5
2C3E
330
18
100
AcDbEntity
  8
0
100
AcDbCircle
 10
1991.992085230031
 20
1342.362545147732
 30
0.0
 40
185.7900741163909
100
AcDbArc
 50
42.35175276494263
 51
63.91998922313488
  0
ARC
  5
2C3F
330
18
100
AcDbEntity
  8
0
100
AcDbCircle
 10
2219.324706143471
 20
1437.741027512217
 30
0.0
 40
29.99950376577744
100
AcDbArc
 50
112.7052037224735
 51
180.0102497578097
  0
LINE
  5
2C40
330
18
100
AcDbEntity
  8
0
100
AcDbLine
 10
2189.325202857721
 20
1469.525660840379
 30
0.0
 11
2189.325202857721
 21
1426.525660840379
 31
0.0
  0
LINE
  5
2C41
330
18
100
AcDbEntity
  8
0
100
AcDbLine
 10
2189.325202857721
 20
1514.982701634441
 30
0.0
 11
2189.325202857721
 21
1426.525660840379
 31
0.0
  0
LINE
  5
2C42
330
18
100
AcDbEntity
  8
0
100
AcDbLine
 10
2199.725202857721
 20
1438.525660840379
 30
0.0
 11
2189.325202857721
 21
1438.525660840379
 31
0.0
  0
LINE
  5
2C43
330
18
100
AcDbEntity
  8
0
100
AcDbLine
 10
2199.725202857721
 20
1429.865660840379
 30
0.0
 11
2189.325202857721
 21
1429.865660840379
 31
0.0
  0
LINE
  5
2C44
330
18
100
AcDbEntity
  8
0
100
AcDbLine
 10
2161.825202857721
 20
1444.525660840379
 30
0.0
 11
2163.32520285772
 21
1444.525660840379
 31
0.0
  0
LINE
  5
2C45
330
18
100
AcDbEntity
  8
0
100
AcDbLine
 10
2188.94520285772
 20
1425.355660840379
 30
0.0
 11
2189.11520285772
 21
1425.635660840379
 31
0.0
  0
LINE
  5
2C46
330
18
100
AcDbEntity
  8
0
100
AcDbLine
 10
2187.32520285772
 20
1424.525660840379
 30
0.0
 11
2187.32520285772
 21
1424.525660840379
 31
0.0
  0
LINE
  5
2C47
330
18
100
AcDbEntity
  8
0
100
AcDbLine
 10
2187.32520285772
 20
1424.525660840379
 30
0.0
 11
2187.61520285772
 21
1424.545660840379
 31
0.0
  0
LINE
  5
2C48
330
18
100
AcDbEntity
  8
0
100
AcDbLine
 10
2187.61520285772
 20
1424.545660840379
 30
0.0
 11
2187.90520285772
 21
1424.615660840379
 31
0.0
  0
LINE
  5
2C49
330
18
100
AcDbEntity
  8
0
100
AcDbLine
 10
2187.90520285772
 20
1424.615660840379
 30
0.0
 11
2188.205202857721
 21
1424.725660840379
 31
0.0
  0
LINE
  5
2C4A
330
18
100
AcDbEntity
  8
0
100
AcDbLine
 10
2188.205202857721
 20
1424.725660840379
 30
0.0
 11
2188.48520285772
 21
1424.895660840379
 31
0.0
  0
LINE
  5
2C4B
330
18
100
AcDbEntity
  8
0
100
AcDbLine
 10
2188.48520285772
 20
1424.895660840379
 30
0.0
 11
2188.73520285772
 21
1425.105660840379
 31
0.0
  0
LINE
  5
2C4C
330
18
100
AcDbEntity
  8
0
100
AcDbLine
 10
2188.73520285772
 20
1425.105660840379
 30
0.0
 11
2188.94520285772
 21
1425.355660840379
 31
0.0
  0
LINE
  5
2C4D
330
18
100
AcDbEntity
  8
0
100
AcDbLine
 10
2189.11520285772
 20
1425.635660840379
 30
0.0
 11
2189.23520285772
 21
1425.935660840379
 31
0.0
  0
LINE
  5
2C4E
330
18
100
AcDbEntity
  8
0
100
AcDbLine
 10
2189.23520285772
 20
1425.935660840379
 30
0.0
 11
2189.325202857721
 21
1426.525660840379
 31
0.0
  0
LINE
  5
2C4F
330
18
100
AcDbEntity
  8
0
100
AcDbLine
 10
2189.325202857721
 20
1426.525660840379
 30
0.0
 11
2189.325202857721
 21
1437.735660840379
 31
0.0
  0
LINE
  5
2C50
330
18
100
AcDbEntity
  8
0
100
AcDbLine
 10
2163.32520285772
 20
1424.525660840379
 30
0.0
 11
2187.32520285772
 21
1424.525660840379
 31
0.0
  0
ARC
  5
2C51
330
18
100
AcDbEntity
  8
0
100
AcDbCircle
 10
2192.785935907633
 20
1460.177671109316
 30
0.0
 40
8.180448568064287
100
AcDbArc
 50
328.024501186157
 51
8.562625355559466
  0
LINE
  5
2C52
330
18
100
AcDbEntity
  8
0
100
AcDbLine
 10
2199.725202857721
 20
1455.845660840379
 30
0.0
 11
2195.40520285772
 21
1455.845660840379
 31
0.0
  0
LINE
  5
2C53
330
18
100
AcDbEntity
  8
0
100
AcDbLine
 10
2201.335202857721
 20
1461.745660840379
 30
0.0
 11
2201.325202857721
 21
1461.745660840379
 31
0.0
  0
ARC
  5
2C54
330
18
100
AcDbEntity
  8
0
100
AcDbCircle
 10
2192.795714858409
 20
1434.195660840379
 30
0.0
 40
8.171089519311577
100
AcDbArc
 50
328.00014673163
 51
31.99985326836994
  0
LINE
  5
2C55
330
18
100
AcDbEntity
  8
0
100
AcDbLine
 10
2201.325202857721
 20
1432.625660840379
 30
0.0
 11
2199.725202857721
 21
1429.865660840379
 31
0.0
  0
LINE
  5
2C56
330
18
100
AcDbEntity
  8
0
100
AcDbLine
 10
2201.325202857721
 20
1461.745660840379
 30
0.0
 11
2201.325202857721
 21
1432.625660840379
 31
0.0
  0
ARC
  5
2C57
330
18
100
AcDbEntity
  8
0
100
AcDbCircle
 10
2170.148287866895
 20
1447.185660840379
 30
0.0
 40
30.81865507082531
100
AcDbArc
 50
343.6801846146565
 51
16.31981538534343
  0
ARC
  5
2C58
330
18
100
AcDbEntity
  8
0
100
AcDbCircle
 10
2219.325139806862
 20
1472.737167324128
 30
0.0
 40
30.0
100
AcDbArc
 50
106.1944308353429
 51
180.1174688133263
  0
LINE
  5
2C59
330
18
100
AcDbEntity
  8
0
100
AcDbLine
 10
2189.325202857721
 20
1503.495660840379
 30
0.0
 11
2199.725202857721
 21
1503.495660840379
 31
0.0
  0
LINE
  5
2C5A
330
18
100
AcDbEntity
  8
0
100
AcDbLine
 10
2199.725202857721
 20
1512.155660840378
 30
0.0
 11
2189.325202857721
 21
1512.155660840378
 31
0.0
  0
LINE
  5
2C5B
330
18
100
AcDbEntity
  8
0
100
AcDbLine
 10
2199.725202857721
 20
1476.855660840379
 30
0.0
 11
2189.325202857721
 21
1476.855660840379
 31
0.0
  0
LINE
  5
2C5C
330
18
100
AcDbEntity
  8
0
100
AcDbLine
 10
2189.325202857721
 20
1468.195660840379
 30
0.0
 11
2199.725202857721
 21
1468.195660840379
 31
0.0
  0
LINE
  5
2C5D
330
18
100
AcDbEntity
  8
0
100
AcDbLine
 10
2188.48520285772
 20
1467.895660840379
 30
0.0
 11
2188.73520285772
 21
1468.105660840379
 31
0.0
  0
LINE
  5
2C5E
330
18
100
AcDbEntity
  8
0
100
AcDbLine
 10
2187.32520285772
 20
1467.525660840379
 30
0.0
 11
2187.32520285772
 21
1467.525660840379
 31
0.0
  0
LINE
  5
2C5F
330
18
100
AcDbEntity
  8
0
100
AcDbLine
 10
2187.32520285772
 20
1467.525660840379
 30
0.0
 11
2187.61520285772
 21
1467.545660840379
 31
0.0
  0
LINE
  5
2C60
330
18
100
AcDbEntity
  8
0
100
AcDbLine
 10
2187.61520285772
 20
1467.545660840379
 30
0.0
 11
2187.90520285772
 21
1467.61566084038
 31
0.0
  0
LINE
  5
2C61
330
18
100
AcDbEntity
  8
0
100
AcDbLine
 10
2187.90520285772
 20
1467.61566084038
 30
0.0
 11
2188.205202857721
 21
1467.725660840379
 31
0.0
  0
LINE
  5
2C62
330
18
100
AcDbEntity
  8
0
100
AcDbLine
 10
2188.205202857721
 20
1467.725660840379
 30
0.0
 11
2188.48520285772
 21
1467.895660840379
 31
0.0
  0
LINE
  5
2C63
330
18
100
AcDbEntity
  8
0
100
AcDbLine
 10
2188.94520285772
 20
1468.355660840379
 30
0.0
 11
2189.11520285772
 21
1468.635660840379
 31
0.0
  0
LINE
  5
2C64
330
18
100
AcDbEntity
  8
0
100
AcDbLine
 10
2188.73520285772
 20
1468.105660840379
 30
0.0
 11
2188.94520285772
 21
1468.355660840379
 31
0.0
  0
LINE
  5
2C65
330
18
100
AcDbEntity
  8
0
100
AcDbLine
 10
2189.11520285772
 20
1468.635660840379
 30
0.0
 11
2189.23520285772
 21
1468.935660840379
 31
0.0
  0
LINE
  5
2C66
330
18
100
AcDbEntity
  8
0
100
AcDbLine
 10
2189.23520285772
 20
1468.935660840379
 30
0.0
 11
2189.325202857721
 21
1469.525660840379
 31
0.0
  0
LINE
  5
2C67
330
18
100
AcDbEntity
  8
0
100
AcDbLine
 10
2189.325202857721
 20
1472.665660840379
 30
0.0
 11
2189.325202857721
 21
1469.525660840379
 31
0.0
  0
LINE
  5
2C68
330
18
100
AcDbEntity
  8
0
100
AcDbLine
 10
2189.325202857721
 20
1472.665660840379
 30
0.0
 11
2189.325202857721
 21
1469.525660840379
 31
0.0
  0
LINE
  5
2C69
330
18
100
AcDbEntity
  8
0
100
AcDbLine
 10
2163.32520285772
 20
1467.525660840379
 30
0.0
 11
2187.32520285772
 21
1467.525660840379
 31
0.0
  0
LINE
  5
2C6A
330
18
100
AcDbEntity
  8
0
100
AcDbLine
 10
2201.325202857721
 20
1506.255660840379
 30
0.0
 11
2201.325202857721
 21
1512.418559869556
 31
0.0
  0
ARC
  5
2C6B
330
18
100
AcDbEntity
  8
0
100
AcDbCircle
 10
2192.795771850268
 20
1507.825660840379
 30
0.0
 40
8.171041187452262
100
AcDbArc
 50
327.9999349608471
 51
32.00006503915292
  0
LINE
  5
2C6C
330
18
100
AcDbEntity
  8
0
100
AcDbLine
 10
2199.725202857721
 20
1503.495660840379
 30
0.0
 11
2201.325202857721
 21
1506.255660840379
 31
0.0
  0
ARC
  5
2C6D
330
18
100
AcDbEntity
  8
0
100
AcDbCircle
 10
2170.148287866895
 20
1520.815660840379
 30
0.0
 40
30.81865507082531
100
AcDbArc
 50
343.6801846146565
 51
344.5434028543783
  0
LINE
  5
2C6E
330
18
100
AcDbEntity
  8
0
100
AcDbLine
 10
2200.09520285772
 20
1495.145660840379
 30
0.0
 11
2199.725202857721
 21
1494.175660840379
 31
0.0
  0
LINE
  5
2C6F
330
18
100
AcDbEntity
  8
0
100
AcDbLine
 10
2199.725202857721
 20
1494.175660840379
 30
0.0
 11
2199.725202857721
 21
1494.175660840379
 31
0.0
  0
LINE
  5
2C70
330
18
100
AcDbEntity
  8
0
100
AcDbLine
 10
2199.725202857721
 20
1494.175660840379
 30
0.0
 11
2198.40520285772
 21
1494.175660840379
 31
0.0
  0
ARC
  5
2C71
330
18
100
AcDbEntity
  8
0
100
AcDbCircle
 10
2192.795771850268
 20
1472.525660840379
 30
0.0
 40
8.171041187452141
100
AcDbArc
 50
327.9999349608471
 51
32.00006503915292
  0
LINE
  5
2C72
330
18
100
AcDbEntity
  8
0
100
AcDbLine
 10
2199.725202857721
 20
1468.195660840379
 30
0.0
 11
2201.325202857721
 21
1470.955660840379
 31
0.0
  0
ARC
  5
2C73
330
18
100
AcDbEntity
  8
0
100
AcDbCircle
 10
2170.148287866895
 20
1485.515660840379
 30
0.0
 40
30.81865507082537
100
AcDbArc
 50
343.6801846146565
 51
16.31981538534343
  0
LINE
  5
2C74
330
18
100
AcDbEntity
  8
0
100
AcDbLine
 10
2201.325202857721
 20
1470.955660840379
 30
0.0
 11
2201.325202857721
 21
1496.665660840379
 31
0.0
  0
ARC
  5
2C75
330
18
100
AcDbEntity
  8
0
100
AcDbCircle
 10
2199.802296332077
 20
1539.959623264528
 30
0.0
 40
40.0
100
AcDbArc
 50
286.1944308353429
 51
324.7608633527809
  0
LINE
  5
2C77
330
18
100
AcDbEntity
  8
0
100
AcDbLine
 10
2180.930036256879
 20
1551.112553830683
 30
0.0
 11
2171.530696362307
 21
1550.799207684626
 31
0.0
  0
CIRCLE
  5
2C78
330
18
100
AcDbEntity
  8
0
100
AcDbCircle
 10
2176.505397704326
 20
1542.705855686985
 30
0.0
 40
9.5
  0
ARC
  5
2C79
330
18
100
AcDbEntity
  8
0
100
AcDbCircle
 10
2199.501656020057
 20
1457.174648978198
 30
0.0
 40
89.99999999999847
100
AcDbArc
 50
67.35381313771991
 51
69.71026607785475
  0
LINE
  5
2C7B
330
18
100
AcDbEntity
  8
0
100
AcDbLine
 10
2199.725202857721
 20
1636.885660840379
 30
0.0
 11
2189.325202857721
 21
1636.885660840379
 31
0.0
  0
LINE
  5
2C7C
330
18
100
AcDbEntity
  8
0
100
AcDbLine
 10
2171.530696362309
 20
1598.252113996132
 30
0.0
 11
2180.930036256877
 21
1597.938767850075
 31
0.0
  0
CIRCLE
  5
2C7D
330
18
100
AcDbEntity
  8
0
100
AcDbCircle
 10
2176.505397704326
 20
1606.345465993774
 30
0.0
 40
9.5
  0
ARC
  5
2C7E
330
18
100
AcDbEntity
  8
0
100
AcDbCircle
 10
2170.165364607652
 20
1628.230660840379
 30
0.0
 40
30.80086139006843
100
AcDbArc
 50
15.47469595830297
 51
16.31981538534343
  0
ARC
  5
2C7F
330
18
100
AcDbEntity
  8
0
100
AcDbCircle
 10
2199.501656020057
 20
1691.876672702561
 30
0.0
 40
89.99999999999847
100
AcDbArc
 50
290.2897339221452
 51
292.64618686228
  0
LINE
  5
2C80
330
18
100
AcDbEntity
  8
0
100
AcDbLine
 10
2371.294391184307
 20
1512.118896968884
 30
0.0
 11
2385.289650926859
 21
1512.118896968884
 31
0.0
  0
LINE
  5
2C81
330
18
100
AcDbEntity
  8
0
100
AcDbLine
 10
2371.294391184307
 20
1637.076573241667
 30
0.0
 11
2385.289650926859
 21
1637.076573241667
 31
0.0
  0
LINE
  5
2C82
330
18
100
AcDbEntity
  8
0
100
AcDbLine
 10
2315.32520285772
 20
1520.725660840379
 30
0.0
 11
2315.32520285772
 21
1540.525660840379
 31
0.0
  0
ARC
  5
2C83
330
18
100
AcDbEntity
  8
0
100
AcDbCircle
 10
2197.597466221469
 20
1575.394470924119
 30
0.0
 40
75.0
100
AcDbArc
 50
311.8962689380865
 51
334.3386719646009
  0
LINE
  5
2C84
330
18
100
AcDbEntity
  8
0
100
AcDbLine
 10
2300.32520285772
 20
1550.025660840379
 30
0.0
 11
2300.32520285772
 21
1516.025660840379
 31
0.0
  0
LINE
  5
2C85
330
18
100
AcDbEntity
  8
0
100
AcDbLine
 10
2304.82520285772
 20
1541.245660840379
 30
0.0
 11
2304.82520285772
 21
1520.005660840379
 31
0.0
  0
LINE
  5
2C86
330
18
100
AcDbEntity
  8
0
100
AcDbLine
 10
2329.32220285772
 20
1520.025660840379
 30
0.0
 11
2329.32220285772
 21
1557.525660840379
 31
0.0
  0
LINE
  5
2C87
330
18
100
AcDbEntity
  8
0
100
AcDbLine
 10
2305.325202857721
 20
1540.755660840379
 30
0.0
 11
2305.325202857721
 21
1520.485660840378
 31
0.0
  0
LINE
  5
2C88
330
18
100
AcDbEntity
  8
0
100
AcDbLine
 10
2305.325202857721
 20
1540.525660840379
 30
0.0
 11
2305.325202857721
 21
1520.725660840379
 31
0.0
  0
LINE
  5
2C89
330
18
100
AcDbEntity
  8
0
100
AcDbLine
 10
2371.294391184307
 20
1512.118896968884
 30
0.0
 11
2371.294391184307
 21
1637.076573241667
 31
0.0
  0
LINE
  5
2C8A
330
18
100
AcDbEntity
  8
0
100
AcDbLine
 10
2329.32220285772
 20
1520.025660840379
 30
0.0
 11
2305.32220285772
 21
1520.025660840379
 31
0.0
  0
LINE
  5
2C8B
330
18
100
AcDbEntity
  8
0
100
AcDbLine
 10
2297.32520285772
 20
1513.025660840379
 30
0.0
 11
2239.252376241037
 21
1513.025660840379
 31
0.0
  0
ARC
  5
2C8C
330
18
100
AcDbEntity
  8
0
100
AcDbCircle
 10
2280.638560912112
 20
1490.023504927173
 30
0.0
 40
30.00215664841054
100
AcDbArc
 50
129.9430105642951
 51
148.2171979777764
  0
ARC
  5
2C8D
330
18
100
AcDbEntity
  8
0
100
AcDbCircle
 10
2297.32520285772
 20
1516.025660840379
 30
0.0
 40
3.0
100
AcDbArc
 50
270.0
 51
0.0
  0
LINE
  5
2C8E
330
18
100
AcDbEntity
  8
0
100
AcDbLine
 10
2305.325202857721
 20
1520.485660840378
 30
0.0
 11
2304.82520285772
 21
1520.005660840379
 31
0.0
  0
LINE
  5
2C8F
330
18
100
AcDbEntity
  8
0
100
AcDbLine
 10
2304.82520285772
 20
1520.005660840379
 30
0.0
 11
2300.32520285772
 21
1520.145660840379
 31
0.0
  0
LINE
  5
2C90
330
18
100
AcDbEntity
  8
0
100
AcDbLine
 10
2305.325202857721
 20
1520.725660840379
 30
0.0
 11
2315.32520285772
 21
1520.725660840379
 31
0.0
  0
LINE
  5
2C91
330
18
100
AcDbEntity
  8
0
100
AcDbLine
 10
2300.32520285772
 20
1591.591979078374
 30
0.0
 11
2363.79693060794
 21
1591.591979078374
 31
0.0
  0
LINE
  5
2C92
330
18
100
AcDbEntity
  8
0
100
AcDbLine
 10
2300.32520285772
 20
1557.603491132177
 30
0.0
 11
2363.796930607939
 21
1557.603491132177
 31
0.0
  0
LINE
  5
2C93
330
18
100
AcDbEntity
  8
0
100
AcDbLine
 10
2329.32220285772
 20
1629.025660840379
 30
0.0
 11
2248.186940125738
 21
1629.025660840379
 31
0.0
  0
LINE
  5
2C94
330
18
100
AcDbEntity
  8
0
100
AcDbLine
 10
2271.81520285772
 20
1583.915660840379
 30
0.0
 11
2271.81520285772
 21
1574.525660840379
 31
0.0
  0
LINE
  5
2C95
330
18
100
AcDbEntity
  8
0
100
AcDbLine
 10
2273.39520285772
 20
1580.695660840379
 30
0.0
 11
2274.31520285772
 21
1574.525660840379
 31
0.0
  0
ARC
  5
2C96
330
18
100
AcDbEntity
  8
0
100
AcDbCircle
 10
2253.31520285772
 20
1574.525660840379
 30
0.0
 40
18.5
100
AcDbArc
 50
337.6452256458794
 51
22.3547743541206
  0
LINE
  5
2C97
330
18
100
AcDbEntity
  8
0
100
AcDbLine
 10
2300.32520285772
 20
1599.025660840379
 30
0.0
 11
2300.32520285772
 21
1550.025660840379
 31
0.0
  0
LINE
  5
2C98
330
18
100
AcDbEntity
  8
0
100
AcDbLine
 10
2297.32520285772
 20
1547.025660840379
 30
0.0
 11
2264.447063659328
 21
1547.025660840379
 31
0.0
  0
LINE
  5
2C99
330
18
100
AcDbEntity
  8
0
100
AcDbLine
 10
2274.31520285772
 20
1574.525660840379
 30
0.0
 11
2274.31520285772
 21
1574.525660840379
 31
0.0
  0
LINE
  5
2C9A
330
18
100
AcDbEntity
  8
0
100
AcDbLine
 10
2271.81520285772
 20
1574.525660840379
 30
0.0
 11
2271.81520285772
 21
1565.125660840379
 31
0.0
  0
LINE
  5
2C9B
330
18
100
AcDbEntity
  8
0
100
AcDbLine
 10
2274.31520285772
 20
1574.525660840379
 30
0.0
 11
2274.09520285772
 21
1571.475660840379
 31
0.0
  0
LINE
  5
2C9C
330
18
100
AcDbEntity
  8
0
100
AcDbLine
 10
2274.09520285772
 20
1571.475660840379
 30
0.0
 11
2273.39520285772
 21
1568.355660840379
 31
0.0
  0
LINE
  5
2C9D
330
18
100
AcDbEntity
  8
0
100
AcDbLine
 10
2271.81520285772
 20
1565.125660840379
 30
0.0
 11
2270.70520285772
 21
1563.19566084038
 31
0.0
  0
LINE
  5
2C9E
330
18
100
AcDbEntity
  8
0
100
AcDbLine
 10
2272.165202857721
 20
1565.255660840379
 30
0.0
 11
2270.415202857721
 21
1562.315660840379
 31
0.0
  0
LINE
  5
2C9F
330
18
100
AcDbEntity
  8
0
100
AcDbLine
 10
2270.415202857721
 20
1562.315660840379
 30
0.0
 11
2269.357633460443
 21
1561.074779414241
 31
0.0
  0
LINE
  5
2CA0
330
18
100
AcDbEntity
  8
0
100
AcDbLine
 10
2273.39520285772
 20
1568.355660840379
 30
0.0
 11
2272.165202857721
 21
1565.255660840379
 31
0.0
  0
LINE
  5
2CA1
330
18
100
AcDbEntity
  8
0
100
AcDbLine
 10
2270.70520285772
 20
1563.19566084038
 30
0.0
 11
2269.673980953761
 21
1562.600505728014
 31
0.0
  0
ARC
  5
2CA2
330
18
100
AcDbEntity
  8
0
100
AcDbCircle
 10
2297.313278656392
 20
1550.025637142523
 30
0.0
 40
3.0
100
AcDbArc
 50
270.2277360697026
 51
355.7949882173539
  0
LINE
  5
2CA3
330
18
100
AcDbEntity
  8
0
100
AcDbLine
 10
2300.32520285772
 20
1541.095660840379
 30
0.0
 11
2304.82520285772
 21
1541.245660840379
 31
0.0
  0
LINE
  5
2CA4
330
18
100
AcDbEntity
  8
0
100
AcDbLine
 10
2304.82520285772
 20
1541.245660840379
 30
0.0
 11
2305.325202857721
 21
1540.755660840379
 31
0.0
  0
LINE
  5
2CA5
330
18
100
AcDbEntity
  8
0
100
AcDbLine
 10
2315.32520285772
 20
1540.525660840379
 30
0.0
 11
2305.325202857721
 21
1540.525660840379
 31
0.0
  0
LINE
  5
2CA6
330
18
100
AcDbEntity
  8
0
100
AcDbLine
 10
2315.32520285772
 20
1530.625660840379
 30
0.0
 11
2305.325202857721
 21
1530.625660840379
 31
0.0
  0
LINE
  5
2CA7
330
18
100
AcDbEntity
  8
0
100
AcDbLine
 10
2264.447063659328
 20
1602.02566084038
 30
0.0
 11
2297.32520285772
 21
1602.02566084038
 31
0.0
  0
LINE
  5
2CA8
330
18
100
AcDbEntity
  8
0
100
AcDbLine
 10
2272.165202857721
 20
1583.785660840379
 30
0.0
 11
2273.39520285772
 21
1580.695660840379
 31
0.0
  0
LINE
  5
2CA9
330
18
100
AcDbEntity
  8
0
100
AcDbLine
 10
2270.415202857721
 20
1586.725660840379
 30
0.0
 11
2272.165202857721
 21
1583.785660840379
 31
0.0
  0
LINE
  5
2CAA
330
18
100
AcDbEntity
  8
0
100
AcDbLine
 10
2270.27520285772
 20
1586.495660840379
 30
0.0
 11
2271.81520285772
 21
1583.915660840379
 31
0.0
  0
LINE
  5
2CAB
330
18
100
AcDbEntity
  8
0
100
AcDbLine
 10
2269.359210214068
 20
1587.969385509569
 30
0.0
 11
2270.415202857721
 21
1586.725660840379
 31
0.0
  0
LINE
  5
2CAC
330
18
100
AcDbEntity
  8
0
100
AcDbLine
 10
2269.590196968561
 20
1586.874057401625
 30
0.0
 11
2270.27520285772
 21
1586.495660840379
 31
0.0
  0
ARC
  5
2CAD
330
18
100
AcDbEntity
  8
0
100
AcDbCircle
 10
2297.32520285772
 20
1599.025660840379
 30
0.0
 40
3.0
100
AcDbArc
 50
0.0
 51
90.0
  0
LINE
  5
2CAE
330
18
100
AcDbEntity
  8
0
100
AcDbLine
 10
2363.79693060794
 20
1557.603491132176
 30
0.0
 11
2363.79693060794
 21
1591.591979078374
 31
0.0
  0
LINE
  5
2CAF
330
18
100
AcDbEntity
  8
0
100
AcDbLine
 10
2329.32220285772
 20
1530.053384133038
 30
0.0
 11
2371.294391184307
 21
1530.053384133038
 31
0.0
  0
LINE
  5
2CB1
330
18
100
AcDbEntity
  8
0
100
AcDbLine
 10
2371.294391184307
 20
1550.10603055581
 30
0.0
 11
2363.79693060794
 21
1557.603491132177
 31
0.0
  0
LINE
  5
2CB2
330
18
100
AcDbEntity
  8
0
100
AcDbLine
 10
2329.32220285772
 20
1619.12321578028
 30
0.0
 11
2371.294391184307
 21
1619.12321578028
 31
0.0
  0
LINE
  5
2CB4
330
18
100
AcDbEntity
  8
0
100
AcDbLine
 10
2329.32220285772
 20
1591.52566084038
 30
0.0
 11
2329.32220285772
 21
1629.025660840379
 31
0.0
  0
LINE
  5
2CB5
330
18
100
AcDbEntity
  8
0
100
AcDbLine
 10
2371.294391184307
 20
1599.089439654742
 30
0.0
 11
2363.79693060794
 21
1591.591979078374
 31
0.0
  0
LINE
  5
2CB6
330
18
100
AcDbEntity
  8
0
100
AcDbLine
 10
2427.578423194287
 20
1530.053384133038
 30
0.0
 11
2440.274123103602
 21
1517.357684223724
 31
0.0
  0
LINE
  5
2CB7
330
18
100
AcDbEntity
  8
0
100
AcDbLine
 10
2385.289650926859
 20
1512.118896968884
 30
0.0
 11
2385.289650926859
 21
1637.076573241667
 31
0.0
  0
LINE
  5
2CB8
330
18
100
AcDbEntity
  8
0
100
AcDbLine
 10
2440.274123103602
 20
1482.119619514799
 30
0.0
 11
2458.268028486882
 21
1482.1196195148
 31
0.0
  0
LINE
  5
2CB9
330
18
100
AcDbEntity
  8
0
100
AcDbLine
 10
2427.578423194287
 20
1619.123215780279
 30
0.0
 11
2427.578423194287
 21
1530.053384133038
 31
0.0
  0
LINE
  5
2CBA
330
18
100
AcDbEntity
  8
0
100
AcDbLine
 10
2385.289650926859
 20
1530.053384133038
 30
0.0
 11
2427.578423194287
 21
1530.053384133038
 31
0.0
  0
LINE
  5
2CBB
330
18
100
AcDbEntity
  8
0
100
AcDbLine
 10
2427.578423194287
 20
1619.123215780279
 30
0.0
 11
2440.274123103602
 21
1631.818915689594
 31
0.0
  0
LINE
  5
2CBC
330
18
100
AcDbEntity
  8
0
100
AcDbLine
 10
2385.289650926859
 20
1619.12321578028
 30
0.0
 11
2427.578423194287
 21
1619.123215780279
 31
0.0
  0
ARC
  5
2CBD
330
18
100
AcDbEntity
  8
0
100
AcDbCircle
 10
2166.372766574459
 20
1587.134396769582
 30
0.0
 40
105.0
100
AcDbArc
 50
32.28984409417931
 51
66.78899519058515
  0
LINE
  5
2CBE
330
18
100
AcDbEntity
  8
0
100
AcDbLine
 10
2161.825202857721
 20
1681.525660840379
 30
0.0
 11
2129.295202857721
 21
1681.525660840379
 31
0.0
  0
LINE
  5
2CBF
330
18
100
AcDbEntity
  8
0
100
AcDbLine
 10
2161.825202857721
 20
1724.525660840379
 30
0.0
 11
2128.71520285772
 21
1724.525660840379
 31
0.0
  0
ARC
  5
2CC0
330
18
100
AcDbEntity
  8
0
100
AcDbCircle
 10
2128.712846513554
 20
1734.521420888739
 30
0.0
 40
9.995760326095089
100
AcDbArc
 50
226.1273179156027
 51
270.0135065840452
  0
ARC
  5
2CC1
330
18
100
AcDbEntity
  8
0
100
AcDbCircle
 10
2219.32433922307
 20
1711.314231404447
 30
0.0
 40
29.99913639940571
100
AcDbArc
 50
179.997269899881
 51
247.3159643329079
  0
LINE
  5
2CC2
330
18
100
AcDbEntity
  8
0
100
AcDbLine
 10
2201.325202857721
 20
1687.295660840379
 30
0.0
 11
2201.325202857721
 21
1716.415660840379
 31
0.0
  0
ARC
  5
2CC3
330
18
100
AcDbEntity
  8
0
100
AcDbCircle
 10
2170.148287866894
 20
1701.855660840379
 30
0.0
 40
30.81865507082559
100
AcDbArc
 50
343.6801846146565
 51
16.31981538534343
  0
ARC
  5
2CC4
330
18
100
AcDbEntity
  8
0
100
AcDbCircle
 10
2219.325139806862
 20
1676.314154356631
 30
0.0
 40
30.0
100
AcDbArc
 50
179.8825311866476
 51
253.805569164657
  0
LINE
  5
2CC5
330
18
100
AcDbEntity
  8
0
100
AcDbLine
 10
2199.725202857721
 20
1672.185660840379
 30
0.0
 11
2189.325202857721
 21
1672.185660840379
 31
0.0
  0
LINE
  5
2CC6
330
18
100
AcDbEntity
  8
0
100
AcDbLine
 10
2189.325202857721
 20
1680.845660840379
 30
0.0
 11
2199.725202857721
 21
1680.845660840379
 31
0.0
  0
LINE
  5
2CC7
330
18
100
AcDbEntity
  8
0
100
AcDbLine
 10
2199.725202857721
 20
1645.555660840379
 30
0.0
 11
2189.325202857721
 21
1645.555660840379
 31
0.0
  0
LINE
  5
2CC8
330
18
100
AcDbEntity
  8
0
100
AcDbLine
 10
2189.325202857721
 20
1679.525660840379
 30
0.0
 11
2189.325202857721
 21
1676.375660840379
 31
0.0
  0
LINE
  5
2CC9
330
18
100
AcDbEntity
  8
0
100
AcDbLine
 10
2189.325202857721
 20
1676.375660840379
 30
0.0
 11
2189.325202857721
 21
1679.525660840379
 31
0.0
  0
LINE
  5
2CCA
330
18
100
AcDbEntity
  8
0
100
AcDbLine
 10
2188.94520285772
 20
1680.685660840379
 30
0.0
 11
2189.11520285772
 21
1680.405660840379
 31
0.0
  0
LINE
  5
2CCB
330
18
100
AcDbEntity
  8
0
100
AcDbLine
 10
2187.32520285772
 20
1681.525660840379
 30
0.0
 11
2187.32520285772
 21
1681.525660840379
 31
0.0
  0
LINE
  5
2CCC
330
18
100
AcDbEntity
  8
0
100
AcDbLine
 10
2187.32520285772
 20
1681.525660840379
 30
0.0
 11
2187.61520285772
 21
1681.505660840379
 31
0.0
  0
LINE
  5
2CCD
330
18
100
AcDbEntity
  8
0
100
AcDbLine
 10
2187.61520285772
 20
1681.505660840379
 30
0.0
 11
2187.90520285772
 21
1681.435660840379
 31
0.0
  0
LINE
  5
2CCE
330
18
100
AcDbEntity
  8
0
100
AcDbLine
 10
2187.90520285772
 20
1681.435660840379
 30
0.0
 11
2188.205202857721
 21
1681.315660840379
 31
0.0
  0
LINE
  5
2CCF
330
18
100
AcDbEntity
  8
0
100
AcDbLine
 10
2188.205202857721
 20
1681.315660840379
 30
0.0
 11
2188.48520285772
 21
1681.155660840379
 31
0.0
  0
LINE
  5
2CD0
330
18
100
AcDbEntity
  8
0
100
AcDbLine
 10
2188.48520285772
 20
1681.155660840379
 30
0.0
 11
2188.73520285772
 21
1680.935660840379
 31
0.0
  0
LINE
  5
2CD1
330
18
100
AcDbEntity
  8
0
100
AcDbLine
 10
2188.73520285772
 20
1680.935660840379
 30
0.0
 11
2188.94520285772
 21
1680.685660840379
 31
0.0
  0
LINE
  5
2CD2
330
18
100
AcDbEntity
  8
0
100
AcDbLine
 10
2189.11520285772
 20
1680.405660840379
 30
0.0
 11
2189.23520285772
 21
1680.115660840379
 31
0.0
  0
LINE
  5
2CD3
330
18
100
AcDbEntity
  8
0
100
AcDbLine
 10
2189.23520285772
 20
1680.115660840379
 30
0.0
 11
2189.325202857721
 21
1679.525660840379
 31
0.0
  0
LINE
  5
2CD4
330
18
100
AcDbEntity
  8
0
100
AcDbLine
 10
2163.32520285772
 20
1681.525660840379
 30
0.0
 11
2187.32520285772
 21
1681.525660840379
 31
0.0
  0
ARC
  5
2CD5
330
18
100
AcDbEntity
  8
0
100
AcDbCircle
 10
2192.795771850268
 20
1676.515660840379
 30
0.0
 40
8.171041187452141
100
AcDbArc
 50
327.9999349608471
 51
32.00006503915292
  0
LINE
  5
2CD6
330
18
100
AcDbEntity
  8
0
100
AcDbLine
 10
2201.325202857721
 20
1678.085660840379
 30
0.0
 11
2201.325202857721
 21
1652.375660840379
 31
0.0
  0
LINE
  5
2CD7
330
18
100
AcDbEntity
  8
0
100
AcDbLine
 10
2200.09520285772
 20
1653.895660840379
 30
0.0
 11
2199.725202857721
 21
1654.875660840379
 31
0.0
  0
LINE
  5
2CD8
330
18
100
AcDbEntity
  8
0
100
AcDbLine
 10
2199.725202857721
 20
1654.875660840379
 30
0.0
 11
2199.725202857721
 21
1654.865660840379
 31
0.0
  0
LINE
  5
2CD9
330
18
100
AcDbEntity
  8
0
100
AcDbLine
 10
2199.725202857721
 20
1654.865660840379
 30
0.0
 11
2198.40520285772
 21
1654.865660840379
 31
0.0
  0
LINE
  5
2CDA
330
18
100
AcDbEntity
  8
0
100
AcDbLine
 10
2201.325202857721
 20
1652.375660840379
 30
0.0
 11
2200.09520285772
 21
1653.895660840379
 31
0.0
  0
LINE
  5
2CDB
330
18
100
AcDbEntity
  8
0
100
AcDbLine
 10
2198.995202857721
 20
1654.315660840379
 30
0.0
 11
2202.295202857721
 21
1651.685660840379
 31
0.0
  0
LINE
  5
2CDC
330
18
100
AcDbEntity
  8
0
100
AcDbLine
 10
2202.295202857721
 20
1651.685660840379
 30
0.0
 11
2198.995202857721
 21
1654.315660840379
 31
0.0
  0
ARC
  5
2CDD
330
18
100
AcDbEntity
  8
0
100
AcDbCircle
 10
2170.148287866895
 20
1663.525660840379
 30
0.0
 40
30.81865507082537
100
AcDbArc
 50
343.6801846146565
 51
16.31981538534343
  0
LINE
  5
2CDE
330
18
100
AcDbEntity
  8
0
100
AcDbLine
 10
2199.725202857721
 20
1693.195660840379
 30
0.0
 11
2195.40520285772
 21
1693.195660840379
 31
0.0
  0
ARC
  5
2CDF
330
18
100
AcDbEntity
  8
0
100
AcDbCircle
 10
2192.799475127363
 20
1688.868650571442
 30
0.0
 40
8.166316333728737
100
AcDbArc
 50
351.4579206908494
 51
31.99604486031174
  0
LINE
  5
2CE0
330
18
100
AcDbEntity
  8
0
100
AcDbLine
 10
2199.725202857721
 20
1680.845660840379
 30
0.0
 11
2201.325202857721
 21
1678.085660840379
 31
0.0
  0
LINE
  5
2CE1
330
18
100
AcDbEntity
  8
0
100
AcDbLine
 10
2201.335202857721
 20
1687.295660840379
 30
0.0
 11
2201.325202857721
 21
1687.295660840379
 31
0.0
  0
LINE
  5
2CE2
330
18
100
AcDbEntity
  8
0
100
AcDbLine
 10
2201.325202857721
 20
1642.78566084038
 30
0.0
 11
2199.725202857721
 21
1645.555660840379
 31
0.0
  0
LINE
  5
2CE3
330
18
100
AcDbEntity
  8
0
100
AcDbLine
 10
2199.725202857721
 20
1719.175660840379
 30
0.0
 11
2189.325202857721
 21
1719.175660840379
 31
0.0
  0
LINE
  5
2CE4
330
18
100
AcDbEntity
  8
0
100
AcDbLine
 10
2199.725202857721
 20
1710.515660840379
 30
0.0
 11
2189.325202857721
 21
1710.515660840379
 31
0.0
  0
LINE
  5
2CE5
330
18
100
AcDbEntity
  8
0
100
AcDbLine
 10
2163.32520285772
 20
1704.525660840379
 30
0.0
 11
2161.825202857721
 21
1704.525660840379
 31
0.0
  0
LINE
  5
2CE6
330
18
100
AcDbEntity
  8
0
100
AcDbLine
 10
2189.11520285772
 20
1723.405660840379
 30
0.0
 11
2188.94520285772
 21
1723.685660840379
 31
0.0
  0
LINE
  5
2CE7
330
18
100
AcDbEntity
  8
0
100
AcDbLine
 10
2188.94520285772
 20
1723.685660840379
 30
0.0
 11
2188.73520285772
 21
1723.935660840379
 31
0.0
  0
LINE
  5
2CE8
330
18
100
AcDbEntity
  8
0
100
AcDbLine
 10
2188.73520285772
 20
1723.935660840379
 30
0.0
 11
2188.48520285772
 21
1724.145660840379
 31
0.0
  0
LINE
  5
2CE9
330
18
100
AcDbEntity
  8
0
100
AcDbLine
 10
2188.48520285772
 20
1724.145660840379
 30
0.0
 11
2188.205202857721
 21
1724.315660840379
 31
0.0
  0
LINE
  5
2CEA
330
18
100
AcDbEntity
  8
0
100
AcDbLine
 10
2188.205202857721
 20
1724.315660840379
 30
0.0
 11
2187.90520285772
 21
1724.435660840379
 31
0.0
  0
LINE
  5
2CEB
330
18
100
AcDbEntity
  8
0
100
AcDbLine
 10
2187.90520285772
 20
1724.435660840379
 30
0.0
 11
2187.32520285772
 21
1724.525660840379
 31
0.0
  0
LINE
  5
2CEC
330
18
100
AcDbEntity
  8
0
100
AcDbLine
 10
2189.325202857721
 20
1722.525660840379
 30
0.0
 11
2189.325202857721
 21
1722.525660840379
 31
0.0
  0
LINE
  5
2CED
330
18
100
AcDbEntity
  8
0
100
AcDbLine
 10
2189.325202857721
 20
1722.525660840379
 30
0.0
 11
2189.305202857721
 21
1722.815660840379
 31
0.0
  0
LINE
  5
2CEE
330
18
100
AcDbEntity
  8
0
100
AcDbLine
 10
2189.305202857721
 20
1722.815660840379
 30
0.0
 11
2189.23520285772
 21
1723.105660840379
 31
0.0
  0
LINE
  5
2CEF
330
18
100
AcDbEntity
  8
0
100
AcDbLine
 10
2189.23520285772
 20
1723.105660840379
 30
0.0
 11
2189.11520285772
 21
1723.405660840379
 31
0.0
  0
LINE
  5
2CF0
330
18
100
AcDbEntity
  8
0
100
AcDbLine
 10
2189.325202857721
 20
1711.315660840379
 30
0.0
 11
2189.325202857721
 21
1722.525660840379
 31
0.0
  0
LINE
  5
2CF1
330
18
100
AcDbEntity
  8
0
100
AcDbLine
 10
2187.32520285772
 20
1724.525660840379
 30
0.0
 11
2163.32520285772
 21
1724.525660840379
 31
0.0
  0
LINE
  5
2CF2
330
18
100
AcDbEntity
  8
0
100
AcDbLine
 10
2201.325202857721
 20
1716.415660840379
 30
0.0
 11
2199.725202857721
 21
1719.175660840379
 31
0.0
  0
ARC
  5
2CF3
330
18
100
AcDbEntity
  8
0
100
AcDbCircle
 10
2192.795714858409
 20
1714.845660840379
 30
0.0
 40
8.171089519311262
100
AcDbArc
 50
328.00014673163
 51
31.99985326836994
  0
LINE
  5
2CF4
330
18
100
AcDbEntity
  8
0
100
AcDbLine
 10
2440.274123103602
 20
1667.05698039852
 30
0.0
 11
2458.268028486882
 21
1667.05698039852
 31
0.0
  0
LINE
  5
2CF5
330
18
100
AcDbEntity
  8
0
100
AcDbLine
 10
2253.322202857719
 20
2002.357971795957
 30
0.0
 11
2227.322202857719
 21
2002.357971795957
 31
0.0
  0
LINE
  5
2CF6
330
18
100
AcDbEntity
  8
0
100
AcDbLine
 10
2150.822202857719
 20
2456.857971795957
 30
0.0
 11
2150.822202857719
 21
2197.643942145279
 31
0.0
  0
LINE
  5
2CF7
330
18
100
AcDbEntity
  8
0
100
AcDbLine
 10
2116.322202857718
 20
2317.857971795957
 30
0.0
 11
2116.322202857718
 21
2156.357971795957
 31
0.0
  0
POLYLINE
  5
2CF8
330
18
100
AcDbEntity
  8
0
100
AcDb2dPolyline
 66
     1
 10
0.0
 20
0.0
 30
0.0
  0
VERTEX
  5
3C90
330
2CF8
100
AcDbEntity
  8
0
100
AcDbVertex
100
AcDb2dVertex
 10
2227.322202857718
 20
2225.517971795957
 30
0.0
 42
-0.070022296758922
  0
VERTEX
  5
3C91
330
2CF8
100
AcDbEntity
  8
0
100
AcDbVertex
100
AcDb2dVertex
 10
2207.72663089608
 20
2228.27574741651
 30
0.0
 42
-0.0818203175941617
  0
VERTEX
  5
3C92
330
2CF8
100
AcDbEntity
  8
0
100
AcDbVertex
100
AcDb2dVertex
 10
2192.398198934915
 20
2235.54663560813
 30
0.0
 42
-0.1069143253087146
  0
VERTEX
  5
3C93
330
2CF8
100
AcDbEntity
  8
0
100
AcDbVertex
100
AcDb2dVertex
 10
2181.352287682628
 20
2247.365864049756
 30
0.0
 42
-0.1354622733701762
  0
VERTEX
  5
3C94
330
2CF8
100
AcDbEntity
  8
0
100
AcDbVertex
100
AcDb2dVertex
 10
2177.932202857719
 20
2259.757971795957
 30
0.0
 42
-0.1354622733701786
  0
SEQEND
  5
3C95
330
2CF8
100
AcDbEntity
  8
0
  0
LINE
  5
2CF9
330
18
100
AcDbEntity
  8
0
100
AcDbLine
 10
2087.322202857719
 20
2085.107971795957
 30
0.0
 11
1983.522202857719
 21
2085.107971795957
 31
0.0
  0
LINE
  5
2CFA
330
18
100
AcDbEntity
  8
0
100
AcDbLine
 10
2087.322202857719
 20
2145.607971795957
 30
0.0
 11
1983.522202857719
 21
2145.607971795957
 31
0.0
  0
LINE
  5
2CFB
330
18
100
AcDbEntity
  8
0
100
AcDbLine
 10
1958.322202857719
 20
2192.857971795957
 30
0.0
 11
1958.322202857719
 21
2037.857971795957
 31
0.0
  0
LINE
  5
2CFC
330
18
100
AcDbEntity
  8
0
100
AcDbLine
 10
1974.322202857719
 20
2192.857971795957
 30
0.0
 11
1974.322202857719
 21
2037.857971795957
 31
0.0
  0
LINE
  5
2CFD
330
18
100
AcDbEntity
  8
0
100
AcDbLine
 10
1983.522202857719
 20
2145.607971795957
 30
0.0
 11
1983.522202857719
 21
2085.107971795957
 31
0.0
  0
LINE
  5
2CFE
330
18
100
AcDbEntity
  8
0
100
AcDbLine
 10
1974.322202857719
 20
2037.857971795957
 30
0.0
 11
1958.322202857719
 21
2037.857971795957
 31
0.0
  0
LINE
  5
2CFF
330
18
100
AcDbEntity
  8
0
100
AcDbLine
 10
1983.522202857719
 20
2085.107971795957
 30
0.0
 11
1974.322202857719
 21
2075.907971795957
 31
0.0
  0
LINE
  5
2D00
330
18
100
AcDbEntity
  8
0
100
AcDbLine
 10
1974.322202857719
 20
2154.807971795957
 30
0.0
 11
1983.522202857719
 21
2145.607971795957
 31
0.0
  0
LINE
  5
2D01
330
18
100
AcDbEntity
  8
0
100
AcDbLine
 10
1974.322202857719
 20
2192.857971795957
 30
0.0
 11
1958.322202857719
 21
2192.857971795957
 31
0.0
  0
ARC
  5
2D02
330
18
100
AcDbEntity
  8
0
100
AcDbCircle
 10
2306.322202857719
 20
2152.357971795957
 30
0.0
 40
162.0
100
AcDbArc
 50
164.9319780115837
 51
195.0680219884162
  0
LINE
  5
2D03
330
18
100
AcDbEntity
  8
0
100
AcDbLine
 10
2087.322202857719
 20
2152.107971795957
 30
0.0
 11
2087.322202857719
 21
2078.607971795957
 31
0.0
  0
ARC
  5
2D04
330
18
100
AcDbEntity
  8
0
100
AcDbCircle
 10
2248.222202857719
 20
2137.357971795957
 30
0.0
 40
102.0
100
AcDbArc
 50
193.5363746751022
 51
258.176240012016
  0
LINE
  5
2D05
330
18
100
AcDbEntity
  8
0
100
AcDbLine
 10
2087.322202857719
 20
2115.357971795957
 30
0.0
 11
2087.322202857719
 21
2074.357971795957
 31
0.0
  0
ARC
  5
2D06
330
18
100
AcDbEntity
  8
0
100
AcDbCircle
 10
2198.915236343301
 20
2151.12680875529
 30
0.0
 40
82.75852975439168
100
AcDbArc
 50
184.5770062743343
 51
236.2798393884074
  0
POLYLINE
  5
2D07
330
18
100
AcDbEntity
  8
0
100
AcDb2dPolyline
 66
     1
 10
0.0
 20
0.0
 30
0.0
  0
VERTEX
  5
3C96
330
2D07
100
AcDbEntity
  8
0
100
AcDbVertex
100
AcDb2dVertex
 10
2177.933469526222
 20
2101.594971795957
 30
0.0
 42
-0.2303778337445353
  0
VERTEX
  5
3C97
330
2D07
100
AcDbEntity
  8
0
100
AcDbVertex
100
AcDb2dVertex
 10
2180.240675980412
 20
2106.109018679352
 30
0.0
 42
-0.0857134771080596
  0
VERTEX
  5
3C98
330
2D07
100
AcDbEntity
  8
0
100
AcDbVertex
100
AcDb2dVertex
 10
2192.370033672963
 20
2112.338088721698
 30
0.0
 42
-0.043280060836277
  0
VERTEX
  5
3C99
330
2D07
100
AcDbEntity
  8
0
100
AcDbVertex
100
AcDb2dVertex
 10
2207.024129185113
 20
2115.567610688168
 30
0.0
 42
-0.0319607229775014
  0
VERTEX
  5
3C9A
330
2D07
100
AcDbEntity
  8
0
100
AcDbVertex
100
AcDb2dVertex
 10
2227.282202857718
 20
2116.916971795957
 30
0.0
 42
-0.0319607229775038
  0
SEQEND
  5
3C9B
330
2D07
100
AcDbEntity
  8
0
  0
LINE
  5
2D08
330
18
100
AcDbEntity
  8
0
100
AcDbLine
 10
2087.322202857719
 20
2074.357971795957
 30
0.0
 11
2168.003751114993
 21
2074.357971795957
 31
0.0
  0
POLYLINE
  5
2D09
330
18
100
AcDbEntity
  8
0
100
AcDb2dPolyline
 66
     1
 10
0.0
 20
0.0
 30
0.0
  0
VERTEX
  5
3C9C
330
2D09
100
AcDbEntity
  8
0
100
AcDbVertex
100
AcDb2dVertex
 10
2227.322202857718
 20
2047.035971795957
 30
0.0
 42
-0.107696942501049
  0
VERTEX
  5
3C9D
330
2D09
100
AcDbEntity
  8
0
100
AcDbVertex
100
AcDb2dVertex
 10
2208.66803708933
 20
2051.101115131519
 30
0.0
 42
-0.1018398349839665
  0
VERTEX
  5
3C9E
330
2D09
100
AcDbEntity
  8
0
100
AcDbVertex
100
AcDb2dVertex
 10
2192.398897591654
 20
2063.015932921201
 30
0.0
 42
-0.0945211726760977
  0
VERTEX
  5
3C9F
330
2D09
100
AcDbEntity
  8
0
100
AcDbVertex
100
AcDb2dVertex
 10
2181.763171242127
 20
2080.471943193897
 30
0.0
 42
-0.0899257565637016
  0
VERTEX
  5
3CA0
330
2D09
100
AcDbEntity
  8
0
100
AcDbVertex
100
AcDb2dVertex
 10
2177.933190907554
 20
2101.594971795957
 30
0.0
 42
-0.0899257565637006
  0
SEQEND
  5
3CA1
330
2D09
100
AcDbEntity
  8
0
  0
LINE
  5
2D0A
330
18
100
AcDbEntity
  8
0
100
AcDbLine
 10
2215.322202857718
 20
2015.835971795957
 30
0.0
 11
2215.322202857718
 21
2040.809590141991
 31
0.0
  0
ARC
  5
2D0B
330
18
100
AcDbEntity
  8
0
100
AcDbCircle
 10
2246.49591740894
 20
2030.393971795957
 30
0.0
 40
30.81530258422212
100
AcDbArc
 50
163.6802968976994
 51
196.3197031023005
  0
ARC
  5
2D0C
330
18
100
AcDbEntity
  8
0
100
AcDbCircle
 10
2223.853234195658
 20
2017.403971795957
 30
0.0
 40
8.172928263939018
100
AcDbArc
 50
147.9999349608691
 51
212.0000650391308
  0
LINE
  5
2D0D
330
18
100
AcDbEntity
  8
0
100
AcDbLine
 10
2216.922202857718
 20
2013.073971795957
 30
0.0
 11
2215.322202857718
 21
2015.835971795957
 31
0.0
  0
LINE
  5
2D0E
330
18
100
AcDbEntity
  8
0
100
AcDbLine
 10
2227.322202857719
 20
2013.073971795957
 30
0.0
 11
2216.922202857718
 21
2013.073971795957
 31
0.0
  0
LINE
  5
2D0F
330
18
100
AcDbEntity
  8
0
100
AcDbLine
 10
2216.922202857718
 20
2021.734971795957
 30
0.0
 11
2227.322202857719
 21
2021.734971795957
 31
0.0
  0
LINE
  5
2D10
330
18
100
AcDbEntity
  8
0
100
AcDbLine
 10
2216.922202857718
 20
2039.052971795958
 30
0.0
 11
2221.016928093438
 21
2039.052971795958
 31
0.0
  0
ARC
  5
2D11
330
18
100
AcDbEntity
  8
0
100
AcDbCircle
 10
2223.853490724041
 20
2043.383971795957
 30
0.0
 40
8.173145813322054
100
AcDbArc
 50
200.5519560040985
 51
211.9991120689732
  0
LINE
  5
2D12
330
18
100
AcDbEntity
  8
0
100
AcDbLine
 10
2215.322202857718
 20
2074.509971795957
 30
0.0
 11
2215.322202857718
 21
2103.626971795957
 31
0.0
  0
ARC
  5
2D13
330
18
100
AcDbEntity
  8
0
100
AcDbCircle
 10
2246.49591740894
 20
2089.067971795957
 30
0.0
 40
30.81530258422212
100
AcDbArc
 50
163.6802968976994
 51
196.3197031023005
  0
ARC
  5
2D14
330
18
100
AcDbEntity
  8
0
100
AcDbCircle
 10
2223.853234195658
 20
2076.077971795956
 30
0.0
 40
8.172928263939018
100
AcDbArc
 50
147.9999349608691
 51
212.0000650391308
  0
LINE
  5
2D15
330
18
100
AcDbEntity
  8
0
100
AcDbLine
 10
2216.922202857718
 20
2071.747971795957
 30
0.0
 11
2215.322202857718
 21
2074.509971795957
 31
0.0
  0
LINE
  5
2D16
330
18
100
AcDbEntity
  8
0
100
AcDbLine
 10
2227.322202857719
 20
2071.747971795957
 30
0.0
 11
2216.922202857718
 21
2071.747971795957
 31
0.0
  0
LINE
  5
2D17
330
18
100
AcDbEntity
  8
0
100
AcDbLine
 10
2216.922202857718
 20
2080.408971795957
 30
0.0
 11
2227.322202857719
 21
2080.408971795957
 31
0.0
  0
LINE
  5
2D18
330
18
100
AcDbEntity
  8
0
100
AcDbLine
 10
2215.322202857718
 20
2103.626971795957
 30
0.0
 11
2216.922202857718
 21
2106.388971795957
 31
0.0
  0
ARC
  5
2D19
330
18
100
AcDbEntity
  8
0
100
AcDbCircle
 10
2223.853490724041
 20
2102.057971795957
 30
0.0
 40
8.173145813322054
100
AcDbArc
 50
148.0008879310267
 51
211.9991120689732
  0
LINE
  5
2D1A
330
18
100
AcDbEntity
  8
0
100
AcDbLine
 10
2216.922202857718
 20
2106.388971795957
 30
0.0
 11
2227.322202857719
 21
2106.388971795957
 31
0.0
  0
LINE
  5
2D1B
330
18
100
AcDbEntity
  8
0
100
AcDbLine
 10
2216.922202857718
 20
2097.726971795958
 30
0.0
 11
2227.322202857719
 21
2097.726971795958
 31
0.0
  0
LINE
  5
2D1C
330
18
100
AcDbEntity
  8
0
100
AcDbLine
 10
2087.322202857719
 20
2156.357971795957
 30
0.0
 11
2116.322202857718
 21
2156.357971795957
 31
0.0
  0
LINE
  5
2D1D
330
18
100
AcDbEntity
  8
0
100
AcDbLine
 10
2087.322202857719
 20
2115.357971795957
 30
0.0
 11
2087.322202857719
 21
2156.357971795957
 31
0.0
  0
ARC
  5
2D1E
330
18
100
AcDbEntity
  8
0
100
AcDbCircle
 10
2248.222202857719
 20
2167.357971795957
 30
0.0
 40
102.0
100
AcDbArc
 50
162.7272185693414
 51
166.4636253248977
  0
POLYLINE
  5
2D1F
330
18
100
AcDbEntity
  8
0
100
AcDb2dPolyline
 66
     1
 10
0.0
 20
0.0
 30
0.0
  0
VERTEX
  5
3CA2
330
2D1F
100
AcDbEntity
  8
0
100
AcDbVertex
100
AcDb2dVertex
 10
2227.322202857718
 20
2142.279971795957
 30
0.0
 42
-0.0739141019569554
  0
VERTEX
  5
3CA3
330
2D1F
100
AcDbEntity
  8
0
100
AcDbVertex
100
AcDb2dVertex
 10
2207.814074769105
 20
2145.179665212019
 30
0.0
 42
-0.0847033099063923
  0
VERTEX
  5
3CA4
330
2D1F
100
AcDbEntity
  8
0
100
AcDbVertex
100
AcDb2dVertex
 10
2192.398198934915
 20
2152.896765191507
 30
0.0
 42
-0.1063598999383303
  0
VERTEX
  5
3CA5
330
2D1F
100
AcDbEntity
  8
0
100
AcDbVertex
100
AcDb2dVertex
 10
2181.413508828068
 20
2165.276844444276
 30
0.0
 42
-0.1291672456714229
  0
VERTEX
  5
3CA6
330
2D1F
100
AcDbEntity
  8
0
100
AcDbVertex
100
AcDb2dVertex
 10
2177.932202857719
 20
2178.527971795957
 30
0.0
 42
-0.1291672456714209
  0
SEQEND
  5
3CA7
330
2D1F
100
AcDbEntity
  8
0
  0
LINE
  5
2D20
330
18
100
AcDbEntity
  8
0
100
AcDbLine
 10
2215.322202857718
 20
2163.967971795958
 30
0.0
 11
2215.322202857718
 21
2193.085971795957
 31
0.0
  0
ARC
  5
2D21
330
18
100
AcDbEntity
  8
0
100
AcDbCircle
 10
2223.85349072404
 20
2165.536971795957
 30
0.0
 40
8.173145813321802
100
AcDbArc
 50
148.0008879310267
 51
211.9991120689732
  0
LINE
  5
2D22
330
18
100
AcDbEntity
  8
0
100
AcDbLine
 10
2216.922202857718
 20
2161.206971795957
 30
0.0
 11
2215.322202857718
 21
2163.967971795958
 31
0.0
  0
LINE
  5
2D23
330
18
100
AcDbEntity
  8
0
100
AcDbLine
 10
2227.322202857719
 20
2161.206971795957
 30
0.0
 11
2216.922202857718
 21
2161.206971795957
 31
0.0
  0
POLYLINE
  5
2D24
330
18
100
AcDbEntity
  8
0
100
AcDb2dPolyline
 66
     1
 10
0.0
 20
0.0
 30
0.0
  0
VERTEX
  5
3CA8
330
2D24
100
AcDbEntity
  8
0
100
AcDbVertex
100
AcDb2dVertex
 10
2177.932202857719
 20
2178.527971795958
 30
0.0
 42
-0.1135446756219572
  0
VERTEX
  5
3CA9
330
2D24
100
AcDbEntity
  8
0
100
AcDbVertex
100
AcDb2dVertex
 10
2181.55978674293
 20
2194.296283375496
 30
0.0
 42
-0.1035052482649747
  0
VERTEX
  5
3CAA
330
2D24
100
AcDbEntity
  8
0
100
AcDbVertex
100
AcDb2dVertex
 10
2192.398198934915
 20
2208.304238351723
 30
0.0
 42
-0.0918863226898913
  0
VERTEX
  5
3CAB
330
2D24
100
AcDbEntity
  8
0
100
AcDbVertex
100
AcDb2dVertex
 10
2208.079320119042
 20
2217.339885875602
 30
0.0
 42
-0.085075990665343
  0
VERTEX
  5
3CAC
330
2D24
100
AcDbEntity
  8
0
100
AcDbVertex
100
AcDb2dVertex
 10
2227.322202857718
 20
2220.637971795958
 30
0.0
 42
-0.0850759906653445
  0
SEQEND
  5
3CAD
330
2D24
100
AcDbEntity
  8
0
  0
ARC
  5
2D25
330
18
100
AcDbEntity
  8
0
100
AcDbCircle
 10
2223.85349072404
 20
2191.516971795957
 30
0.0
 40
8.173145813321802
100
AcDbArc
 50
148.0008879310267
 51
211.9991120689732
  0
ARC
  5
2D26
330
18
100
AcDbEntity
  8
0
100
AcDbCircle
 10
2246.49591740894
 20
2178.526971795957
 30
0.0
 40
30.81530258422233
100
AcDbArc
 50
163.6802968976994
 51
196.3197031023005
  0
LINE
  5
2D27
330
18
100
AcDbEntity
  8
0
100
AcDbLine
 10
2215.322202857718
 20
2193.085971795957
 30
0.0
 11
2216.922202857718
 21
2195.847971795958
 31
0.0
  0
LINE
  5
2D28
330
18
100
AcDbEntity
  8
0
100
AcDbLine
 10
2216.922202857718
 20
2169.867971795957
 30
0.0
 11
2227.322202857719
 21
2169.867971795957
 31
0.0
  0
LINE
  5
2D29
330
18
100
AcDbEntity
  8
0
100
AcDbLine
 10
2216.922202857718
 20
2187.185971795957
 30
0.0
 11
2227.322202857719
 21
2187.185971795957
 31
0.0
  0
LINE
  5
2D2A
330
18
100
AcDbEntity
  8
0
100
AcDbLine
 10
2216.922202857718
 20
2195.847971795958
 30
0.0
 11
2227.322202857719
 21
2195.847971795958
 31
0.0
  0
LINE
  5
2D2B
330
18
100
AcDbEntity
  8
0
100
AcDbLine
 10
2087.322202857718
 20
2332.807971795957
 30
0.0
 11
1989.022202857719
 21
2332.807971795957
 31
0.0
  0
LINE
  5
2D2C
330
18
100
AcDbEntity
  8
0
100
AcDbLine
 10
2087.322202857718
 20
2421.907971795958
 30
0.0
 11
1989.022202857719
 21
2421.907971795957
 31
0.0
  0
LINE
  5
2D2D
330
18
100
AcDbEntity
  8
0
100
AcDbLine
 10
1989.022202857719
 20
2421.907971795957
 30
0.0
 11
1989.022202857719
 21
2332.807971795957
 31
0.0
  0
LINE
  5
2D2E
330
18
100
AcDbEntity
  8
0
100
AcDbLine
 10
1976.322202857719
 20
2284.857971795957
 30
0.0
 11
1958.322202857719
 21
2284.857971795958
 31
0.0
  0
LINE
  5
2D2F
330
18
100
AcDbEntity
  8
0
100
AcDbLine
 10
1989.022202857719
 20
2332.807971795957
 30
0.0
 11
1976.322202857719
 21
2320.107971795957
 31
0.0
  0
LINE
  5
2D30
330
18
100
AcDbEntity
  8
0
100
AcDbLine
 10
1989.022202857719
 20
2421.907971795957
 30
0.0
 11
1976.322202857719
 21
2434.607971795957
 31
0.0
  0
LINE
  5
2D31
330
18
100
AcDbEntity
  8
0
100
AcDbLine
 10
2087.322202857719
 20
2377.357971795957
 30
0.0
 11
2087.322202857719
 21
2322.857971795957
 31
0.0
  0
POLYLINE
  5
2D32
330
18
100
AcDbEntity
  8
0
100
AcDb2dPolyline
 66
     1
 10
0.0
 20
0.0
 30
0.0
  0
VERTEX
  5
3CAE
330
2D32
100
AcDbEntity
  8
0
100
AcDbVertex
100
AcDb2dVertex
 10
2227.322202857718
 20
2310.257971795957
 30
0.0
 42
-0.0759324646691649
  0
VERTEX
  5
3CAF
330
2D32
100
AcDbEntity
  8
0
100
AcDbVertex
100
AcDb2dVertex
 10
2207.962963407763
 20
2313.21501084299
 30
0.0
 42
-0.0861204956053751
  0
VERTEX
  5
3CB0
330
2D32
100
AcDbEntity
  8
0
100
AcDbVertex
100
AcDb2dVertex
 10
2192.582046698024
 20
2321.124310213936
 30
0.0
 42
-0.1059698406576102
  0
VERTEX
  5
3CB1
330
2D32
100
AcDbEntity
  8
0
100
AcDbVertex
100
AcDb2dVertex
 10
2181.68450648481
 20
2333.729644627476
 30
0.0
 42
-0.126089610326612
  0
VERTEX
  5
3CB2
330
2D32
100
AcDbEntity
  8
0
100
AcDbVertex
100
AcDb2dVertex
 10
2178.192202857717
 20
2347.357971795957
 30
0.0
 42
-0.1260896103266131
  0
SEQEND
  5
3CB3
330
2D32
100
AcDbEntity
  8
0
  0
LINE
  5
2D33
330
18
100
AcDbEntity
  8
0
100
AcDbLine
 10
2215.322202857718
 20
2335.697971795957
 30
0.0
 11
2215.322202857718
 21
2364.807971795957
 31
0.0
  0
ARC
  5
2D34
330
18
100
AcDbEntity
  8
0
100
AcDbCircle
 10
2246.482041107787
 20
2350.252971795956
 30
0.0
 40
30.80086139006892
100
AcDbArc
 50
163.6801846146565
 51
196.3198153853434
  0
ARC
  5
2D35
330
18
100
AcDbEntity
  8
0
100
AcDbCircle
 10
2111.322202857718
 20
2317.857971795957
 30
0.0
 40
5.0
100
AcDbArc
 50
0.0
 51
90.0
  0
LINE
  5
2D36
330
18
100
AcDbEntity
  8
0
100
AcDbLine
 10
2087.322202857719
 20
2322.857971795957
 30
0.0
 11
2111.322202857718
 21
2322.857971795957
 31
0.0
  0
POLYLINE
  5
2D37
330
18
100
AcDbEntity
  8
0
100
AcDb2dPolyline
 66
     1
 10
0.0
 20
0.0
 30
0.0
  0
VERTEX
  5
3CB4
330
2D37
100
AcDbEntity
  8
0
100
AcDbVertex
100
AcDb2dVertex
 10
2177.932202857719
 20
2259.757971795957
 30
0.0
 42
-0.1110900395357144
  0
VERTEX
  5
3CB5
330
2D37
100
AcDbEntity
  8
0
100
AcDbVertex
100
AcDb2dVertex
 10
2181.581958213314
 20
2275.982260450418
 30
0.0
 42
-0.1028481776418138
  0
VERTEX
  5
3CB6
330
2D37
100
AcDbEntity
  8
0
100
AcDbVertex
100
AcDb2dVertex
 10
2192.398198934915
 20
2290.283771539781
 30
0.0
 42
-0.0929995041670857
  0
VERTEX
  5
3CB7
330
2D37
100
AcDbEntity
  8
0
100
AcDbVertex
100
AcDb2dVertex
 10
2208.128491372386
 20
2299.560397747725
 30
0.0
 42
-0.0870610434407608
  0
VERTEX
  5
3CB8
330
2D37
100
AcDbEntity
  8
0
100
AcDbVertex
100
AcDb2dVertex
 10
2227.322202857718
 20
2302.927971795957
 30
0.0
 42
-0.0870610434407572
  0
SEQEND
  5
3CB9
330
2D37
100
AcDbEntity
  8
0
  0
LINE
  5
2D38
330
18
100
AcDbEntity
  8
0
100
AcDbLine
 10
2215.322202857718
 20
2245.197971795957
 30
0.0
 11
2215.322202857718
 21
2274.317971795957
 31
0.0
  0
ARC
  5
2D39
330
18
100
AcDbEntity
  8
0
100
AcDbCircle
 10
2246.499117848543
 20
2259.757971795957
 30
0.0
 40
30.81865507082559
100
AcDbArc
 50
163.6801846146565
 51
196.3198153853434
  0
ARC
  5
2D3A
330
18
100
AcDbEntity
  8
0
100
AcDbCircle
 10
2223.851548378759
 20
2246.767971795957
 30
0.0
 40
8.1709686910404
100
AcDbArc
 50
147.9996173051574
 51
212.0003826948425
  0
LINE
  5
2D3B
330
18
100
AcDbEntity
  8
0
100
AcDbLine
 10
2216.922202857718
 20
2242.437971795957
 30
0.0
 11
2215.322202857718
 21
2245.197971795957
 31
0.0
  0
LINE
  5
2D3C
330
18
100
AcDbEntity
  8
0
100
AcDbLine
 10
2227.322202857719
 20
2242.437971795957
 30
0.0
 11
2216.922202857718
 21
2242.437971795957
 31
0.0
  0
LINE
  5
2D3D
330
18
100
AcDbEntity
  8
0
100
AcDbLine
 10
2216.922202857718
 20
2251.097971795957
 30
0.0
 11
2227.322202857719
 21
2251.097971795957
 31
0.0
  0
LINE
  5
2D3E
330
18
100
AcDbEntity
  8
0
100
AcDbLine
 10
2215.322202857718
 20
2274.317971795957
 30
0.0
 11
2216.922202857718
 21
2277.077971795957
 31
0.0
  0
ARC
  5
2D3F
330
18
100
AcDbEntity
  8
0
100
AcDbCircle
 10
2223.851662361008
 20
2272.747971795957
 30
0.0
 40
8.171065353289751
100
AcDbArc
 50
148.0000408462067
 51
211.9999591537932
  0
LINE
  5
2D40
330
18
100
AcDbEntity
  8
0
100
AcDbLine
 10
2216.922202857718
 20
2277.077971795957
 30
0.0
 11
2227.322202857719
 21
2277.077971795957
 31
0.0
  0
LINE
  5
2D41
330
18
100
AcDbEntity
  8
0
100
AcDbLine
 10
2216.922202857718
 20
2268.417971795957
 30
0.0
 11
2227.322202857719
 21
2268.417971795957
 31
0.0
  0
ARC
  5
2D42
330
18
100
AcDbEntity
  8
0
100
AcDbCircle
 10
2223.859606989045
 20
2337.262971795957
 30
0.0
 40
8.180452376326213
100
AcDbArc
 50
147.9998290755729
 51
212.000170924427
  0
LINE
  5
2D43
330
18
100
AcDbEntity
  8
0
100
AcDbLine
 10
2216.922202857718
 20
2332.937971795957
 30
0.0
 11
2215.322202857718
 21
2335.697971795957
 31
0.0
  0
LINE
  5
2D44
330
18
100
AcDbEntity
  8
0
100
AcDbLine
 10
2216.922202857718
 20
2341.597971795957
 30
0.0
 11
2227.322202857719
 21
2341.597971795957
 31
0.0
  0
LINE
  5
2D45
330
18
100
AcDbEntity
  8
0
100
AcDbLine
 10
2227.322202857719
 20
2332.937971795957
 30
0.0
 11
2216.922202857718
 21
2332.937971795957
 31
0.0
  0
LINE
  5
2D46
330
18
100
AcDbEntity
  8
0
100
AcDbLine
 10
2116.322202857718
 20
2456.857971795957
 30
0.0
 11
2167.077571932206
 21
2456.857971795957
 31
0.0
  0
LINE
  5
2D47
330
18
100
AcDbEntity
  8
0
100
AcDbLine
 10
2087.322202857719
 20
2377.357971795957
 30
0.0
 11
2087.322202857719
 21
2431.857971795957
 31
0.0
  0
ARC
  5
2D48
330
18
100
AcDbEntity
  8
0
100
AcDbCircle
 10
2111.322202857718
 20
2436.857971795956
 30
0.0
 40
5.0
100
AcDbArc
 50
270.0
 51
0.0
  0
LINE
  5
2D49
330
18
100
AcDbEntity
  8
0
100
AcDbLine
 10
2087.322202857719
 20
2431.857971795957
 30
0.0
 11
2111.322202857718
 21
2431.857971795957
 31
0.0
  0
POLYLINE
  5
2D4A
330
18
100
AcDbEntity
  8
0
100
AcDb2dPolyline
 66
     1
 10
0.0
 20
0.0
 30
0.0
  0
VERTEX
  5
3CBA
330
2D4A
100
AcDbEntity
  8
0
100
AcDbVertex
100
AcDb2dVertex
 10
2227.322202857718
 20
2400.757971795957
 30
0.0
 42
-0.0810936847216324
  0
VERTEX
  5
3CBB
330
2D4A
100
AcDbEntity
  8
0
100
AcDbVertex
100
AcDb2dVertex
 10
2207.982404884142
 20
2403.915406632683
 30
0.0
 42
-0.0895054263486445
  0
VERTEX
  5
3CBC
330
2D4A
100
AcDbEntity
  8
0
100
AcDbVertex
100
AcDb2dVertex
 10
2192.398198934915
 20
2412.473700548495
 30
0.0
 42
-0.104703589997003
  0
VERTEX
  5
3CBD
330
2D4A
100
AcDbEntity
  8
0
100
AcDbVertex
100
AcDb2dVertex
 10
2181.512055287899
 20
2425.896803262812
 30
0.0
 42
-0.118744877453476
  0
VERTEX
  5
3CBE
330
2D4A
100
AcDbEntity
  8
0
100
AcDbVertex
100
AcDb2dVertex
 10
2177.932202857719
 20
2440.757971795957
 30
0.0
 42
-0.1187448774534761
  0
SEQEND
  5
3CBF
330
2D4A
100
AcDbEntity
  8
0
  0
POLYLINE
  5
2D4B
330
18
100
AcDbEntity
  8
0
100
AcDb2dPolyline
 66
     1
 10
0.0
 20
0.0
 30
0.0
  0
VERTEX
  5
3CC0
330
2D4B
100
AcDbEntity
  8
0
100
AcDbVertex
100
AcDb2dVertex
 10
2178.192202857717
 20
2347.357971795957
 30
0.0
 42
-0.1111876059378975
  0
VERTEX
  5
3CC1
330
2D4B
100
AcDbEntity
  8
0
100
AcDbVertex
100
AcDb2dVertex
 10
2181.821872973527
 20
2363.478463023111
 30
0.0
 42
-0.1028754415618672
  0
VERTEX
  5
3CC2
330
2D4B
100
AcDbEntity
  8
0
100
AcDbVertex
100
AcDb2dVertex
 10
2192.582046698024
 20
2377.69285270886
 30
0.0
 42
-0.0929554327226999
  0
VERTEX
  5
3CC3
330
2D4B
100
AcDbEntity
  8
0
100
AcDbVertex
100
AcDb2dVertex
 10
2208.227543019245
 20
2386.910912302503
 30
0.0
 42
-0.0869807794646978
  0
VERTEX
  5
3CC4
330
2D4B
100
AcDbEntity
  8
0
100
AcDbVertex
100
AcDb2dVertex
 10
2227.322202857718
 20
2390.257971795958
 30
0.0
 42
-0.0869807794646999
  0
SEQEND
  5
3CC5
330
2D4B
100
AcDbEntity
  8
0
  0
ARC
  5
2D4C
330
18
100
AcDbEntity
  8
0
100
AcDbCircle
 10
2223.859806692819
 20
2363.242971795957
 30
0.0
 40
8.180621735101421
100
AcDbArc
 50
148.0005702738148
 51
211.999429726185
  0
LINE
  5
2D4D
330
18
100
AcDbEntity
  8
0
100
AcDbLine
 10
2215.322202857718
 20
2364.807971795957
 30
0.0
 11
2216.922202857718
 21
2367.577971795957
 31
0.0
  0
LINE
  5
2D4E
330
18
100
AcDbEntity
  8
0
100
AcDbLine
 10
2216.922202857718
 20
2358.907971795957
 30
0.0
 11
2227.322202857719
 21
2358.907971795957
 31
0.0
  0
LINE
  5
2D4F
330
18
100
AcDbEntity
  8
0
100
AcDbLine
 10
2216.922202857718
 20
2367.577971795957
 30
0.0
 11
2227.322202857719
 21
2367.577971795957
 31
0.0
  0
LINE
  5
2D50
330
18
100
AcDbEntity
  8
0
100
AcDbLine
 10
2215.322202857718
 20
2426.197971795957
 30
0.0
 11
2215.322202857718
 21
2455.317971795957
 31
0.0
  0
ARC
  5
2D51
330
18
100
AcDbEntity
  8
0
100
AcDbCircle
 10
2246.482041107787
 20
2440.752971795958
 30
0.0
 40
30.80086139006892
100
AcDbArc
 50
163.6801846146565
 51
196.3198153853434
  0
LINE
  5
2D52
330
18
100
AcDbEntity
  8
0
100
AcDbLine
 10
2216.922202857718
 20
2423.437971795957
 30
0.0
 11
2215.322202857718
 21
2426.197971795957
 31
0.0
  0
ARC
  5
2D53
330
18
100
AcDbEntity
  8
0
100
AcDbCircle
 10
2223.851804842952
 20
2427.767971795957
 30
0.0
 40
8.171186185234011
100
AcDbArc
 50
148.0005702738148
 51
211.999429726185
  0
LINE
  5
2D54
330
18
100
AcDbEntity
  8
0
100
AcDbLine
 10
2216.922202857718
 20
2432.097971795957
 30
0.0
 11
2227.322202857719
 21
2432.097971795957
 31
0.0
  0
LINE
  5
2D55
330
18
100
AcDbEntity
  8
0
100
AcDbLine
 10
2227.322202857719
 20
2423.437971795957
 30
0.0
 11
2216.922202857718
 21
2423.437971795957
 31
0.0
  0
ARC
  5
2D56
330
18
100
AcDbEntity
  8
0
100
AcDbCircle
 10
2223.859806692819
 20
2453.742971795957
 30
0.0
 40
8.180621735101421
100
AcDbArc
 50
148.0005702738148
 51
211.999429726185
  0
LINE
  5
2D57
330
18
100
AcDbEntity
  8
0
100
AcDbLine
 10
2215.322202857718
 20
2455.317971795957
 30
0.0
 11
2216.922202857718
 21
2458.077971795957
 31
0.0
  0
LINE
  5
2D58
330
18
100
AcDbEntity
  8
0
100
AcDbLine
 10
2216.922202857718
 20
2449.407971795957
 30
0.0
 11
2227.322202857719
 21
2449.407971795957
 31
0.0
  0
LINE
  5
2D59
330
18
100
AcDbEntity
  8
0
100
AcDbLine
 10
2216.922202857718
 20
2458.077971795957
 30
0.0
 11
2227.322202857719
 21
2458.077971795957
 31
0.0
  0
ARC
  5
2D5A
330
18
100
AcDbEntity
  8
0
100
AcDbCircle
 10
2591.460325826608
 20
2244.820049514089
 30
0.0
 40
299.9046610765653
100
AcDbArc
 50
177.6766330500019
 51
222.0526432061084
  0
LINE
  5
2D5B
330
18
100
AcDbEntity
  8
0
100
AcDbLine
 10
2548.822202857718
 20
2012.353971795957
 30
0.0
 11
2302.850800386835
 21
2012.353971795957
 31
0.0
  0
LINE
  5
2D5C
330
18
100
AcDbEntity
  8
0
100
AcDbLine
 10
2259.822202857719
 20
2002.353971795957
 30
0.0
 11
2259.822202857719
 21
2162.353971795957
 31
0.0
  0
LINE
  5
2D5D
330
18
100
AcDbEntity
  8
0
100
AcDbLine
 10
2280.822202857719
 20
2002.353971795957
 30
0.0
 11
2280.822202857719
 21
2162.353971795957
 31
0.0
  0
ARC
  5
2D5E
330
18
100
AcDbEntity
  8
0
100
AcDbCircle
 10
2285.822202857719
 20
2113.053971795958
 30
0.0
 40
5.0
100
AcDbArc
 50
180.0
 51
270.0
  0
ARC
  5
2D5F
330
18
100
AcDbEntity
  8
0
100
AcDbCircle
 10
2285.822202857719
 20
2053.553971795957
 30
0.0
 40
5.0
100
AcDbArc
 50
180.0
 51
270.0
  0
LINE
  5
2D60
330
18
100
AcDbEntity
  8
0
100
AcDbLine
 10
2280.822202857719
 20
2002.353971795957
 30
0.0
 11
2254.822202857719
 21
2002.353971795957
 31
0.0
  0
ARC
  5
2D61
330
18
100
AcDbEntity
  8
0
100
AcDbCircle
 10
2291.122202857719
 20
2028.553971795957
 30
0.0
 40
20.0
100
AcDbArc
 50
270.0
 51
90.0
  0
LINE
  5
2D62
330
18
100
AcDbEntity
  8
0
100
AcDbLine
 10
2291.122202857719
 20
2008.553971795957
 30
0.0
 11
2285.822202857719
 21
2008.553971795957
 31
0.0
  0
ARC
  5
2D63
330
18
100
AcDbEntity
  8
0
100
AcDbCircle
 10
2285.822202857719
 20
2003.553971795957
 30
0.0
 40
5.0
100
AcDbArc
 50
90.0
 51
180.0
  0
LINE
  5
2D64
330
18
100
AcDbEntity
  8
0
100
AcDbLine
 10
2291.122202857719
 20
2048.553971795957
 30
0.0
 11
2285.822202857719
 21
2048.553971795957
 31
0.0
  0
ARC
  5
2D65
330
18
100
AcDbEntity
  8
0
100
AcDbCircle
 10
2291.122202857719
 20
2088.053971795958
 30
0.0
 40
20.0
100
AcDbArc
 50
270.0
 51
90.0
  0
LINE
  5
2D66
330
18
100
AcDbEntity
  8
0
100
AcDbLine
 10
2291.122202857719
 20
2068.053971795958
 30
0.0
 11
2285.822202857719
 21
2068.053971795958
 31
0.0
  0
ARC
  5
2D67
330
18
100
AcDbEntity
  8
0
100
AcDbCircle
 10
2285.822202857719
 20
2063.053971795958
 30
0.0
 40
5.0
100
AcDbArc
 50
90.0
 51
180.0
  0
LINE
  5
2D68
330
18
100
AcDbEntity
  8
0
100
AcDbLine
 10
2291.122202857719
 20
2108.053971795958
 30
0.0
 11
2285.822202857719
 21
2108.053971795958
 31
0.0
  0
LINE
  5
2D69
330
18
100
AcDbEntity
  8
0
100
AcDbLine
 10
2548.822202857718
 20
2162.353971795957
 30
0.0
 11
2548.822202857718
 21
2002.353971795957
 31
0.0
  0
ARC
  5
2D6A
330
18
100
AcDbEntity
  8
0
100
AcDbCircle
 10
2441.822202857718
 20
2224.353971795957
 30
0.0
 40
212.0
100
AcDbArc
 50
270.0
 51
300.3125667435866
  0
LINE
  5
2D6B
330
18
100
AcDbEntity
  8
0
100
AcDbLine
 10
2258.442202857718
 20
2297.287971795957
 30
0.0
 11
2258.442202857718
 21
2442.577971795957
 31
0.0
  0
ARC
  5
2D6C
330
18
100
AcDbEntity
  8
0
100
AcDbCircle
 10
2309.764711423553
 20
2305.802634057337
 30
0.0
 40
52.0240267464521
100
AcDbArc
 50
189.4198577580139
 51
249.8015187220272
  0
LINE
  5
2D6D
330
18
100
AcDbEntity
  8
0
100
AcDbLine
 10
2270.822202857719
 20
2715.357971795957
 30
0.0
 11
2145.822202857719
 21
2715.357971795957
 31
0.0
  0
LINE
  5
2D6E
330
18
100
AcDbEntity
  8
0
100
AcDbLine
 10
2270.822202857719
 20
2729.357971795957
 30
0.0
 11
2145.822202857719
 21
2729.357971795957
 31
0.0
  0
LINE
  5
2D6F
330
18
100
AcDbEntity
  8
0
100
AcDbLine
 10
2118.322202857719
 20
2562.357971795957
 30
0.0
 11
2253.322202857719
 21
2562.357971795957
 31
0.0
  0
LINE
  5
2D70
330
18
100
AcDbEntity
  8
0
100
AcDbLine
 10
2142.322202857719
 20
2565.357971795957
 30
0.0
 11
2253.322202857719
 21
2565.357971795957
 31
0.0
  0
LINE
  5
2D71
330
18
100
AcDbEntity
  8
0
100
AcDbLine
 10
2191.322202857719
 20
2565.357971795957
 30
0.0
 11
2191.322202857719
 21
2707.857971795957
 31
0.0
  0
LINE
  5
2D72
330
18
100
AcDbEntity
  8
0
100
AcDbLine
 10
2225.322202857719
 20
2565.357971795957
 30
0.0
 11
2225.322202857719
 21
2707.857971795957
 31
0.0
  0
LINE
  5
2D73
330
18
100
AcDbEntity
  8
0
100
AcDbLine
 10
2118.322202857719
 20
2517.357971795957
 30
0.0
 11
2054.822202857719
 21
2517.357971795957
 31
0.0
  0
LINE
  5
2D74
330
18
100
AcDbEntity
  8
0
100
AcDbLine
 10
2118.322202857719
 20
2551.357971795958
 30
0.0
 11
2054.822202857719
 21
2551.357971795957
 31
0.0
  0
LINE
  5
2D75
330
18
100
AcDbEntity
  8
0
100
AcDbLine
 10
2033.322202857719
 20
2471.857971795957
 30
0.0
 11
2033.322202857719
 21
2596.857971795957
 31
0.0
  0
LINE
  5
2D76
330
18
100
AcDbEntity
  8
0
100
AcDbLine
 10
2047.322202857719
 20
2471.857971795957
 30
0.0
 11
2047.322202857719
 21
2596.857971795957
 31
0.0
  0
LINE
  5
2D77
330
18
100
AcDbEntity
  8
0
100
AcDbLine
 10
1976.322202857719
 20
2469.857971795957
 30
0.0
 11
1958.322202857719
 21
2469.857971795957
 31
0.0
  0
LINE
  5
2D78
330
18
100
AcDbEntity
  8
0
100
AcDbLine
 10
2054.822202857719
 20
2517.357971795957
 30
0.0
 11
2054.822202857719
 21
2551.357971795957
 31
0.0
  0
LINE
  5
2D79
330
18
100
AcDbEntity
  8
0
100
AcDbLine
 10
2047.322202857719
 20
2509.857971795957
 30
0.0
 11
2054.822202857719
 21
2517.357971795957
 31
0.0
  0
LINE
  5
2D7A
330
18
100
AcDbEntity
  8
0
100
AcDbLine
 10
2047.322202857719
 20
2471.857971795957
 30
0.0
 11
2033.322202857719
 21
2471.857971795957
 31
0.0
  0
LINE
  5
2D7B
330
18
100
AcDbEntity
  8
0
100
AcDbLine
 10
2047.322202857719
 20
2558.857971795957
 30
0.0
 11
2054.822202857719
 21
2551.357971795957
 31
0.0
  0
LINE
  5
2D7C
330
18
100
AcDbEntity
  8
0
100
AcDbLine
 10
2047.322202857719
 20
2596.857971795957
 30
0.0
 11
2033.322202857719
 21
2596.857971795957
 31
0.0
  0
ARC
  5
2D7D
330
18
100
AcDbEntity
  8
0
100
AcDbCircle
 10
2146.807202857476
 20
2566.173209891196
 30
0.0
 40
9.842470172893651
100
AcDbArc
 50
64.51478554771965
 51
115.4852144522803
  0
LINE
  5
2D7E
330
18
100
AcDbEntity
  8
0
100
AcDbLine
 10
2144.822202857719
 20
2576.357971795957
 30
0.0
 11
2142.572202857718
 21
2575.057971795957
 31
0.0
  0
ARC
  5
2D7F
330
18
100
AcDbEntity
  8
0
100
AcDbCircle
 10
2163.322202857719
 20
2538.924761269643
 30
0.0
 40
37.08321052631436
100
AcDbArc
 50
77.00302439966368
 51
102.9969756003363
  0
LINE
  5
2D80
330
18
100
AcDbEntity
  8
0
100
AcDbLine
 10
2181.822202857718
 20
2576.357971795957
 30
0.0
 11
2184.072202857718
 21
2575.057971795957
 31
0.0
  0
ARC
  5
2D81
330
18
100
AcDbEntity
  8
0
100
AcDbCircle
 10
2179.837202857718
 20
2566.173209891196
 30
0.0
 40
9.842470172893651
100
AcDbArc
 50
64.51478554771965
 51
115.4852144522803
  0
LINE
  5
2D82
330
18
100
AcDbEntity
  8
0
100
AcDbLine
 10
2163.322202857719
 20
2566.357971795957
 30
0.0
 11
2148.322202857719
 21
2566.357971795957
 31
0.0
  0
LINE
  5
2D83
330
18
100
AcDbEntity
  8
0
100
AcDbLine
 10
2151.032202857718
 20
2567.657971795958
 30
0.0
 11
2154.982202857718
 21
2567.657971795958
 31
0.0
  0
LINE
  5
2D84
330
18
100
AcDbEntity
  8
0
100
AcDbLine
 10
2154.982202857718
 20
2575.057971795957
 30
0.0
 11
2151.032202857718
 21
2575.057971795957
 31
0.0
  0
LINE
  5
2D85
330
18
100
AcDbEntity
  8
0
100
AcDbLine
 10
2181.822202857718
 20
2566.357971795957
 30
0.0
 11
2144.822202857719
 21
2566.357971795957
 31
0.0
  0
LINE
  5
2D86
330
18
100
AcDbEntity
  8
0
100
AcDbLine
 10
2144.822202857719
 20
2565.357971795957
 30
0.0
 11
2181.822202857718
 21
2565.357971795957
 31
0.0
  0
LINE
  5
2D87
330
18
100
AcDbEntity
  8
0
100
AcDbLine
 10
2116.322202857718
 20
2497.857971795957
 30
0.0
 11
2184.822202857719
 21
2497.857971795957
 31
0.0
  0
ARC
  5
2D88
330
18
100
AcDbEntity
  8
0
100
AcDbCircle
 10
2212.822202857718
 20
2489.085346791251
 30
0.0
 40
62.0
100
AcDbArc
 50
113.0753612036863
 51
171.8656959822132
  0
LINE
  5
2D89
330
18
100
AcDbEntity
  8
0
100
AcDbLine
 10
2118.322202857719
 20
2499.357971795957
 30
0.0
 11
2118.322202857719
 21
2562.357971795957
 31
0.0
  0
LINE
  5
2D8A
330
18
100
AcDbEntity
  8
0
100
AcDbLine
 10
2111.822202857719
 20
2466.737971795956
 30
0.0
 11
2116.322202857718
 21
2466.877971795958
 31
0.0
  0
LINE
  5
2D8B
330
18
100
AcDbEntity
  8
0
100
AcDbLine
 10
2116.322202857718
 20
2487.837971795958
 30
0.0
 11
2111.822202857719
 21
2487.977971795957
 31
0.0
  0
LINE
  5
2D8C
330
18
100
AcDbEntity
  8
0
100
AcDbLine
 10
2111.322202857718
 20
2487.487971795957
 30
0.0
 11
2111.322202857718
 21
2467.227971795957
 31
0.0
  0
LINE
  5
2D8D
330
18
100
AcDbEntity
  8
0
100
AcDbLine
 10
2111.322202857718
 20
2487.257971795957
 30
0.0
 11
2111.322202857718
 21
2467.457971795957
 31
0.0
  0
LINE
  5
2D8E
330
18
100
AcDbEntity
  8
0
100
AcDbLine
 10
2101.322202857719
 20
2467.457971795957
 30
0.0
 11
2101.322202857719
 21
2487.257971795957
 31
0.0
  0
LINE
  5
2D8F
330
18
100
AcDbEntity
  8
0
100
AcDbLine
 10
2111.322202857718
 20
2467.457971795957
 30
0.0
 11
2101.322202857719
 21
2467.457971795957
 31
0.0
  0
LINE
  5
2D90
330
18
100
AcDbEntity
  8
0
100
AcDbLine
 10
2101.322202857719
 20
2477.357971795957
 30
0.0
 11
2111.322202857718
 21
2477.357971795957
 31
0.0
  0
LINE
  5
2D91
330
18
100
AcDbEntity
  8
0
100
AcDbLine
 10
2111.322202857718
 20
2467.227971795957
 30
0.0
 11
2111.822202857719
 21
2466.737971795956
 31
0.0
  0
LINE
  5
2D92
330
18
100
AcDbEntity
  8
0
100
AcDbLine
 10
2101.322202857719
 20
2487.257971795957
 30
0.0
 11
2111.322202857718
 21
2487.257971795957
 31
0.0
  0
LINE
  5
2D93
330
18
100
AcDbEntity
  8
0
100
AcDbLine
 10
2111.822202857719
 20
2487.977971795957
 30
0.0
 11
2111.322202857718
 21
2487.487971795957
 31
0.0
  0
LINE
  5
2D94
330
18
100
AcDbEntity
  8
0
100
AcDbLine
 10
2114.322202857718
 20
2497.857971795957
 30
0.0
 11
2114.322202857718
 21
2487.90019401818
 31
0.0
  0
LINE
  5
2D95
330
18
100
AcDbEntity
  8
0
100
AcDbLine
 10
2114.322202857718
 20
2462.857971795957
 30
0.0
 11
2116.322202857718
 21
2462.857971795957
 31
0.0
  0
LINE
  5
2D96
330
18
100
AcDbEntity
  8
0
100
AcDbLine
 10
2114.322202857718
 20
2466.815749573735
 30
0.0
 11
2114.322202857718
 21
2462.857971795957
 31
0.0
  0
LINE
  5
2D97
330
18
100
AcDbEntity
  8
0
100
AcDbLine
 10
2114.322202857718
 20
2497.857971795957
 30
0.0
 11
2116.322202857718
 21
2497.857971795957
 31
0.0
  0
LINE
  5
2D98
330
18
100
AcDbEntity
  8
0
100
AcDbLine
 10
2116.322202857718
 20
2499.357971795957
 30
0.0
 11
2118.322202857719
 21
2499.357971795957
 31
0.0
  0
LINE
  5
2D99
330
18
100
AcDbEntity
  8
0
100
AcDbLine
 10
2142.572202857718
 20
2575.057971795957
 30
0.0
 11
2142.572202857718
 21
2567.657971795958
 31
0.0
  0
LINE
  5
2D9A
330
18
100
AcDbEntity
  8
0
100
AcDbLine
 10
2151.032202857718
 20
2575.057971795957
 30
0.0
 11
2151.032202857718
 21
2567.657971795958
 31
0.0
  0
ARC
  5
2D9B
330
18
100
AcDbEntity
  8
0
100
AcDbCircle
 10
2146.807202857476
 20
2576.542733700719
 30
0.0
 40
9.842470172893651
100
AcDbArc
 50
244.5147855477196
 51
295.4852144522803
  0
LINE
  5
2D9C
330
18
100
AcDbEntity
  8
0
100
AcDbLine
 10
2142.572202857718
 20
2567.657971795958
 30
0.0
 11
2144.822202857719
 21
2566.357971795957
 31
0.0
  0
LINE
  5
2D9D
330
18
100
AcDbEntity
  8
0
100
AcDbLine
 10
2144.822202857719
 20
2566.357971795957
 30
0.0
 11
2148.322202857719
 21
2566.357971795957
 31
0.0
  0
LINE
  5
2D9E
330
18
100
AcDbEntity
  8
0
100
AcDbLine
 10
2144.822202857719
 20
2566.357971795957
 30
0.0
 11
2144.822202857719
 21
2565.357971795957
 31
0.0
  0
LINE
  5
2D9F
330
18
100
AcDbEntity
  8
0
100
AcDbLine
 10
2142.322202857719
 20
2565.357971795957
 30
0.0
 11
2142.322202857719
 21
2562.357971795957
 31
0.0
  0
POLYLINE
  5
2DA0
330
18
100
AcDbEntity
  8
0
100
AcDb2dPolyline
 66
     1
 10
0.0
 20
0.0
 30
0.0
  0
VERTEX
  5
3CC6
330
2DA0
100
AcDbEntity
  8
0
100
AcDbVertex
100
AcDb2dVertex
 10
2227.322202857718
 20
2512.617971795958
 30
0.0
 42
-0.0285857464481538
  0
VERTEX
  5
3CC7
330
2DA0
100
AcDbEntity
  8
0
100
AcDbVertex
100
AcDb2dVertex
 10
2207.022193927863
 20
2513.779502751382
 30
0.0
 42
-0.0390401790878681
  0
VERTEX
  5
3CC8
330
2DA0
100
AcDbEntity
  8
0
100
AcDbVertex
100
AcDb2dVertex
 10
2192.398198934915
 20
2516.627679961513
 30
0.0
 42
-0.0800061155234741
  0
VERTEX
  5
3CC9
330
2DA0
100
AcDbEntity
  8
0
100
AcDbVertex
100
AcDb2dVertex
 10
2180.08590913612
 20
2522.275330019579
 30
0.0
 42
-0.2503039277320076
  0
VERTEX
  5
3CCA
330
2DA0
100
AcDbEntity
  8
0
100
AcDbVertex
100
AcDb2dVertex
 10
2177.932202857719
 20
2526.307971795957
 30
0.0
 42
-0.2503039277320068
  0
SEQEND
  5
3CCB
330
2DA0
100
AcDbEntity
  8
0
  0
LINE
  5
2DA1
330
18
100
AcDbEntity
  8
0
100
AcDbLine
 10
2215.322202857718
 20
2540.887971795958
 30
0.0
 11
2215.322202857718
 21
2513.022991125541
 31
0.0
  0
ARC
  5
2DA2
330
18
100
AcDbEntity
  8
0
100
AcDbCircle
 10
2223.851861837015
 20
2513.337971795957
 30
0.0
 40
8.171234519297257
100
AcDbArc
 50
148.0007820452305
 51
182.031049591413
  0
LINE
  5
2DA3
330
18
100
AcDbEntity
  8
0
100
AcDbLine
 10
2220.172202857718
 20
2512.767971795957
 30
0.0
 11
2212.812202857719
 21
2513.227971795957
 31
0.0
  0
LINE
  5
2DA4
330
18
100
AcDbEntity
  8
0
100
AcDbLine
 10
2227.322202857719
 20
2512.617971795958
 30
0.0
 11
2220.172202857718
 21
2512.767971795957
 31
0.0
  0
POLYLINE
  5
2DA5
330
18
100
AcDbEntity
  8
0
100
AcDb2dPolyline
 66
     1
 10
0.0
 20
0.0
 30
0.0
  0
VERTEX
  5
3CCC
330
2DA5
100
AcDbEntity
  8
0
100
AcDbVertex
100
AcDb2dVertex
 10
2177.932202857719
 20
2526.307971795957
 30
0.0
 42
-0.1427397834356985
  0
VERTEX
  5
3CCD
330
2DA5
100
AcDbEntity
  8
0
100
AcDbVertex
100
AcDb2dVertex
 10
2181.280063835541
 20
2537.796182781548
 30
0.0
 42
-0.107172048130841
  0
VERTEX
  5
3CCE
330
2DA5
100
AcDbEntity
  8
0
100
AcDbVertex
100
AcDb2dVertex
 10
2192.398198934915
 20
2549.020241607669
 30
0.0
 42
-0.0785305341780621
  0
VERTEX
  5
3CCF
330
2DA5
100
AcDbEntity
  8
0
100
AcDbVertex
100
AcDb2dVertex
 10
2207.636747299101
 20
2555.822994810585
 30
0.0
 42
-0.0658778674229943
  0
VERTEX
  5
3CD0
330
2DA5
100
AcDbEntity
  8
0
100
AcDbVertex
100
AcDb2dVertex
 10
2227.322202857718
 20
2558.427971795958
 30
0.0
 42
-0.0658778674229922
  0
SEQEND
  5
3CD1
330
2DA5
100
AcDbEntity
  8
0
  0
ARC
  5
2DA6
330
18
100
AcDbEntity
  8
0
100
AcDbCircle
 10
2163.322202857719
 20
2603.791182322272
 30
0.0
 40
37.08321052631436
100
AcDbArc
 50
257.0030243996636
 51
282.9969756003363
  0
LINE
  5
2DA7
330
18
100
AcDbEntity
  8
0
100
AcDbLine
 10
2171.662202857718
 20
2567.657971795958
 30
0.0
 11
2171.662202857718
 21
2575.057971795957
 31
0.0
  0
LINE
  5
2DA8
330
18
100
AcDbEntity
  8
0
100
AcDbLine
 10
2154.982202857718
 20
2567.657971795958
 30
0.0
 11
2154.982202857718
 21
2575.057971795957
 31
0.0
  0
LINE
  5
2DA9
330
18
100
AcDbEntity
  8
0
100
AcDbLine
 10
2175.602202857719
 20
2575.057971795957
 30
0.0
 11
2175.602202857719
 21
2567.657971795958
 31
0.0
  0
LINE
  5
2DAA
330
18
100
AcDbEntity
  8
0
100
AcDbLine
 10
2175.602202857719
 20
2567.657971795958
 30
0.0
 11
2171.662202857718
 21
2567.657971795958
 31
0.0
  0
LINE
  5
2DAB
330
18
100
AcDbEntity
  8
0
100
AcDbLine
 10
2163.322202857719
 20
2566.357971795957
 30
0.0
 11
2178.322202857719
 21
2566.357971795957
 31
0.0
  0
LINE
  5
2DAC
330
18
100
AcDbEntity
  8
0
100
AcDbLine
 10
2171.662202857718
 20
2575.057971795957
 30
0.0
 11
2175.602202857719
 21
2575.057971795957
 31
0.0
  0
LINE
  5
2DAD
330
18
100
AcDbEntity
  8
0
100
AcDbLine
 10
2184.072202857718
 20
2575.057971795957
 30
0.0
 11
2184.072202857718
 21
2567.657971795958
 31
0.0
  0
LINE
  5
2DAE
330
18
100
AcDbEntity
  8
0
100
AcDbLine
 10
2184.072202857718
 20
2567.657971795958
 30
0.0
 11
2181.822202857718
 21
2566.357971795957
 31
0.0
  0
LINE
  5
2DAF
330
18
100
AcDbEntity
  8
0
100
AcDbLine
 10
2181.822202857718
 20
2565.357971795957
 30
0.0
 11
2181.822202857718
 21
2566.357971795957
 31
0.0
  0
ARC
  5
2DB0
330
18
100
AcDbEntity
  8
0
100
AcDbCircle
 10
2179.837202857718
 20
2576.542733700719
 30
0.0
 40
9.842470172893651
100
AcDbArc
 50
244.5147855477196
 51
295.4852144522803
  0
LINE
  5
2DB1
330
18
100
AcDbEntity
  8
0
100
AcDbLine
 10
2181.822202857718
 20
2566.357971795957
 30
0.0
 11
2178.322202857719
 21
2566.357971795957
 31
0.0
  0
ARC
  5
2DB2
330
18
100
AcDbEntity
  8
0
100
AcDbCircle
 10
2223.851861837015
 20
2539.317971795957
 30
0.0
 40
8.171234519297257
100
AcDbArc
 50
148.0007820452305
 51
211.9992179547694
  0
ARC
  5
2DB3
330
18
100
AcDbEntity
  8
0
100
AcDbCircle
 10
2246.499117848543
 20
2526.327971795957
 30
0.0
 40
30.81865507082537
100
AcDbArc
 50
163.6801846146565
 51
196.3198153853434
  0
LINE
  5
2DB4
330
18
100
AcDbEntity
  8
0
100
AcDbLine
 10
2216.922202857718
 20
2543.647971795957
 30
0.0
 11
2215.322202857718
 21
2540.887971795958
 31
0.0
  0
LINE
  5
2DB5
330
18
100
AcDbEntity
  8
0
100
AcDbLine
 10
2227.322202857719
 20
2534.987971795957
 30
0.0
 11
2227.322202857719
 21
2534.987971795957
 31
0.0
  0
LINE
  5
2DB6
330
18
100
AcDbEntity
  8
0
100
AcDbLine
 10
2227.322202857719
 20
2517.667971795958
 30
0.0
 11
2216.922202857718
 21
2517.667971795958
 31
0.0
  0
LINE
  5
2DB7
330
18
100
AcDbEntity
  8
0
100
AcDbLine
 10
2227.322202857719
 20
2534.987971795957
 30
0.0
 11
2216.922202857718
 21
2534.987971795957
 31
0.0
  0
LINE
  5
2DB8
330
18
100
AcDbEntity
  8
0
100
AcDbLine
 10
2227.322202857719
 20
2534.987971795957
 30
0.0
 11
2216.922202857718
 21
2534.987971795957
 31
0.0
  0
LINE
  5
2DB9
330
18
100
AcDbEntity
  8
0
100
AcDbLine
 10
2227.322202857719
 20
2543.647971795957
 30
0.0
 11
2216.922202857718
 21
2543.647971795957
 31
0.0
  0
LINE
  5
2DBA
330
18
100
AcDbEntity
  8
0
100
AcDbLine
 10
2227.322202857719
 20
2543.647971795957
 30
0.0
 11
2216.922202857718
 21
2543.647971795957
 31
0.0
  0
LINE
  5
2DBB
330
18
100
AcDbEntity
  8
0
100
AcDbLine
 10
2163.322202857719
 20
2576.357971795957
 30
0.0
 11
2144.822202857719
 21
2576.357971795957
 31
0.0
  0
LINE
  5
2DBC
330
18
100
AcDbEntity
  8
0
100
AcDbLine
 10
2163.322202857719
 20
2576.357971795957
 30
0.0
 11
2181.822202857718
 21
2576.357971795957
 31
0.0
  0
LINE
  5
2DBD
330
18
100
AcDbEntity
  8
0
100
AcDbLine
 10
2145.822202857719
 20
2729.357971795957
 30
0.0
 11
2145.822202857719
 21
2715.357971795957
 31
0.0
  0
LINE
  5
2DBE
330
18
100
AcDbEntity
  8
0
100
AcDbLine
 10
2225.322202857719
 20
2707.857971795957
 30
0.0
 11
2191.322202857719
 21
2707.857971795957
 31
0.0
  0
LINE
  5
2DBF
330
18
100
AcDbEntity
  8
0
100
AcDbLine
 10
2183.822202857719
 20
2715.357971795957
 30
0.0
 11
2191.322202857719
 21
2707.857971795957
 31
0.0
  0
LINE
  5
2DC0
330
18
100
AcDbEntity
  8
0
100
AcDbLine
 10
2232.822202857719
 20
2715.357971795957
 30
0.0
 11
2225.322202857719
 21
2707.857971795957
 31
0.0
  0
ARC
  5
2DC1
330
18
100
AcDbEntity
  8
0
100
AcDbCircle
 10
2391.822202857718
 20
2579.853971795957
 30
0.0
 40
32.5
100
AcDbArc
 50
0.0
 51
180.0
  0
CIRCLE
  5
2DC2
330
18
100
AcDbEntity
  8
0
100
AcDbCircle
 10
2391.822202857718
 20
2579.853971795957
 30
0.0
 40
17.5
  0
ARC
  5
2DC3
330
18
100
AcDbEntity
  8
0
100
AcDbCircle
 10
2344.322202857718
 20
2577.353971795957
 30
0.0
 40
15.0
100
AcDbArc
 50
270.0
 51
0.0
  0
LINE
  5
2DC4
330
18
100
AcDbEntity
  8
0
100
AcDbLine
 10
2254.822202857719
 20
2562.353971795957
 30
0.0
 11
2344.322202857718
 21
2562.353971795957
 31
0.0
  0
LINE
  5
2DC5
330
18
100
AcDbEntity
  8
0
100
AcDbLine
 10
2359.322202857718
 20
2579.853971795957
 30
0.0
 11
2359.322202857718
 21
2577.353971795957
 31
0.0
  0
ARC
  5
2DC6
330
18
100
AcDbEntity
  8
0
100
AcDbCircle
 10
2439.322202857718
 20
2577.353971795957
 30
0.0
 40
15.0
100
AcDbArc
 50
180.0
 51
270.0
  0
LINE
  5
2DC7
330
18
100
AcDbEntity
  8
0
100
AcDbLine
 10
2424.322202857718
 20
2579.853971795957
 30
0.0
 11
2424.322202857718
 21
2577.353971795957
 31
0.0
  0
LINE
  5
2DC8
330
18
100
AcDbEntity
  8
0
100
AcDbLine
 10
2270.822202857719
 20
2729.357971795957
 30
0.0
 11
2270.822202857719
 21
2715.357971795957
 31
0.0
  0
CIRCLE
  5
2DC9
330
18
100
AcDbEntity
  8
0
100
AcDbCircle
 10
3019.751190408287
 20
783.3305934372885
 30
0.0
 40
92.5
  0
LINE
  5
2DCA
330
18
100
AcDbEntity
  8
0
100
AcDbLine
 10
2912.751190408287
 20
861.3305934372888
 30
0.0
 11
2912.751190408287
 21
671.3394426483128
 31
0.0
  0
LINE
  5
2DCB
330
18
100
AcDbEntity
  8
0
100
AcDbLine
 10
2807.751190408287
 20
756.3305934372886
 30
0.0
 11
2807.751190408287
 21
630.3305934372886
 31
0.0
  0
CIRCLE
  5
2DCC
330
18
100
AcDbEntity
  8
0
100
AcDbCircle
 10
2991.049932980907
 20
714.0396284989422
 30
0.0
 40
7.5
  0
LINE
  5
2DCD
330
18
100
AcDbEntity
  8
0
100
AcDbLine
 10
3231.751190408287
 20
630.3315934372886
 30
0.0
 11
3231.751190408287
 21
756.3305934372886
 31
0.0
  0
LINE
  5
2DCE
330
18
100
AcDbEntity
  8
0
100
AcDbLine
 10
3126.761190642261
 20
671.3271501917977
 30
0.0
 11
3126.751186844038
 21
861.3029755219848
 31
0.0
  0
CIRCLE
  5
2DCF
330
18
100
AcDbEntity
  8
0
100
AcDbCircle
 10
3048.452447835669
 20
714.0396284989422
 30
0.0
 40
7.5
  0
ARC
  5
2DD0
330
18
100
AcDbEntity
  8
0
100
AcDbCircle
 10
3019.751190408287
 20
630.3305934372886
 30
0.0
 40
212.0
100
AcDbArc
 50
315.0356951371266
 51
0.0
  0
LINE
  5
2DD1
330
18
100
AcDbEntity
  8
0
100
AcDbLine
 10
2871.751190408287
 20
408.3305934372885
 30
0.0
 11
3167.751190408287
 21
408.3305934372885
 31
0.0
  0
LINE
  5
2DD2
330
18
100
AcDbEntity
  8
0
100
AcDbLine
 10
2889.451190408287
 20
485.4115934372885
 30
0.0
 11
2904.451190408288
 21
476.7515934372887
 31
0.0
  0
ARC
  5
2DD3
330
18
100
AcDbEntity
  8
0
100
AcDbCircle
 10
3019.751190408287
 20
558.3305934372885
 30
0.0
 40
150.0
100
AcDbArc
 50
138.3362423749311
 51
249.2164404041742
  0
CIRCLE
  5
2DD4
330
18
100
AcDbEntity
  8
0
100
AcDbCircle
 10
2899.751190408287
 20
428.3305934372886
 30
0.0
 40
9.5
  0
CIRCLE
  5
2DD5
330
18
100
AcDbEntity
  8
0
100
AcDbCircle
 10
2890.451190408288
 20
584.9075934372885
 30
0.0
 40
15.0
  0
LINE
  5
2DD6
330
18
100
AcDbEntity
  8
0
100
AcDbLine
 10
2905.451190408287
 20
593.5675934372884
 30
0.0
 11
2890.451190408288
 21
602.2285934372884
 31
0.0
  0
CIRCLE
  5
2DD7
330
18
100
AcDbEntity
  8
0
100
AcDbCircle
 10
2904.451190408288
 20
494.0725934372885
 30
0.0
 40
15.0
  0
LINE
  5
2DD8
330
18
100
AcDbEntity
  8
0
100
AcDbLine
 10
2904.451190408288
 20
511.3925934372884
 30
0.0
 11
2889.451190408287
 21
502.7325934372886
 31
0.0
  0
LINE
  5
2DD9
330
18
100
AcDbEntity
  8
0
100
AcDbLine
 10
2874.001190408287
 20
522.8945934372887
 30
0.0
 11
2908.331190408287
 21
519.9545934372886
 31
0.0
  0
LINE
  5
2DDA
330
18
100
AcDbEntity
  8
0
100
AcDbLine
 10
2901.941190408287
 20
561.3925934372884
 30
0.0
 11
2870.091190408287
 21
548.2575934372885
 31
0.0
  0
LINE
  5
2DDB
330
18
100
AcDbEntity
  8
0
100
AcDbLine
 10
2890.451190408288
 20
567.5865934372886
 30
0.0
 11
2905.451190408287
 21
576.2475934372885
 31
0.0
  0
LINE
  5
2DDC
330
18
100
AcDbEntity
  8
0
100
AcDbLine
 10
2886.201190408288
 20
626.6185934372885
 30
0.0
 11
2910.291190408288
 21
601.9835934372886
 31
0.0
  0
LINE
  5
2DDD
330
18
100
AcDbEntity
  8
0
100
AcDbLine
 10
2937.271190408287
 20
641.2205934372886
 30
0.0
 11
2888.811190408287
 21
631.4995934372884
 31
0.0
  0
LINE
  5
2DDE
330
18
100
AcDbEntity
  8
0
100
AcDbLine
 10
2869.751190408287
 20
558.3305934372885
 30
0.0
 11
2869.751190408287
 21
410.3305934372886
 31
0.0
  0
ARC
  5
2DDF
330
18
100
AcDbEntity
  8
0
100
AcDbCircle
 10
3019.751190408287
 20
630.3305934372886
 30
0.0
 40
212.0
100
AcDbArc
 50
180.0
 51
224.9643048628734
  0
ARC
  5
2DE0
330
18
100
AcDbEntity
  8
0
100
AcDbCircle
 10
2871.751190408287
 20
410.3305934372886
 30
0.0
 40
2.0
100
AcDbArc
 50
180.0
 51
270.0
  0
LINE
  5
2DE1
330
18
100
AcDbEntity
  8
0
100
AcDbLine
 10
2890.451190408288
 20
602.2285934372884
 30
0.0
 11
2875.451190408288
 21
593.5675934372884
 31
0.0
  0
LINE
  5
2DE2
330
18
100
AcDbEntity
  8
0
100
AcDbLine
 10
2889.451190408287
 20
502.7325934372886
 30
0.0
 11
2889.451190408287
 21
485.4115934372885
 31
0.0
  0
LINE
  5
2DE3
330
18
100
AcDbEntity
  8
0
100
AcDbLine
 10
2875.451190408288
 20
593.5675934372884
 30
0.0
 11
2875.451190408288
 21
576.2475934372885
 31
0.0
  0
LINE
  5
2DE4
330
18
100
AcDbEntity
  8
0
100
AcDbLine
 10
2875.451190408288
 20
576.2475934372885
 30
0.0
 11
2890.451190408288
 21
567.5865934372886
 31
0.0
  0
CIRCLE
  5
2DE5
330
18
100
AcDbEntity
  8
0
100
AcDbCircle
 10
3019.751190408287
 20
521.3315934372885
 30
0.0
 40
77.5
  0
LINE
  5
2DE6
330
18
100
AcDbEntity
  8
0
100
AcDbLine
 10
2904.451190408288
 20
476.7515934372887
 30
0.0
 11
2919.451190408288
 21
485.4115934372885
 31
0.0
  0
LINE
  5
2DE7
330
18
100
AcDbEntity
  8
0
100
AcDbLine
 10
2928.501190408287
 20
483.7565934372885
 30
0.0
 11
2912.941190408287
 21
453.0135934372886
 31
0.0
  0
CIRCLE
  5
2DE8
330
18
100
AcDbEntity
  8
0
100
AcDbCircle
 10
2977.324783537094
 20
478.9051865660958
 30
0.0
 40
9.5
  0
LINE
  5
2DE9
330
18
100
AcDbEntity
  8
0
100
AcDbLine
 10
3169.751190408287
 20
410.3305934372886
 30
0.0
 11
3169.751190408287
 21
558.3305934372885
 31
0.0
  0
LINE
  5
2DEA
330
18
100
AcDbEntity
  8
0
100
AcDbLine
 10
3135.051190408287
 20
476.7515934372887
 30
0.0
 11
3150.051190408287
 21
485.4115934372885
 31
0.0
  0
LINE
  5
2DEB
330
18
100
AcDbEntity
  8
0
100
AcDbLine
 10
3120.051190408287
 20
485.4115934372885
 30
0.0
 11
3135.051190408287
 21
476.7515934372887
 31
0.0
  0
LINE
  5
2DEC
330
18
100
AcDbEntity
  8
0
100
AcDbLine
 10
3111.001190408287
 20
483.7565934372885
 30
0.0
 11
3126.561190408287
 21
453.0135934372886
 31
0.0
  0
CIRCLE
  5
2DED
330
18
100
AcDbEntity
  8
0
100
AcDbCircle
 10
3062.17759727948
 20
478.9051865660958
 30
0.0
 40
9.5
  0
ARC
  5
2DEE
330
18
100
AcDbEntity
  8
0
100
AcDbCircle
 10
3019.751190408287
 20
558.3305934372885
 30
0.0
 40
150.0
100
AcDbArc
 50
290.7835595958257
 51
41.65868724240542
  0
LINE
  5
2DEF
330
18
100
AcDbEntity
  8
0
100
AcDbLine
 10
2969.751190408287
 20
408.3305934372885
 30
0.0
 11
3069.751190408287
 21
408.3305934372885
 31
0.0
  0
CIRCLE
  5
2DF0
330
18
100
AcDbEntity
  8
0
100
AcDbCircle
 10
3065.441190408288
 20
434.4915934372886
 30
0.0
 40
15.0
  0
LINE
  5
2DF1
330
18
100
AcDbEntity
  8
0
100
AcDbLine
 10
3050.441190408287
 20
425.8305934372885
 30
0.0
 11
3065.441190408288
 21
417.1705934372885
 31
0.0
  0
LINE
  5
2DF2
330
18
100
AcDbEntity
  8
0
100
AcDbLine
 10
3065.441190408288
 20
451.8115934372885
 30
0.0
 11
3050.441190408287
 21
443.1515934372884
 31
0.0
  0
CIRCLE
  5
2DF3
330
18
100
AcDbEntity
  8
0
100
AcDbCircle
 10
2974.061190408287
 20
434.4915934372886
 30
0.0
 40
15.0
  0
LINE
  5
2DF4
330
18
100
AcDbEntity
  8
0
100
AcDbLine
 10
2959.061190408288
 20
425.8305934372885
 30
0.0
 11
2974.061190408287
 21
417.1705934372885
 31
0.0
  0
LINE
  5
2DF5
330
18
100
AcDbEntity
  8
0
100
AcDbLine
 10
2974.061190408287
 20
451.8115934372885
 30
0.0
 11
2959.061190408288
 21
443.1515934372884
 31
0.0
  0
ARC
  5
2DF6
330
18
100
AcDbEntity
  8
0
100
AcDbCircle
 10
2964.751190408287
 20
413.4168259753941
 30
0.0
 40
5.0
100
AcDbArc
 50
0.0
 51
69.21644040417425
  0
LINE
  5
2DF7
330
18
100
AcDbEntity
  8
0
100
AcDbLine
 10
2969.751190408287
 20
413.4168259753941
 30
0.0
 11
2969.751190408287
 21
408.3305934372885
 31
0.0
  0
LINE
  5
2DF8
330
18
100
AcDbEntity
  8
0
100
AcDbLine
 10
2966.521190408288
 20
418.0915934372885
 30
0.0
 11
2966.521190408288
 21
418.0915934372885
 31
0.0
  0
LINE
  5
2DF9
330
18
100
AcDbEntity
  8
0
100
AcDbLine
 10
2931.431190408287
 20
437.0875934372886
 30
0.0
 11
2960.671190408287
 21
457.0225934372886
 31
0.0
  0
LINE
  5
2DFA
330
18
100
AcDbEntity
  8
0
100
AcDbLine
 10
2959.061190408288
 20
443.1515934372884
 30
0.0
 11
2959.061190408288
 21
425.8305934372885
 31
0.0
  0
ARC
  5
2DFB
330
18
100
AcDbEntity
  8
0
100
AcDbCircle
 10
2974.753389500702
 20
436.3691472565749
 30
0.0
 40
24.99746327966171
100
AcDbArc
 50
98.62975151035307
 51
124.287452623664
  0
LINE
  5
2DFC
330
18
100
AcDbEntity
  8
0
100
AcDbLine
 10
2974.061190408287
 20
417.1705934372885
 30
0.0
 11
2989.061190408287
 21
425.8305934372885
 31
0.0
  0
LINE
  5
2DFD
330
18
100
AcDbEntity
  8
0
100
AcDbLine
 10
2999.161190408287
 20
441.7665934372885
 30
0.0
 11
3006.421190408287
 21
408.9245934372886
 31
0.0
  0
LINE
  5
2DFE
330
18
100
AcDbEntity
  8
0
100
AcDbLine
 10
3040.341190408287
 20
441.7665934372885
 30
0.0
 11
3033.081190408287
 21
408.9245934372886
 31
0.0
  0
LINE
  5
2DFF
330
18
100
AcDbEntity
  8
0
100
AcDbLine
 10
2989.061190408287
 20
443.1515934372884
 30
0.0
 11
2974.061190408287
 21
451.8115934372885
 31
0.0
  0
LINE
  5
2E00
330
18
100
AcDbEntity
  8
0
100
AcDbLine
 10
2989.061190408287
 20
425.8305934372885
 30
0.0
 11
2989.061190408287
 21
443.1515934372884
 31
0.0
  0
ARC
  5
2E01
330
18
100
AcDbEntity
  8
0
100
AcDbCircle
 10
2974.753389500702
 20
436.3691472565749
 30
0.0
 40
24.99746327966171
100
AcDbArc
 50
12.46949297231763
 51
25.55708023335654
  0
LINE
  5
2E02
330
18
100
AcDbEntity
  8
0
100
AcDbLine
 10
3050.441190408287
 20
443.1515934372884
 30
0.0
 11
3050.441190408287
 21
425.8305934372885
 31
0.0
  0
ARC
  5
2E03
330
18
100
AcDbEntity
  8
0
100
AcDbCircle
 10
3064.753991315873
 20
436.3657631448107
 30
0.0
 40
25.00307613077947
100
AcDbArc
 50
154.440117954215
 51
167.5254090512306
  0
CIRCLE
  5
2E04
330
18
100
AcDbEntity
  8
0
100
AcDbCircle
 10
3139.751190408287
 20
428.3305934372886
 30
0.0
 40
9.5
  0
LINE
  5
2E05
330
18
100
AcDbEntity
  8
0
100
AcDbLine
 10
3065.441190408288
 20
417.1705934372885
 30
0.0
 11
3080.441190408287
 21
425.8305934372885
 31
0.0
  0
ARC
  5
2E06
330
18
100
AcDbEntity
  8
0
100
AcDbCircle
 10
3074.751190408287
 20
413.4168259753941
 30
0.0
 40
5.0
100
AcDbArc
 50
110.7835595958257
 51
180.0
  0
LINE
  5
2E07
330
18
100
AcDbEntity
  8
0
100
AcDbLine
 10
3069.751190408287
 20
408.3305934372885
 30
0.0
 11
3069.751190408287
 21
413.4168259753941
 31
0.0
  0
LINE
  5
2E08
330
18
100
AcDbEntity
  8
0
100
AcDbLine
 10
3108.071190408288
 20
437.0875934372886
 30
0.0
 11
3078.841190408287
 21
457.0225934372886
 31
0.0
  0
LINE
  5
2E09
330
18
100
AcDbEntity
  8
0
100
AcDbLine
 10
3080.441190408287
 20
443.1515934372884
 30
0.0
 11
3065.441190408288
 21
451.8115934372885
 31
0.0
  0
LINE
  5
2E0A
330
18
100
AcDbEntity
  8
0
100
AcDbLine
 10
3080.441190408287
 20
425.8305934372885
 30
0.0
 11
3080.441190408287
 21
443.1515934372884
 31
0.0
  0
ARC
  5
2E0B
330
18
100
AcDbEntity
  8
0
100
AcDbCircle
 10
3064.753991315873
 20
436.3657631448107
 30
0.0
 40
25.00307613077947
100
AcDbArc
 50
55.70744939989183
 51
81.37642875295329
  0
ARC
  5
2E0C
330
18
100
AcDbEntity
  8
0
100
AcDbCircle
 10
3167.751190408287
 20
410.3305934372886
 30
0.0
 40
2.0
100
AcDbArc
 50
270.0
 51
0.0
  0
CIRCLE
  5
2E0D
330
18
100
AcDbEntity
  8
0
100
AcDbCircle
 10
3062.17759727948
 20
563.7580003084813
 30
0.0
 40
9.5
  0
ARC
  5
2E0E
330
18
100
AcDbEntity
  8
0
100
AcDbCircle
 10
2892.413785947779
 20
584.506823629825
 30
0.0
 40
25.00078145074006
100
AcDbArc
 50
292.4008607987898
 51
44.3507501526015
  0
LINE
  5
2E0F
330
18
100
AcDbEntity
  8
0
100
AcDbLine
 10
2964.751190408287
 20
708.9582195340708
 30
0.0
 11
2964.751190408287
 21
575.9324176068921
 31
0.0
  0
CIRCLE
  5
2E10
330
18
100
AcDbEntity
  8
0
100
AcDbCircle
 10
2977.324783537094
 20
563.7580003084813
 30
0.0
 40
9.5
  0
ARC
  5
2E11
330
18
100
AcDbEntity
  8
0
100
AcDbCircle
 10
2906.196700751655
 20
495.0467336556912
 30
0.0
 40
24.99915048544602
100
AcDbArc
 50
333.1522696026883
 51
85.10198024454508
  0
LINE
  5
2E12
330
18
100
AcDbEntity
  8
0
100
AcDbLine
 10
2919.451190408288
 20
502.7325934372886
 30
0.0
 11
2904.451190408288
 21
511.3925934372884
 31
0.0
  0
LINE
  5
2E13
330
18
100
AcDbEntity
  8
0
100
AcDbLine
 10
2919.451190408288
 20
485.4115934372885
 30
0.0
 11
2919.451190408288
 21
502.7325934372886
 31
0.0
  0
LINE
  5
2E14
330
18
100
AcDbEntity
  8
0
100
AcDbLine
 10
2905.451190408287
 20
576.2475934372885
 30
0.0
 11
2905.451190408287
 21
593.5675934372884
 31
0.0
  0
CIRCLE
  5
2E16
330
18
100
AcDbEntity
  8
0
100
AcDbCircle
 10
2930.371190408288
 20
666.0115934372886
 30
0.0
 40
15.0
  0
ARC
  5
2E17
330
18
100
AcDbEntity
  8
0
100
AcDbCircle
 10
2932.356709389348
 20
665.7330459176416
 30
0.0
 40
25.00024900450134
100
AcDbArc
 50
281.3368788128412
 51
56.23597778244872
  0
LINE
  5
2E18
330
18
100
AcDbEntity
  8
0
100
AcDbLine
 10
2930.371190408288
 20
648.6915934372887
 30
0.0
 11
2945.371190408287
 21
657.3515934372885
 31
0.0
  0
LINE
  5
2E19
330
18
100
AcDbEntity
  8
0
100
AcDbLine
 10
2915.371190408288
 20
657.3515934372885
 30
0.0
 11
2930.371190408288
 21
648.6915934372887
 31
0.0
  0
LINE
  5
2E1A
330
18
100
AcDbEntity
  8
0
100
AcDbLine
 10
2945.371190408287
 20
674.6725934372884
 30
0.0
 11
2930.371190408288
 21
683.3325934372886
 31
0.0
  0
LINE
  5
2E1B
330
18
100
AcDbEntity
  8
0
100
AcDbLine
 10
2912.751190408287
 20
708.9065934372886
 30
0.0
 11
2946.251190408287
 21
686.5165934372885
 31
0.0
  0
LINE
  5
2E1C
330
18
100
AcDbEntity
  8
0
100
AcDbLine
 10
2930.371190408288
 20
683.3325934372886
 30
0.0
 11
2915.371190408288
 21
674.6725934372884
 31
0.0
  0
ARC
  5
2E1D
330
18
100
AcDbEntity
  8
0
100
AcDbCircle
 10
2892.751190408287
 20
671.3394426483128
 30
0.0
 40
20.0
100
AcDbArc
 50
318.336242374931
 51
0.0
  0
LINE
  5
2E1E
330
18
100
AcDbEntity
  8
0
100
AcDbLine
 10
2915.371190408288
 20
674.6725934372884
 30
0.0
 11
2915.371190408288
 21
657.3515934372885
 31
0.0
  0
LINE
  5
2E1F
330
18
100
AcDbEntity
  8
0
100
AcDbLine
 10
2945.371190408287
 20
657.3515934372885
 30
0.0
 11
2945.371190408287
 21
674.6725934372884
 31
0.0
  0
ARC
  5
2E20
330
18
100
AcDbEntity
  8
0
100
AcDbCircle
 10
3147.088594868796
 20
584.506823629825
 30
0.0
 40
25.00078145074022
100
AcDbArc
 50
135.6492498473985
 51
247.5991392012101
  0
CIRCLE
  5
2E21
330
18
100
AcDbEntity
  8
0
100
AcDbCircle
 10
3149.051190408287
 20
584.9075934372885
 30
0.0
 40
15.0
  0
LINE
  5
2E22
330
18
100
AcDbEntity
  8
0
100
AcDbLine
 10
3149.051190408287
 20
602.2285934372884
 30
0.0
 11
3134.051190408287
 21
593.5675934372884
 31
0.0
  0
LINE
  5
2E23
330
18
100
AcDbEntity
  8
0
100
AcDbLine
 10
3164.051190408287
 20
593.5675934372884
 30
0.0
 11
3149.051190408287
 21
602.2285934372884
 31
0.0
  0
LINE
  5
2E24
330
18
100
AcDbEntity
  8
0
100
AcDbLine
 10
3074.751190408287
 20
708.9582195340708
 30
0.0
 11
3074.751190408287
 21
575.9324176068921
 31
0.0
  0
CIRCLE
  5
2E25
330
18
100
AcDbEntity
  8
0
100
AcDbCircle
 10
3135.051190408287
 20
494.0725934372885
 30
0.0
 40
15.0
  0
LINE
  5
2E26
330
18
100
AcDbEntity
  8
0
100
AcDbLine
 10
3150.051190408287
 20
502.7325934372886
 30
0.0
 11
3135.051190408287
 21
511.3925934372884
 31
0.0
  0
LINE
  5
2E27
330
18
100
AcDbEntity
  8
0
100
AcDbLine
 10
3165.501190408287
 20
522.8945934372887
 30
0.0
 11
3131.171190408287
 21
519.9545934372886
 31
0.0
  0
LINE
  5
2E28
330
18
100
AcDbEntity
  8
0
100
AcDbLine
 10
3134.051190408287
 20
576.2475934372885
 30
0.0
 11
3149.051190408287
 21
567.5865934372886
 31
0.0
  0
ARC
  5
2E29
330
18
100
AcDbEntity
  8
0
100
AcDbCircle
 10
3133.305680064919
 20
495.0467336556912
 30
0.0
 40
24.99915048544611
100
AcDbArc
 50
94.89801975540299
 51
206.8477303973117
  0
LINE
  5
2E2A
330
18
100
AcDbEntity
  8
0
100
AcDbLine
 10
3135.051190408287
 20
511.3925934372884
 30
0.0
 11
3120.051190408287
 21
502.7325934372886
 31
0.0
  0
LINE
  5
2E2B
330
18
100
AcDbEntity
  8
0
100
AcDbLine
 10
3120.051190408287
 20
502.7325934372886
 30
0.0
 11
3120.051190408287
 21
485.4115934372885
 31
0.0
  0
LINE
  5
2E2C
330
18
100
AcDbEntity
  8
0
100
AcDbLine
 10
3134.051190408287
 20
593.5675934372884
 30
0.0
 11
3134.051190408287
 21
576.2475934372885
 31
0.0
  0
LINE
  5
2E2D
330
18
100
AcDbEntity
  8
0
100
AcDbLine
 10
3150.051190408287
 20
485.4115934372885
 30
0.0
 11
3150.051190408287
 21
502.7325934372886
 31
0.0
  0
LINE
  5
2E2E
330
18
100
AcDbEntity
  8
0
100
AcDbLine
 10
3137.561190408288
 20
561.3925934372884
 30
0.0
 11
3169.411190408288
 21
548.2575934372885
 31
0.0
  0
LINE
  5
2E2F
330
18
100
AcDbEntity
  8
0
100
AcDbLine
 10
3164.051190408287
 20
576.2475934372885
 30
0.0
 11
3164.051190408287
 21
593.5675934372884
 31
0.0
  0
LINE
  5
2E30
330
18
100
AcDbEntity
  8
0
100
AcDbLine
 10
3149.051190408287
 20
567.5865934372886
 30
0.0
 11
3164.051190408287
 21
576.2475934372885
 31
0.0
  0
LINE
  5
2E31
330
18
100
AcDbEntity
  8
0
100
AcDbLine
 10
3102.231190408287
 20
641.2205934372886
 30
0.0
 11
3150.701190408287
 21
631.4995934372884
 31
0.0
  0
LINE
  5
2E32
330
18
100
AcDbEntity
  8
0
100
AcDbLine
 10
3153.301190408287
 20
626.6185934372885
 30
0.0
 11
3129.211190408287
 21
601.9835934372886
 31
0.0
  0
CIRCLE
  5
2E33
330
18
100
AcDbEntity
  8
0
100
AcDbCircle
 10
3109.131190408287
 20
666.0125934372886
 30
0.0
 40
15.0
  0
LINE
  5
2E34
330
18
100
AcDbEntity
  8
0
100
AcDbLine
 10
3094.131190408287
 20
657.3515934372885
 30
0.0
 11
3109.131190408287
 21
648.6915934372887
 31
0.0
  0
ARC
  5
2E35
330
18
100
AcDbEntity
  8
0
100
AcDbCircle
 10
3107.150671427226
 20
665.7309696899351
 30
0.0
 40
24.99919673793544
100
AcDbArc
 50
123.7518508716
 51
258.6509498411608
  0
LINE
  5
2E36
330
18
100
AcDbEntity
  8
0
100
AcDbLine
 10
3109.131190408287
 20
648.6915934372887
 30
0.0
 11
3124.131190408287
 21
657.3515934372885
 31
0.0
  0
LINE
  5
2E37
330
18
100
AcDbEntity
  8
0
100
AcDbLine
 10
3109.131190408287
 20
683.3325934372886
 30
0.0
 11
3094.131190408287
 21
674.6725934372884
 31
0.0
  0
LINE
  5
2E38
330
18
100
AcDbEntity
  8
0
100
AcDbLine
 10
3126.761190408287
 20
708.9065934372886
 30
0.0
 11
3093.261190408287
 21
686.5165934372885
 31
0.0
  0
LINE
  5
2E39
330
18
100
AcDbEntity
  8
0
100
AcDbLine
 10
3094.131190408287
 20
674.6725934372884
 30
0.0
 11
3094.131190408287
 21
657.3515934372885
 31
0.0
  0
LINE
  5
2E3A
330
18
100
AcDbEntity
  8
0
100
AcDbLine
 10
3124.131190408287
 20
674.6725934372884
 30
0.0
 11
3109.131190408287
 21
683.3325934372886
 31
0.0
  0
ARC
  5
2E3B
330
18
100
AcDbEntity
  8
0
100
AcDbCircle
 10
3146.761190614532
 20
671.3282033571877
 30
0.0
 40
20.0
100
AcDbArc
 50
180.0030170965942
 51
221.6586872424054
  0
LINE
  5
2E3C
330
18
100
AcDbEntity
  8
0
100
AcDbLine
 10
3124.131190408287
 20
657.3515934372885
 30
0.0
 11
3124.131190408287
 21
674.6725934372884
 31
0.0
  0
ARC
  5
2E3D
330
18
100
AcDbEntity
  8
0
100
AcDbCircle
 10
3019.751190408287
 20
756.3305934372886
 30
0.0
 40
212.0
100
AcDbArc
 50
0.0
 51
73.64143761104554
  0
ARC
  5
2E3E
330
18
100
AcDbEntity
  8
0
100
AcDbCircle
 10
3019.751190408287
 20
756.3305934372886
 30
0.0
 40
212.0
100
AcDbArc
 50
106.3585623889544
 51
180.0
  0
CIRCLE
  5
2E40
330
18
100
AcDbEntity
  8
0
100
AcDbCircle
 10
3019.751190408287
 20
940.3305934372886
 30
0.0
 40
62.7873394881484
  0
ARC
  5
2E41
330
18
100
AcDbEntity
  8
0
100
AcDbCircle
 10
3019.751190408287
 20
861.3305934372887
 30
0.0
 40
107.0
100
AcDbArc
 50
125.5914494071251
 51
180.0
  0
LINE
  5
2E42
330
18
100
AcDbEntity
  8
0
100
AcDbLine
 10
2957.099955969995
 20
944.462520754914
 30
0.0
 11
2951.041190408288
 21
940.9645934372885
 31
0.0
  0
ARC
  5
2E43
330
18
100
AcDbEntity
  8
0
100
AcDbCircle
 10
2966.041190408288
 20
932.3035934372885
 30
0.0
 40
15.0
100
AcDbArc
 50
126.6272132352702
 51
250.3727590454282
  0
ARC
  5
2E44
330
18
100
AcDbEntity
  8
0
100
AcDbCircle
 10
3019.751190408287
 20
861.3305934372887
 30
0.0
 40
107.0
100
AcDbArc
 50
359.9852113086845
 51
54.40855059287485
  0
ARC
  5
2E45
330
18
100
AcDbEntity
  8
0
100
AcDbCircle
 10
3073.461190408287
 20
932.3005934372886
 30
0.0
 40
15.0
100
AcDbArc
 50
289.6219395776616
 51
53.37182745844486
  0
LINE
  5
2E46
330
18
100
AcDbEntity
  8
0
100
AcDbLine
 10
3088.461190408287
 20
940.9615934372885
 30
0.0
 11
3082.402630450935
 21
944.4594020526658
 31
0.0
  0
CIRCLE
  5
2E48
330
18
100
AcDbEntity
  8
0
100
AcDbCircle
 10
3048.452447835669
 20
852.621558375635
 30
0.0
 40
7.5
  0
CIRCLE
  5
2E49
330
18
100
AcDbEntity
  8
0
100
AcDbCircle
 10
3051.570995561681
 20
908.510788283894
 30
0.0
 40
9.5
  0
ARC
  5
2E4A
330
18
100
AcDbEntity
  8
0
100
AcDbCircle
 10
2930.741190408287
 20
756.2315934372886
 30
0.0
 40
15.0
100
AcDbArc
 50
100.2282376014554
 51
293.6373925810046
  0
LINE
  5
2E4B
330
18
100
AcDbEntity
  8
0
100
AcDbLine
 10
2927.95471706719
 20
771.9438694950288
 30
0.0
 11
2915.741190408287
 21
764.8925934372887
 31
0.0
  0
LINE
  5
2E4C
330
18
100
AcDbEntity
  8
0
100
AcDbLine
 10
2942.231237065199
 20
732.8637049490387
 30
0.0
 11
2912.751190408287
 21
716.2315934372887
 31
0.0
  0
LINE
  5
2E4D
330
18
100
AcDbEntity
  8
0
100
AcDbLine
 10
2930.741190408287
 20
738.9115934372885
 30
0.0
 11
2936.796162930412
 21
742.4073309067294
 31
0.0
  0
LINE
  5
2E4E
330
18
100
AcDbEntity
  8
0
100
AcDbLine
 10
2915.741190408287
 20
747.5715934372885
 30
0.0
 11
2930.741190408287
 21
738.9115934372885
 31
0.0
  0
LINE
  5
2E4F
330
18
100
AcDbEntity
  8
0
100
AcDbLine
 10
2915.741190408287
 20
764.8925934372887
 30
0.0
 11
2915.741190408287
 21
747.5715934372885
 31
0.0
  0
CIRCLE
  5
2E50
330
18
100
AcDbEntity
  8
0
100
AcDbCircle
 10
2950.460225469942
 20
754.6293360099069
 30
0.0
 40
7.5
  0
LINE
  5
2E51
330
18
100
AcDbEntity
  8
0
100
AcDbLine
 10
2934.376978012871
 20
818.9324734138079
 30
0.0
 11
2912.751190408287
 21
806.7315934372887
 31
0.0
  0
LINE
  5
2E52
330
18
100
AcDbEntity
  8
0
100
AcDbLine
 10
2912.751190408287
 20
796.2315934372886
 30
0.0
 11
2927.368380234919
 21
787.9853098058213
 31
0.0
  0
CIRCLE
  5
2E53
330
18
100
AcDbEntity
  8
0
100
AcDbCircle
 10
2950.460225469942
 20
812.0318508646702
 30
0.0
 40
7.5
  0
LINE
  5
2E54
330
18
100
AcDbEntity
  8
0
100
AcDbLine
 10
2965.951190408288
 20
886.3345934372885
 30
0.0
 11
2975.851190408287
 21
876.4345934372887
 31
0.0
  0
ARC
  5
2E55
330
18
100
AcDbEntity
  8
0
100
AcDbCircle
 10
2975.851190408287
 20
886.3345934372885
 30
0.0
 40
17.5
100
AcDbArc
 50
111.187740695547
 51
270.0
  0
ARC
  5
2E56
330
18
100
AcDbEntity
  8
0
100
AcDbCircle
 10
2975.851190408287
 20
886.3345934372885
 30
0.0
 40
10.6338
100
AcDbArc
 50
97.66330718270388
 51
4.112871543374677
  0
ARC
  5
2E57
330
18
100
AcDbEntity
  8
0
100
AcDbCircle
 10
2975.851190408287
 20
886.3345934372885
 30
0.0
 40
9.315489999999998
100
AcDbArc
 50
91.29162290308176
 51
10.48455582295327
  0
LINE
  5
2E58
330
18
100
AcDbEntity
  8
0
100
AcDbLine
 10
2975.851190408287
 20
896.2335934372886
 30
0.0
 11
2965.951190408288
 21
886.3345934372885
 31
0.0
  0
LINE
  5
2E59
330
18
100
AcDbEntity
  8
0
100
AcDbLine
 10
2915.451190408288
 20
885.2095934372885
 30
0.0
 11
2945.057906734711
 21
868.5057122321088
 31
0.0
  0
CIRCLE
  5
2E5A
330
18
100
AcDbEntity
  8
0
100
AcDbCircle
 10
2930.741190408287
 20
846.7315934372887
 30
0.0
 40
15.0
  0
LINE
  5
2E5B
330
18
100
AcDbEntity
  8
0
100
AcDbLine
 10
2945.741190408287
 20
855.3925934372887
 30
0.0
 11
2930.741190408287
 21
864.0525934372886
 31
0.0
  0
LINE
  5
2E5C
330
18
100
AcDbEntity
  8
0
100
AcDbLine
 10
2930.741190408287
 20
829.4115934372884
 30
0.0
 11
2945.741190408287
 21
838.0715934372885
 31
0.0
  0
LINE
  5
2E5D
330
18
100
AcDbEntity
  8
0
100
AcDbLine
 10
2915.741190408287
 20
855.3925934372887
 30
0.0
 11
2915.741190408287
 21
838.0715934372885
 31
0.0
  0
LINE
  5
2E5E
330
18
100
AcDbEntity
  8
0
100
AcDbLine
 10
2915.741190408287
 20
838.0715934372885
 30
0.0
 11
2930.741190408287
 21
829.4115934372884
 31
0.0
  0
LINE
  5
2E5F
330
18
100
AcDbEntity
  8
0
100
AcDbLine
 10
2930.741190408287
 20
864.0525934372886
 30
0.0
 11
2915.741190408287
 21
855.3925934372887
 31
0.0
  0
LINE
  5
2E60
330
18
100
AcDbEntity
  8
0
100
AcDbLine
 10
2945.741190408287
 20
838.0715934372885
 30
0.0
 11
2945.741190408287
 21
855.3925934372887
 31
0.0
  0
ARC
  5
2E61
330
18
100
AcDbEntity
  8
0
100
AcDbCircle
 10
2932.773394970345
 20
846.7320866563998
 30
0.0
 40
25.0
100
AcDbArc
 50
11.15205449443695
 51
60.56864365224201
  0
LINE
  5
2E62
330
18
100
AcDbEntity
  8
0
100
AcDbLine
 10
2929.371190408287
 20
918.5995934372886
 30
0.0
 11
2956.323681965585
 21
907.2565690526328
 31
0.0
  0
LINE
  5
2E63
330
18
100
AcDbEntity
  8
0
100
AcDbLine
 10
2951.041190408288
 20
940.9645934372885
 30
0.0
 11
2951.041190408288
 21
923.6435934372886
 31
0.0
  0
ARC
  5
2E64
330
18
100
AcDbEntity
  8
0
100
AcDbCircle
 10
2966.021190408287
 20
930.2991021165937
 30
0.0
 40
25.0
100
AcDbArc
 50
247.1760847823798
 51
273.6462917503595
  0
LINE
  5
2E65
330
18
100
AcDbEntity
  8
0
100
AcDbLine
 10
2951.041190408288
 20
923.6435934372886
 30
0.0
 11
2961.140592144381
 21
917.8128721683169
 31
0.0
  0
LINE
  5
2E66
330
18
100
AcDbEntity
  8
0
100
AcDbLine
 10
2975.851190408287
 20
876.4345934372887
 30
0.0
 11
2985.751190408287
 21
886.3345934372885
 31
0.0
  0
LINE
  5
2E67
330
18
100
AcDbEntity
  8
0
100
AcDbLine
 10
2975.851190408287
 20
868.8345934372888
 30
0.0
 11
2984.462155510744
 21
868.8345934372888
 31
0.0
  0
CIRCLE
  5
2E68
330
18
100
AcDbEntity
  8
0
100
AcDbCircle
 10
2991.049932980907
 20
852.621558375635
 30
0.0
 40
7.5
  0
LINE
  5
2E69
330
18
100
AcDbEntity
  8
0
100
AcDbLine
 10
2993.251190408287
 20
871.9533896017066
 30
0.0
 11
2993.251190408287
 21
883.4095955542579
 31
0.0
  0
LINE
  5
2E6A
330
18
100
AcDbEntity
  8
0
100
AcDbLine
 10
3046.251190408287
 20
883.4095955542577
 30
0.0
 11
3046.251190408287
 21
871.9533896017066
 31
0.0
  0
LINE
  5
2E6B
330
18
100
AcDbEntity
  8
0
100
AcDbLine
 10
2985.751190408287
 20
886.3345934372885
 30
0.0
 11
2981.692931579477
 21
890.3924423409646
 31
0.0
  0
CIRCLE
  5
2E6C
330
18
100
AcDbEntity
  8
0
100
AcDbCircle
 10
2987.931385254892
 20
908.510788283894
 30
0.0
 40
9.5
  0
ARC
  5
2E6D
330
18
100
AcDbEntity
  8
0
100
AcDbCircle
 10
3108.751190408287
 20
756.2315934372886
 30
0.0
 40
15.0
100
AcDbArc
 50
246.3969143749498
 51
79.73386807141519
  0
LINE
  5
2E6E
330
18
100
AcDbEntity
  8
0
100
AcDbLine
 10
3123.751190408287
 20
764.8925934372887
 30
0.0
 11
3111.546995315763
 21
771.9384820707062
 31
0.0
  0
CIRCLE
  5
2E6F
330
18
100
AcDbEntity
  8
0
100
AcDbCircle
 10
3089.042155346633
 20
754.6293360099069
 30
0.0
 40
7.5
  0
LINE
  5
2E70
330
18
100
AcDbEntity
  8
0
100
AcDbLine
 10
3102.704001024604
 20
742.4028374414679
 30
0.0
 11
3108.751190408287
 21
738.9115934372885
 31
0.0
  0
LINE
  5
2E71
330
18
100
AcDbEntity
  8
0
100
AcDbLine
 10
3097.271143751408
 20
732.8637049490896
 30
0.0
 11
3126.751190408287
 21
716.2315934372887
 31
0.0
  0
LINE
  5
2E72
330
18
100
AcDbEntity
  8
0
100
AcDbLine
 10
3108.751190408287
 20
738.9115934372885
 30
0.0
 11
3123.751190408287
 21
747.5715934372885
 31
0.0
  0
LINE
  5
2E73
330
18
100
AcDbEntity
  8
0
100
AcDbLine
 10
3123.751190408287
 20
747.5715934372885
 30
0.0
 11
3123.751190408287
 21
764.8925934372887
 31
0.0
  0
CIRCLE
  5
2E74
330
18
100
AcDbEntity
  8
0
100
AcDbCircle
 10
3089.042155346633
 20
812.0318508646702
 30
0.0
 40
7.5
  0
LINE
  5
2E75
330
18
100
AcDbEntity
  8
0
100
AcDbLine
 10
3105.125402803702
 20
818.9324734138079
 30
0.0
 11
3126.751190408287
 21
806.7315934372887
 31
0.0
  0
LINE
  5
2E76
330
18
100
AcDbEntity
  8
0
100
AcDbLine
 10
3126.751190408287
 20
796.2315934372886
 30
0.0
 11
3112.134000581653
 21
787.9853098058547
 31
0.0
  0
LINE
  5
2E77
330
18
100
AcDbEntity
  8
0
100
AcDbLine
 10
3124.051190408287
 20
885.2095934372885
 30
0.0
 11
3094.444474081864
 21
868.505712232109
 31
0.0
  0
LINE
  5
2E78
330
18
100
AcDbEntity
  8
0
100
AcDbLine
 10
3108.751190408287
 20
864.0525934372886
 30
0.0
 11
3093.751190408287
 21
855.3925934372887
 31
0.0
  0
CIRCLE
  5
2E79
330
18
100
AcDbEntity
  8
0
100
AcDbCircle
 10
3108.751190408287
 20
846.7315934372887
 30
0.0
 40
15.0
  0
LINE
  5
2E7A
330
18
100
AcDbEntity
  8
0
100
AcDbLine
 10
3093.751190408287
 20
838.0715934372885
 30
0.0
 11
3108.751190408287
 21
829.4115934372884
 31
0.0
  0
LINE
  5
2E7B
330
18
100
AcDbEntity
  8
0
100
AcDbLine
 10
3093.751190408287
 20
855.3925934372887
 30
0.0
 11
3093.751190408287
 21
838.0715934372885
 31
0.0
  0
ARC
  5
2E7C
330
18
100
AcDbEntity
  8
0
100
AcDbCircle
 10
3106.728985846229
 20
846.7320866563998
 30
0.0
 40
25.0
100
AcDbArc
 50
119.431356347758
 51
168.847945505563
  0
LINE
  5
2E7D
330
18
100
AcDbEntity
  8
0
100
AcDbLine
 10
3123.751190408287
 20
838.0715934372885
 30
0.0
 11
3123.751190408287
 21
855.3925934372887
 31
0.0
  0
LINE
  5
2E7E
330
18
100
AcDbEntity
  8
0
100
AcDbLine
 10
3108.751190408287
 20
829.4115934372884
 30
0.0
 11
3123.751190408287
 21
838.0715934372885
 31
0.0
  0
LINE
  5
2E7F
330
18
100
AcDbEntity
  8
0
100
AcDbLine
 10
3123.751190408287
 20
855.3925934372887
 30
0.0
 11
3108.751190408287
 21
864.0525934372886
 31
0.0
  0
LINE
  5
2E80
330
18
100
AcDbEntity
  8
0
100
AcDbLine
 10
3110.131190408287
 20
918.5995934372886
 30
0.0
 11
3083.178698850989
 21
907.2565690526328
 31
0.0
  0
LINE
  5
2E81
330
18
100
AcDbEntity
  8
0
100
AcDbLine
 10
3088.461190408287
 20
923.6405934372886
 30
0.0
 11
3088.461190408287
 21
940.9615934372885
 31
0.0
  0
ARC
  5
2E82
330
18
100
AcDbEntity
  8
0
100
AcDbCircle
 10
3073.481190408287
 20
930.2991021165937
 30
0.0
 40
25.0
100
AcDbArc
 50
266.3537082496404
 51
292.8239152176201
  0
LINE
  5
2E83
330
18
100
AcDbEntity
  8
0
100
AcDbLine
 10
3078.360307392906
 20
917.8090169764086
 30
0.0
 11
3088.461190408287
 21
923.6405934372886
 31
0.0
  0
CIRCLE
  5
2E84
330
18
100
AcDbEntity
  8
0
100
AcDbCircle
 10
3051.570995561681
 20
972.1503985906831
 30
0.0
 40
9.5
  0
CIRCLE
  5
2E85
330
18
100
AcDbEntity
  8
0
100
AcDbCircle
 10
2987.931385254892
 20
972.1503985906831
 30
0.0
 40
9.5
  0
LINE
  5
2E8B
330
18
100
AcDbEntity
  8
0
100
AcDbLine
 10
2653.822202857718
 20
2224.353971795957
 30
0.0
 11
2653.822202857718
 21
2350.353971795957
 31
0.0
  0
ARC
  5
2E8C
330
18
100
AcDbEntity
  8
0
100
AcDbCircle
 10
2441.822202857718
 20
2224.353971795957
 30
0.0
 40
212.0
100
AcDbArc
 50
306.802361704851
 51
0.0
  0
LINE
  5
2E8D
330
18
100
AcDbEntity
  8
0
100
AcDbLine
 10
2568.822202857719
 20
2162.353971795957
 30
0.0
 11
2568.822202857719
 21
2002.353971795957
 31
0.0
  0
LINE
  5
2E8E
330
18
100
AcDbEntity
  8
0
100
AcDbLine
 10
2601.822202857718
 20
2017.353971795957
 30
0.0
 11
2601.822202857718
 21
2085.271262590247
 31
0.0
  0
LINE
  5
2E8F
330
18
100
AcDbEntity
  8
0
100
AcDbLine
 10
2616.822202857718
 20
2047.453971795957
 30
0.0
 11
2616.822202857718
 21
2067.252971795957
 31
0.0
  0
LINE
  5
2E90
330
18
100
AcDbEntity
  8
0
100
AcDbLine
 10
2606.822202857718
 20
2067.487971795957
 30
0.0
 11
2606.822202857718
 21
2047.219971795957
 31
0.0
  0
LINE
  5
2E91
330
18
100
AcDbEntity
  8
0
100
AcDbLine
 10
2606.822202857718
 20
2067.252971795957
 30
0.0
 11
2606.822202857718
 21
2047.453971795957
 31
0.0
  0
LINE
  5
2E92
330
18
100
AcDbEntity
  8
0
100
AcDbLine
 10
2606.322202857719
 20
2024.734971795957
 30
0.0
 11
2601.822202857718
 21
2024.875971795957
 31
0.0
  0
LINE
  5
2E93
330
18
100
AcDbEntity
  8
0
100
AcDbLine
 10
2601.822202857718
 20
2045.830971795957
 30
0.0
 11
2606.322202857719
 21
2045.971971795958
 31
0.0
  0
LINE
  5
2E94
330
18
100
AcDbEntity
  8
0
100
AcDbLine
 10
2606.322202857719
 20
2046.735971795958
 30
0.0
 11
2601.822202857718
 21
2046.875971795957
 31
0.0
  0
ARC
  5
2E95
330
18
100
AcDbEntity
  8
0
100
AcDbCircle
 10
2596.822202857718
 20
2017.353971795957
 30
0.0
 40
5.0
100
AcDbArc
 50
270.0
 51
0.0
  0
LINE
  5
2E96
330
18
100
AcDbEntity
  8
0
100
AcDbLine
 10
2596.822202857718
 20
2012.353971795957
 30
0.0
 11
2568.822202857719
 21
2012.353971795957
 31
0.0
  0
LINE
  5
2E97
330
18
100
AcDbEntity
  8
0
100
AcDbLine
 10
2606.822202857718
 20
2045.486971795957
 30
0.0
 11
2606.822202857718
 21
2025.219971795957
 31
0.0
  0
LINE
  5
2E98
330
18
100
AcDbEntity
  8
0
100
AcDbLine
 10
2616.822202857718
 20
2025.453971795957
 30
0.0
 11
2616.822202857718
 21
2045.252971795957
 31
0.0
  0
LINE
  5
2E99
330
18
100
AcDbEntity
  8
0
100
AcDbLine
 10
2606.822202857718
 20
2045.252971795957
 30
0.0
 11
2606.822202857718
 21
2025.453971795957
 31
0.0
  0
LINE
  5
2E9A
330
18
100
AcDbEntity
  8
0
100
AcDbLine
 10
2606.822202857718
 20
2025.453971795957
 30
0.0
 11
2616.822202857718
 21
2025.453971795957
 31
0.0
  0
LINE
  5
2E9B
330
18
100
AcDbEntity
  8
0
100
AcDbLine
 10
2606.822202857718
 20
2025.219971795957
 30
0.0
 11
2606.322202857719
 21
2024.734971795957
 31
0.0
  0
LINE
  5
2E9C
330
18
100
AcDbEntity
  8
0
100
AcDbLine
 10
2616.822202857718
 20
2035.353971795957
 30
0.0
 11
2606.822202857718
 21
2035.353971795957
 31
0.0
  0
LINE
  5
2E9D
330
18
100
AcDbEntity
  8
0
100
AcDbLine
 10
2616.822202857718
 20
2045.252971795957
 30
0.0
 11
2606.822202857718
 21
2045.252971795957
 31
0.0
  0
LINE
  5
2E9E
330
18
100
AcDbEntity
  8
0
100
AcDbLine
 10
2606.822202857718
 20
2047.453971795957
 30
0.0
 11
2616.822202857718
 21
2047.453971795957
 31
0.0
  0
LINE
  5
2E9F
330
18
100
AcDbEntity
  8
0
100
AcDbLine
 10
2606.322202857719
 20
2045.971971795958
 30
0.0
 11
2606.822202857718
 21
2045.486971795957
 31
0.0
  0
LINE
  5
2EA0
330
18
100
AcDbEntity
  8
0
100
AcDbLine
 10
2606.822202857718
 20
2047.219971795957
 30
0.0
 11
2606.322202857719
 21
2046.735971795958
 31
0.0
  0
LINE
  5
2EA1
330
18
100
AcDbEntity
  8
0
100
AcDbLine
 10
2601.822202857718
 20
2067.830971795957
 30
0.0
 11
2606.322202857719
 21
2067.971971795957
 31
0.0
  0
LINE
  5
2EA2
330
18
100
AcDbEntity
  8
0
100
AcDbLine
 10
2616.822202857718
 20
2057.353971795957
 30
0.0
 11
2606.822202857718
 21
2057.353971795957
 31
0.0
  0
LINE
  5
2EA3
330
18
100
AcDbEntity
  8
0
100
AcDbLine
 10
2616.822202857718
 20
2067.252971795957
 30
0.0
 11
2606.822202857718
 21
2067.252971795957
 31
0.0
  0
LINE
  5
2EA4
330
18
100
AcDbEntity
  8
0
100
AcDbLine
 10
2606.322202857719
 20
2067.971971795957
 30
0.0
 11
2606.822202857718
 21
2067.487971795957
 31
0.0
  0
LINE
  5
2EA5
330
18
100
AcDbEntity
  8
0
100
AcDbLine
 10
2601.822202857718
 20
2493.126518176556
 30
0.0
 11
2601.822202857718
 21
2536.353971795957
 31
0.0
  0
LINE
  5
2EA6
330
18
100
AcDbEntity
  8
0
100
AcDbLine
 10
2616.822202857718
 20
2504.453971795958
 30
0.0
 11
2616.822202857718
 21
2524.253971795958
 31
0.0
  0
LINE
  5
2EA7
330
18
100
AcDbEntity
  8
0
100
AcDbLine
 10
2606.822202857718
 20
2524.483971795957
 30
0.0
 11
2606.822202857718
 21
2504.213971795958
 31
0.0
  0
LINE
  5
2EA8
330
18
100
AcDbEntity
  8
0
100
AcDbLine
 10
2606.822202857718
 20
2524.253971795958
 30
0.0
 11
2606.822202857718
 21
2504.453971795958
 31
0.0
  0
LINE
  5
2EA9
330
18
100
AcDbEntity
  8
0
100
AcDbLine
 10
2606.322202857719
 20
2503.733971795957
 30
0.0
 11
2601.822202857718
 21
2503.873971795957
 31
0.0
  0
ARC
  5
2EAA
330
18
100
AcDbEntity
  8
0
100
AcDbCircle
 10
2611.822202857718
 20
2493.126518176556
 30
0.0
 40
10.0
100
AcDbArc
 50
180.0
 51
220.0248338855152
  0
LINE
  5
2EAB
330
18
100
AcDbEntity
  8
0
100
AcDbLine
 10
2606.822202857718
 20
2504.453971795958
 30
0.0
 11
2616.822202857718
 21
2504.453971795958
 31
0.0
  0
LINE
  5
2EAC
330
18
100
AcDbEntity
  8
0
100
AcDbLine
 10
2606.822202857718
 20
2504.213971795958
 30
0.0
 11
2606.322202857719
 21
2503.733971795957
 31
0.0
  0
LINE
  5
2EAD
330
18
100
AcDbEntity
  8
0
100
AcDbLine
 10
2616.822202857718
 20
2514.353971795957
 30
0.0
 11
2606.822202857718
 21
2514.353971795957
 31
0.0
  0
LINE
  5
2EAE
330
18
100
AcDbEntity
  8
0
100
AcDbLine
 10
2601.822202857718
 20
2524.823971795957
 30
0.0
 11
2606.322202857719
 21
2524.963971795958
 31
0.0
  0
ARC
  5
2EAF
330
18
100
AcDbEntity
  8
0
100
AcDbCircle
 10
2596.822202857718
 20
2536.353971795957
 30
0.0
 40
5.0
100
AcDbArc
 50
0.0
 51
90.0
  0
LINE
  5
2EB0
330
18
100
AcDbEntity
  8
0
100
AcDbLine
 10
2616.822202857718
 20
2524.253971795958
 30
0.0
 11
2606.822202857718
 21
2524.253971795958
 31
0.0
  0
LINE
  5
2EB1
330
18
100
AcDbEntity
  8
0
100
AcDbLine
 10
2606.322202857719
 20
2524.963971795958
 30
0.0
 11
2606.822202857718
 21
2524.483971795957
 31
0.0
  0
TEXT
  5
2EBF
330
18
100
AcDbEntity
  8
0
100
AcDbText
 10
659.4309683209622
 20
665.796966252692
 30
0.0
 40
52.5
  1
正面
100
AcDbText
  0
TEXT
  5
2EC0
330
18
100
AcDbEntity
  8
0
100
AcDbText
 10
655.75363204314
 20
1442.460820169442
 30
0.0
 40
52.5
  1
平面
100
AcDbText
  0
TEXT
  5
2EC1
330
18
100
AcDbEntity
  8
0
100
AcDbText
 10
679.3139132050537
 20
2279.712431218337
 30
0.0
 40
52.5
  1
背面
100
AcDbText
  0
TEXT
  5
2EC2
330
18
100
AcDbEntity
  8
0
100
AcDbText
 10
1642.787420611678
 20
159.5337606193123
 30
0.0
 40
52.49999999999997
  1
TLV  GP10･GT10 (JIS10K)
 72
     4
 11
2116.537420611678
 21
182.0337606193123
 31
0.0
100
AcDbText
  0
TEXT
  5
2EC7
330
18
100
AcDbEntity
  8
0
100
AcDbText
 10
1984.351482430813
 20
286.527889269646
 30
0.0
 40
40.0
  1
80Ax50A
 41
0.8
 72
     4
 11
2087.208625287956
 21
306.527889269646
 31
0.0
100
AcDbText
  0
LINE
  5
3724
330
18
100
AcDbEntity
  8
0
100
AcDbLine
 10
2957.251190408287
 20
1121.330593437288
 30
0.0
 11
3082.251190408287
 21
1121.330593437288
 31
0.0
  0
LINE
  5
3725
330
18
100
AcDbEntity
  8
0
100
AcDbLine
 10
2957.251190408287
 20
1135.330593437288
 30
0.0
 11
3082.251190408287
 21
1135.330593437288
 31
0.0
  0
LINE
  5
3726
330
18
100
AcDbEntity
  8
0
100
AcDbLine
 10
2957.251190408287
 20
1135.330593437288
 30
0.0
 11
2957.251190408287
 21
1121.330593437288
 31
0.0
  0
LINE
  5
3727
330
18
100
AcDbEntity
  8
0
100
AcDbLine
 10
3002.751190408287
 20
1113.830593437288
 30
0.0
 11
3036.751190408287
 21
1113.830593437288
 31
0.0
  0
LINE
  5
3728
330
18
100
AcDbEntity
  8
0
100
AcDbLine
 10
2995.251190408287
 20
1121.330593437288
 30
0.0
 11
3002.751190408287
 21
1113.830593437288
 31
0.0
  0
LINE
  5
3729
330
18
100
AcDbEntity
  8
0
100
AcDbLine
 10
3044.251190408287
 20
1121.330593437288
 30
0.0
 11
3036.751190408287
 21
1113.830593437288
 31
0.0
  0
LINE
  5
372A
330
18
100
AcDbEntity
  8
0
100
AcDbLine
 10
3082.251190408287
 20
1135.330593437288
 30
0.0
 11
3082.251190408287
 21
1121.330593437288
 31
0.0
  0
LINE
  5
372B
330
18
100
AcDbEntity
  8
0
100
AcDbLine
 10
3036.751190408287
 20
1000.772714511916
 30
0.0
 11
3036.751190408287
 21
1113.830593437288
 31
0.0
  0
LINE
  5
372C
330
18
100
AcDbEntity
  8
0
100
AcDbLine
 10
3002.751190408287
 20
1000.772714511916
 30
0.0
 11
3002.751190408287
 21
1113.830593437288
 31
0.0
  0
LINE
  5
3954
330
18
100
AcDbEntity
  8
0
100
AcDbLine
 10
1221.188179849819
 20
1015.326593437288
 30
0.0
 11
1221.188179849819
 21
968.1978868074546
 31
0.0
  0
LINE
  5
3955
330
18
100
AcDbEntity
  8
0
100
AcDbLine
 10
1206.18817984982
 20
1015.326593437288
 30
0.0
 11
1206.18817984982
 21
968.1978868074546
 31
0.0
  0
LINE
  5
3956
330
18
100
AcDbEntity
  8
0
100
AcDbLine
 10
1218.188179849819
 20
1018.326593437288
 30
0.0
 11
1209.18817984982
 21
1018.326593437288
 31
0.0
  0
ARC
  5
3957
330
18
100
AcDbEntity
  8
0
100
AcDbCircle
 10
1218.188179849819
 20
1015.326593437288
 30
0.0
 40
3.0
100
AcDbArc
 50
0.0
 51
90.0
  0
ARC
  5
3958
330
18
100
AcDbEntity
  8
0
100
AcDbCircle
 10
1209.18817984982
 20
1015.326593437288
 30
0.0
 40
3.0
100
AcDbArc
 50
90.0
 51
180.0
  0
VIEWPORT
  5
41
330
15
100
AcDbEntity
 67
     1
  8
0
100
AcDbViewport
 10
117.358407079646
 20
73.5
 30
0.0
 40
234.716814159292
 41
147.0
 68
     1
 69
     1
1001
ACAD
1000
MVIEW
1002
{
1070
    16
1010
0.0
1020
0.0
1030
0.0
1010
0.0
1020
0.0
1030
1.0
1040
0.0
1040
147.0
1040
117.358407079646
1040
73.5
1040
50.0
1040
0.0
1040
0.0
1070
     0
1070
   100
1070
     1
1070
     1
1070
     0
1070
     0
1070
     0
1070
     0
1040
0.0
1040
0.0
1040
0.0
1040
1.0
1040
1.0
1040
0.0
1040
0.0
1070
     0
1002
{
1002
}
1002
}
  0
ENDSEC
  0
SECTION
  2
OBJECTS
  0
DICTIONARY
  5
C
330
0
100
AcDbDictionary
  3
ACAD_GROUP
350
D
  3
ACAD_LAYOUT
350
2642
  3
ACAD_MLINESTYLE
350
E
  3
ACAD_PLOTSETTINGS
350
2643
1001
ACAD
1000
TREAT_AS_HARD
1070
     0
  0
DICTIONARY
  5
35BE
330
18
100
AcDbDictionary
  3
ACAD_LAYOUTSELFREF
350
3C3C
1001
ACAD
1000
TREAT_AS_HARD
1070
     1
  0
DICTIONARY
  5
35BC
330
15
100
AcDbDictionary
  3
ACAD_LAYOUTSELFREF
350
3C3B
1001
ACAD
1000
TREAT_AS_HARD
1070
     1
  0
DICTIONARY
  5
D
102
{ACAD_REACTORS
330
C
102
}
330
C
100
AcDbDictionary
1001
ACAD
1000
TREAT_AS_HARD
1070
     0
  0
DICTIONARY
  5
2642
102
{ACAD_REACTORS
330
C
102
}
330
C
100
AcDbDictionary
1001
ACAD
1000
TREAT_AS_HARD
1070
     0
  0
DICTIONARY
  5
E
102
{ACAD_REACTORS
330
C
102
}
330
C
100
AcDbDictionary
  3
STANDARD
350
1B
1001
ACAD
1000
TREAT_AS_HARD
1070
     0
  0
DICTIONARY
  5
2643
102
{ACAD_REACTORS
330
C
102
}
330
C
100
AcDbDictionary
1001
ACAD
1000
TREAT_AS_HARD
1070
     0
  0
XRECORD
  5
3C3C
102
{ACAD_REACTORS
330
35BE
102
}
330
35BE
100
AcDbXrecord
340
18
  0
XRECORD
  5
3C3B
102
{ACAD_REACTORS
330
35BC
102
}
330
35BC
100
AcDbXrecord
340
15
  0
MLINESTYLE
  5
1B
102
{ACAD_REACTORS
330
E
102
}
330
E
100
AcDbMlineStyle
  2
STANDARD
 70
     0
  3

 62
     0
 51
90.0
 52
90.0
 71
     2
 49
0.5
 62
   256
  6
BYLAYER
 49
-0.5
 62
   256
  6
BYLAYER
  0
ENDSEC
  0
EOF
