  0
SECTION
  2
HEADER
  9
$ACADVER
  1
AC1009
  9
$INSBASE
 10
0.0
 20
0.0
 30
0.0
  9
$EXTMIN
 10
72.000000000000014
 20
28.000000000000021
 30
0.0
  9
$EXTMAX
 10
1636.0000000000009
 20
1128.0
 30
0.0
  9
$LIMMIN
 10
0.0
 20
0.0
  9
$LIMMAX
 10
1680.0
 20
1188.0
  9
$ORTHOMODE
 70
     1
  9
$REGENMODE
 70
     1
  9
$FILLMODE
 70
     1
  9
$QTEXTMODE
 70
     0
  9
$MIRRTEXT
 70
     1
  9
$DRAGMODE
 70
     2
  9
$LTSCALE
 40
16.0
  9
$OSMODE
 70
   163
  9
$ATTMODE
 70
     1
  9
$TEXTSIZE
 40
16.0
  9
$TRACEWID
 40
0.05
  9
$TEXTSTYLE
  7
STANDARD
  9
$CLAYER
  8
0
  9
$CELTYPE
  6
BYLAYER
  9
$CECOLOR
 62
   256
  9
$DIMSCALE
 40
4.0
  9
$DIMASZ
 40
2.7999999999999989
  9
$DIMEXO
 40
1.0
  9
$DIMDLI
 40
5.0
  9
$DIMRND
 40
0.1
  9
$DIMDLE
 40
0.0
  9
$DIMEXE
 40
1.0
  9
$DIMTP
 40
0.0
  9
$DIMTM
 40
0.0
  9
$DIMTXT
 40
2.5
  9
$DIMCEN
 40
0.0
  9
$DIMTSZ
 40
0.0
  9
$DIMTOL
 70
     0
  9
$DIMLIM
 70
     0
  9
$DIMTIH
 70
     0
  9
$DIMTOH
 70
     0
  9
$DIMSE1
 70
     0
  9
$DIMSE2
 70
     0
  9
$DIMTAD
 70
     3
  9
$DIMZIN
 70
     8
  9
$DIMBLK
  1

  9
$DIMASO
 70
     1
  9
$DIMSHO
 70
     1
  9
$DIMPOST
  1

  9
$DIMAPOST
  1

  9
$DIMALT
 70
     0
  9
$DIMALTD
 70
     2
  9
$DIMALTF
 40
1.0
  9
$DIMLFAC
 40
1.0
  9
$DIMTOFL
 70
     1
  9
$DIMTVP
 40
0.0
  9
$DIMTIX
 70
     0
  9
$DIMSOXD
 70
     0
  9
$DIMSAH
 70
     1
  9
$DIMBLK1
  1
OPEN
  9
$DIMBLK2
  1
OPEN
  9
$DIMSTYLE
  2
DIM1
  9
$DIMCLRD
 70
     2
  9
$DIMCLRE
 70
     2
  9
$DIMCLRT
 70
     2
  9
$DIMTFAC
 40
0.7
  9
$DIMGAP
 40
0.85
  9
$LUNITS
 70
     2
  9
$LUPREC
 70
     4
  9
$SKETCHINC
 40
0.1
  9
$FILLETRAD
 40
2.0
  9
$AUNITS
 70
     0
  9
$AUPREC
 70
     0
  9
$MENU
  1
C:\ACADR13\WIN\SUPPORT\ACAD.mnc
  9
$ELEVATION
 40
0.0
  9
$PELEVATION
 40
0.0
  9
$THICKNESS
 40
0.0
  9
$LIMCHECK
 70
     0
  9
$BLIPMODE
 70
     0
  9
$CHAMFERA
 40
0.0
  9
$CHAMFERB
 40
0.0
  9
$SKPOLY
 70
     0
  9
$TDCREATE
 40
2453683.562213901
  9
$TDUPDATE
 40
2453693.3805020261
  9
$TDINDWG
 40
0.2270399306
  9
$TDUSRTIMER
 40
0.2270399306
  9
$USRTIMER
 70
     1
  9
$ANGBASE
 50
0.0
  9
$ANGDIR
 70
     0
  9
$PDMODE
 70
     0
  9
$PDSIZE
 40
0.0
  9
$PLINEWID
 40
0.0
  9
$COORDS
 70
     2
  9
$SPLFRAME
 70
     0
  9
$SPLINETYPE
 70
     6
  9
$SPLINESEGS
 70
     8
  9
$ATTDIA
 70
     0
  9
$ATTREQ
 70
     1
  9
$HANDLING
 70
     1
  9
$HANDSEED
  5
EA71
  9
$SURFTAB1
 70
     6
  9
$SURFTAB2
 70
     6
  9
$SURFTYPE
 70
     6
  9
$SURFU
 70
     6
  9
$SURFV
 70
     6
  9
$UCSNAME
  2

  9
$UCSORG
 10
0.0
 20
0.0
 30
0.0
  9
$UCSXDIR
 10
1.0
 20
0.0
 30
0.0
  9
$UCSYDIR
 10
0.0
 20
1.0
 30
0.0
  9
$PUCSNAME
  2

  9
$PUCSORG
 10
0.0
 20
0.0
 30
0.0
  9
$PUCSXDIR
 10
1.0
 20
0.0
 30
0.0
  9
$PUCSYDIR
 10
0.0
 20
1.0
 30
0.0
  9
$USERI1
 70
     0
  9
$USERI2
 70
     0
  9
$USERI3
 70
     0
  9
$USERI4
 70
     0
  9
$USERI5
 70
     0
  9
$USERR1
 40
0.0
  9
$USERR2
 40
0.0
  9
$USERR3
 40
0.0
  9
$USERR4
 40
0.0
  9
$USERR5
 40
0.0
  9
$WORLDVIEW
 70
     1
  9
$SHADEDGE
 70
     3
  9
$SHADEDIF
 70
    70
  9
$TILEMODE
 70
     1
  9
$MAXACTVP
 70
    16
  9
$PLIMCHECK
 70
     0
  9
$PEXTMIN
 10
1.0000000000000000E+020
 20
1.0000000000000000E+020
 30
1.0000000000000000E+020
  9
$PEXTMAX
 10
-1.0000000000000000E+020
 20
-1.0000000000000000E+020
 30
-1.0000000000000000E+020
  9
$PLIMMIN
 10
0.0
 20
0.0
  9
$PLIMMAX
 10
20.0
 20
147.0
  9
$UNITMODE
 70
     0
  9
$VISRETAIN
 70
     0
  9
$PLINEGEN
 70
     0
  9
$PSLTSCALE
 70
     1
  0
ENDSEC
  0
SECTION
  2
TABLES
  0
TABLE
  2
VPORT
 70
     3
  0
VPORT
  2
*ACTIVE
 70
     0
 10
0.0
 20
0.0
 11
1.0
 21
1.0
 12
840.0
 22
594.0
 13
0.0
 23
0.0
 14
1.0
 24
1.0
 15
0.0
 25
0.0
 16
0.0
 26
0.0
 36
1.0
 17
0.0
 27
0.0
 37
0.0
 40
1392.8149546198561
 41
1.2144808743169391
 42
50.0
 43
0.0
 44
0.0
 50
0.0
 51
0.0
 71
     0
 72
   100
 73
     1
 74
     1
 75
     0
 76
     0
 77
     0
 78
     0
  0
ENDTAB
  0
TABLE
  2
LTYPE
 70
     1
  0
LTYPE
  2
CONTINUOUS
 70
     0
  3
Solid line
 72
    65
 73
     0
 40
0.0
  0
ENDTAB
  0
TABLE
  2
LAYER
 70
     1
  0
LAYER
  2
0
 70
     0
 62
     7
  6
CONTINUOUS
  0
ENDTAB
  0
TABLE
  2
STYLE
 70
     3
  0
STYLE
  2
STANDARD
 70
     0
 40
0.0
 41
0.8
 50
0.0
 71
     0
 42
16.0
  3
simplex
  4
extfont
  0
STYLE
  2
PTSH
 70
     0
 40
0.0
 41
0.9
 50
0.0
 71
     0
 42
4.0
  3
SIMPLEX
  4
EXTFONT
  0
STYLE
  2
DIM
 70
     0
 40
0.0
 41
0.8
 50
0.0
 71
     0
 42
4.0
  3
simplex
  4
extfont
  0
ENDTAB
  0
TABLE
  2
VIEW
 70
     0
  0
ENDTAB
  0
TABLE
  2
UCS
 70
     0
  0
ENDTAB
  0
TABLE
  2
APPID
 70
     2
  0
APPID
  2
ACAD
 70
     0
  0
APPID
  2
ACAD_PSEXT
 70
     0
  0
ENDTAB
  0
TABLE
  2
DIMSTYLE
 70
     1
  0
DIMSTYLE
  2
DIM1
 70
     0
  3

  4

  5

  6
OPEN
  7
OPEN
 40
4.0
 41
2.7999999999999989
 42
1.0
 43
5.0
 44
1.0
 45
0.1
 46
0.0
 47
0.0
 48
0.0
140
2.5
141
0.0
142
0.0
143
1.0
144
1.0
145
0.0
146
0.7
147
0.85
 71
     0
 72
     0
 73
     0
 74
     0
 75
     0
 76
     0
 77
     3
 78
     8
170
     0
171
     2
172
     1
173
     1
174
     0
175
     0
176
     2
177
     2
178
     2
  0
ENDTAB
  0
ENDSEC
  0
SECTION
  2
BLOCKS
  0
BLOCK
  8
0
  2
$MODEL_SPACE
 70
     0
 10
0.0
 20
0.0
 30
0.0
  3
$MODEL_SPACE
  1

  0
ENDBLK
  5
3D
  8
0
  0
BLOCK
 67
     1
  8
0
  2
$PAPER_SPACE
 70
     0
 10
0.0
 20
0.0
 30
0.0
  3
$PAPER_SPACE
  1

  0
ENDBLK
  5
3B
 67
     1
  8
0
  0
BLOCK
  8
0
  2
_OPEN
 70
     0
 10
0.0
 20
0.0
 30
0.0
  3
_OPEN
  1
H1111.DWG
  0
LINE
  5
244A
  8
0
  6
BYBLOCK
 62
     0
 10
-1.0
 20
0.1666666666666666
 30
0.0
 11
0.0
 21
0.0
 31
0.0
  0
LINE
  5
244B
  8
0
  6
BYBLOCK
 62
     0
 10
0.0
 20
0.0
 30
0.0
 11
-1.0
 21
-0.1666666666666666
 31
0.0
  0
LINE
  5
244C
  8
0
  6
BYBLOCK
 62
     0
 10
0.0
 20
0.0
 30
0.0
 11
-1.0
 21
0.0
 31
0.0
  0
ENDBLK
  5
244D
  8
0
  0
ENDSEC
  0
SECTION
  2
ENTITIES
  0
TEXT
  5
2529
  8
0
  6
CONTINUOUS
 10
1507.200000000001
 20
61.000000000000028
 30
0.0
 40
14.000000000000011
  1
J3S-X
 41
0.9
  7
PTSH
 72
     1
 11
1536.0
 21
68.000000000000028
 31
0.0
 73
     2
  0
POLYLINE
  5
2563
  8
0
 66
     1
 10
0.0
 20
0.0
 30
0.0
 70
     1
  0
VERTEX
  5
E5D6
  8
0
 10
72.000000000000014
 20
28.000000000000021
 30
0.0
  0
VERTEX
  5
E5D7
  8
0
 10
1636.0000000000009
 20
28.000000000000021
 30
0.0
  0
VERTEX
  5
E5D8
  8
0
 10
1636.0000000000009
 20
1128.0
 30
0.0
  0
VERTEX
  5
E5D9
  8
0
 10
72.000000000000014
 20
1128.0
 30
0.0
  0
SEQEND
  5
E5DA
  8
0
  0
TEXT
  5
AD05
  8
0
 10
690.85618440311589
 20
47.75778060336711
 30
0.0
 40
25.0
  1
TLV J3S-X (PT)
 41
0.8
 72
     4
 11
806.18951773644915
 21
58.472066317652839
 31
0.0
  0
TEXT
  5
AD06
  8
0
 10
307.03902966065232
 20
339.63720420721671
 30
0.0
 40
20.000000000000011
  1
15mm
 41
0.8
 72
     4
 11
340.56283918446189
 21
349.63720420721671
 31
0.0
  0
TEXT
  5
AD07
  8
0
 10
773.09689222901272
 20
339.63720420721671
 30
0.0
 40
20.000000000000011
  1
20mm
 41
0.8
 72
     4
 11
808.14451127663165
 21
349.63720420721671
 31
0.0
  0
TEXT
  5
AD08
  8
0
 10
1271.741674576994
 20
339.63720420721671
 30
0.0
 40
20.000000000000011
  1
25mm
 41
0.8
 72
     4
 11
1306.789293624613
 21
349.63720420721671
 31
0.0
  0
LINE
  5
DE9C
  8
0
 10
308.42765527475058
 20
455.92033242393109
 30
0.0
 11
308.42765527475058
 21
434.13247506674543
 31
0.0
  0
LINE
  5
DE9D
  8
0
 10
307.42765527475058
 20
403.13247506674543
 30
0.0
 11
332.49065527475062
 21
403.13247506674543
 31
0.0
  0
ARC
  5
DE9E
  8
0
 10
340.42765527475058
 20
434.13247506674543
 30
0.0
 40
32.0
 50
180.0
 51
191.88115602101291
  0
ARC
  5
DE9F
  8
0
 10
307.15604575552231
 20
427.13247506674543
 30
0.0
 40
2.0
 50
277.8051578013056
 51
11.88115602101295
  0
ARC
  5
DEA0
  8
0
 10
365.3095271491805
 20
406.74831081029151
 30
0.0
 40
5.0
 50
74.999823903770391
 51
132.25899623008769
  0
LINE
  5
DEA1
  8
0
 10
383.63636742727272
 20
495.13247506674543
 30
0.0
 11
383.63636742727272
 21
495.13247506674543
 31
0.0
  0
LINE
  5
DEA2
  8
0
 10
288.42765527475058
 20
495.13247506674543
 30
0.0
 11
288.42765527475058
 21
494.13247506674543
 31
0.0
  0
ARC
  5
DEA3
  8
0
 10
290.92765527475058
 20
495.13247506674543
 30
0.0
 40
2.5
 50
156.42182152179279
 51
180.0
  0
ARC
  5
DEA4
  8
0
 10
287.42765527475058
 20
494.13247506674543
 30
0.0
 40
1.0
 50
270.0
 51
0.0
  0
LINE
  5
DEA5
  8
0
 10
405.42765527475058
 20
492.13247506674543
 30
0.0
 11
405.42765527475058
 21
462.13222506674538
 31
0.0
  0
LINE
  5
DEA6
  8
0
 10
402.42765527475052
 20
483.1324750667452
 30
0.0
 11
402.42765527475052
 21
471.13247506674543
 31
0.0
  0
ARC
  5
DEA7
  8
0
 10
401.42765527475058
 20
483.1324750667452
 30
0.0
 40
1.0
 50
0.0
 51
90.0
  0
LINE
  5
DEA8
  8
0
 10
390.42765527475058
 20
483.13247506674543
 30
0.0
 11
390.42765527475069
 21
471.13247506674543
 31
0.0
  0
ARC
  5
DEA9
  8
0
 10
391.42765527475069
 20
471.13247506674543
 30
0.0
 40
1.0
 50
180.0
 51
270.0
  0
ARC
  5
DEAA
  8
0
 10
391.42765527475058
 20
483.13247506674543
 30
0.0
 40
1.0
 50
90.0
 51
180.0
  0
LINE
  5
DEAB
  8
0
 10
404.42765527475052
 20
493.13247506674543
 30
0.0
 11
405.42765527475058
 21
492.13247506674543
 31
0.0
  0
LINE
  5
DEAC
  8
0
 10
285.42765527475058
 20
492.13247506674543
 30
0.0
 11
285.42765527475058
 21
462.13247506674531
 31
0.0
  0
LINE
  5
DEAD
  8
0
 10
300.42765527475058
 20
493.13247506674543
 30
0.0
 11
286.42765527475058
 21
493.13247506674543
 31
0.0
  0
LINE
  5
DEAE
  8
0
 10
285.42765527475058
 20
492.13247506674543
 30
0.0
 11
286.42765527475058
 21
493.13247506674543
 31
0.0
  0
LINE
  5
DEAF
  8
0
 10
383.42765527475058
 20
496.13247506674543
 30
0.0
 11
288.63636742727272
 21
496.13247506674543
 31
0.0
  0
ARC
  5
DEB0
  8
0
 10
306.92765527475058
 20
466.63247506674543
 30
0.0
 40
7.0
 50
239.7273586810974
 51
256.86344121305751
  0
ARC
  5
DEB1
  8
0
 10
304.42765527475058
 20
455.92033242393109
 30
0.0
 40
4.0
 50
0.0
 51
76.863441213057513
  0
ARC
  5
DEB2
  8
0
 10
301.38238702154598
 20
457.13247506674543
 30
0.0
 40
4.0
 50
59.727358681097428
 51
90.0
  0
LINE
  5
DEB3
  8
0
 10
301.38238702154598
 20
461.13247506674543
 30
0.0
 11
286.42765527475058
 21
461.13247506674543
 31
0.0
  0
LINE
  5
DEB4
  8
0
 10
405.42765527475058
 20
462.13222506674538
 30
0.0
 11
404.42765527475052
 21
461.13222506674538
 31
0.0
  0
LINE
  5
DEB5
  8
0
 10
285.42765527475058
 20
462.13247506674531
 30
0.0
 11
286.42765527475058
 21
461.13247506674543
 31
0.0
  0
LINE
  5
DEB6
  8
0
 10
404.42765527475052
 20
493.13247506674543
 30
0.0
 11
386.54469434046871
 21
493.13247506674543
 31
0.0
  0
LINE
  5
DEB7
  8
0
 10
366.60363721835409
 20
411.57793596436539
 30
0.0
 11
395.4682104202866
 21
403.84360180149332
 31
0.0
  0
LINE
  5
DEB8
  8
0
 10
394.40965527475061
 20
437.48752891414551
 30
0.0
 11
394.40965527475061
 21
458.13272506674519
 31
0.0
  0
ARC
  5
DEB9
  8
0
 10
397.40965527475049
 20
458.13272506674519
 30
0.0
 40
3.0
 50
90.0
 51
180.0
  0
LINE
  5
DEBA
  8
0
 10
396.6331892332463
 20
434.58975382170092
 30
0.0
 11
403.23382955636481
 21
432.82109583425131
 31
0.0
  0
ARC
  5
DEBB
  8
0
 10
397.40965527475049
 20
437.48752891414529
 30
0.0
 40
3.0
 50
180.0
 51
254.99982390377039
  0
ARC
  5
DEBC
  8
0
 10
395.98585444795623
 20
405.7754518631229
 30
0.0
 40
2.0
 50
254.99982390377039
 51
269.48691222174853
  0
LINE
  5
DEBD
  8
0
 10
395.96794454516959
 20
403.77553205588509
 30
0.0
 11
403.70039640620621
 21
432.63031697983558
 31
0.0
  0
LINE
  5
DEBE
  8
0
 10
397.82337018507218
 20
406.83601279590539
 30
0.0
 11
403.77680843320638
 21
429.05214595718053
 31
0.0
  0
ARC
  5
DEBF
  8
0
 10
402.71618552869529
 20
430.88924577262168
 30
0.0
 40
2.0
 50
60.520939860416938
 51
74.999823903770391
  0
LINE
  5
DEC0
  8
0
 10
397.40965527475049
 20
461.13272506674519
 30
0.0
 11
404.42765527475052
 21
461.13222506674538
 31
0.0
  0
ARC
  5
DEC1
  8
0
 10
386.54469434046871
 20
496.13247506674543
 30
0.0
 40
3.0
 50
190.47568169639359
 51
270.0
  0
ARC
  5
DEC2
  8
0
 10
381.13636742727272
 20
495.13247506674543
 30
0.0
 40
2.5
 50
10.475681696393639
 51
23.57817847820715
  0
LINE
  5
DEC3
  8
0
 10
307.42765527475058
 20
425.15100382822988
 30
0.0
 11
307.42765527475058
 21
403.13247506674543
 31
0.0
  0
ARC
  5
DEC4
  8
0
 10
340.42765527475058
 20
434.13247506674543
 30
0.0
 40
32.0
 50
180.0
 51
0.0
  0
LINE
  5
DEC5
  8
0
 10
433.33085472033969
 20
455.19522113355151
 30
0.0
 11
433.33085472033969
 21
434.13247506674543
 31
0.0
  0
LINE
  5
DEC6
  8
0
 10
426.33085472033969
 20
485.4004242591763
 30
0.0
 11
426.33085472033969
 21
463.13247506674543
 31
0.0
  0
LINE
  5
DEC7
  8
0
 10
497.33085472033969
 20
434.13247506674543
 30
0.0
 11
497.33085472033969
 21
455.19522113355151
 31
0.0
  0
LINE
  5
DEC8
  8
0
 10
449.33085472033969
 20
484.13247506674543
 30
0.0
 11
449.3308547203398
 21
470.13247506674543
 31
0.0
  0
LINE
  5
DEC9
  8
0
 10
425.33085472033969
 20
496.13247506674543
 30
0.0
 11
425.33085472033969
 21
487.13247506674531
 31
0.0
  0
ARC
  5
DECA
  8
0
 10
430.33085472033969
 20
463.13247506674543
 30
0.0
 40
4.0
 50
180.0
 51
262.81924421854148
  0
ARC
  5
DECB
  8
0
 10
429.33085472033969
 20
455.19522113355151
 30
0.0
 40
4.0
 50
0.0
 51
82.819244218541442
  0
LINE
  5
DECC
  8
0
 10
426.33085472033969
 20
486.13247506674543
 30
0.0
 11
446.3308547203398
 21
486.13247506674543
 31
0.0
  0
ARC
  5
DECD
  8
0
 10
426.33085472033969
 20
487.13247506674531
 30
0.0
 40
1.0
 50
180.0
 51
240.00000000000551
  0
ARC
  5
DECE
  8
0
 10
425.33085472033969
 20
485.4004242591763
 30
0.0
 40
1.0
 50
0.0
 51
60.000000000005542
  0
LINE
  5
DECF
  8
0
 10
449.33085472033969
 20
470.13247506674543
 30
0.0
 11
450.33085472033969
 21
470.13247506674543
 31
0.0
  0
LINE
  5
DED0
  8
0
 10
449.33085472033969
 20
484.13247506674543
 30
0.0
 11
450.3308547203398
 21
484.13247506674543
 31
0.0
  0
LINE
  5
DED1
  8
0
 10
504.3308547203398
 20
485.4004242591763
 30
0.0
 11
504.33085472033991
 21
463.13247506674543
 31
0.0
  0
LINE
  5
DED2
  8
0
 10
505.3308547203398
 20
496.13247506674543
 30
0.0
 11
505.3308547203398
 21
487.13247506674531
 31
0.0
  0
ARC
  5
DED3
  8
0
 10
504.3308547203398
 20
487.13247506674531
 30
0.0
 40
1.0
 50
299.99999999999449
 51
0.0
  0
ARC
  5
DED4
  8
0
 10
505.3308547203398
 20
485.4004242591763
 30
0.0
 40
1.0
 50
119.9999999999944
 51
180.0
  0
ARC
  5
DED5
  8
0
 10
500.3308547203398
 20
463.13247506674543
 30
0.0
 40
4.0
 50
277.18075578145852
 51
0.0
  0
ARC
  5
DED6
  8
0
 10
501.33085472033969
 20
455.19522113355151
 30
0.0
 40
4.0
 50
97.180755781458572
 51
180.0
  0
ARC
  5
DED7
  8
0
 10
450.33085472033969
 20
469.13247506674543
 30
0.0
 40
1.0
 50
28.072486935854499
 51
89.999999999993491
  0
ARC
  5
DED8
  8
0
 10
450.3308547203398
 20
485.13247506674543
 30
0.0
 40
1.0
 50
270.0
 51
331.9275130641455
  0
ARC
  5
DED9
  8
0
 10
446.3308547203398
 20
483.13247506674543
 30
0.0
 40
3.0
 50
0.0
 51
90.0
  0
LINE
  5
DEDA
  8
0
 10
425.53956687286171
 20
496.13247506674543
 30
0.0
 11
505.12214256781772
 21
496.13247506674543
 31
0.0
  0
LINE
  5
DEDB
  8
0
 10
383.42765527475058
 20
496.1324750667456
 30
0.0
 11
383.42765527475058
 21
488.13247506674543
 31
0.0
  0
ARC
  5
DEDC
  8
0
 10
381.42765527475058
 20
488.13247506674543
 30
0.0
 40
2.0
 50
270.0
 51
0.0
  0
LINE
  5
DEDD
  8
0
 10
429.83085472033969
 20
459.16384810014841
 30
0.0
 11
450.33085472033969
 21
459.16384810014841
 31
0.0
  0
LINE
  5
DEDE
  8
0
 10
480.33085472033969
 20
459.16384810014841
 30
0.0
 11
500.83085472033957
 21
459.16384810014841
 31
0.0
  0
LINE
  5
DEDF
  8
0
 10
375.55097602878823
 20
459.1638481001487
 30
0.0
 11
309.46879101689069
 21
459.1638481001487
 31
0.0
  0
ARC
  5
DEE0
  8
0
 10
375.55097602878823
 20
464.1638481001487
 30
0.0
 40
5.0
 50
270.0
 51
0.0
  0
LINE
  5
DEE1
  8
0
 10
300.42765527475058
 20
496.13247506674543
 30
0.0
 11
300.42765527475058
 21
488.13247506674543
 31
0.0
  0
LINE
  5
DEE2
  8
0
 10
380.55097602878823
 20
486.13247506674543
 30
0.0
 11
380.55097602878823
 21
464.1638481001487
 31
0.0
  0
LINE
  5
DEE3
  8
0
 10
381.42765527475058
 20
486.13247506674543
 30
0.0
 11
302.42765527475058
 21
486.13247506674543
 31
0.0
  0
ARC
  5
DEE4
  8
0
 10
302.42765527475058
 20
488.13247506674543
 30
0.0
 40
2.0
 50
180.0
 51
270.0
  0
LINE
  5
DEE5
  8
0
 10
304.46879101689069
 20
486.1324750667456
 30
0.0
 11
304.46879101689069
 21
464.1638481001487
 31
0.0
  0
ARC
  5
DEE6
  8
0
 10
309.46879101689069
 20
464.1638481001487
 30
0.0
 40
5.0
 50
180.0
 51
270.0
  0
LINE
  5
DEE7
  8
0
 10
372.42765527475058
 20
434.13247506674543
 30
0.0
 11
372.42765527475058
 21
459.1638481001487
 31
0.0
  0
LINE
  5
DEE8
  8
0
 10
383.42765527475058
 20
506.13247506674571
 30
0.0
 11
301.42765527475052
 21
506.13247506674571
 31
0.0
  0
LINE
  5
DEE9
  8
0
 10
344.42765527475069
 20
521.13247506674566
 30
0.0
 11
336.42765527475052
 21
521.13247506674566
 31
0.0
  0
ARC
  5
DEEA
  8
0
 10
326.42765527475052
 20
508.1324750667456
 30
0.0
 40
2.0
 50
270.0
 51
0.0
  0
LINE
  5
DEEB
  8
0
 10
328.42765527475052
 20
513.13247506674566
 30
0.0
 11
328.42765527475052
 21
508.1324750667456
 31
0.0
  0
ARC
  5
DEEC
  8
0
 10
336.42765527475052
 20
513.13247506674566
 30
0.0
 40
8.0
 50
90.0
 51
180.0
  0
LINE
  5
DEED
  8
0
 10
383.42765527475058
 20
496.1324750667456
 30
0.0
 11
383.42765527475058
 21
517.10836573884569
 31
0.0
  0
ARC
  5
DEEE
  8
0
 10
381.42765527475058
 20
517.10836573884569
 30
0.0
 40
2.0
 50
0.0
 51
90.0
  0
LINE
  5
DEEF
  8
0
 10
350.45966720997637
 20
519.10836573884581
 30
0.0
 11
381.42765527475058
 21
519.10836573884581
 31
0.0
  0
LINE
  5
DEF0
  8
0
 10
300.42765527475058
 20
625.29034137269673
 30
0.0
 11
300.42765527475058
 21
563.29034137269673
 31
0.0
  0
LINE
  5
DEF1
  8
0
 10
382.67691562330589
 20
586.29034137269673
 30
0.0
 11
352.04660531337271
 21
586.29034137269673
 31
0.0
  0
LINE
  5
DEF2
  8
0
 10
382.67691562330589
 20
602.29034137269673
 30
0.0
 11
352.04660531337271
 21
602.29034137269673
 31
0.0
  0
LINE
  5
DEF3
  8
0
 10
370.48897770769332
 20
554.29034137269673
 30
0.0
 11
309.42765527475058
 21
554.29034137269673
 31
0.0
  0
ARC
  5
DEF4
  8
0
 10
309.42765527475058
 20
563.29034137269673
 30
0.0
 40
9.0
 50
180.0
 51
270.0
  0
LINE
  5
DEF5
  8
0
 10
370.45652387923269
 20
634.29034137269673
 30
0.0
 11
309.42765527475058
 21
634.29034137269673
 31
0.0
  0
ARC
  5
DEF6
  8
0
 10
309.42765527475058
 20
625.29034137269673
 30
0.0
 40
9.0
 50
90.0
 51
180.0
  0
ARC
  5
DEF7
  8
0
 10
40.927655274750578
 20
594.11784137269683
 30
0.0
 40
340.0
 50
2.627413928670943
 51
5.4039378865571202
  0
ARC
  5
DEF8
  8
0
 10
340.42765527475058
 20
594.29034137269673
 30
0.0
 40
43.0
 50
339.06085846259879
 51
21.00514167678606
  0
ARC
  5
DEF9
  8
0
 10
40.927655274750578
 20
594.11784137269683
 30
0.0
 40
340.0
 50
354.65604492731069
 51
357.4385862107253
  0
ARC
  5
DEFA
  8
0
 10
370.45652387923269
 20
625.29034137269673
 30
0.0
 40
9.0
 50
5.4039378865571202
 51
90.0
  0
ARC
  5
DEFB
  8
0
 10
370.48897770769332
 20
563.29034137269673
 30
0.0
 40
9.0
 50
270.0
 51
354.65604492731069
  0
LINE
  5
DEFC
  8
0
 10
300.42765527475052
 20
496.1324750667456
 30
0.0
 11
300.42765527475052
 21
505.1324750667456
 31
0.0
  0
ARC
  5
DEFD
  8
0
 10
301.42765527475052
 20
505.1324750667456
 30
0.0
 40
1.0
 50
90.0
 51
180.0
  0
CIRCLE
  5
DEFE
  8
0
 10
340.42765527475058
 20
594.29034137269673
 30
0.0
 40
13.0
  0
ARC
  5
DEFF
  8
0
 10
352.04660531337271
 20
583.29034137269673
 30
0.0
 40
3.0
 50
90.0
 51
136.56746344221119
  0
ARC
  5
DF00
  8
0
 10
352.04660531337271
 20
605.29034137269673
 30
0.0
 40
3.0
 50
223.43253655778881
 51
270.0
  0
ARC
  5
DF01
  8
0
 10
350.45966720997637
 20
521.10836573884569
 30
0.0
 40
2.0
 50
232.9004880728119
 51
270.0
  0
LINE
  5
DF02
  8
0
 10
352.42765527475069
 20
513.13247506674566
 30
0.0
 11
352.42765527475069
 21
508.1324750667456
 31
0.0
  0
ARC
  5
DF03
  8
0
 10
344.42765527475069
 20
513.13247506674566
 30
0.0
 40
8.0
 50
0.0
 51
90.0
  0
ARC
  5
DF04
  8
0
 10
354.42765527475069
 20
508.1324750667456
 30
0.0
 40
2.0
 50
180.0
 51
270.0
  0
LINE
  5
DF05
  8
0
 10
318.62561707432218
 20
513.13347506674563
 30
0.0
 11
302.12561707432218
 21
513.13347506674563
 31
0.0
  0
ARC
  5
DF06
  8
0
 10
303.01461707432219
 20
508.30215100132881
 30
0.0
 40
4.6309815714167701
 50
58.000676159490958
 51
121.99932384050901
  0
LINE
  5
DF07
  8
0
 10
315.7186170743222
 20
512.47047506674562
 30
0.0
 11
316.18861707432222
 21
512.66647506674553
 31
0.0
  0
LINE
  5
DF08
  8
0
 10
320.19061707432229
 20
506.13247506674571
 30
0.0
 11
320.19061707432229
 21
512.22947506674564
 31
0.0
  0
LINE
  5
DF09
  8
0
 10
320.19061707432229
 20
512.22947506674564
 30
0.0
 11
318.62561707432218
 21
513.13347506674563
 31
0.0
  0
LINE
  5
DF0A
  8
0
 10
319.28461707432223
 20
512.66747506674574
 30
0.0
 11
320.19061707432229
 21
512.22947506674564
 31
0.0
  0
LINE
  5
DF0B
  8
0
 10
318.7856170743222
 20
512.81247506674572
 30
0.0
 11
319.28461707432223
 21
512.66747506674574
 31
0.0
  0
LINE
  5
DF0C
  8
0
 10
318.26561707432222
 20
512.90247506674564
 30
0.0
 11
318.7856170743222
 21
512.81247506674572
 31
0.0
  0
LINE
  5
DF0D
  8
0
 10
317.73661707432223
 20
512.93347506674559
 30
0.0
 11
318.26561707432222
 21
512.90247506674564
 31
0.0
  0
LINE
  5
DF0E
  8
0
 10
317.20761707432217
 20
512.90247506674564
 30
0.0
 11
317.73661707432223
 21
512.93347506674559
 31
0.0
  0
LINE
  5
DF0F
  8
0
 10
316.68861707432222
 20
512.81247506674572
 30
0.0
 11
317.20761707432217
 21
512.90247506674564
 31
0.0
  0
LINE
  5
DF10
  8
0
 10
316.18861707432222
 20
512.66647506674553
 30
0.0
 11
316.68861707432222
 21
512.81247506674572
 31
0.0
  0
LINE
  5
DF11
  8
0
 10
305.4686170743222
 20
512.22947506674564
 30
0.0
 11
305.4686170743222
 21
506.13247506674571
 31
0.0
  0
LINE
  5
DF12
  8
0
 10
315.28261707432227
 20
512.22947506674564
 30
0.0
 11
315.28261707432227
 21
506.13247506674571
 31
0.0
  0
ARC
  5
DF13
  8
0
 10
310.37561707432218
 20
495.4704834736321
 30
0.0
 40
17.462601416113358
 50
73.680072331670786
 51
106.3199276683292
  0
LINE
  5
DF14
  8
0
 10
315.28261707432227
 20
512.22947506674564
 30
0.0
 11
315.7186170743222
 21
512.47047506674562
 31
0.0
  0
LINE
  5
DF15
  8
0
 10
300.56061707432218
 20
512.22947506674564
 30
0.0
 11
300.56061707432218
 21
506.13247506674571
 31
0.0
  0
LINE
  5
DF16
  8
0
 10
302.12561707432218
 20
513.13347506674563
 30
0.0
 11
300.56061707432218
 21
512.22947506674564
 31
0.0
  0
LINE
  5
DF17
  8
0
 10
300.56061707432218
 20
506.13247506674571
 30
0.0
 11
301.42765527475052
 21
506.13247506674571
 31
0.0
  0
LINE
  5
DF18
  8
0
 10
378.73897770769321
 20
513.13347506674575
 30
0.0
 11
362.23897770769321
 21
513.13347506674575
 31
0.0
  0
ARC
  5
DF19
  8
0
 10
363.12797770769322
 20
508.30215100132898
 30
0.0
 40
4.6309815714167701
 50
58.000676159490958
 51
121.99932384050901
  0
LINE
  5
DF1A
  8
0
 10
375.83197770769311
 20
512.47047506674585
 30
0.0
 11
376.3019777076932
 21
512.66647506674565
 31
0.0
  0
LINE
  5
DF1B
  8
0
 10
380.30397770769309
 20
506.13247506674583
 30
0.0
 11
380.30397770769309
 21
512.22947506674575
 31
0.0
  0
LINE
  5
DF1C
  8
0
 10
380.30397770769309
 20
512.22947506674575
 30
0.0
 11
378.73897770769321
 21
513.13347506674575
 31
0.0
  0
LINE
  5
DF1D
  8
0
 10
379.39797770769309
 20
512.66747506674596
 30
0.0
 11
380.30397770769309
 21
512.22947506674575
 31
0.0
  0
LINE
  5
DF1E
  8
0
 10
378.89897770769312
 20
512.81247506674595
 30
0.0
 11
379.39797770769309
 21
512.66747506674596
 31
0.0
  0
LINE
  5
DF1F
  8
0
 10
378.37897770769308
 20
512.90247506674586
 30
0.0
 11
378.89897770769312
 21
512.81247506674595
 31
0.0
  0
LINE
  5
DF20
  8
0
 10
377.84997770769309
 20
512.93347506674581
 30
0.0
 11
378.37897770769308
 21
512.90247506674586
 31
0.0
  0
LINE
  5
DF21
  8
0
 10
377.3209777076932
 20
512.90247506674586
 30
0.0
 11
377.84997770769309
 21
512.93347506674581
 31
0.0
  0
LINE
  5
DF22
  8
0
 10
376.80197770769308
 20
512.81247506674595
 30
0.0
 11
377.3209777076932
 21
512.90247506674586
 31
0.0
  0
LINE
  5
DF23
  8
0
 10
376.3019777076932
 20
512.66647506674565
 30
0.0
 11
376.80197770769308
 21
512.81247506674595
 31
0.0
  0
LINE
  5
DF24
  8
0
 10
365.58197770769311
 20
512.22947506674575
 30
0.0
 11
365.58197770769311
 21
506.13247506674583
 31
0.0
  0
LINE
  5
DF25
  8
0
 10
375.39597770769319
 20
512.22947506674575
 30
0.0
 11
375.39597770769319
 21
506.13247506674583
 31
0.0
  0
ARC
  5
DF26
  8
0
 10
370.48897770769321
 20
495.47048347363238
 30
0.0
 40
17.462601416113358
 50
73.680072331670786
 51
106.3199276683292
  0
LINE
  5
DF27
  8
0
 10
375.39597770769319
 20
512.22947506674575
 30
0.0
 11
375.83197770769311
 21
512.47047506674585
 31
0.0
  0
LINE
  5
DF28
  8
0
 10
360.67397770769321
 20
512.22947506674575
 30
0.0
 11
360.67397770769321
 21
506.13247506674583
 31
0.0
  0
LINE
  5
DF29
  8
0
 10
362.23897770769321
 20
513.13347506674575
 30
0.0
 11
360.67397770769321
 21
512.22947506674575
 31
0.0
  0
LINE
  5
DF2A
  8
0
 10
300.56061707432218
 20
564.23830317226862
 30
0.0
 11
305.46861707432231
 21
572.73830317226862
 31
0.0
  0
LINE
  5
DF2B
  8
0
 10
315.2826170743221
 20
572.73830317226862
 30
0.0
 11
320.19061707432229
 21
564.23830317226862
 31
0.0
  0
CIRCLE
  5
DF2C
  8
0
 10
310.37561707432218
 20
564.23830317226862
 30
0.0
 40
8.2499099999999999
  0
LINE
  5
DF2D
  8
0
 10
305.46861707432231
 20
555.73830317226862
 30
0.0
 11
300.56061707432218
 21
564.23830317226862
 31
0.0
  0
LINE
  5
DF2E
  8
0
 10
320.19061707432229
 20
564.23830317226862
 30
0.0
 11
315.2826170743221
 21
555.73830317226862
 31
0.0
  0
LINE
  5
DF2F
  8
0
 10
315.2826170743221
 20
555.73830317226862
 30
0.0
 11
305.46861707432231
 21
555.73830317226862
 31
0.0
  0
LINE
  5
DF30
  8
0
 10
305.46861707432231
 20
572.73830317226862
 30
0.0
 11
315.2826170743221
 21
572.73830317226862
 31
0.0
  0
LINE
  5
DF31
  8
0
 10
360.66469347517892
 20
564.23830317226827
 30
0.0
 11
365.57269347517882
 21
572.73830317226827
 31
0.0
  0
LINE
  5
DF32
  8
0
 10
375.38669347517879
 20
572.73830317226827
 30
0.0
 11
380.29469347517869
 21
564.23830317226827
 31
0.0
  0
CIRCLE
  5
DF33
  8
0
 10
370.47969347517881
 20
564.23830317226827
 30
0.0
 40
8.2499099999999999
  0
LINE
  5
DF34
  8
0
 10
365.57269347517882
 20
555.73830317226827
 30
0.0
 11
360.66469347517892
 21
564.23830317226827
 31
0.0
  0
LINE
  5
DF35
  8
0
 10
380.29469347517869
 20
564.23830317226827
 30
0.0
 11
375.38669347517879
 21
555.73830317226827
 31
0.0
  0
LINE
  5
DF36
  8
0
 10
375.38669347517879
 20
555.73830317226827
 30
0.0
 11
365.57269347517882
 21
555.73830317226827
 31
0.0
  0
LINE
  5
DF37
  8
0
 10
365.57269347517882
 20
572.73830317226827
 30
0.0
 11
375.38669347517879
 21
572.73830317226827
 31
0.0
  0
LINE
  5
DF38
  8
0
 10
360.66469347517892
 20
624.34237957312496
 30
0.0
 11
365.57269347517888
 21
632.84237957312496
 31
0.0
  0
LINE
  5
DF39
  8
0
 10
375.38669347517879
 20
632.84237957312496
 30
0.0
 11
380.29469347517892
 21
624.34237957312496
 31
0.0
  0
CIRCLE
  5
DF3A
  8
0
 10
370.47969347517892
 20
624.34237957312496
 30
0.0
 40
8.2499099999999999
  0
LINE
  5
DF3B
  8
0
 10
365.57269347517888
 20
615.84237957312496
 30
0.0
 11
360.66469347517892
 21
624.34237957312496
 31
0.0
  0
LINE
  5
DF3C
  8
0
 10
380.29469347517892
 20
624.34237957312496
 30
0.0
 11
375.38669347517879
 21
615.84237957312496
 31
0.0
  0
LINE
  5
DF3D
  8
0
 10
375.38669347517879
 20
615.84237957312496
 30
0.0
 11
365.57269347517888
 21
615.84237957312496
 31
0.0
  0
LINE
  5
DF3E
  8
0
 10
365.57269347517888
 20
632.84237957312496
 30
0.0
 11
375.38669347517879
 21
632.84237957312496
 31
0.0
  0
LINE
  5
DF3F
  8
0
 10
300.56061707432241
 20
624.34237957312496
 30
0.0
 11
305.46861707432231
 21
632.84237957312496
 31
0.0
  0
LINE
  5
DF40
  8
0
 10
315.28261707432239
 20
632.84237957312496
 30
0.0
 11
320.19061707432229
 21
624.34237957312496
 31
0.0
  0
CIRCLE
  5
DF41
  8
0
 10
310.37561707432241
 20
624.34237957312496
 30
0.0
 40
8.2499099999999999
  0
LINE
  5
DF42
  8
0
 10
305.46861707432231
 20
615.84237957312496
 30
0.0
 11
300.56061707432241
 21
624.34237957312496
 31
0.0
  0
LINE
  5
DF43
  8
0
 10
320.19061707432229
 20
624.34237957312496
 30
0.0
 11
315.28261707432239
 21
615.84237957312496
 31
0.0
  0
LINE
  5
DF44
  8
0
 10
315.28261707432239
 20
615.84237957312496
 30
0.0
 11
305.46861707432231
 21
615.84237957312496
 31
0.0
  0
LINE
  5
DF45
  8
0
 10
305.46861707432231
 20
632.84237957312496
 30
0.0
 11
315.28261707432239
 21
632.84237957312496
 31
0.0
  0
LINE
  5
DF46
  8
0
 10
405.42765527475058
 20
609.29046637269676
 30
0.0
 11
405.42765527475058
 21
579.29021637269659
 31
0.0
  0
LINE
  5
DF47
  8
0
 10
404.42765527475052
 20
610.29046637269676
 30
0.0
 11
405.42765527475058
 21
609.29046637269676
 31
0.0
  0
LINE
  5
DF48
  8
0
 10
285.42765527475058
 20
609.29046637269676
 30
0.0
 11
285.42765527475058
 21
579.29046637269676
 31
0.0
  0
LINE
  5
DF49
  8
0
 10
300.42765527475058
 20
610.29046637269676
 30
0.0
 11
286.42765527475058
 21
610.29046637269676
 31
0.0
  0
LINE
  5
DF4A
  8
0
 10
285.42765527475058
 20
609.29046637269676
 30
0.0
 11
286.42765527475058
 21
610.29046637269676
 31
0.0
  0
LINE
  5
DF4B
  8
0
 10
300.42765527475058
 20
578.29046637269687
 30
0.0
 11
286.42765527475058
 21
578.29046637269676
 31
0.0
  0
LINE
  5
DF4C
  8
0
 10
405.42765527475058
 20
579.29021637269659
 30
0.0
 11
404.42765527475052
 21
578.2902163726967
 31
0.0
  0
LINE
  5
DF4D
  8
0
 10
285.42765527475058
 20
579.29046637269676
 30
0.0
 11
286.42765527475058
 21
578.29046637269676
 31
0.0
  0
LINE
  5
DF4E
  8
0
 10
404.42765527475052
 20
610.29046637269676
 30
0.0
 11
380.54279951983477
 21
610.29046637269676
 31
0.0
  0
LINE
  5
DF4F
  8
0
 10
380.55913219408478
 20
578.29191689443201
 30
0.0
 11
404.42765527475052
 21
578.2902163726967
 31
0.0
  0
LINE
  5
DF50
  8
0
 10
294.42765527475058
 20
588.29034137269673
 30
0.0
 11
298.42765527475058
 21
588.29034137269673
 31
0.0
  0
ARC
  5
DF51
  8
0
 10
298.42765527475058
 20
586.29034137269673
 30
0.0
 40
2.0
 50
0.0
 51
90.0
  0
ARC
  5
DF52
  8
0
 10
294.43765527475063
 20
594.29034137269673
 30
0.0
 40
6.0
 50
90.0
 51
270.0
  0
LINE
  5
DF53
  8
0
 10
294.42765527475058
 20
600.29034137269673
 30
0.0
 11
298.42765527475058
 21
600.29034137269673
 31
0.0
  0
ARC
  5
DF54
  8
0
 10
298.42765527475058
 20
602.29034137269673
 30
0.0
 40
2.0
 50
270.0
 51
0.0
  0
LINE
  5
DF55
  8
0
 10
391.42765527475069
 20
470.13247506674543
 30
0.0
 11
401.42765527475058
 21
470.13247506674543
 31
0.0
  0
ARC
  5
DF56
  8
0
 10
401.42765527475058
 20
471.13247506674543
 30
0.0
 40
1.0
 50
270.0
 51
0.0
  0
LINE
  5
DF57
  8
0
 10
391.42765527475058
 20
484.13247506674543
 30
0.0
 11
401.42765527475058
 21
484.13247506674509
 31
0.0
  0
LINE
  5
DF58
  8
0
 10
480.33085472033969
 20
470.13247506674543
 30
0.0
 11
480.33085472033969
 21
418.20292451786048
 31
0.0
  0
LINE
  5
DF59
  8
0
 10
450.33085472033969
 20
470.13247506674543
 30
0.0
 11
450.33085472033969
 21
418.20292451786048
 31
0.0
  0
ARC
  5
DF5A
  8
0
 10
465.33085472033969
 20
434.13247506674543
 30
0.0
 40
32.0
 50
180.0
 51
0.0
  0
CIRCLE
  5
DF5B
  8
0
 10
465.33085472033969
 20
477.13247506674543
 30
0.0
 40
16.0
  0
LINE
  5
DF5C
  8
0
 10
398.47071790321678
 20
409.25074693994128
 30
0.0
 11
403.77650832781842
 21
429.05222637886709
 31
0.0
  0
LINE
  5
DF5D
  8
0
 10
399.59372235171151
 20
410.09588953658431
 30
0.0
 11
404.68221960460232
 21
408.73243080698421
 31
0.0
  0
LINE
  5
DF5E
  8
0
 10
404.68221960460232
 20
408.73243080698421
 30
0.0
 11
405.43098310208393
 21
411.52685422243889
 31
0.0
  0
LINE
  5
DF5F
  8
0
 10
405.43098310208393
 20
411.52685422243889
 30
0.0
 11
400.342485849193
 21
412.89031295203898
 31
0.0
  0
LINE
  5
DF60
  8
0
 10
400.342485849193
 20
412.89031295203898
 30
0.0
 11
399.59372235171151
 21
410.09588953658431
 31
0.0
  0
LINE
  5
DF61
  8
0
 10
403.77650832781842
 20
429.05222637886709
 30
0.0
 11
405.00122866103851
 21
430.27697782524228
 31
0.0
  0
LINE
  5
DF62
  8
0
 10
405.00122866103851
 20
430.27697782524228
 30
0.0
 11
410.08972591392939
 21
428.91351909564219
 31
0.0
  0
LINE
  5
DF63
  8
0
 10
410.08972591392939
 20
428.91351909564219
 30
0.0
 11
410.5379891118418
 21
427.24049306314959
 31
0.0
  0
LINE
  5
DF64
  8
0
 10
410.5379891118418
 20
427.24049306314959
 30
0.0
 11
404.58515107448397
 21
405.02419905850093
 31
0.0
  0
LINE
  5
DF65
  8
0
 10
404.58515107448397
 20
405.02419905850093
 30
0.0
 11
403.36043074126371
 21
403.79944761212607
 31
0.0
  0
LINE
  5
DF66
  8
0
 10
403.36043074126371
 20
403.79944761212607
 30
0.0
 11
398.27193348837289
 21
405.16290634172623
 31
0.0
  0
LINE
  5
DF67
  8
0
 10
398.27193348837289
 20
405.16290634172623
 30
0.0
 11
397.82367029046031
 21
406.8359323742186
 31
0.0
  0
LINE
  5
DF68
  8
0
 10
397.82367029046031
 20
406.8359323742186
 30
0.0
 11
398.47071790321678
 21
409.25074693994128
 31
0.0
  0
LINE
  5
DF69
  8
0
 10
403.67943979769979
 20
425.3439946303838
 30
0.0
 11
408.76793705059072
 21
423.98053590078371
 31
0.0
  0
LINE
  5
DF6A
  8
0
 10
408.76793705059072
 20
423.98053590078371
 30
0.0
 11
408.01917355310911
 21
421.18611248532937
 31
0.0
  0
LINE
  5
DF6B
  8
0
 10
408.01917355310911
 20
421.18611248532937
 30
0.0
 11
402.93067630021852
 21
422.54957121492947
 31
0.0
  0
LINE
  5
DF6C
  8
0
 10
402.93067630021852
 20
422.54957121492947
 30
0.0
 11
403.67943979769979
 21
425.3439946303838
 31
0.0
  0
ARC
  5
DF6D
  8
0
 10
406.21071114446869
 20
427.30932024387039
 30
0.0
 40
4.1976433314087407
 50
307.53205179663752
 51
22.4679482033531
  0
ARC
  5
DF6E
  8
0
 10
393.20097683322803
 20
419.98025542765657
 30
0.0
 40
14.867180138568379
 50
325.34770562304658
 51
4.6522943769503566
  0
ARC
  5
DF6F
  8
0
 10
400.80320483514117
 20
407.12823195521207
 30
0.0
 40
4.1976433314087407
 50
307.53205179663752
 51
22.4679482033531
  0
ARC
  5
DF70
  8
0
 10
407.5584545671606
 20
426.9481934821556
 30
0.0
 40
4.1976433314087407
 50
127.5320517966491
 51
202.4679482033531
  0
ARC
  5
DF71
  8
0
 10
415.16068256907442
 20
414.09617000971127
 30
0.0
 40
14.867180138568379
 50
145.34770562304649
 51
184.65229437695029
  0
ARC
  5
DF72
  8
0
 10
402.1509482578337
 20
406.76710519349712
 30
0.0
 40
4.1976433314087407
 50
127.532051796644
 51
202.4679482033531
  0
LINE
  5
DF73
  8
0
 10
453.33085472033969
 20
421.18611248532869
 30
0.0
 11
455.00075472033973
 21
423.98053590078251
 31
0.0
  0
LINE
  5
DF74
  8
0
 10
455.00075472033973
 20
423.98053590078251
 30
0.0
 11
463.66095472033982
 21
428.9135190956415
 31
0.0
  0
LINE
  5
DF75
  8
0
 10
463.66095472033982
 20
428.9135190956415
 30
0.0
 11
467.00075472033973
 21
428.9135190956415
 31
0.0
  0
LINE
  5
DF76
  8
0
 10
455.00075472033973
 20
408.73243080698188
 30
0.0
 11
453.33085472033969
 21
411.52685422243769
 31
0.0
  0
LINE
  5
DF77
  8
0
 10
455.00075472033973
 20
408.73243080698188
 30
0.0
 11
463.66095472033982
 21
403.79944761212522
 31
0.0
  0
LINE
  5
DF78
  8
0
 10
453.33085472033969
 20
421.18611248532869
 30
0.0
 11
453.33085472033969
 21
411.52685422243769
 31
0.0
  0
LINE
  5
DF79
  8
0
 10
477.33085472033969
 20
421.18611248532869
 30
0.0
 11
475.6609547203397
 21
423.98053590078251
 31
0.0
  0
LINE
  5
DF7A
  8
0
 10
475.6609547203397
 20
423.98053590078251
 30
0.0
 11
467.00075472033973
 21
428.9135190956415
 31
0.0
  0
LINE
  5
DF7B
  8
0
 10
475.6609547203397
 20
408.73243080698188
 30
0.0
 11
477.33085472033969
 21
411.52685422243769
 31
0.0
  0
LINE
  5
DF7C
  8
0
 10
475.6609547203397
 20
408.73243080698188
 30
0.0
 11
467.00075472033973
 21
403.79944761212522
 31
0.0
  0
LINE
  5
DF7D
  8
0
 10
477.33085472033969
 20
421.18611248532869
 30
0.0
 11
477.33085472033969
 21
411.52685422243769
 31
0.0
  0
LINE
  5
DF7E
  8
0
 10
463.66095472033982
 20
403.79944761212522
 30
0.0
 11
467.00075472033973
 21
403.79944761212522
 31
0.0
  0
LINE
  5
DF7F
  8
0
 10
455.00075472033973
 20
425.34399463038238
 30
0.0
 11
463.66095472033982
 21
430.27697782524137
 31
0.0
  0
LINE
  5
DF80
  8
0
 10
463.66095472033982
 20
430.27697782524137
 30
0.0
 11
467.00075472033973
 21
430.27697782524137
 31
0.0
  0
LINE
  5
DF81
  8
0
 10
475.6609547203397
 20
425.34399463038238
 30
0.0
 11
467.00075472033973
 21
430.27697782524137
 31
0.0
  0
LINE
  5
DF82
  8
0
 10
453.33085472033969
 20
422.54957121492862
 30
0.0
 11
455.00075472033973
 21
425.34399463038238
 31
0.0
  0
LINE
  5
DF83
  8
0
 10
477.33085472033969
 20
422.54957121492862
 30
0.0
 11
475.6609547203397
 21
425.34399463038238
 31
0.0
  0
LINE
  5
DF84
  8
0
 10
453.33085472033969
 20
422.54957121492862
 30
0.0
 11
453.33085472033969
 21
421.18611248532869
 31
0.0
  0
LINE
  5
DF85
  8
0
 10
455.00075472033973
 20
425.34399463038238
 30
0.0
 11
455.00075472033973
 21
423.98053590078251
 31
0.0
  0
LINE
  5
DF86
  8
0
 10
475.6609547203397
 20
425.34399463038238
 30
0.0
 11
475.6609547203397
 21
423.98053590078251
 31
0.0
  0
LINE
  5
DF87
  8
0
 10
477.33085472033969
 20
422.54957121492862
 30
0.0
 11
477.33085472033969
 21
421.18611248532869
 31
0.0
  0
LINE
  5
DF88
  8
0
 10
467.00075472034013
 20
430.27697782524109
 30
0.0
 11
467.00075472033973
 21
428.9135190956415
 31
0.0
  0
LINE
  5
DF89
  8
0
 10
463.66095472033982
 20
430.27697782524137
 30
0.0
 11
463.66095472033982
 21
428.9135190956415
 31
0.0
  0
POLYLINE
  5
DF8A
  8
0
 10
453.83085472033957
 20
416.13234606082409
 30
0.0
 66
     1
 70
     8
  0
VERTEX
  8
0
  5
E5DF
 10
453.831
 20
416.132
 30
0.000000
  70
    32
  0
VERTEX
  8
0
  5
E5E0
 10
453.845
 20
415.587
 30
0.000000
  70
    32
  0
VERTEX
  8
0
  5
E5E1
 10
453.886
 20
415.044
 30
0.000000
  70
    32
  0
VERTEX
  8
0
  5
E5E2
 10
453.955
 20
414.502
 30
0.000000
  70
    32
  0
VERTEX
  8
0
  5
E5E3
 10
454.052
 20
413.965
 30
0.000000
  70
    32
  0
VERTEX
  8
0
  5
E5E4
 10
454.175
 20
413.433
 30
0.000000
  70
    32
  0
VERTEX
  8
0
  5
E5E5
 10
454.326
 20
412.908
 30
0.000000
  70
    32
  0
VERTEX
  8
0
  5
E5E6
 10
454.503
 20
412.390
 30
0.000000
  70
    32
  0
VERTEX
  8
0
  5
E5E7
 10
454.706
 20
411.881
 30
0.000000
  70
    32
  0
VERTEX
  8
0
  5
E5E8
 10
454.935
 20
411.383
 30
0.000000
  70
    32
  0
VERTEX
  8
0
  5
E5E9
 10
455.189
 20
410.896
 30
0.000000
  70
    32
  0
VERTEX
  8
0
  5
E5EA
 10
455.467
 20
410.422
 30
0.000000
  70
    32
  0
VERTEX
  8
0
  5
E5EB
 10
455.769
 20
409.961
 30
0.000000
  70
    32
  0
VERTEX
  8
0
  5
E5EC
 10
456.094
 20
409.515
 30
0.000000
  70
    32
  0
VERTEX
  8
0
  5
E5ED
 10
456.441
 20
409.085
 30
0.000000
  70
    32
  0
VERTEX
  8
0
  5
E5EE
 10
456.810
 20
408.673
 30
0.000000
  70
    32
  0
VERTEX
  8
0
  5
E5EF
 10
457.199
 20
408.278
 30
0.000000
  70
    32
  0
VERTEX
  8
0
  5
E5F0
 10
457.608
 20
407.902
 30
0.000000
  70
    32
  0
VERTEX
  8
0
  5
E5F1
 10
458.035
 20
407.546
 30
0.000000
  70
    32
  0
VERTEX
  8
0
  5
E5F2
 10
458.480
 20
407.210
 30
0.000000
  70
    32
  0
VERTEX
  8
0
  5
E5F3
 10
458.942
 20
406.896
 30
0.000000
  70
    32
  0
VERTEX
  8
0
  5
E5F4
 10
459.419
 20
406.605
 30
0.000000
  70
    32
  0
VERTEX
  8
0
  5
E5F5
 10
459.910
 20
406.336
 30
0.000000
  70
    32
  0
VERTEX
  8
0
  5
E5F6
 10
460.414
 20
406.091
 30
0.000000
  70
    32
  0
VERTEX
  8
0
  5
E5F7
 10
460.930
 20
405.870
 30
0.000000
  70
    32
  0
VERTEX
  8
0
  5
E5F8
 10
461.457
 20
405.674
 30
0.000000
  70
    32
  0
VERTEX
  8
0
  5
E5F9
 10
461.993
 20
405.503
 30
0.000000
  70
    32
  0
VERTEX
  8
0
  5
E5FA
 10
462.537
 20
405.357
 30
0.000000
  70
    32
  0
VERTEX
  8
0
  5
E5FB
 10
463.087
 20
405.238
 30
0.000000
  70
    32
  0
VERTEX
  8
0
  5
E5FC
 10
463.643
 20
405.144
 30
0.000000
  70
    32
  0
VERTEX
  8
0
  5
E5FD
 10
464.204
 20
405.078
 30
0.000000
  70
    32
  0
VERTEX
  8
0
  5
E5FE
 10
464.767
 20
405.038
 30
0.000000
  70
    32
  0
VERTEX
  8
0
  5
E5FF
 10
465.331
 20
405.024
 30
0.000000
  70
    32
  0
VERTEX
  8
0
  5
E600
 10
465.895
 20
405.038
 30
0.000000
  70
    32
  0
VERTEX
  8
0
  5
E601
 10
466.458
 20
405.078
 30
0.000000
  70
    32
  0
VERTEX
  8
0
  5
E602
 10
467.018
 20
405.144
 30
0.000000
  70
    32
  0
VERTEX
  8
0
  5
E603
 10
467.574
 20
405.238
 30
0.000000
  70
    32
  0
VERTEX
  8
0
  5
E604
 10
468.125
 20
405.357
 30
0.000000
  70
    32
  0
VERTEX
  8
0
  5
E605
 10
468.669
 20
405.503
 30
0.000000
  70
    32
  0
VERTEX
  8
0
  5
E606
 10
469.205
 20
405.674
 30
0.000000
  70
    32
  0
VERTEX
  8
0
  5
E607
 10
469.732
 20
405.870
 30
0.000000
  70
    32
  0
VERTEX
  8
0
  5
E608
 10
470.248
 20
406.091
 30
0.000000
  70
    32
  0
VERTEX
  8
0
  5
E609
 10
470.752
 20
406.336
 30
0.000000
  70
    32
  0
VERTEX
  8
0
  5
E60A
 10
471.243
 20
406.605
 30
0.000000
  70
    32
  0
VERTEX
  8
0
  5
E60B
 10
471.720
 20
406.896
 30
0.000000
  70
    32
  0
VERTEX
  8
0
  5
E60C
 10
472.181
 20
407.210
 30
0.000000
  70
    32
  0
VERTEX
  8
0
  5
E60D
 10
472.626
 20
407.546
 30
0.000000
  70
    32
  0
VERTEX
  8
0
  5
E60E
 10
473.054
 20
407.902
 30
0.000000
  70
    32
  0
VERTEX
  8
0
  5
E60F
 10
473.463
 20
408.278
 30
0.000000
  70
    32
  0
VERTEX
  8
0
  5
E610
 10
473.852
 20
408.673
 30
0.000000
  70
    32
  0
VERTEX
  8
0
  5
E611
 10
474.220
 20
409.085
 30
0.000000
  70
    32
  0
VERTEX
  8
0
  5
E612
 10
474.568
 20
409.515
 30
0.000000
  70
    32
  0
VERTEX
  8
0
  5
E613
 10
474.893
 20
409.961
 30
0.000000
  70
    32
  0
VERTEX
  8
0
  5
E614
 10
475.195
 20
410.422
 30
0.000000
  70
    32
  0
VERTEX
  8
0
  5
E615
 10
475.473
 20
410.896
 30
0.000000
  70
    32
  0
VERTEX
  8
0
  5
E616
 10
475.727
 20
411.383
 30
0.000000
  70
    32
  0
VERTEX
  8
0
  5
E617
 10
475.955
 20
411.881
 30
0.000000
  70
    32
  0
VERTEX
  8
0
  5
E618
 10
476.159
 20
412.390
 30
0.000000
  70
    32
  0
VERTEX
  8
0
  5
E619
 10
476.336
 20
412.908
 30
0.000000
  70
    32
  0
VERTEX
  8
0
  5
E61A
 10
476.486
 20
413.433
 30
0.000000
  70
    32
  0
VERTEX
  8
0
  5
E61B
 10
476.610
 20
413.965
 30
0.000000
  70
    32
  0
VERTEX
  8
0
  5
E61C
 10
476.706
 20
414.502
 30
0.000000
  70
    32
  0
VERTEX
  8
0
  5
E61D
 10
476.775
 20
415.044
 30
0.000000
  70
    32
  0
VERTEX
  8
0
  5
E61E
 10
476.817
 20
415.587
 30
0.000000
  70
    32
  0
VERTEX
  8
0
  5
E61F
 10
476.831
 20
416.132
 30
0.000000
  70
    32
  0
VERTEX
  8
0
  5
E620
 10
476.817
 20
416.677
 30
0.000000
  70
    32
  0
VERTEX
  8
0
  5
E621
 10
476.775
 20
417.221
 30
0.000000
  70
    32
  0
VERTEX
  8
0
  5
E622
 10
476.706
 20
417.762
 30
0.000000
  70
    32
  0
VERTEX
  8
0
  5
E623
 10
476.610
 20
418.299
 30
0.000000
  70
    32
  0
VERTEX
  8
0
  5
E624
 10
476.486
 20
418.831
 30
0.000000
  70
    32
  0
VERTEX
  8
0
  5
E625
 10
476.336
 20
419.357
 30
0.000000
  70
    32
  0
VERTEX
  8
0
  5
E626
 10
476.159
 20
419.875
 30
0.000000
  70
    32
  0
VERTEX
  8
0
  5
E627
 10
475.955
 20
420.383
 30
0.000000
  70
    32
  0
VERTEX
  8
0
  5
E628
 10
475.727
 20
420.882
 30
0.000000
  70
    32
  0
VERTEX
  8
0
  5
E629
 10
475.473
 20
421.369
 30
0.000000
  70
    32
  0
VERTEX
  8
0
  5
E62A
 10
475.195
 20
421.843
 30
0.000000
  70
    32
  0
VERTEX
  8
0
  5
E62B
 10
474.893
 20
422.304
 30
0.000000
  70
    32
  0
VERTEX
  8
0
  5
E62C
 10
474.568
 20
422.749
 30
0.000000
  70
    32
  0
VERTEX
  8
0
  5
E62D
 10
474.220
 20
423.179
 30
0.000000
  70
    32
  0
VERTEX
  8
0
  5
E62E
 10
473.852
 20
423.592
 30
0.000000
  70
    32
  0
VERTEX
  8
0
  5
E62F
 10
473.463
 20
423.987
 30
0.000000
  70
    32
  0
VERTEX
  8
0
  5
E630
 10
473.054
 20
424.363
 30
0.000000
  70
    32
  0
VERTEX
  8
0
  5
E631
 10
472.626
 20
424.719
 30
0.000000
  70
    32
  0
VERTEX
  8
0
  5
E632
 10
472.181
 20
425.054
 30
0.000000
  70
    32
  0
VERTEX
  8
0
  5
E633
 10
471.720
 20
425.368
 30
0.000000
  70
    32
  0
VERTEX
  8
0
  5
E634
 10
471.243
 20
425.660
 30
0.000000
  70
    32
  0
VERTEX
  8
0
  5
E635
 10
470.752
 20
425.929
 30
0.000000
  70
    32
  0
VERTEX
  8
0
  5
E636
 10
470.248
 20
426.174
 30
0.000000
  70
    32
  0
VERTEX
  8
0
  5
E637
 10
469.732
 20
426.395
 30
0.000000
  70
    32
  0
VERTEX
  8
0
  5
E638
 10
469.205
 20
426.591
 30
0.000000
  70
    32
  0
VERTEX
  8
0
  5
E639
 10
468.669
 20
426.762
 30
0.000000
  70
    32
  0
VERTEX
  8
0
  5
E63A
 10
468.125
 20
426.908
 30
0.000000
  70
    32
  0
VERTEX
  8
0
  5
E63B
 10
467.574
 20
427.027
 30
0.000000
  70
    32
  0
VERTEX
  8
0
  5
E63C
 10
467.018
 20
427.120
 30
0.000000
  70
    32
  0
VERTEX
  8
0
  5
E63D
 10
466.458
 20
427.187
 30
0.000000
  70
    32
  0
VERTEX
  8
0
  5
E63E
 10
465.895
 20
427.227
 30
0.000000
  70
    32
  0
VERTEX
  8
0
  5
E63F
 10
465.331
 20
427.240
 30
0.000000
  70
    32
  0
VERTEX
  8
0
  5
E640
 10
464.767
 20
427.227
 30
0.000000
  70
    32
  0
VERTEX
  8
0
  5
E641
 10
464.204
 20
427.187
 30
0.000000
  70
    32
  0
VERTEX
  8
0
  5
E642
 10
463.643
 20
427.120
 30
0.000000
  70
    32
  0
VERTEX
  8
0
  5
E643
 10
463.087
 20
427.027
 30
0.000000
  70
    32
  0
VERTEX
  8
0
  5
E644
 10
462.537
 20
426.908
 30
0.000000
  70
    32
  0
VERTEX
  8
0
  5
E645
 10
461.993
 20
426.762
 30
0.000000
  70
    32
  0
VERTEX
  8
0
  5
E646
 10
461.457
 20
426.591
 30
0.000000
  70
    32
  0
VERTEX
  8
0
  5
E647
 10
460.930
 20
426.395
 30
0.000000
  70
    32
  0
VERTEX
  8
0
  5
E648
 10
460.414
 20
426.174
 30
0.000000
  70
    32
  0
VERTEX
  8
0
  5
E649
 10
459.910
 20
425.929
 30
0.000000
  70
    32
  0
VERTEX
  8
0
  5
E64A
 10
459.419
 20
425.660
 30
0.000000
  70
    32
  0
VERTEX
  8
0
  5
E64B
 10
458.942
 20
425.368
 30
0.000000
  70
    32
  0
VERTEX
  8
0
  5
E64C
 10
458.480
 20
425.054
 30
0.000000
  70
    32
  0
VERTEX
  8
0
  5
E64D
 10
458.035
 20
424.719
 30
0.000000
  70
    32
  0
VERTEX
  8
0
  5
E64E
 10
457.608
 20
424.363
 30
0.000000
  70
    32
  0
VERTEX
  8
0
  5
E64F
 10
457.199
 20
423.987
 30
0.000000
  70
    32
  0
VERTEX
  8
0
  5
E650
 10
456.810
 20
423.592
 30
0.000000
  70
    32
  0
VERTEX
  8
0
  5
E651
 10
456.441
 20
423.179
 30
0.000000
  70
    32
  0
VERTEX
  8
0
  5
E652
 10
456.094
 20
422.749
 30
0.000000
  70
    32
  0
VERTEX
  8
0
  5
E653
 10
455.769
 20
422.304
 30
0.000000
  70
    32
  0
VERTEX
  8
0
  5
E654
 10
455.467
 20
421.843
 30
0.000000
  70
    32
  0
VERTEX
  8
0
  5
E655
 10
455.189
 20
421.369
 30
0.000000
  70
    32
  0
VERTEX
  8
0
  5
E656
 10
454.935
 20
420.882
 30
0.000000
  70
    32
  0
VERTEX
  8
0
  5
E657
 10
454.706
 20
420.383
 30
0.000000
  70
    32
  0
VERTEX
  8
0
  5
E658
 10
454.503
 20
419.875
 30
0.000000
  70
    32
  0
VERTEX
  8
0
  5
E659
 10
454.326
 20
419.357
 30
0.000000
  70
    32
  0
VERTEX
  8
0
  5
E65A
 10
454.175
 20
418.831
 30
0.000000
  70
    32
  0
VERTEX
  8
0
  5
E65B
 10
454.052
 20
418.299
 30
0.000000
  70
    32
  0
VERTEX
  8
0
  5
E65C
 10
453.955
 20
417.762
 30
0.000000
  70
    32
  0
VERTEX
  8
0
  5
E65D
 10
453.886
 20
417.221
 30
0.000000
  70
    32
  0
VERTEX
  8
0
  5
E65E
 10
453.845
 20
416.677
 30
0.000000
  70
    32
  0
VERTEX
  8
0
  5
E65F
 10
453.831
 20
416.132
 30
0.000000
  70
    32
  0
SEQEND
  8
0
  5
E660
  0
LINE
  5
DF8B
  8
0
 10
300.42765527475052
 20
483.1324750667452
 30
0.0
 11
300.42765527475052
 21
471.13247506674543
 31
0.0
  0
ARC
  5
DF8C
  8
0
 10
299.42765527475052
 20
483.1324750667452
 30
0.0
 40
1.0
 50
0.0
 51
90.0
  0
LINE
  5
DF8D
  8
0
 10
288.42765527475058
 20
483.13247506674543
 30
0.0
 11
288.42765527475058
 21
471.13247506674543
 31
0.0
  0
ARC
  5
DF8E
  8
0
 10
289.42765527475058
 20
471.13247506674543
 30
0.0
 40
1.0
 50
180.0
 51
270.0
  0
ARC
  5
DF8F
  8
0
 10
289.42765527475058
 20
483.13247506674543
 30
0.0
 40
1.0
 50
90.0
 51
180.0
  0
LINE
  5
DF90
  8
0
 10
289.42765527475058
 20
470.13247506674543
 30
0.0
 11
299.42765527475052
 21
470.13247506674543
 31
0.0
  0
ARC
  5
DF91
  8
0
 10
299.42765527475052
 20
471.13247506674543
 30
0.0
 40
1.0
 50
270.0
 51
0.0
  0
LINE
  5
DF92
  8
0
 10
289.42765527475058
 20
484.13247506674543
 30
0.0
 11
299.42765527475052
 21
484.13247506674509
 31
0.0
  0
POLYLINE
  5
DF93
  8
0
 10
480.33085472033969
 20
420.56738395843348
 30
0.0
 66
     1
 70
     8
  0
VERTEX
  8
0
  5
E661
 10
480.331
 20
420.567
 30
0.000000
  70
    32
  0
VERTEX
  8
0
  5
E662
 10
480.326
 20
420.926
 30
0.000000
  70
    32
  0
VERTEX
  8
0
  5
E663
 10
480.313
 20
421.285
 30
0.000000
  70
    32
  0
VERTEX
  8
0
  5
E664
 10
480.290
 20
421.643
 30
0.000000
  70
    32
  0
VERTEX
  8
0
  5
E665
 10
480.259
 20
422.000
 30
0.000000
  70
    32
  0
VERTEX
  8
0
  5
E666
 10
480.218
 20
422.357
 30
0.000000
  70
    32
  0
VERTEX
  8
0
  5
E667
 10
480.169
 20
422.712
 30
0.000000
  70
    32
  0
VERTEX
  8
0
  5
E668
 10
480.110
 20
423.067
 30
0.000000
  70
    32
  0
VERTEX
  8
0
  5
E669
 10
480.043
 20
423.419
 30
0.000000
  70
    32
  0
VERTEX
  8
0
  5
E66A
 10
479.966
 20
423.770
 30
0.000000
  70
    32
  0
VERTEX
  8
0
  5
E66B
 10
479.881
 20
424.119
 30
0.000000
  70
    32
  0
VERTEX
  8
0
  5
E66C
 10
479.787
 20
424.466
 30
0.000000
  70
    32
  0
VERTEX
  8
0
  5
E66D
 10
479.685
 20
424.811
 30
0.000000
  70
    32
  0
VERTEX
  8
0
  5
E66E
 10
479.574
 20
425.153
 30
0.000000
  70
    32
  0
VERTEX
  8
0
  5
E66F
 10
479.454
 20
425.492
 30
0.000000
  70
    32
  0
VERTEX
  8
0
  5
E670
 10
479.326
 20
425.828
 30
0.000000
  70
    32
  0
VERTEX
  8
0
  5
E671
 10
479.189
 20
426.162
 30
0.000000
  70
    32
  0
VERTEX
  8
0
  5
E672
 10
479.044
 20
426.491
 30
0.000000
  70
    32
  0
VERTEX
  8
0
  5
E673
 10
478.891
 20
426.817
 30
0.000000
  70
    32
  0
VERTEX
  8
0
  5
E674
 10
478.729
 20
427.140
 30
0.000000
  70
    32
  0
VERTEX
  8
0
  5
E675
 10
478.560
 20
427.458
 30
0.000000
  70
    32
  0
VERTEX
  8
0
  5
E676
 10
478.382
 20
427.773
 30
0.000000
  70
    32
  0
VERTEX
  8
0
  5
E677
 10
478.197
 20
428.083
 30
0.000000
  70
    32
  0
VERTEX
  8
0
  5
E678
 10
478.004
 20
428.388
 30
0.000000
  70
    32
  0
VERTEX
  8
0
  5
E679
 10
477.803
 20
428.689
 30
0.000000
  70
    32
  0
VERTEX
  8
0
  5
E67A
 10
477.595
 20
428.985
 30
0.000000
  70
    32
  0
VERTEX
  8
0
  5
E67B
 10
477.379
 20
429.275
 30
0.000000
  70
    32
  0
VERTEX
  8
0
  5
E67C
 10
477.156
 20
429.561
 30
0.000000
  70
    32
  0
VERTEX
  8
0
  5
E67D
 10
476.926
 20
429.841
 30
0.000000
  70
    32
  0
VERTEX
  8
0
  5
E67E
 10
476.689
 20
430.116
 30
0.000000
  70
    32
  0
VERTEX
  8
0
  5
E67F
 10
476.445
 20
430.384
 30
0.000000
  70
    32
  0
VERTEX
  8
0
  5
E680
 10
476.195
 20
430.647
 30
0.000000
  70
    32
  0
VERTEX
  8
0
  5
E681
 10
475.937
 20
430.904
 30
0.000000
  70
    32
  0
VERTEX
  8
0
  5
E682
 10
475.674
 20
431.155
 30
0.000000
  70
    32
  0
VERTEX
  8
0
  5
E683
 10
475.404
 20
431.399
 30
0.000000
  70
    32
  0
VERTEX
  8
0
  5
E684
 10
475.128
 20
431.636
 30
0.000000
  70
    32
  0
VERTEX
  8
0
  5
E685
 10
474.847
 20
431.867
 30
0.000000
  70
    32
  0
VERTEX
  8
0
  5
E686
 10
474.559
 20
432.092
 30
0.000000
  70
    32
  0
VERTEX
  8
0
  5
E687
 10
474.266
 20
432.309
 30
0.000000
  70
    32
  0
VERTEX
  8
0
  5
E688
 10
473.968
 20
432.519
 30
0.000000
  70
    32
  0
VERTEX
  8
0
  5
E689
 10
473.664
 20
432.722
 30
0.000000
  70
    32
  0
VERTEX
  8
0
  5
E68A
 10
473.356
 20
432.918
 30
0.000000
  70
    32
  0
VERTEX
  8
0
  5
E68B
 10
473.042
 20
433.106
 30
0.000000
  70
    32
  0
VERTEX
  8
0
  5
E68C
 10
472.724
 20
433.286
 30
0.000000
  70
    32
  0
VERTEX
  8
0
  5
E68D
 10
472.402
 20
433.459
 30
0.000000
  70
    32
  0
VERTEX
  8
0
  5
E68E
 10
472.075
 20
433.625
 30
0.000000
  70
    32
  0
VERTEX
  8
0
  5
E68F
 10
471.744
 20
433.782
 30
0.000000
  70
    32
  0
VERTEX
  8
0
  5
E690
 10
471.409
 20
433.931
 30
0.000000
  70
    32
  0
VERTEX
  8
0
  5
E691
 10
471.071
 20
434.073
 30
0.000000
  70
    32
  0
VERTEX
  8
0
  5
E692
 10
470.729
 20
434.206
 30
0.000000
  70
    32
  0
VERTEX
  8
0
  5
E693
 10
470.384
 20
434.331
 30
0.000000
  70
    32
  0
VERTEX
  8
0
  5
E694
 10
470.036
 20
434.448
 30
0.000000
  70
    32
  0
VERTEX
  8
0
  5
E695
 10
469.685
 20
434.556
 30
0.000000
  70
    32
  0
VERTEX
  8
0
  5
E696
 10
469.332
 20
434.656
 30
0.000000
  70
    32
  0
VERTEX
  8
0
  5
E697
 10
468.976
 20
434.747
 30
0.000000
  70
    32
  0
VERTEX
  8
0
  5
E698
 10
468.617
 20
434.830
 30
0.000000
  70
    32
  0
VERTEX
  8
0
  5
E699
 10
468.257
 20
434.905
 30
0.000000
  70
    32
  0
VERTEX
  8
0
  5
E69A
 10
467.895
 20
434.970
 30
0.000000
  70
    32
  0
VERTEX
  8
0
  5
E69B
 10
467.532
 20
435.027
 30
0.000000
  70
    32
  0
VERTEX
  8
0
  5
E69C
 10
467.167
 20
435.076
 30
0.000000
  70
    32
  0
VERTEX
  8
0
  5
E69D
 10
466.801
 20
435.115
 30
0.000000
  70
    32
  0
VERTEX
  8
0
  5
E69E
 10
466.434
 20
435.146
 30
0.000000
  70
    32
  0
VERTEX
  8
0
  5
E69F
 10
466.067
 20
435.168
 30
0.000000
  70
    32
  0
VERTEX
  8
0
  5
E6A0
 10
465.699
 20
435.181
 30
0.000000
  70
    32
  0
VERTEX
  8
0
  5
E6A1
 10
465.331
 20
435.186
 30
0.000000
  70
    32
  0
VERTEX
  8
0
  5
E6A2
 10
464.963
 20
435.181
 30
0.000000
  70
    32
  0
VERTEX
  8
0
  5
E6A3
 10
464.595
 20
435.168
 30
0.000000
  70
    32
  0
VERTEX
  8
0
  5
E6A4
 10
464.227
 20
435.146
 30
0.000000
  70
    32
  0
VERTEX
  8
0
  5
E6A5
 10
463.861
 20
435.115
 30
0.000000
  70
    32
  0
VERTEX
  8
0
  5
E6A6
 10
463.495
 20
435.076
 30
0.000000
  70
    32
  0
VERTEX
  8
0
  5
E6A7
 10
463.130
 20
435.027
 30
0.000000
  70
    32
  0
VERTEX
  8
0
  5
E6A8
 10
462.766
 20
434.970
 30
0.000000
  70
    32
  0
VERTEX
  8
0
  5
E6A9
 10
462.404
 20
434.905
 30
0.000000
  70
    32
  0
VERTEX
  8
0
  5
E6AA
 10
462.044
 20
434.830
 30
0.000000
  70
    32
  0
VERTEX
  8
0
  5
E6AB
 10
461.686
 20
434.747
 30
0.000000
  70
    32
  0
VERTEX
  8
0
  5
E6AC
 10
461.330
 20
434.656
 30
0.000000
  70
    32
  0
VERTEX
  8
0
  5
E6AD
 10
460.977
 20
434.556
 30
0.000000
  70
    32
  0
VERTEX
  8
0
  5
E6AE
 10
460.626
 20
434.448
 30
0.000000
  70
    32
  0
VERTEX
  8
0
  5
E6AF
 10
460.278
 20
434.331
 30
0.000000
  70
    32
  0
VERTEX
  8
0
  5
E6B0
 10
459.932
 20
434.206
 30
0.000000
  70
    32
  0
VERTEX
  8
0
  5
E6B1
 10
459.591
 20
434.073
 30
0.000000
  70
    32
  0
VERTEX
  8
0
  5
E6B2
 10
459.252
 20
433.931
 30
0.000000
  70
    32
  0
VERTEX
  8
0
  5
E6B3
 10
458.918
 20
433.782
 30
0.000000
  70
    32
  0
VERTEX
  8
0
  5
E6B4
 10
458.587
 20
433.625
 30
0.000000
  70
    32
  0
VERTEX
  8
0
  5
E6B5
 10
458.260
 20
433.459
 30
0.000000
  70
    32
  0
VERTEX
  8
0
  5
E6B6
 10
457.937
 20
433.286
 30
0.000000
  70
    32
  0
VERTEX
  8
0
  5
E6B7
 10
457.619
 20
433.106
 30
0.000000
  70
    32
  0
VERTEX
  8
0
  5
E6B8
 10
457.306
 20
432.918
 30
0.000000
  70
    32
  0
VERTEX
  8
0
  5
E6B9
 10
456.997
 20
432.722
 30
0.000000
  70
    32
  0
VERTEX
  8
0
  5
E6BA
 10
456.694
 20
432.519
 30
0.000000
  70
    32
  0
VERTEX
  8
0
  5
E6BB
 10
456.395
 20
432.309
 30
0.000000
  70
    32
  0
VERTEX
  8
0
  5
E6BC
 10
456.102
 20
432.092
 30
0.000000
  70
    32
  0
VERTEX
  8
0
  5
E6BD
 10
455.815
 20
431.867
 30
0.000000
  70
    32
  0
VERTEX
  8
0
  5
E6BE
 10
455.533
 20
431.636
 30
0.000000
  70
    32
  0
VERTEX
  8
0
  5
E6BF
 10
455.257
 20
431.399
 30
0.000000
  70
    32
  0
VERTEX
  8
0
  5
E6C0
 10
454.988
 20
431.155
 30
0.000000
  70
    32
  0
VERTEX
  8
0
  5
E6C1
 10
454.724
 20
430.904
 30
0.000000
  70
    32
  0
VERTEX
  8
0
  5
E6C2
 10
454.467
 20
430.647
 30
0.000000
  70
    32
  0
VERTEX
  8
0
  5
E6C3
 10
454.217
 20
430.384
 30
0.000000
  70
    32
  0
VERTEX
  8
0
  5
E6C4
 10
453.973
 20
430.116
 30
0.000000
  70
    32
  0
VERTEX
  8
0
  5
E6C5
 10
453.736
 20
429.841
 30
0.000000
  70
    32
  0
VERTEX
  8
0
  5
E6C6
 10
453.506
 20
429.561
 30
0.000000
  70
    32
  0
VERTEX
  8
0
  5
E6C7
 10
453.283
 20
429.275
 30
0.000000
  70
    32
  0
VERTEX
  8
0
  5
E6C8
 10
453.067
 20
428.985
 30
0.000000
  70
    32
  0
VERTEX
  8
0
  5
E6C9
 10
452.859
 20
428.689
 30
0.000000
  70
    32
  0
VERTEX
  8
0
  5
E6CA
 10
452.658
 20
428.388
 30
0.000000
  70
    32
  0
VERTEX
  8
0
  5
E6CB
 10
452.465
 20
428.083
 30
0.000000
  70
    32
  0
VERTEX
  8
0
  5
E6CC
 10
452.280
 20
427.773
 30
0.000000
  70
    32
  0
VERTEX
  8
0
  5
E6CD
 10
452.102
 20
427.458
 30
0.000000
  70
    32
  0
VERTEX
  8
0
  5
E6CE
 10
451.932
 20
427.140
 30
0.000000
  70
    32
  0
VERTEX
  8
0
  5
E6CF
 10
451.771
 20
426.817
 30
0.000000
  70
    32
  0
VERTEX
  8
0
  5
E6D0
 10
451.618
 20
426.491
 30
0.000000
  70
    32
  0
VERTEX
  8
0
  5
E6D1
 10
451.473
 20
426.162
 30
0.000000
  70
    32
  0
VERTEX
  8
0
  5
E6D2
 10
451.336
 20
425.828
 30
0.000000
  70
    32
  0
VERTEX
  8
0
  5
E6D3
 10
451.208
 20
425.492
 30
0.000000
  70
    32
  0
VERTEX
  8
0
  5
E6D4
 10
451.088
 20
425.153
 30
0.000000
  70
    32
  0
VERTEX
  8
0
  5
E6D5
 10
450.977
 20
424.811
 30
0.000000
  70
    32
  0
VERTEX
  8
0
  5
E6D6
 10
450.874
 20
424.466
 30
0.000000
  70
    32
  0
VERTEX
  8
0
  5
E6D7
 10
450.780
 20
424.119
 30
0.000000
  70
    32
  0
VERTEX
  8
0
  5
E6D8
 10
450.695
 20
423.770
 30
0.000000
  70
    32
  0
VERTEX
  8
0
  5
E6D9
 10
450.619
 20
423.419
 30
0.000000
  70
    32
  0
VERTEX
  8
0
  5
E6DA
 10
450.552
 20
423.067
 30
0.000000
  70
    32
  0
VERTEX
  8
0
  5
E6DB
 10
450.493
 20
422.712
 30
0.000000
  70
    32
  0
VERTEX
  8
0
  5
E6DC
 10
450.444
 20
422.357
 30
0.000000
  70
    32
  0
VERTEX
  8
0
  5
E6DD
 10
450.403
 20
422.000
 30
0.000000
  70
    32
  0
VERTEX
  8
0
  5
E6DE
 10
450.371
 20
421.643
 30
0.000000
  70
    32
  0
VERTEX
  8
0
  5
E6DF
 10
450.349
 20
421.285
 30
0.000000
  70
    32
  0
VERTEX
  8
0
  5
E6E0
 10
450.335
 20
420.926
 30
0.000000
  70
    32
  0
VERTEX
  8
0
  5
E6E1
 10
450.331
 20
420.567
 30
0.000000
  70
    32
  0
SEQEND
  8
0
  5
E6E2
  0
LINE
  5
DF94
  8
0
 10
504.33085472033969
 20
486.13247506674543
 30
0.0
 11
484.33085472033957
 21
486.13247506674543
 31
0.0
  0
ARC
  5
DF95
  8
0
 10
484.33085472033957
 20
483.13247506674543
 30
0.0
 40
3.0
 50
90.0
 51
180.0
  0
LINE
  5
DF96
  8
0
 10
481.33085472033952
 20
484.13247506674543
 30
0.0
 11
481.33085472033929
 21
470.13247506674543
 31
0.0
  0
LINE
  5
DF97
  8
0
 10
481.33085472033952
 20
470.13247506674543
 30
0.0
 11
480.3308547203394
 21
470.13247506674543
 31
0.0
  0
LINE
  5
DF98
  8
0
 10
481.33085472033952
 20
484.13247506674543
 30
0.0
 11
480.3308547203394
 21
484.13247506674543
 31
0.0
  0
ARC
  5
DF99
  8
0
 10
480.3308547203394
 20
469.13247506674543
 30
0.0
 40
1.0
 50
90.000000000006509
 51
151.9275130641455
  0
ARC
  5
DF9A
  8
0
 10
480.3308547203394
 20
485.13247506674543
 30
0.0
 40
1.0
 50
208.0724869358545
 51
270.0
  0
LINE
  5
DFAB
  8
0
 10
453.33085472033957
 20
513.15658439464528
 30
0.0
 11
453.33085472033957
 21
508.15658439464522
 31
0.0
  0
ARC
  5
DFAC
  8
0
 10
461.33085472033957
 20
513.13247506674566
 30
0.0
 40
8.0
 50
90.0
 51
180.0
  0
LINE
  5
DFAD
  8
0
 10
477.33085472033957
 20
513.15658439464528
 30
0.0
 11
477.33085472033957
 21
508.15658439464522
 31
0.0
  0
ARC
  5
DFAE
  8
0
 10
469.33085472033957
 20
513.13247506674566
 30
0.0
 40
8.0
 50
0.0
 51
90.0
  0
LINE
  5
DFAF
  8
0
 10
425.3308547203398
 20
505.15658439464528
 30
0.0
 11
425.3308547203398
 21
496.1324750667456
 31
0.0
  0
ARC
  5
DFB0
  8
0
 10
426.3308547203398
 20
505.15658439464528
 30
0.0
 40
1.0
 50
90.0
 51
180.0
  0
LINE
  5
DFB1
  8
0
 10
505.3308547203398
 20
505.15658439464528
 30
0.0
 11
505.33085472033957
 21
496.13247506674543
 31
0.0
  0
ARC
  5
DFB2
  8
0
 10
504.3308547203398
 20
505.15658439464528
 30
0.0
 40
1.0
 50
0.0
 51
90.0
  0
LINE
  5
DFB3
  8
0
 10
461.33085472033957
 20
521.13247506674566
 30
0.0
 11
469.33085472033957
 21
521.13247506674566
 31
0.0
  0
LINE
  5
DFB4
  8
0
 10
426.3308547203398
 20
506.15658439464528
 30
0.0
 11
452.33087707650111
 21
506.15658439464528
 31
0.0
  0
ARC
  5
DFB5
  8
0
 10
451.33085472033957
 20
508.15658439464522
 30
0.0
 40
2.0
 50
270.0
 51
0.0
  0
CIRCLE
  5
DFB6
  8
0
 10
465.33085472033991
 20
511.13247506674543
 30
0.0
 40
5.0
  0
LINE
  5
DFB7
  8
0
 10
478.33083236417832
 20
506.15658439464528
 30
0.0
 11
504.3308547203398
 21
506.15658439464528
 31
0.0
  0
ARC
  5
DFB8
  8
0
 10
479.33085472033957
 20
508.15658439464551
 30
0.0
 40
2.0
 50
180.0
 51
270.0
  0
LINE
  5
DFB9
  8
0
 10
449.36064378259363
 20
506.15658439464528
 30
0.0
 11
450.33085472033957
 21
506.15658439464528
 31
0.0
  0
ARC
  5
DFBA
  8
0
 10
465.33085472033991
 20
511.10836573884581
 30
0.0
 40
7.9999999999999849
 50
0.1062587328812627
 51
179.89374126711871
  0
ARC
  5
DFBB
  8
0
 10
452.33087707650111
 20
511.15658439464522
 30
0.0
 40
5.0
 50
270.0
 51
359.89374126711868
  0
ARC
  5
DFBC
  8
0
 10
478.3308323641786
 20
511.15658439464551
 30
0.0
 40
5.0
 50
180.1062587328812
 51
270.0
  0
LINE
  5
DFBD
  8
0
 10
425.3308547203398
 20
496.13247506674543
 30
0.0
 11
505.33085472033957
 21
496.13247506674543
 31
0.0
  0
LINE
  5
DFBE
  8
0
 10
403.77680843320638
 20
429.05214595718053
 30
0.0
 11
402.81088959975523
 21
429.31099109849828
 31
0.0
  0
LINE
  5
DFBF
  8
0
 10
397.82367029046031
 20
406.8359323742186
 30
0.0
 11
396.85745135162068
 21
407.09485793722291
 31
0.0
  0
POLYLINE
  5
DFC0
  8
0
 10
480.33085472033969
 20
418.20292451786048
 30
0.0
 66
     1
 70
     8
  0
VERTEX
  8
0
  5
E6E3
 10
480.331
 20
418.203
 30
0.000000
  70
    32
  0
VERTEX
  8
0
  5
E6E4
 10
480.313
 20
418.920
 30
0.000000
  70
    32
  0
VERTEX
  8
0
  5
E6E5
 10
480.259
 20
419.636
 30
0.000000
  70
    32
  0
VERTEX
  8
0
  5
E6E6
 10
480.169
 20
420.348
 30
0.000000
  70
    32
  0
VERTEX
  8
0
  5
E6E7
 10
480.043
 20
421.055
 30
0.000000
  70
    32
  0
VERTEX
  8
0
  5
E6E8
 10
479.881
 20
421.755
 30
0.000000
  70
    32
  0
VERTEX
  8
0
  5
E6E9
 10
479.685
 20
422.446
 30
0.000000
  70
    32
  0
VERTEX
  8
0
  5
E6EA
 10
479.454
 20
423.128
 30
0.000000
  70
    32
  0
VERTEX
  8
0
  5
E6EB
 10
479.189
 20
423.797
 30
0.000000
  70
    32
  0
VERTEX
  8
0
  5
E6EC
 10
478.891
 20
424.453
 30
0.000000
  70
    32
  0
VERTEX
  8
0
  5
E6ED
 10
478.560
 20
425.094
 30
0.000000
  70
    32
  0
VERTEX
  8
0
  5
E6EE
 10
478.197
 20
425.718
 30
0.000000
  70
    32
  0
VERTEX
  8
0
  5
E6EF
 10
477.803
 20
426.324
 30
0.000000
  70
    32
  0
VERTEX
  8
0
  5
E6F0
 10
477.379
 20
426.911
 30
0.000000
  70
    32
  0
VERTEX
  8
0
  5
E6F1
 10
476.926
 20
427.477
 30
0.000000
  70
    32
  0
VERTEX
  8
0
  5
E6F2
 10
476.445
 20
428.020
 30
0.000000
  70
    32
  0
VERTEX
  8
0
  5
E6F3
 10
475.937
 20
428.540
 30
0.000000
  70
    32
  0
VERTEX
  8
0
  5
E6F4
 10
475.404
 20
429.034
 30
0.000000
  70
    32
  0
VERTEX
  8
0
  5
E6F5
 10
474.847
 20
429.503
 30
0.000000
  70
    32
  0
VERTEX
  8
0
  5
E6F6
 10
474.266
 20
429.944
 30
0.000000
  70
    32
  0
VERTEX
  8
0
  5
E6F7
 10
473.664
 20
430.357
 30
0.000000
  70
    32
  0
VERTEX
  8
0
  5
E6F8
 10
473.042
 20
430.741
 30
0.000000
  70
    32
  0
VERTEX
  8
0
  5
E6F9
 10
472.402
 20
431.095
 30
0.000000
  70
    32
  0
VERTEX
  8
0
  5
E6FA
 10
471.744
 20
431.418
 30
0.000000
  70
    32
  0
VERTEX
  8
0
  5
E6FB
 10
471.071
 20
431.708
 30
0.000000
  70
    32
  0
VERTEX
  8
0
  5
E6FC
 10
470.384
 20
431.967
 30
0.000000
  70
    32
  0
VERTEX
  8
0
  5
E6FD
 10
469.685
 20
432.192
 30
0.000000
  70
    32
  0
VERTEX
  8
0
  5
E6FE
 10
468.976
 20
432.383
 30
0.000000
  70
    32
  0
VERTEX
  8
0
  5
E6FF
 10
468.257
 20
432.540
 30
0.000000
  70
    32
  0
VERTEX
  8
0
  5
E700
 10
467.532
 20
432.663
 30
0.000000
  70
    32
  0
VERTEX
  8
0
  5
E701
 10
466.801
 20
432.751
 30
0.000000
  70
    32
  0
VERTEX
  8
0
  5
E702
 10
466.067
 20
432.803
 30
0.000000
  70
    32
  0
VERTEX
  8
0
  5
E703
 10
465.331
 20
432.821
 30
0.000000
  70
    32
  0
VERTEX
  8
0
  5
E704
 10
464.595
 20
432.803
 30
0.000000
  70
    32
  0
VERTEX
  8
0
  5
E705
 10
463.861
 20
432.751
 30
0.000000
  70
    32
  0
VERTEX
  8
0
  5
E706
 10
463.130
 20
432.663
 30
0.000000
  70
    32
  0
VERTEX
  8
0
  5
E707
 10
462.404
 20
432.540
 30
0.000000
  70
    32
  0
VERTEX
  8
0
  5
E708
 10
461.686
 20
432.383
 30
0.000000
  70
    32
  0
VERTEX
  8
0
  5
E709
 10
460.977
 20
432.192
 30
0.000000
  70
    32
  0
VERTEX
  8
0
  5
E70A
 10
460.278
 20
431.967
 30
0.000000
  70
    32
  0
VERTEX
  8
0
  5
E70B
 10
459.591
 20
431.708
 30
0.000000
  70
    32
  0
VERTEX
  8
0
  5
E70C
 10
458.918
 20
431.418
 30
0.000000
  70
    32
  0
VERTEX
  8
0
  5
E70D
 10
458.260
 20
431.095
 30
0.000000
  70
    32
  0
VERTEX
  8
0
  5
E70E
 10
457.619
 20
430.741
 30
0.000000
  70
    32
  0
VERTEX
  8
0
  5
E70F
 10
456.997
 20
430.357
 30
0.000000
  70
    32
  0
VERTEX
  8
0
  5
E710
 10
456.395
 20
429.944
 30
0.000000
  70
    32
  0
VERTEX
  8
0
  5
E711
 10
455.815
 20
429.503
 30
0.000000
  70
    32
  0
VERTEX
  8
0
  5
E712
 10
455.257
 20
429.034
 30
0.000000
  70
    32
  0
VERTEX
  8
0
  5
E713
 10
454.724
 20
428.540
 30
0.000000
  70
    32
  0
VERTEX
  8
0
  5
E714
 10
454.217
 20
428.020
 30
0.000000
  70
    32
  0
VERTEX
  8
0
  5
E715
 10
453.736
 20
427.477
 30
0.000000
  70
    32
  0
VERTEX
  8
0
  5
E716
 10
453.283
 20
426.911
 30
0.000000
  70
    32
  0
VERTEX
  8
0
  5
E717
 10
452.859
 20
426.324
 30
0.000000
  70
    32
  0
VERTEX
  8
0
  5
E718
 10
452.465
 20
425.718
 30
0.000000
  70
    32
  0
VERTEX
  8
0
  5
E719
 10
452.102
 20
425.094
 30
0.000000
  70
    32
  0
VERTEX
  8
0
  5
E71A
 10
451.771
 20
424.453
 30
0.000000
  70
    32
  0
VERTEX
  8
0
  5
E71B
 10
451.473
 20
423.797
 30
0.000000
  70
    32
  0
VERTEX
  8
0
  5
E71C
 10
451.208
 20
423.128
 30
0.000000
  70
    32
  0
VERTEX
  8
0
  5
E71D
 10
450.977
 20
422.446
 30
0.000000
  70
    32
  0
VERTEX
  8
0
  5
E71E
 10
450.780
 20
421.755
 30
0.000000
  70
    32
  0
VERTEX
  8
0
  5
E71F
 10
450.619
 20
421.055
 30
0.000000
  70
    32
  0
VERTEX
  8
0
  5
E720
 10
450.493
 20
420.348
 30
0.000000
  70
    32
  0
VERTEX
  8
0
  5
E721
 10
450.403
 20
419.636
 30
0.000000
  70
    32
  0
VERTEX
  8
0
  5
E722
 10
450.349
 20
418.920
 30
0.000000
  70
    32
  0
VERTEX
  8
0
  5
E723
 10
450.331
 20
418.203
 30
0.000000
  70
    32
  0
VERTEX
  8
0
  5
E724
 10
450.349
 20
417.486
 30
0.000000
  70
    32
  0
VERTEX
  8
0
  5
E725
 10
450.403
 20
416.770
 30
0.000000
  70
    32
  0
VERTEX
  8
0
  5
E726
 10
450.493
 20
416.058
 30
0.000000
  70
    32
  0
VERTEX
  8
0
  5
E727
 10
450.619
 20
415.351
 30
0.000000
  70
    32
  0
VERTEX
  8
0
  5
E728
 10
450.780
 20
414.651
 30
0.000000
  70
    32
  0
VERTEX
  8
0
  5
E729
 10
450.977
 20
413.959
 30
0.000000
  70
    32
  0
VERTEX
  8
0
  5
E72A
 10
451.208
 20
413.278
 30
0.000000
  70
    32
  0
VERTEX
  8
0
  5
E72B
 10
451.473
 20
412.609
 30
0.000000
  70
    32
  0
VERTEX
  8
0
  5
E72C
 10
451.771
 20
411.953
 30
0.000000
  70
    32
  0
VERTEX
  8
0
  5
E72D
 10
452.102
 20
411.312
 30
0.000000
  70
    32
  0
VERTEX
  8
0
  5
E72E
 10
452.465
 20
410.688
 30
0.000000
  70
    32
  0
VERTEX
  8
0
  5
E72F
 10
452.859
 20
410.082
 30
0.000000
  70
    32
  0
VERTEX
  8
0
  5
E730
 10
453.283
 20
409.495
 30
0.000000
  70
    32
  0
VERTEX
  8
0
  5
E731
 10
453.736
 20
408.929
 30
0.000000
  70
    32
  0
VERTEX
  8
0
  5
E732
 10
454.217
 20
408.386
 30
0.000000
  70
    32
  0
VERTEX
  8
0
  5
E733
 10
454.724
 20
407.866
 30
0.000000
  70
    32
  0
VERTEX
  8
0
  5
E734
 10
455.257
 20
407.372
 30
0.000000
  70
    32
  0
VERTEX
  8
0
  5
E735
 10
455.815
 20
406.903
 30
0.000000
  70
    32
  0
VERTEX
  8
0
  5
E736
 10
456.395
 20
406.461
 30
0.000000
  70
    32
  0
VERTEX
  8
0
  5
E737
 10
456.997
 20
406.048
 30
0.000000
  70
    32
  0
VERTEX
  8
0
  5
E738
 10
457.619
 20
405.665
 30
0.000000
  70
    32
  0
VERTEX
  8
0
  5
E739
 10
458.260
 20
405.311
 30
0.000000
  70
    32
  0
VERTEX
  8
0
  5
E73A
 10
458.918
 20
404.988
 30
0.000000
  70
    32
  0
VERTEX
  8
0
  5
E73B
 10
459.591
 20
404.697
 30
0.000000
  70
    32
  0
VERTEX
  8
0
  5
E73C
 10
460.278
 20
404.439
 30
0.000000
  70
    32
  0
VERTEX
  8
0
  5
E73D
 10
460.977
 20
404.214
 30
0.000000
  70
    32
  0
VERTEX
  8
0
  5
E73E
 10
461.686
 20
404.023
 30
0.000000
  70
    32
  0
VERTEX
  8
0
  5
E73F
 10
462.404
 20
403.866
 30
0.000000
  70
    32
  0
VERTEX
  8
0
  5
E740
 10
463.130
 20
403.743
 30
0.000000
  70
    32
  0
VERTEX
  8
0
  5
E741
 10
463.861
 20
403.655
 30
0.000000
  70
    32
  0
VERTEX
  8
0
  5
E742
 10
464.595
 20
403.602
 30
0.000000
  70
    32
  0
VERTEX
  8
0
  5
E743
 10
465.331
 20
403.585
 30
0.000000
  70
    32
  0
VERTEX
  8
0
  5
E744
 10
466.067
 20
403.602
 30
0.000000
  70
    32
  0
VERTEX
  8
0
  5
E745
 10
466.801
 20
403.655
 30
0.000000
  70
    32
  0
VERTEX
  8
0
  5
E746
 10
467.532
 20
403.743
 30
0.000000
  70
    32
  0
VERTEX
  8
0
  5
E747
 10
468.257
 20
403.866
 30
0.000000
  70
    32
  0
VERTEX
  8
0
  5
E748
 10
468.976
 20
404.023
 30
0.000000
  70
    32
  0
VERTEX
  8
0
  5
E749
 10
469.685
 20
404.214
 30
0.000000
  70
    32
  0
VERTEX
  8
0
  5
E74A
 10
470.384
 20
404.439
 30
0.000000
  70
    32
  0
VERTEX
  8
0
  5
E74B
 10
471.071
 20
404.697
 30
0.000000
  70
    32
  0
VERTEX
  8
0
  5
E74C
 10
471.744
 20
404.988
 30
0.000000
  70
    32
  0
VERTEX
  8
0
  5
E74D
 10
472.402
 20
405.311
 30
0.000000
  70
    32
  0
VERTEX
  8
0
  5
E74E
 10
473.042
 20
405.665
 30
0.000000
  70
    32
  0
VERTEX
  8
0
  5
E74F
 10
473.664
 20
406.048
 30
0.000000
  70
    32
  0
VERTEX
  8
0
  5
E750
 10
474.266
 20
406.461
 30
0.000000
  70
    32
  0
VERTEX
  8
0
  5
E751
 10
474.847
 20
406.903
 30
0.000000
  70
    32
  0
VERTEX
  8
0
  5
E752
 10
475.404
 20
407.372
 30
0.000000
  70
    32
  0
VERTEX
  8
0
  5
E753
 10
475.937
 20
407.866
 30
0.000000
  70
    32
  0
VERTEX
  8
0
  5
E754
 10
476.445
 20
408.386
 30
0.000000
  70
    32
  0
VERTEX
  8
0
  5
E755
 10
476.926
 20
408.929
 30
0.000000
  70
    32
  0
VERTEX
  8
0
  5
E756
 10
477.379
 20
409.495
 30
0.000000
  70
    32
  0
VERTEX
  8
0
  5
E757
 10
477.803
 20
410.082
 30
0.000000
  70
    32
  0
VERTEX
  8
0
  5
E758
 10
478.197
 20
410.688
 30
0.000000
  70
    32
  0
VERTEX
  8
0
  5
E759
 10
478.560
 20
411.312
 30
0.000000
  70
    32
  0
VERTEX
  8
0
  5
E75A
 10
478.891
 20
411.953
 30
0.000000
  70
    32
  0
VERTEX
  8
0
  5
E75B
 10
479.189
 20
412.609
 30
0.000000
  70
    32
  0
VERTEX
  8
0
  5
E75C
 10
479.454
 20
413.278
 30
0.000000
  70
    32
  0
VERTEX
  8
0
  5
E75D
 10
479.685
 20
413.959
 30
0.000000
  70
    32
  0
VERTEX
  8
0
  5
E75E
 10
479.881
 20
414.651
 30
0.000000
  70
    32
  0
VERTEX
  8
0
  5
E75F
 10
480.043
 20
415.351
 30
0.000000
  70
    32
  0
VERTEX
  8
0
  5
E760
 10
480.169
 20
416.058
 30
0.000000
  70
    32
  0
VERTEX
  8
0
  5
E761
 10
480.259
 20
416.770
 30
0.000000
  70
    32
  0
VERTEX
  8
0
  5
E762
 10
480.313
 20
417.486
 30
0.000000
  70
    32
  0
VERTEX
  8
0
  5
E763
 10
480.331
 20
418.203
 30
0.000000
  70
    32
  0
SEQEND
  8
0
  5
E764
  0
LINE
  5
DFC1
  8
0
 10
486.88289292076809
 20
513.15758439464526
 30
0.0
 11
503.88289292076809
 21
513.15758439464526
 31
0.0
  0
ARC
  5
DFC2
  8
0
 10
491.13289292076797
 20
502.71526359818489
 30
0.0
 40
10.44232079646028
 50
65.983629264472114
 51
114.0163707355279
  0
LINE
  5
DFC3
  8
0
 10
486.88289292076809
 20
513.15758439464526
 30
0.0
 11
486.88289292076792
 21
506.15658439464528
 31
0.0
  0
LINE
  5
DFC4
  8
0
 10
503.88289292076809
 20
513.15758439464526
 30
0.0
 11
503.88289292076809
 21
506.15658439464528
 31
0.0
  0
LINE
  5
DFC5
  8
0
 10
495.38289292076809
 20
512.25358439464515
 30
0.0
 11
495.38289292076809
 21
506.15658439464528
 31
0.0
  0
ARC
  5
DFC6
  8
0
 10
499.63289292076797
 20
502.71526359818489
 30
0.0
 40
10.44232079646028
 50
65.983629264472114
 51
114.0163707355279
  0
LINE
  5
DFC7
  8
0
 10
443.77881651991157
 20
513.15758439464526
 30
0.0
 11
426.77881651991157
 21
513.15758439464526
 31
0.0
  0
ARC
  5
DFC8
  8
0
 10
439.52881651991157
 20
502.71526359818489
 30
0.0
 40
10.44232079646028
 50
65.983629264472114
 51
114.0163707355279
  0
LINE
  5
DFC9
  8
0
 10
443.77881651991157
 20
513.15758439464526
 30
0.0
 11
443.77881651991169
 21
506.15658439464528
 31
0.0
  0
LINE
  5
DFCA
  8
0
 10
426.77881651991157
 20
513.15758439464526
 30
0.0
 11
426.77881651991157
 21
506.15658439464528
 31
0.0
  0
LINE
  5
DFCB
  8
0
 10
435.27881651991157
 20
512.25358439464515
 30
0.0
 11
435.27881651991157
 21
506.15658439464528
 31
0.0
  0
ARC
  5
DFCC
  8
0
 10
431.02881651991157
 20
502.71526359818489
 30
0.0
 40
10.44232079646028
 50
65.983629264472114
 51
114.0163707355279
  0
LINE
  5
DFCD
  8
0
 10
247.52445582916141
 20
455.19522113355151
 30
0.0
 11
247.52445582916141
 21
434.13247506674543
 31
0.0
  0
LINE
  5
DFCE
  8
0
 10
254.52445582916141
 20
485.4004242591763
 30
0.0
 11
254.52445582916141
 21
463.13247506674543
 31
0.0
  0
LINE
  5
DFCF
  8
0
 10
183.52445582916141
 20
434.13247506674543
 30
0.0
 11
183.52445582916141
 21
455.19522113355151
 31
0.0
  0
LINE
  5
DFD0
  8
0
 10
231.52445582916141
 20
484.13247506674543
 30
0.0
 11
231.5244558291613
 21
470.13247506674543
 31
0.0
  0
LINE
  5
DFD1
  8
0
 10
255.52445582916141
 20
496.13247506674543
 30
0.0
 11
255.52445582916141
 21
487.13247506674531
 31
0.0
  0
ARC
  5
DFD2
  8
0
 10
250.52445582916141
 20
463.13247506674543
 30
0.0
 40
4.0
 50
277.18075578145852
 51
0.0
  0
ARC
  5
DFD3
  8
0
 10
251.52445582916141
 20
455.19522113355151
 30
0.0
 40
4.0
 50
97.180755781458572
 51
180.0
  0
LINE
  5
DFD4
  8
0
 10
254.52445582916141
 20
486.13247506674543
 30
0.0
 11
234.5244558291613
 21
486.13247506674543
 31
0.0
  0
ARC
  5
DFD5
  8
0
 10
254.52445582916141
 20
487.13247506674531
 30
0.0
 40
1.0
 50
299.99999999999449
 51
0.0
  0
ARC
  5
DFD6
  8
0
 10
255.52445582916141
 20
485.4004242591763
 30
0.0
 40
1.0
 50
119.9999999999944
 51
180.0
  0
LINE
  5
DFD7
  8
0
 10
231.52445582916141
 20
470.13247506674543
 30
0.0
 11
230.52445582916141
 21
470.13247506674543
 31
0.0
  0
LINE
  5
DFD8
  8
0
 10
231.52445582916141
 20
484.13247506674543
 30
0.0
 11
230.5244558291613
 21
484.13247506674543
 31
0.0
  0
LINE
  5
DFD9
  8
0
 10
176.5244558291613
 20
485.4004242591763
 30
0.0
 11
176.52445582916121
 21
463.13247506674543
 31
0.0
  0
LINE
  5
DFDA
  8
0
 10
175.5244558291613
 20
496.13247506674543
 30
0.0
 11
175.5244558291613
 21
487.13247506674531
 31
0.0
  0
ARC
  5
DFDB
  8
0
 10
176.5244558291613
 20
487.13247506674531
 30
0.0
 40
1.0
 50
180.0
 51
240.00000000000551
  0
ARC
  5
DFDC
  8
0
 10
175.5244558291613
 20
485.4004242591763
 30
0.0
 40
1.0
 50
0.0
 51
60.000000000005542
  0
ARC
  5
DFDD
  8
0
 10
180.5244558291613
 20
463.13247506674543
 30
0.0
 40
4.0
 50
180.0
 51
262.81924421854148
  0
ARC
  5
DFDE
  8
0
 10
179.52445582916141
 20
455.19522113355151
 30
0.0
 40
4.0
 50
0.0
 51
82.819244218541442
  0
ARC
  5
DFDF
  8
0
 10
230.52445582916141
 20
469.13247506674543
 30
0.0
 40
1.0
 50
90.000000000006509
 51
151.9275130641455
  0
ARC
  5
DFE0
  8
0
 10
230.5244558291613
 20
485.13247506674543
 30
0.0
 40
1.0
 50
208.0724869358545
 51
270.0
  0
ARC
  5
DFE1
  8
0
 10
234.5244558291613
 20
483.13247506674543
 30
0.0
 40
3.0
 50
90.0
 51
180.0
  0
LINE
  5
DFE2
  8
0
 10
255.31574367663941
 20
496.13247506674543
 30
0.0
 11
175.73316798168341
 21
496.13247506674543
 31
0.0
  0
LINE
  5
DFE3
  8
0
 10
251.02445582916141
 20
459.16384810014841
 30
0.0
 11
180.0244558291617
 21
459.16384810014841
 31
0.0
  0
ARC
  5
DFE4
  8
0
 10
215.52445582916141
 20
434.13247506674543
 30
0.0
 40
32.0
 50
180.0
 51
0.0
  0
CIRCLE
  5
DFE5
  8
0
 10
215.52445582916141
 20
477.13247506674543
 30
0.0
 40
16.0
  0
LINE
  5
DFE6
  8
0
 10
176.52445582916141
 20
486.13247506674543
 30
0.0
 11
196.5244558291615
 21
486.13247506674543
 31
0.0
  0
ARC
  5
DFE7
  8
0
 10
196.5244558291615
 20
483.13247506674543
 30
0.0
 40
3.0
 50
0.0
 51
90.0
  0
LINE
  5
DFE8
  8
0
 10
199.52445582916161
 20
484.13247506674543
 30
0.0
 11
199.5244558291617
 21
470.13247506674543
 31
0.0
  0
LINE
  5
DFE9
  8
0
 10
199.52445582916161
 20
470.13247506674543
 30
0.0
 11
200.52445582916161
 21
470.13247506674543
 31
0.0
  0
LINE
  5
DFEA
  8
0
 10
199.52445582916161
 20
484.13247506674543
 30
0.0
 11
200.52445582916181
 21
484.13247506674543
 31
0.0
  0
ARC
  5
DFEB
  8
0
 10
200.52445582916161
 20
469.13247506674543
 30
0.0
 40
1.0
 50
28.072486935854499
 51
89.999999999993491
  0
ARC
  5
DFEC
  8
0
 10
200.52445582916181
 20
485.13247506674543
 30
0.0
 40
1.0
 50
270.0
 51
331.9275130641455
  0
LINE
  5
DFED
  8
0
 10
227.5244558291615
 20
513.15658439464528
 30
0.0
 11
227.5244558291615
 21
508.15658439464522
 31
0.0
  0
ARC
  5
DFEE
  8
0
 10
219.5244558291615
 20
513.13247506674566
 30
0.0
 40
8.0
 50
0.0
 51
90.0
  0
LINE
  5
DFEF
  8
0
 10
203.5244558291615
 20
513.15658439464528
 30
0.0
 11
203.5244558291615
 21
508.15658439464522
 31
0.0
  0
ARC
  5
DFF0
  8
0
 10
211.5244558291615
 20
513.13247506674566
 30
0.0
 40
8.0
 50
90.0
 51
180.0
  0
LINE
  5
DFF1
  8
0
 10
255.5244558291613
 20
505.15658439464528
 30
0.0
 11
255.5244558291613
 21
496.1324750667456
 31
0.0
  0
ARC
  5
DFF2
  8
0
 10
254.5244558291613
 20
505.15658439464528
 30
0.0
 40
1.0
 50
0.0
 51
90.0
  0
LINE
  5
DFF3
  8
0
 10
175.5244558291613
 20
505.15658439464528
 30
0.0
 11
175.5244558291615
 21
496.13247506674543
 31
0.0
  0
ARC
  5
DFF4
  8
0
 10
176.5244558291613
 20
505.15658439464528
 30
0.0
 40
1.0
 50
90.0
 51
180.0
  0
LINE
  5
DFF5
  8
0
 10
219.5244558291615
 20
521.13247506674566
 30
0.0
 11
211.5244558291615
 21
521.13247506674566
 31
0.0
  0
LINE
  5
DFF6
  8
0
 10
254.5244558291613
 20
506.15658439464528
 30
0.0
 11
176.5244558291613
 21
506.15658439464528
 31
0.0
  0
ARC
  5
DFF7
  8
0
 10
229.5244558291615
 20
508.15658439464522
 30
0.0
 40
2.0
 50
180.0
 51
270.0
  0
ARC
  5
DFF8
  8
0
 10
201.5244558291615
 20
508.15658439464551
 30
0.0
 40
2.0
 50
270.0
 51
0.0
  0
LINE
  5
DFF9
  8
0
 10
231.49466676690761
 20
506.15658439464528
 30
0.0
 11
230.5244558291615
 21
506.15658439464528
 31
0.0
  0
LINE
  5
DFFB
  8
0
 10
193.9724176287331
 20
513.15758439464526
 30
0.0
 11
176.9724176287331
 21
513.15758439464526
 31
0.0
  0
ARC
  5
DFFC
  8
0
 10
189.72241762873301
 20
502.71526359818489
 30
0.0
 40
10.44232079646028
 50
65.983629264472114
 51
114.0163707355279
  0
LINE
  5
DFFD
  8
0
 10
193.9724176287331
 20
513.15758439464526
 30
0.0
 11
193.97241762873321
 21
506.15658439464528
 31
0.0
  0
LINE
  5
DFFE
  8
0
 10
176.9724176287331
 20
513.15758439464526
 30
0.0
 11
176.9724176287331
 21
506.15658439464528
 31
0.0
  0
LINE
  5
DFFF
  8
0
 10
185.47241762873301
 20
512.25358439464515
 30
0.0
 11
185.47241762873301
 21
506.15658439464528
 31
0.0
  0
ARC
  5
E000
  8
0
 10
181.2224176287331
 20
502.71526359818489
 30
0.0
 40
10.44232079646028
 50
65.983629264472114
 51
114.0163707355279
  0
LINE
  5
E001
  8
0
 10
237.0764940295895
 20
513.15758439464526
 30
0.0
 11
254.0764940295895
 21
513.15758439464526
 31
0.0
  0
ARC
  5
E002
  8
0
 10
241.3264940295895
 20
502.71526359818489
 30
0.0
 40
10.44232079646028
 50
65.983629264472114
 51
114.0163707355279
  0
LINE
  5
E003
  8
0
 10
237.0764940295895
 20
513.15758439464526
 30
0.0
 11
237.07649402958941
 21
506.15658439464528
 31
0.0
  0
LINE
  5
E004
  8
0
 10
254.0764940295895
 20
513.15758439464526
 30
0.0
 11
254.0764940295895
 21
506.15658439464528
 31
0.0
  0
LINE
  5
E005
  8
0
 10
245.5764940295895
 20
512.25358439464515
 30
0.0
 11
245.5764940295895
 21
506.15658439464528
 31
0.0
  0
ARC
  5
E006
  8
0
 10
249.8264940295895
 20
502.71526359818489
 30
0.0
 40
10.44232079646028
 50
65.983629264472114
 51
114.0163707355279
  0
CIRCLE
  5
E007
  8
0
 10
215.52445582916141
 20
414.14173944748762
 30
0.0
 40
11.00926438074225
  0
LINE
  5
E008
  8
0
 10
372.42765527475058
 20
733.96436872914126
 30
0.0
 11
372.42765527475058
 21
712.17651137195571
 31
0.0
  0
LINE
  5
E009
  8
0
 10
373.42765527475058
 20
681.17651137195571
 30
0.0
 11
348.36465527475059
 21
681.17651137195571
 31
0.0
  0
ARC
  5
E00A
  8
0
 10
340.42765527475058
 20
712.17651137195571
 30
0.0
 40
32.0
 50
348.11884397898712
 51
0.0
  0
ARC
  5
E00B
  8
0
 10
373.69926479397878
 20
705.1765113719556
 30
0.0
 40
2.0
 50
168.118843978987
 51
262.1948421986944
  0
ARC
  5
E00C
  8
0
 10
315.5457834003206
 20
684.79234711550168
 30
0.0
 40
5.0
 50
47.741003769912311
 51
105.00017609622959
  0
LINE
  5
E00D
  8
0
 10
297.21894312222838
 20
773.17651137195571
 30
0.0
 11
297.21894312222838
 21
773.17651137195571
 31
0.0
  0
LINE
  5
E00E
  8
0
 10
392.42765527475058
 20
773.17651137195571
 30
0.0
 11
392.42765527475058
 21
772.1765113719556
 31
0.0
  0
ARC
  5
E00F
  8
0
 10
389.92765527475058
 20
773.17651137195571
 30
0.0
 40
2.5
 50
0.0
 51
23.57817847820715
  0
ARC
  5
E010
  8
0
 10
393.42765527475058
 20
772.1765113719556
 30
0.0
 40
1.0
 50
180.0
 51
270.0
  0
LINE
  5
E011
  8
0
 10
275.42765527475058
 20
770.17651137195571
 30
0.0
 11
275.42765527475058
 21
740.17626137195555
 31
0.0
  0
LINE
  5
E012
  8
0
 10
278.42765527475058
 20
761.17651137195537
 30
0.0
 11
278.42765527475058
 21
749.17651137195571
 31
0.0
  0
ARC
  5
E013
  8
0
 10
279.42765527475058
 20
761.17651137195537
 30
0.0
 40
1.0
 50
90.0
 51
180.0
  0
LINE
  5
E014
  8
0
 10
290.42765527475058
 20
761.17651137195571
 30
0.0
 11
290.42765527475041
 21
749.17651137195571
 31
0.0
  0
ARC
  5
E015
  8
0
 10
289.42765527475052
 20
749.17651137195571
 30
0.0
 40
1.0
 50
270.0
 51
0.0
  0
ARC
  5
E016
  8
0
 10
289.42765527475058
 20
761.17651137195571
 30
0.0
 40
1.0
 50
0.0
 51
90.0
  0
LINE
  5
E017
  8
0
 10
276.42765527475058
 20
771.17651137195571
 30
0.0
 11
275.42765527475058
 21
770.17651137195571
 31
0.0
  0
LINE
  5
E018
  8
0
 10
395.42765527475058
 20
770.17651137195571
 30
0.0
 11
395.42765527475058
 21
740.17651137195571
 31
0.0
  0
LINE
  5
E019
  8
0
 10
380.42765527475058
 20
771.17651137195571
 30
0.0
 11
394.42765527475058
 21
771.17651137195571
 31
0.0
  0
LINE
  5
E01A
  8
0
 10
395.42765527475058
 20
770.17651137195571
 30
0.0
 11
394.42765527475058
 21
771.17651137195571
 31
0.0
  0
LINE
  5
E01B
  8
0
 10
297.42765527475058
 20
774.17651137195571
 30
0.0
 11
392.21894312222838
 21
774.17651137195571
 31
0.0
  0
ARC
  5
E01C
  8
0
 10
373.92765527475058
 20
744.67651137195571
 30
0.0
 40
7.0
 50
283.13655878694249
 51
300.27264131890257
  0
ARC
  5
E01D
  8
0
 10
376.42765527475058
 20
733.96436872914126
 30
0.0
 40
4.0
 50
103.1365587869425
 51
180.0
  0
ARC
  5
E01E
  8
0
 10
379.47292352795512
 20
735.17651137195571
 30
0.0
 40
4.0
 50
90.0
 51
120.2726413189026
  0
LINE
  5
E01F
  8
0
 10
379.47292352795512
 20
739.17651137195571
 30
0.0
 11
394.42765527475058
 21
739.17651137195571
 31
0.0
  0
LINE
  5
E020
  8
0
 10
275.42765527475058
 20
740.17626137195555
 30
0.0
 11
276.42765527475058
 21
739.17626137195555
 31
0.0
  0
LINE
  5
E021
  8
0
 10
395.42765527475058
 20
740.17651137195571
 30
0.0
 11
394.42765527475058
 21
739.17651137195571
 31
0.0
  0
LINE
  5
E022
  8
0
 10
276.42765527475058
 20
771.17651137195571
 30
0.0
 11
294.3106162090325
 21
771.17651137195571
 31
0.0
  0
LINE
  5
E023
  8
0
 10
314.251673331147
 20
689.62197226957574
 30
0.0
 11
285.38710012921462
 21
681.88763810670355
 31
0.0
  0
LINE
  5
E024
  8
0
 10
286.44565527475061
 20
715.53156521935568
 30
0.0
 11
286.44565527475061
 21
736.17676137195554
 31
0.0
  0
ARC
  5
E025
  8
0
 10
283.44565527475061
 20
736.17676137195554
 30
0.0
 40
3.0
 50
0.0
 51
90.0
  0
LINE
  5
E026
  8
0
 10
284.22212131625491
 20
712.63379012691121
 30
0.0
 11
277.62148099313629
 21
710.86513213946148
 31
0.0
  0
ARC
  5
E027
  8
0
 10
283.44565527475061
 20
715.53156521935546
 30
0.0
 40
3.0
 50
285.00017609622961
 51
0.0
  0
ARC
  5
E028
  8
0
 10
284.86945610154498
 20
683.81948816833324
 30
0.0
 40
2.0
 50
270.51308777825147
 51
285.00017609622961
  0
LINE
  5
E029
  8
0
 10
284.88736600433162
 20
681.81956836109543
 30
0.0
 11
277.154914143295
 21
710.67435328504587
 31
0.0
  0
LINE
  5
E02A
  8
0
 10
283.03194036442892
 20
684.88004910111556
 30
0.0
 11
277.07850211629471
 21
707.09618226239081
 31
0.0
  0
ARC
  5
E02B
  8
0
 10
278.13912502080569
 20
708.93328207783202
 30
0.0
 40
2.0
 50
105.00017609622959
 51
119.479060139583
  0
LINE
  5
E02C
  8
0
 10
283.44565527475061
 20
739.17676137195554
 30
0.0
 11
276.42765527475058
 21
739.17626137195555
 31
0.0
  0
ARC
  5
E02D
  8
0
 10
294.3106162090325
 20
774.17651137195571
 30
0.0
 40
3.0
 50
270.0
 51
349.52431830360632
  0
ARC
  5
E02E
  8
0
 10
299.7189431222285
 20
773.17651137195571
 30
0.0
 40
2.5
 50
156.42182152179279
 51
169.52431830360629
  0
LINE
  5
E02F
  8
0
 10
373.42765527475058
 20
703.19504013344022
 30
0.0
 11
373.42765527475058
 21
681.17651137195571
 31
0.0
  0
ARC
  5
E030
  8
0
 10
340.42765527475058
 20
712.17651137195571
 30
0.0
 40
32.0
 50
180.0
 51
0.0
  0
LINE
  5
E031
  8
0
 10
297.42765527475058
 20
774.17651137195594
 30
0.0
 11
297.42765527475058
 21
766.17651137195571
 31
0.0
  0
ARC
  5
E032
  8
0
 10
299.42765527475058
 20
766.17651137195571
 30
0.0
 40
2.0
 50
180.0
 51
270.0
  0
LINE
  5
E033
  8
0
 10
305.30433452071293
 20
737.20788440535887
 30
0.0
 11
371.38651953261052
 21
737.20788440535887
 31
0.0
  0
ARC
  5
E034
  8
0
 10
305.30433452071293
 20
742.20788440535887
 30
0.0
 40
5.0
 50
180.0
 51
270.0
  0
LINE
  5
E035
  8
0
 10
380.42765527475058
 20
774.17651137195571
 30
0.0
 11
380.42765527475058
 21
766.17651137195571
 31
0.0
  0
LINE
  5
E036
  8
0
 10
300.30433452071293
 20
764.17651137195571
 30
0.0
 11
300.30433452071293
 21
742.20788440535887
 31
0.0
  0
LINE
  5
E037
  8
0
 10
299.42765527475058
 20
764.17651137195571
 30
0.0
 11
378.42765527475058
 21
764.17651137195571
 31
0.0
  0
ARC
  5
E038
  8
0
 10
378.42765527475058
 20
766.17651137195571
 30
0.0
 40
2.0
 50
270.0
 51
0.0
  0
LINE
  5
E039
  8
0
 10
376.38651953261052
 20
764.17651137195594
 30
0.0
 11
376.38651953261052
 21
742.20788440535887
 31
0.0
  0
ARC
  5
E03A
  8
0
 10
371.38651953261052
 20
742.20788440535887
 30
0.0
 40
5.0
 50
270.0
 51
0.0
  0
LINE
  5
E03B
  8
0
 10
308.42765527475058
 20
712.17651137195571
 30
0.0
 11
308.42765527475058
 21
737.20788440535887
 31
0.0
  0
LINE
  5
E03C
  8
0
 10
297.42765527475058
 20
784.17651137195594
 30
0.0
 11
379.42765527475069
 21
784.17651137195594
 31
0.0
  0
LINE
  5
E03D
  8
0
 10
336.42765527475052
 20
799.17651137195594
 30
0.0
 11
344.42765527475069
 21
799.17651137195594
 31
0.0
  0
ARC
  5
E03E
  8
0
 10
354.42765527475069
 20
786.17651137195594
 30
0.0
 40
2.0
 50
180.0
 51
270.0
  0
LINE
  5
E03F
  8
0
 10
352.42765527475069
 20
791.17651137195594
 30
0.0
 11
352.42765527475069
 21
786.17651137195594
 31
0.0
  0
ARC
  5
E040
  8
0
 10
344.42765527475069
 20
791.17651137195594
 30
0.0
 40
8.0
 50
0.0
 51
90.0
  0
LINE
  5
E041
  8
0
 10
297.42765527475058
 20
774.17651137195594
 30
0.0
 11
297.42765527475058
 21
795.15240204405609
 31
0.0
  0
ARC
  5
E042
  8
0
 10
299.42765527475058
 20
795.15240204405609
 30
0.0
 40
2.0
 50
90.0
 51
180.0
  0
LINE
  5
E043
  8
0
 10
330.39564333952478
 20
797.15240204405598
 30
0.0
 11
299.42765527475058
 21
797.15240204405598
 31
0.0
  0
LINE
  5
E044
  8
0
 10
380.42765527475069
 20
774.17651137195594
 30
0.0
 11
380.42765527475069
 21
783.17651137195594
 31
0.0
  0
ARC
  5
E045
  8
0
 10
379.42765527475069
 20
783.17651137195594
 30
0.0
 40
1.0
 50
0.0
 51
90.0
  0
ARC
  5
E046
  8
0
 10
330.39564333952478
 20
799.15240204405609
 30
0.0
 40
2.0
 50
270.0
 51
307.09951192718808
  0
LINE
  5
E047
  8
0
 10
328.42765527475052
 20
791.17651137195594
 30
0.0
 11
328.42765527475052
 21
786.17651137195594
 31
0.0
  0
ARC
  5
E048
  8
0
 10
336.42765527475052
 20
791.17651137195594
 30
0.0
 40
8.0
 50
90.0
 51
180.0
  0
ARC
  5
E049
  8
0
 10
326.42765527475052
 20
786.17651137195594
 30
0.0
 40
2.0
 50
270.0
 51
0.0
  0
LINE
  5
E04A
  8
0
 10
362.22969347517892
 20
791.17751137195592
 30
0.0
 11
378.72969347517892
 21
791.17751137195592
 31
0.0
  0
ARC
  5
E04B
  8
0
 10
377.84069347517891
 20
786.34618730653915
 30
0.0
 40
4.6309815714167701
 50
58.000676159490958
 51
121.99932384050901
  0
LINE
  5
E04C
  8
0
 10
365.13669347517902
 20
790.5145113719559
 30
0.0
 11
364.66669347517887
 21
790.71051137195582
 31
0.0
  0
LINE
  5
E04D
  8
0
 10
360.66469347517892
 20
784.17651137195594
 30
0.0
 11
360.66469347517892
 21
790.27351137195581
 31
0.0
  0
LINE
  5
E04E
  8
0
 10
360.66469347517892
 20
790.27351137195581
 30
0.0
 11
362.22969347517892
 21
791.17751137195592
 31
0.0
  0
LINE
  5
E04F
  8
0
 10
361.57069347517893
 20
790.71151137195602
 30
0.0
 11
360.66469347517892
 21
790.27351137195581
 31
0.0
  0
LINE
  5
E050
  8
0
 10
362.06969347517889
 20
790.856511371956
 30
0.0
 11
361.57069347517893
 21
790.71151137195602
 31
0.0
  0
LINE
  5
E051
  8
0
 10
362.58969347517888
 20
790.94651137195592
 30
0.0
 11
362.06969347517889
 21
790.856511371956
 31
0.0
  0
LINE
  5
E052
  8
0
 10
363.11869347517887
 20
790.97751137195576
 30
0.0
 11
362.58969347517888
 21
790.94651137195592
 31
0.0
  0
LINE
  5
E053
  8
0
 10
363.64769347517893
 20
790.94651137195592
 30
0.0
 11
363.11869347517887
 21
790.97751137195576
 31
0.0
  0
LINE
  5
E054
  8
0
 10
364.16669347517899
 20
790.856511371956
 30
0.0
 11
363.64769347517893
 21
790.94651137195592
 31
0.0
  0
LINE
  5
E055
  8
0
 10
364.66669347517887
 20
790.71051137195582
 30
0.0
 11
364.16669347517899
 21
790.856511371956
 31
0.0
  0
LINE
  5
E056
  8
0
 10
375.38669347517902
 20
790.27351137195581
 30
0.0
 11
375.38669347517902
 21
784.17651137195594
 31
0.0
  0
LINE
  5
E057
  8
0
 10
365.57269347517888
 20
790.27351137195581
 30
0.0
 11
365.57269347517888
 21
784.17651137195594
 31
0.0
  0
ARC
  5
E058
  8
0
 10
370.47969347517892
 20
773.51451977884244
 30
0.0
 40
17.462601416113358
 50
73.680072331670786
 51
106.3199276683292
  0
LINE
  5
E059
  8
0
 10
365.57269347517888
 20
790.27351137195581
 30
0.0
 11
365.13669347517902
 21
790.5145113719559
 31
0.0
  0
LINE
  5
E05A
  8
0
 10
380.29469347517897
 20
790.27351137195581
 30
0.0
 11
380.29469347517897
 21
784.17651137195594
 31
0.0
  0
LINE
  5
E05B
  8
0
 10
378.72969347517892
 20
791.17751137195592
 30
0.0
 11
380.29469347517897
 21
790.27351137195581
 31
0.0
  0
LINE
  5
E05C
  8
0
 10
380.29469347517897
 20
784.17651137195594
 30
0.0
 11
379.42765527475069
 21
784.17651137195594
 31
0.0
  0
LINE
  5
E05D
  8
0
 10
302.116332841808
 20
791.17751137195614
 30
0.0
 11
318.616332841808
 21
791.17751137195614
 31
0.0
  0
ARC
  5
E05E
  8
0
 10
317.72733284180799
 20
786.34618730653938
 30
0.0
 40
4.6309815714167701
 50
58.000676159490958
 51
121.99932384050901
  0
LINE
  5
E05F
  8
0
 10
305.0233328418081
 20
790.51451137195613
 30
0.0
 11
304.55333284180801
 21
790.71051137195604
 31
0.0
  0
LINE
  5
E060
  8
0
 10
300.55133284180812
 20
784.17651137195605
 30
0.0
 11
300.55133284180812
 21
790.27351137195615
 31
0.0
  0
LINE
  5
E061
  8
0
 10
300.55133284180812
 20
790.27351137195615
 30
0.0
 11
302.116332841808
 21
791.17751137195614
 31
0.0
  0
LINE
  5
E062
  8
0
 10
301.45733284180801
 20
790.71151137195625
 30
0.0
 11
300.55133284180812
 21
790.27351137195615
 31
0.0
  0
LINE
  5
E063
  8
0
 10
301.95633284180798
 20
790.85651137195623
 30
0.0
 11
301.45733284180801
 21
790.71151137195625
 31
0.0
  0
LINE
  5
E064
  8
0
 10
302.47633284180802
 20
790.94651137195615
 30
0.0
 11
301.95633284180798
 21
790.85651137195623
 31
0.0
  0
LINE
  5
E065
  8
0
 10
303.00533284180801
 20
790.9775113719561
 30
0.0
 11
302.47633284180802
 21
790.94651137195615
 31
0.0
  0
LINE
  5
E066
  8
0
 10
303.53433284180801
 20
790.94651137195615
 30
0.0
 11
303.00533284180801
 21
790.9775113719561
 31
0.0
  0
LINE
  5
E067
  8
0
 10
304.05333284180801
 20
790.85651137195623
 30
0.0
 11
303.53433284180801
 21
790.94651137195615
 31
0.0
  0
LINE
  5
E068
  8
0
 10
304.55333284180801
 20
790.71051137195604
 30
0.0
 11
304.05333284180801
 21
790.85651137195623
 31
0.0
  0
LINE
  5
E069
  8
0
 10
315.27333284180799
 20
790.27351137195615
 30
0.0
 11
315.27333284180799
 21
784.17651137195605
 31
0.0
  0
LINE
  5
E06A
  8
0
 10
305.45933284180791
 20
790.27351137195615
 30
0.0
 11
305.45933284180791
 21
784.17651137195605
 31
0.0
  0
ARC
  5
E06B
  8
0
 10
310.366332841808
 20
773.51451977884255
 30
0.0
 40
17.462601416113358
 50
73.680072331670786
 51
106.3199276683292
  0
LINE
  5
E06C
  8
0
 10
305.45933284180791
 20
790.27351137195615
 30
0.0
 11
305.0233328418081
 21
790.51451137195613
 31
0.0
  0
LINE
  5
E06D
  8
0
 10
320.18133284180789
 20
790.27351137195615
 30
0.0
 11
320.18133284180789
 21
784.17651137195605
 31
0.0
  0
LINE
  5
E06E
  8
0
 10
318.616332841808
 20
791.17751137195614
 30
0.0
 11
320.18133284180789
 21
790.27351137195615
 31
0.0
  0
LINE
  5
E06F
  8
0
 10
289.42765527475052
 20
748.17651137195571
 30
0.0
 11
279.42765527475058
 21
748.17651137195571
 31
0.0
  0
ARC
  5
E070
  8
0
 10
279.42765527475058
 20
749.17651137195571
 30
0.0
 40
1.0
 50
180.0
 51
270.0
  0
LINE
  5
E071
  8
0
 10
289.42765527475058
 20
762.17651137195571
 30
0.0
 11
279.42765527475058
 21
762.17651137195537
 31
0.0
  0
LINE
  5
E072
  8
0
 10
282.38459264628432
 20
687.29478324515162
 30
0.0
 11
277.07880222168268
 21
707.09626268407726
 31
0.0
  0
LINE
  5
E073
  8
0
 10
281.26158819778971
 20
688.13992584179448
 30
0.0
 11
276.17309094489889
 21
686.77646711219438
 31
0.0
  0
LINE
  5
E074
  8
0
 10
276.17309094489889
 20
686.77646711219438
 30
0.0
 11
275.42432744741723
 21
689.57089052764923
 31
0.0
  0
LINE
  5
E075
  8
0
 10
275.42432744741723
 20
689.57089052764923
 30
0.0
 11
280.5128247003081
 21
690.93434925724932
 31
0.0
  0
LINE
  5
E076
  8
0
 10
280.5128247003081
 20
690.93434925724932
 30
0.0
 11
281.26158819778971
 21
688.13992584179448
 31
0.0
  0
LINE
  5
E077
  8
0
 10
277.07880222168268
 20
707.09626268407726
 30
0.0
 11
275.85408188846259
 21
708.32101413045245
 31
0.0
  0
LINE
  5
E078
  8
0
 10
275.85408188846259
 20
708.32101413045245
 30
0.0
 11
270.76558463557171
 21
706.95755540085236
 31
0.0
  0
LINE
  5
E079
  8
0
 10
270.76558463557171
 20
706.95755540085236
 30
0.0
 11
270.3173214376593
 21
705.28452936835993
 31
0.0
  0
LINE
  5
E07A
  8
0
 10
270.3173214376593
 20
705.28452936835993
 30
0.0
 11
276.27015947501718
 21
683.0682353637111
 31
0.0
  0
LINE
  5
E07B
  8
0
 10
276.27015947501718
 20
683.0682353637111
 30
0.0
 11
277.49487980823727
 21
681.84348391733636
 31
0.0
  0
LINE
  5
E07C
  8
0
 10
277.49487980823727
 20
681.84348391733636
 30
0.0
 11
282.5833770611282
 21
683.20694264693657
 31
0.0
  0
LINE
  5
E07D
  8
0
 10
282.5833770611282
 20
683.20694264693657
 30
0.0
 11
283.03164025904078
 21
684.87996867942877
 31
0.0
  0
LINE
  5
E07E
  8
0
 10
283.03164025904078
 20
684.87996867942877
 30
0.0
 11
282.38459264628432
 21
687.29478324515162
 31
0.0
  0
LINE
  5
E07F
  8
0
 10
277.17587075180131
 20
703.38803093559397
 30
0.0
 11
272.08737349891038
 21
702.02457220599388
 31
0.0
  0
LINE
  5
E080
  8
0
 10
272.08737349891038
 20
702.02457220599388
 30
0.0
 11
272.83613699639199
 21
699.23014879053972
 31
0.0
  0
LINE
  5
E081
  8
0
 10
272.83613699639199
 20
699.23014879053972
 30
0.0
 11
277.92463424928269
 21
700.59360752013981
 31
0.0
  0
LINE
  5
E082
  8
0
 10
277.92463424928269
 20
700.59360752013981
 30
0.0
 11
277.17587075180131
 21
703.38803093559397
 31
0.0
  0
ARC
  5
E083
  8
0
 10
274.64459940503241
 20
705.35335654908056
 30
0.0
 40
4.1976433314087407
 50
157.5320517966469
 51
232.4679482033626
  0
ARC
  5
E084
  8
0
 10
287.65433371627319
 20
698.02429173286691
 30
0.0
 40
14.867180138568379
 50
175.34770562304959
 51
214.65229437695339
  0
ARC
  5
E085
  8
0
 10
280.05210571435993
 20
685.17226826042247
 30
0.0
 40
4.1976433314087407
 50
157.5320517966469
 51
232.4679482033626
  0
ARC
  5
E086
  8
0
 10
273.2968559823405
 20
704.99222978736577
 30
0.0
 40
4.1976433314087407
 50
337.5320517966469
 51
52.467948203350844
  0
ARC
  5
E087
  8
0
 10
265.69462798042667
 20
692.14020631492167
 30
0.0
 40
14.867180138568379
 50
355.34770562304971
 51
34.652294376953421
  0
ARC
  5
E088
  8
0
 10
278.70436229166739
 20
684.81114149870746
 30
0.0
 40
4.1976433314087407
 50
337.5320517966469
 51
52.467948203356009
  0
LINE
  5
E089
  8
0
 10
380.42765527475069
 20
761.17651137195537
 30
0.0
 11
380.42765527475069
 21
749.17651137195571
 31
0.0
  0
ARC
  5
E08A
  8
0
 10
381.42765527475069
 20
761.17651137195537
 30
0.0
 40
1.0
 50
90.0
 51
180.0
  0
LINE
  5
E08B
  8
0
 10
392.42765527475058
 20
761.17651137195571
 30
0.0
 11
392.42765527475058
 21
749.17651137195571
 31
0.0
  0
ARC
  5
E08C
  8
0
 10
391.42765527475058
 20
749.17651137195571
 30
0.0
 40
1.0
 50
270.0
 51
0.0
  0
ARC
  5
E08D
  8
0
 10
391.42765527475058
 20
761.17651137195571
 30
0.0
 40
1.0
 50
0.0
 51
90.0
  0
LINE
  5
E08E
  8
0
 10
391.42765527475058
 20
748.17651137195571
 30
0.0
 11
381.42765527475069
 21
748.17651137195571
 31
0.0
  0
ARC
  5
E08F
  8
0
 10
381.42765527475069
 20
749.17651137195571
 30
0.0
 40
1.0
 50
180.0
 51
270.0
  0
LINE
  5
E090
  8
0
 10
391.42765527475058
 20
762.17651137195571
 30
0.0
 11
381.42765527475069
 21
762.17651137195537
 31
0.0
  0
LINE
  5
E091
  8
0
 10
277.07850211629471
 20
707.09618226239081
 30
0.0
 11
278.04442094974593
 21
707.35502740370862
 31
0.0
  0
LINE
  5
E092
  8
0
 10
283.03164025904078
 20
684.87996867942877
 30
0.0
 11
283.99785919788042
 21
685.13889424243325
 31
0.0
  0
LINE
  5
E093
  8
0
 10
782.86799631068504
 20
451.42033242393109
 30
0.0
 11
782.86799631068504
 21
434.13247506674543
 31
0.0
  0
LINE
  5
E094
  8
0
 10
781.86799631068504
 20
403.13247506674543
 30
0.0
 11
806.93099631068515
 21
403.13247506674543
 31
0.0
  0
ARC
  5
E095
  8
0
 10
814.86799631068516
 20
434.13247506674543
 30
0.0
 40
32.0
 50
180.0
 51
191.88115602101291
  0
ARC
  5
E096
  8
0
 10
781.59638679145689
 20
427.13247506674543
 30
0.0
 40
2.0
 50
277.8051578013056
 51
11.88115602101295
  0
ARC
  5
E097
  8
0
 10
839.74986818511525
 20
406.74831081029151
 30
0.0
 40
5.0
 50
74.999823903770391
 51
132.25899623008769
  0
LINE
  5
E098
  8
0
 10
858.0767084632073
 20
494.63247506674543
 30
0.0
 11
858.0767084632073
 21
494.63247506674543
 31
0.0
  0
LINE
  5
E099
  8
0
 10
762.86799631068516
 20
495.13247506674543
 30
0.0
 11
762.86799631068516
 21
493.63247506674543
 31
0.0
  0
ARC
  5
E09A
  8
0
 10
765.36799631068504
 20
495.13247506674543
 30
0.0
 40
2.5
 50
156.42182152179279
 51
180.0
  0
ARC
  5
E09B
  8
0
 10
761.86799631068504
 20
493.63247506674543
 30
0.0
 40
1.0
 50
270.0
 51
0.0
  0
LINE
  5
E09D
  8
0
 10
876.86799631068504
 20
480.63247506674543
 30
0.0
 11
876.86799631068504
 21
468.63247506674571
 31
0.0
  0
ARC
  5
E09E
  8
0
 10
875.86799631068504
 20
480.63247506674543
 30
0.0
 40
1.0
 50
0.0
 51
90.0
  0
LINE
  5
E09F
  8
0
 10
864.86799631068516
 20
480.6324750667456
 30
0.0
 11
864.86799631068516
 21
468.63247506674571
 31
0.0
  0
ARC
  5
E0A0
  8
0
 10
865.86799631068516
 20
468.63247506674571
 30
0.0
 40
1.0
 50
180.0
 51
270.0
  0
ARC
  5
E0A1
  8
0
 10
865.86799631068516
 20
480.6324750667456
 30
0.0
 40
1.0
 50
90.0
 51
180.0
  0
LINE
  5
E0A2
  8
0
 10
878.86799631068527
 20
492.63247506674543
 30
0.0
 11
879.86799631068516
 21
491.63247506674543
 31
0.0
  0
LINE
  5
E0A3
  8
0
 10
759.86799631068504
 20
491.63247506674543
 30
0.0
 11
759.86799631068504
 21
457.63247506674543
 31
0.0
  0
LINE
  5
E0A4
  8
0
 10
774.86799631068516
 20
492.63247506674543
 30
0.0
 11
760.86799631068504
 21
492.63247506674543
 31
0.0
  0
LINE
  5
E0A5
  8
0
 10
759.86799631068504
 20
491.63247506674543
 30
0.0
 11
760.86799631068504
 21
492.63247506674543
 31
0.0
  0
LINE
  5
E0A6
  8
0
 10
857.86799631068516
 20
496.13247506674543
 30
0.0
 11
763.0767084632073
 21
496.13247506674543
 31
0.0
  0
ARC
  5
E0A7
  8
0
 10
781.36799631068504
 20
462.13247506674531
 30
0.0
 40
7.0
 50
239.7273586810974
 51
256.86344121305751
  0
ARC
  5
E0A8
  8
0
 10
778.86799631068504
 20
451.42033242393109
 30
0.0
 40
4.0
 50
0.0
 51
76.863441213057513
  0
ARC
  5
E0A9
  8
0
 10
775.82272805748039
 20
452.63247506674543
 30
0.0
 40
4.0
 50
59.727358681097428
 51
90.0
  0
LINE
  5
E0AA
  8
0
 10
775.82272805748039
 20
456.63247506674543
 30
0.0
 11
760.86799631068504
 21
456.63247506674543
 31
0.0
  0
LINE
  5
E0AB
  8
0
 10
879.86799631068504
 20
457.63247490685319
 30
0.0
 11
878.86799631068504
 21
456.63247490685319
 31
0.0
  0
LINE
  5
E0AC
  8
0
 10
759.86799631068504
 20
457.63247506674543
 30
0.0
 11
760.86799631068504
 21
456.63247506674543
 31
0.0
  0
LINE
  5
E0AD
  8
0
 10
878.86799631068527
 20
492.63247506674543
 30
0.0
 11
860.9850353764034
 21
492.63247506674543
 31
0.0
  0
LINE
  5
E0AE
  8
0
 10
841.04397825428873
 20
411.57793596436539
 30
0.0
 11
869.90855145622106
 21
403.84360180149332
 31
0.0
  0
LINE
  5
E0AF
  8
0
 10
868.84999631068513
 20
437.48752891414551
 30
0.0
 11
868.84999631068513
 21
453.63297490685312
 31
0.0
  0
ARC
  5
E0B0
  8
0
 10
871.84999631068501
 20
453.63297490685312
 30
0.0
 40
3.0
 50
90.0
 51
180.0
  0
LINE
  5
E0B1
  8
0
 10
871.07353026918088
 20
434.58975382170092
 30
0.0
 11
877.67417059229945
 21
432.82109583425131
 31
0.0
  0
ARC
  5
E0B2
  8
0
 10
871.84999631068501
 20
437.48752891414529
 30
0.0
 40
3.0
 50
180.0
 51
254.99982390377039
  0
ARC
  5
E0B3
  8
0
 10
870.42619548389075
 20
405.7754518631229
 30
0.0
 40
2.0
 50
254.99982390377039
 51
269.48691222174853
  0
LINE
  5
E0B4
  8
0
 10
870.40828558110411
 20
403.77553205588509
 30
0.0
 11
878.14073744214068
 21
432.63031697983558
 31
0.0
  0
LINE
  5
E0B5
  8
0
 10
872.2637112210067
 20
406.83601279590539
 30
0.0
 11
878.21714946914108
 21
429.05214595718053
 31
0.0
  0
ARC
  5
E0B6
  8
0
 10
877.15652656462998
 20
430.88924577262168
 30
0.0
 40
2.0
 50
60.520939860416938
 51
74.999823903770391
  0
LINE
  5
E0B7
  8
0
 10
871.84999631068501
 20
456.63297490685301
 30
0.0
 11
878.86799631068504
 21
456.63247490685319
 31
0.0
  0
ARC
  5
E0B8
  8
0
 10
860.9850353764034
 20
495.63247506674543
 30
0.0
 40
3.0
 50
190.47568169639359
 51
270.0
  0
ARC
  5
E0B9
  8
0
 10
855.57670846320752
 20
494.63247506674543
 30
0.0
 40
2.5
 50
10.475681696393639
 51
23.57817847820715
  0
LINE
  5
E0BA
  8
0
 10
781.86799631068504
 20
425.15100382822988
 30
0.0
 11
781.86799631068504
 21
403.13247506674543
 31
0.0
  0
ARC
  5
E0BB
  8
0
 10
814.86799631068516
 20
434.13247506674543
 30
0.0
 40
32.0
 50
180.0
 51
0.0
  0
LINE
  5
E0BC
  8
0
 10
907.77119575627421
 20
455.19522113355151
 30
0.0
 11
907.77119575627421
 21
434.13247506674543
 31
0.0
  0
LINE
  5
E0BD
  8
0
 10
900.77119575627444
 20
485.4004242591763
 30
0.0
 11
900.77119575627444
 21
463.13247506674543
 31
0.0
  0
LINE
  5
E0BE
  8
0
 10
971.77119575627432
 20
434.13247506674543
 30
0.0
 11
971.77119575627432
 21
455.19522113355151
 31
0.0
  0
LINE
  5
E0C0
  8
0
 10
899.77119575627421
 20
496.13247506674543
 30
0.0
 11
899.77119575627421
 21
487.13247506674531
 31
0.0
  0
ARC
  5
E0C1
  8
0
 10
904.77119575627432
 20
463.13247506674543
 30
0.0
 40
4.0
 50
180.0
 51
262.81924421854148
  0
ARC
  5
E0C2
  8
0
 10
903.77119575627432
 20
455.19522113355151
 30
0.0
 40
4.0
 50
0.0
 51
82.819244218541442
  0
LINE
  5
E0C3
  8
0
 10
900.77119575627444
 20
486.13247506674543
 30
0.0
 11
920.77119575627455
 21
486.13247506674543
 31
0.0
  0
ARC
  5
E0C4
  8
0
 10
900.77119575627444
 20
487.13247506674531
 30
0.0
 40
1.0
 50
180.0
 51
240.00000000000551
  0
ARC
  5
E0C5
  8
0
 10
899.77119575627421
 20
485.4004242591763
 30
0.0
 40
1.0
 50
0.0
 51
60.000000000005542
  0
LINE
  5
E0C8
  8
0
 10
978.77119575627455
 20
485.4004242591763
 30
0.0
 11
978.77119575627455
 21
463.13247506674543
 31
0.0
  0
LINE
  5
E0C9
  8
0
 10
979.77119575627455
 20
496.13247506674543
 30
0.0
 11
979.77119575627455
 21
487.13247506674531
 31
0.0
  0
ARC
  5
E0CA
  8
0
 10
978.77119575627455
 20
487.13247506674531
 30
0.0
 40
1.0
 50
299.99999999999449
 51
0.0
  0
ARC
  5
E0CB
  8
0
 10
979.77119575627455
 20
485.4004242591763
 30
0.0
 40
1.0
 50
119.9999999999944
 51
180.0
  0
ARC
  5
E0CC
  8
0
 10
974.77119575627444
 20
463.13247506674543
 30
0.0
 40
4.0
 50
277.18075578145852
 51
0.0
  0
ARC
  5
E0CD
  8
0
 10
975.77119575627444
 20
455.19522113355151
 30
0.0
 40
4.0
 50
97.180755781458572
 51
180.0
  0
LINE
  5
E0D1
  8
0
 10
899.97990790879635
 20
496.13247506674543
 30
0.0
 11
979.5624836037523
 21
496.13247506674543
 31
0.0
  0
LINE
  5
E0D2
  8
0
 10
857.86799631068516
 20
496.1324750667456
 30
0.0
 11
857.86799631068516
 21
488.13247506674543
 31
0.0
  0
ARC
  5
E0D3
  8
0
 10
855.86799631068516
 20
488.13247506674543
 30
0.0
 40
2.0
 50
270.0
 51
0.0
  0
LINE
  5
E0D4
  8
0
 10
904.27119575627421
 20
459.16384810014841
 30
0.0
 11
924.77119575627421
 21
459.16384810014841
 31
0.0
  0
LINE
  5
E0D5
  8
0
 10
954.77119575627432
 20
459.16384810014841
 30
0.0
 11
975.2711957562741
 21
459.16384810014841
 31
0.0
  0
LINE
  5
E0D6
  8
0
 10
849.99131706472292
 20
459.1638481001487
 30
0.0
 11
783.90913205282516
 21
459.1638481001487
 31
0.0
  0
ARC
  5
E0D7
  8
0
 10
849.99131706472292
 20
464.1638481001487
 30
0.0
 40
5.0
 50
270.0
 51
0.0
  0
LINE
  5
E0D8
  8
0
 10
774.86799631068516
 20
496.13247506674543
 30
0.0
 11
774.86799631068516
 21
488.13247506674543
 31
0.0
  0
LINE
  5
E0D9
  8
0
 10
854.99131706472281
 20
486.13247506674543
 30
0.0
 11
854.99131706472281
 21
464.1638481001487
 31
0.0
  0
LINE
  5
E0DA
  8
0
 10
855.86799631068516
 20
486.13247506674543
 30
0.0
 11
776.86799631068504
 21
486.13247506674543
 31
0.0
  0
ARC
  5
E0DB
  8
0
 10
776.86799631068504
 20
488.13247506674543
 30
0.0
 40
2.0
 50
180.0
 51
270.0
  0
LINE
  5
E0DC
  8
0
 10
778.90913205282516
 20
486.1324750667456
 30
0.0
 11
778.90913205282516
 21
464.1638481001487
 31
0.0
  0
ARC
  5
E0DD
  8
0
 10
783.90913205282516
 20
464.1638481001487
 30
0.0
 40
5.0
 50
180.0
 51
270.0
  0
LINE
  5
E0DE
  8
0
 10
846.86799631068504
 20
434.13247506674543
 30
0.0
 11
846.86799631068504
 21
459.1638481001487
 31
0.0
  0
LINE
  5
E0DF
  8
0
 10
857.86799631068516
 20
506.13247506674571
 30
0.0
 11
775.86799631068504
 21
506.13247506674571
 31
0.0
  0
LINE
  5
E0E0
  8
0
 10
818.86799631068527
 20
521.13247506674566
 30
0.0
 11
810.86799631068493
 21
521.13247506674566
 31
0.0
  0
ARC
  5
E0E1
  8
0
 10
800.86799631068504
 20
508.1324750667456
 30
0.0
 40
2.0
 50
270.0
 51
0.0
  0
LINE
  5
E0E2
  8
0
 10
802.86799631068493
 20
513.13247506674566
 30
0.0
 11
802.86799631068493
 21
508.1324750667456
 31
0.0
  0
ARC
  5
E0E3
  8
0
 10
810.86799631068493
 20
513.13247506674566
 30
0.0
 40
8.0
 50
90.0
 51
180.0
  0
LINE
  5
E0E4
  8
0
 10
857.86799631068516
 20
496.1324750667456
 30
0.0
 11
857.86799631068516
 21
517.10836573884569
 31
0.0
  0
ARC
  5
E0E5
  8
0
 10
855.86799631068516
 20
517.10836573884569
 30
0.0
 40
2.0
 50
0.0
 51
90.0
  0
LINE
  5
E0E6
  8
0
 10
824.90000824591095
 20
519.10836573884581
 30
0.0
 11
855.86799631068516
 21
519.10836573884581
 31
0.0
  0
LINE
  5
E0E7
  8
0
 10
774.86799631068516
 20
625.29034137269673
 30
0.0
 11
774.86799631068516
 21
563.29034137269673
 31
0.0
  0
LINE
  5
E0E8
  8
0
 10
857.1172566592403
 20
586.29034137269673
 30
0.0
 11
826.48694634930735
 21
586.29034137269673
 31
0.0
  0
LINE
  5
E0E9
  8
0
 10
857.1172566592403
 20
602.29034137269673
 30
0.0
 11
826.48694634930735
 21
602.29034137269673
 31
0.0
  0
LINE
  5
E0EA
  8
0
 10
844.92931874362785
 20
554.29034137269673
 30
0.0
 11
783.86799631068516
 21
554.29034137269673
 31
0.0
  0
ARC
  5
E0EB
  8
0
 10
783.86799631068516
 20
563.29034137269673
 30
0.0
 40
9.0
 50
180.0
 51
270.0
  0
LINE
  5
E0EC
  8
0
 10
844.89686491516727
 20
634.29034137269673
 30
0.0
 11
783.86799631068516
 21
634.29034137269673
 31
0.0
  0
ARC
  5
E0ED
  8
0
 10
783.86799631068516
 20
625.29034137269673
 30
0.0
 40
9.0
 50
90.0
 51
180.0
  0
ARC
  5
E0EE
  8
0
 10
515.36799631068504
 20
594.11784137269683
 30
0.0
 40
340.0
 50
2.627413928670943
 51
4.9186949834369491
  0
ARC
  5
E0EF
  8
0
 10
814.86799631068516
 20
594.29034137269673
 30
0.0
 40
43.0
 50
339.06085846259879
 51
21.00514167678606
  0
ARC
  5
E0F0
  8
0
 10
515.36799631068504
 20
594.11784137269683
 30
0.0
 40
340.0
 50
354.65604492731069
 51
354.72120780791062
  0
ARC
  5
E0F1
  8
0
 10
844.89686491516727
 20
625.29034137269673
 30
0.0
 40
9.0
 50
5.4039378865571202
 51
90.0
  0
ARC
  5
E0F2
  8
0
 10
844.92931874362785
 20
563.29034137269673
 30
0.0
 40
9.0
 50
270.0
 51
354.65604492731069
  0
LINE
  5
E0F3
  8
0
 10
774.86799631068504
 20
496.1324750667456
 30
0.0
 11
774.86799631068504
 21
505.1324750667456
 31
0.0
  0
ARC
  5
E0F4
  8
0
 10
775.86799631068504
 20
505.1324750667456
 30
0.0
 40
1.0
 50
90.0
 51
180.0
  0
CIRCLE
  5
E0F5
  8
0
 10
814.86799631068516
 20
594.29034137269673
 30
0.0
 40
13.0
  0
ARC
  5
E0F6
  8
0
 10
826.48694634930735
 20
583.29034137269673
 30
0.0
 40
3.0
 50
90.0
 51
136.56746344221119
  0
ARC
  5
E0F7
  8
0
 10
826.48694634930735
 20
605.29034137269673
 30
0.0
 40
3.0
 50
223.43253655778881
 51
270.0
  0
ARC
  5
E0F8
  8
0
 10
824.90000824591095
 20
521.10836573884569
 30
0.0
 40
2.0
 50
232.9004880728119
 51
270.0
  0
LINE
  5
E0F9
  8
0
 10
826.86799631068527
 20
513.13247506674566
 30
0.0
 11
826.86799631068527
 21
508.1324750667456
 31
0.0
  0
ARC
  5
E0FA
  8
0
 10
818.86799631068527
 20
513.13247506674566
 30
0.0
 40
8.0
 50
0.0
 51
90.0
  0
ARC
  5
E0FB
  8
0
 10
828.86799631068527
 20
508.1324750667456
 30
0.0
 40
2.0
 50
180.0
 51
270.0
  0
LINE
  5
E0FC
  8
0
 10
793.06595811025682
 20
513.13347506674563
 30
0.0
 11
776.56595811025682
 21
513.13347506674563
 31
0.0
  0
ARC
  5
E0FD
  8
0
 10
777.45495811025683
 20
508.30215100132881
 30
0.0
 40
4.6309815714167701
 50
58.000676159490958
 51
121.99932384050901
  0
LINE
  5
E0FE
  8
0
 10
790.15895811025678
 20
512.47047506674562
 30
0.0
 11
790.62895811025669
 21
512.66647506674553
 31
0.0
  0
LINE
  5
E0FF
  8
0
 10
794.63095811025687
 20
506.13247506674571
 30
0.0
 11
794.63095811025687
 21
512.22947506674564
 31
0.0
  0
LINE
  5
E100
  8
0
 10
794.63095811025687
 20
512.22947506674564
 30
0.0
 11
793.06595811025682
 21
513.13347506674563
 31
0.0
  0
LINE
  5
E101
  8
0
 10
793.72495811025681
 20
512.66747506674574
 30
0.0
 11
794.63095811025687
 21
512.22947506674564
 31
0.0
  0
LINE
  5
E102
  8
0
 10
793.22595811025678
 20
512.81247506674572
 30
0.0
 11
793.72495811025681
 21
512.66747506674574
 31
0.0
  0
LINE
  5
E103
  8
0
 10
792.7059581102568
 20
512.90247506674564
 30
0.0
 11
793.22595811025678
 21
512.81247506674572
 31
0.0
  0
LINE
  5
E104
  8
0
 10
792.17695811025681
 20
512.93347506674559
 30
0.0
 11
792.7059581102568
 21
512.90247506674564
 31
0.0
  0
LINE
  5
E105
  8
0
 10
791.64795811025681
 20
512.90247506674564
 30
0.0
 11
792.17695811025681
 21
512.93347506674559
 31
0.0
  0
LINE
  5
E106
  8
0
 10
791.12895811025669
 20
512.81247506674572
 30
0.0
 11
791.64795811025681
 21
512.90247506674564
 31
0.0
  0
LINE
  5
E107
  8
0
 10
790.62895811025669
 20
512.66647506674553
 30
0.0
 11
791.12895811025669
 21
512.81247506674572
 31
0.0
  0
LINE
  5
E108
  8
0
 10
779.90895811025678
 20
512.22947506674564
 30
0.0
 11
779.90895811025678
 21
506.13247506674571
 31
0.0
  0
LINE
  5
E109
  8
0
 10
789.72295811025685
 20
512.22947506674564
 30
0.0
 11
789.72295811025685
 21
506.13247506674571
 31
0.0
  0
ARC
  5
E10A
  8
0
 10
784.81595811025682
 20
495.4704834736321
 30
0.0
 40
17.462601416113358
 50
73.680072331670786
 51
106.3199276683292
  0
LINE
  5
E10B
  8
0
 10
789.72295811025685
 20
512.22947506674564
 30
0.0
 11
790.15895811025678
 21
512.47047506674562
 31
0.0
  0
LINE
  5
E10C
  8
0
 10
775.00095811025676
 20
512.22947506674564
 30
0.0
 11
775.00095811025676
 21
506.13247506674571
 31
0.0
  0
LINE
  5
E10D
  8
0
 10
776.56595811025682
 20
513.13347506674563
 30
0.0
 11
775.00095811025676
 21
512.22947506674564
 31
0.0
  0
LINE
  5
E10E
  8
0
 10
775.00095811025676
 20
506.13247506674571
 30
0.0
 11
775.86799631068504
 21
506.13247506674571
 31
0.0
  0
LINE
  5
E10F
  8
0
 10
853.17931874362762
 20
513.13347506674575
 30
0.0
 11
836.67931874362773
 21
513.13347506674575
 31
0.0
  0
ARC
  5
E110
  8
0
 10
837.56831874362763
 20
508.30215100132898
 30
0.0
 40
4.6309815714167701
 50
58.000676159490958
 51
121.99932384050901
  0
LINE
  5
E111
  8
0
 10
850.27231874362769
 20
512.47047506674585
 30
0.0
 11
850.74231874362772
 21
512.66647506674565
 31
0.0
  0
LINE
  5
E112
  8
0
 10
854.74431874362767
 20
506.13247506674583
 30
0.0
 11
854.74431874362767
 21
512.22947506674575
 31
0.0
  0
LINE
  5
E113
  8
0
 10
854.74431874362767
 20
512.22947506674575
 30
0.0
 11
853.17931874362762
 21
513.13347506674575
 31
0.0
  0
LINE
  5
E114
  8
0
 10
853.83831874362772
 20
512.66747506674596
 30
0.0
 11
854.74431874362767
 21
512.22947506674575
 31
0.0
  0
LINE
  5
E115
  8
0
 10
853.33931874362759
 20
512.81247506674595
 30
0.0
 11
853.83831874362772
 21
512.66747506674596
 31
0.0
  0
LINE
  5
E116
  8
0
 10
852.81931874362772
 20
512.90247506674586
 30
0.0
 11
853.33931874362759
 21
512.81247506674595
 31
0.0
  0
LINE
  5
E117
  8
0
 10
852.29031874362772
 20
512.93347506674581
 30
0.0
 11
852.81931874362772
 21
512.90247506674586
 31
0.0
  0
LINE
  5
E118
  8
0
 10
851.76131874362773
 20
512.90247506674586
 30
0.0
 11
852.29031874362772
 21
512.93347506674581
 31
0.0
  0
LINE
  5
E119
  8
0
 10
851.24231874362783
 20
512.81247506674595
 30
0.0
 11
851.76131874362773
 21
512.90247506674586
 31
0.0
  0
LINE
  5
E11A
  8
0
 10
850.74231874362772
 20
512.66647506674565
 30
0.0
 11
851.24231874362783
 21
512.81247506674595
 31
0.0
  0
LINE
  5
E11B
  8
0
 10
840.02231874362758
 20
512.22947506674575
 30
0.0
 11
840.02231874362758
 21
506.13247506674583
 31
0.0
  0
LINE
  5
E11C
  8
0
 10
849.83631874362766
 20
512.22947506674575
 30
0.0
 11
849.83631874362766
 21
506.13247506674583
 31
0.0
  0
ARC
  5
E11D
  8
0
 10
844.92931874362773
 20
495.47048347363238
 30
0.0
 40
17.462601416113358
 50
73.680072331670786
 51
106.3199276683292
  0
LINE
  5
E11E
  8
0
 10
849.83631874362766
 20
512.22947506674575
 30
0.0
 11
850.27231874362769
 21
512.47047506674585
 31
0.0
  0
LINE
  5
E11F
  8
0
 10
835.11431874362779
 20
512.22947506674575
 30
0.0
 11
835.11431874362779
 21
506.13247506674583
 31
0.0
  0
LINE
  5
E120
  8
0
 10
836.67931874362773
 20
513.13347506674575
 30
0.0
 11
835.11431874362779
 21
512.22947506674575
 31
0.0
  0
LINE
  5
E121
  8
0
 10
775.00095811025676
 20
564.23830317226862
 30
0.0
 11
779.90895811025689
 21
572.73830317226862
 31
0.0
  0
LINE
  5
E122
  8
0
 10
789.72295811025674
 20
572.73830317226862
 30
0.0
 11
794.63095811025687
 21
564.23830317226862
 31
0.0
  0
CIRCLE
  5
E123
  8
0
 10
784.81595811025682
 20
564.23830317226862
 30
0.0
 40
8.2499099999999999
  0
LINE
  5
E124
  8
0
 10
779.90895811025689
 20
555.73830317226862
 30
0.0
 11
775.00095811025676
 21
564.23830317226862
 31
0.0
  0
LINE
  5
E125
  8
0
 10
794.63095811025687
 20
564.23830317226862
 30
0.0
 11
789.72295811025674
 21
555.73830317226862
 31
0.0
  0
LINE
  5
E126
  8
0
 10
789.72295811025674
 20
555.73830317226862
 30
0.0
 11
779.90895811025689
 21
555.73830317226862
 31
0.0
  0
LINE
  5
E127
  8
0
 10
779.90895811025689
 20
572.73830317226862
 30
0.0
 11
789.72295811025674
 21
572.73830317226862
 31
0.0
  0
LINE
  5
E128
  8
0
 10
835.10503451111344
 20
564.23830317226827
 30
0.0
 11
840.01303451111335
 21
572.73830317226827
 31
0.0
  0
LINE
  5
E129
  8
0
 10
849.82703451111342
 20
572.73830317226827
 30
0.0
 11
854.73503451111344
 21
564.23830317226827
 31
0.0
  0
CIRCLE
  5
E12A
  8
0
 10
844.92003451111327
 20
564.23830317226827
 30
0.0
 40
8.2499099999999999
  0
LINE
  5
E12B
  8
0
 10
840.01303451111335
 20
555.73830317226827
 30
0.0
 11
835.10503451111344
 21
564.23830317226827
 31
0.0
  0
LINE
  5
E12C
  8
0
 10
854.73503451111344
 20
564.23830317226827
 30
0.0
 11
849.82703451111342
 21
555.73830317226827
 31
0.0
  0
LINE
  5
E12D
  8
0
 10
849.82703451111342
 20
555.73830317226827
 30
0.0
 11
840.01303451111335
 21
555.73830317226827
 31
0.0
  0
LINE
  5
E12E
  8
0
 10
840.01303451111335
 20
572.73830317226827
 30
0.0
 11
849.82703451111342
 21
572.73830317226827
 31
0.0
  0
LINE
  5
E12F
  8
0
 10
835.10503451111344
 20
624.34237957312496
 30
0.0
 11
840.01303451111346
 21
632.84237957312496
 31
0.0
  0
LINE
  5
E130
  8
0
 10
849.82703451111342
 20
632.84237957312496
 30
0.0
 11
854.73503451111344
 21
624.34237957312496
 31
0.0
  0
CIRCLE
  5
E131
  8
0
 10
844.9200345111135
 20
624.34237957312496
 30
0.0
 40
8.2499099999999999
  0
LINE
  5
E132
  8
0
 10
840.01303451111346
 20
615.84237957312496
 30
0.0
 11
835.10503451111344
 21
624.34237957312496
 31
0.0
  0
LINE
  5
E133
  8
0
 10
854.73503451111344
 20
624.34237957312496
 30
0.0
 11
849.82703451111342
 21
615.84237957312496
 31
0.0
  0
LINE
  5
E134
  8
0
 10
849.82703451111342
 20
615.84237957312496
 30
0.0
 11
840.01303451111346
 21
615.84237957312496
 31
0.0
  0
LINE
  5
E135
  8
0
 10
840.01303451111346
 20
632.84237957312496
 30
0.0
 11
849.82703451111342
 21
632.84237957312496
 31
0.0
  0
LINE
  5
E136
  8
0
 10
775.00095811025687
 20
624.34237957312496
 30
0.0
 11
779.90895811025689
 21
632.84237957312496
 31
0.0
  0
LINE
  5
E137
  8
0
 10
789.72295811025685
 20
632.84237957312496
 30
0.0
 11
794.63095811025687
 21
624.34237957312496
 31
0.0
  0
CIRCLE
  5
E138
  8
0
 10
784.81595811025693
 20
624.34237957312496
 30
0.0
 40
8.2499099999999999
  0
LINE
  5
E139
  8
0
 10
779.90895811025689
 20
615.84237957312496
 30
0.0
 11
775.00095811025687
 21
624.34237957312496
 31
0.0
  0
LINE
  5
E13A
  8
0
 10
794.63095811025687
 20
624.34237957312496
 30
0.0
 11
789.72295811025685
 21
615.84237957312496
 31
0.0
  0
LINE
  5
E13B
  8
0
 10
789.72295811025685
 20
615.84237957312496
 30
0.0
 11
779.90895811025689
 21
615.84237957312496
 31
0.0
  0
LINE
  5
E13C
  8
0
 10
779.90895811025689
 20
632.84237957312496
 30
0.0
 11
789.72295811025685
 21
632.84237957312496
 31
0.0
  0
LINE
  5
E13D
  8
0
 10
879.86799631068504
 20
611.29046637269664
 30
0.0
 11
879.86799631068504
 21
577.2896161118291
 31
0.0
  0
LINE
  5
E13E
  8
0
 10
878.86799631068504
 20
612.29046637269676
 30
0.0
 11
879.86799631068504
 21
611.29046637269676
 31
0.0
  0
LINE
  5
E13F
  8
0
 10
759.86799631068504
 20
611.29046637269676
 30
0.0
 11
759.86799631068504
 21
577.29046637269676
 31
0.0
  0
LINE
  5
E140
  8
0
 10
774.86799631068516
 20
612.29046637269676
 30
0.0
 11
760.86799631068504
 21
612.29046637269676
 31
0.0
  0
LINE
  5
E141
  8
0
 10
759.86799631068504
 20
611.29046637269676
 30
0.0
 11
760.86799631068504
 21
612.29046637269676
 31
0.0
  0
LINE
  5
E142
  8
0
 10
774.86799631068516
 20
576.29046637269687
 30
0.0
 11
760.86799631068504
 21
576.29046637269664
 31
0.0
  0
LINE
  5
E143
  8
0
 10
879.86799631068504
 20
577.28961611182888
 30
0.0
 11
878.86799631068504
 21
576.28961611182888
 31
0.0
  0
LINE
  5
E144
  8
0
 10
759.86799631068504
 20
577.29046637269664
 30
0.0
 11
760.86799631068504
 21
576.29046637269664
 31
0.0
  0
LINE
  5
E145
  8
0
 10
878.86799631068504
 20
612.29046637269676
 30
0.0
 11
854.9831405557693
 21
612.29046637269676
 31
0.0
  0
LINE
  5
E146
  8
0
 10
854.99947323001913
 20
576.29131663356429
 30
0.0
 11
878.86799631068504
 21
576.28961611182888
 31
0.0
  0
LINE
  5
E147
  8
0
 10
768.86799631068504
 20
588.29034137269673
 30
0.0
 11
772.86799631068504
 21
588.29034137269673
 31
0.0
  0
ARC
  5
E148
  8
0
 10
772.86799631068504
 20
586.29034137269673
 30
0.0
 40
2.0
 50
0.0
 51
90.0
  0
ARC
  5
E149
  8
0
 10
768.87799631068515
 20
594.29034137269673
 30
0.0
 40
6.0
 50
90.0
 51
270.0
  0
LINE
  5
E14A
  8
0
 10
768.86799631068504
 20
600.29034137269673
 30
0.0
 11
772.86799631068504
 21
600.29034137269673
 31
0.0
  0
ARC
  5
E14B
  8
0
 10
772.86799631068504
 20
602.29034137269673
 30
0.0
 40
2.0
 50
270.0
 51
0.0
  0
LINE
  5
E14C
  8
0
 10
865.86799631068516
 20
467.6324750667456
 30
0.0
 11
875.86799631068504
 21
467.6324750667456
 31
0.0
  0
ARC
  5
E14D
  8
0
 10
875.86799631068504
 20
468.63247506674571
 30
0.0
 40
1.0
 50
270.0
 51
0.0
  0
LINE
  5
E14E
  8
0
 10
865.86799631068516
 20
481.6324750667456
 30
0.0
 11
875.86799631068504
 21
481.63247506674543
 31
0.0
  0
LINE
  5
E14F
  8
0
 10
954.7711957562741
 20
464.93260061573289
 30
0.0
 11
954.77119575627432
 21
418.20292451786048
 31
0.0
  0
LINE
  5
E150
  8
0
 10
924.77119575627421
 20
464.93260061573301
 30
0.0
 11
924.77119575627421
 21
418.20292451786048
 31
0.0
  0
ARC
  5
E151
  8
0
 10
939.77119575627432
 20
434.13247506674543
 30
0.0
 40
32.0
 50
180.0
 51
0.0
  0
LINE
  5
E153
  8
0
 10
872.9110589391513
 20
409.25074693994128
 30
0.0
 11
878.21684936375289
 21
429.05222637886709
 31
0.0
  0
LINE
  5
E154
  8
0
 10
874.03406338764603
 20
410.09588953658431
 30
0.0
 11
879.1225606405369
 21
408.73243080698421
 31
0.0
  0
LINE
  5
E155
  8
0
 10
879.1225606405369
 20
408.73243080698421
 30
0.0
 11
879.87132413801839
 21
411.52685422243889
 31
0.0
  0
LINE
  5
E156
  8
0
 10
879.87132413801839
 20
411.52685422243889
 30
0.0
 11
874.78282688512775
 21
412.89031295203898
 31
0.0
  0
LINE
  5
E157
  8
0
 10
874.78282688512775
 20
412.89031295203898
 30
0.0
 11
874.03406338764603
 21
410.09588953658431
 31
0.0
  0
LINE
  5
E158
  8
0
 10
878.21684936375289
 20
429.05222637886709
 30
0.0
 11
879.44156969697315
 21
430.27697782524228
 31
0.0
  0
LINE
  5
E159
  8
0
 10
879.44156969697315
 20
430.27697782524228
 30
0.0
 11
884.53006694986391
 21
428.91351909564219
 31
0.0
  0
LINE
  5
E15A
  8
0
 10
884.53006694986391
 20
428.91351909564219
 30
0.0
 11
884.97833014777643
 21
427.24049306314959
 31
0.0
  0
LINE
  5
E15B
  8
0
 10
884.97833014777643
 20
427.24049306314959
 30
0.0
 11
879.02549211041855
 21
405.02419905850093
 31
0.0
  0
LINE
  5
E15C
  8
0
 10
879.02549211041855
 20
405.02419905850093
 30
0.0
 11
877.80077177719841
 21
403.79944761212607
 31
0.0
  0
LINE
  5
E15D
  8
0
 10
877.80077177719841
 20
403.79944761212607
 30
0.0
 11
872.71227452430753
 21
405.16290634172623
 31
0.0
  0
LINE
  5
E15E
  8
0
 10
872.71227452430753
 20
405.16290634172623
 30
0.0
 11
872.26401132639489
 21
406.8359323742186
 31
0.0
  0
LINE
  5
E15F
  8
0
 10
872.26401132639489
 20
406.8359323742186
 30
0.0
 11
872.9110589391513
 21
409.25074693994128
 31
0.0
  0
LINE
  5
E160
  8
0
 10
878.11978083363442
 20
425.3439946303838
 30
0.0
 11
883.2082780865253
 21
423.98053590078371
 31
0.0
  0
LINE
  5
E161
  8
0
 10
883.2082780865253
 20
423.98053590078371
 30
0.0
 11
882.45951458904369
 21
421.18611248532937
 31
0.0
  0
LINE
  5
E162
  8
0
 10
882.45951458904369
 20
421.18611248532937
 30
0.0
 11
877.37101733615305
 21
422.54957121492947
 31
0.0
  0
LINE
  5
E163
  8
0
 10
877.37101733615305
 20
422.54957121492947
 30
0.0
 11
878.11978083363442
 21
425.3439946303838
 31
0.0
  0
ARC
  5
E164
  8
0
 10
880.65105218040344
 20
427.30932024387039
 30
0.0
 40
4.1976433314087407
 50
307.53205179663752
 51
22.4679482033531
  0
ARC
  5
E165
  8
0
 10
867.64131786916255
 20
419.98025542765657
 30
0.0
 40
14.867180138568379
 50
325.34770562304658
 51
4.6522943769503566
  0
ARC
  5
E166
  8
0
 10
875.24354587107575
 20
407.12823195521207
 30
0.0
 40
4.1976433314087407
 50
307.53205179663752
 51
22.4679482033531
  0
ARC
  5
E167
  8
0
 10
881.99879560309535
 20
426.9481934821556
 30
0.0
 40
4.1976433314087407
 50
127.5320517966491
 51
202.4679482033531
  0
ARC
  5
E168
  8
0
 10
889.601023605009
 20
414.09617000971127
 30
0.0
 40
14.867180138568379
 50
145.34770562304649
 51
184.65229437695029
  0
ARC
  5
E169
  8
0
 10
876.59128929376834
 20
406.76710519349712
 30
0.0
 40
4.1976433314087407
 50
127.532051796644
 51
202.4679482033531
  0
LINE
  5
E16A
  8
0
 10
927.77119575627432
 20
421.18611248532869
 30
0.0
 11
929.44109575627419
 21
423.98053590078251
 31
0.0
  0
LINE
  5
E16B
  8
0
 10
929.44109575627419
 20
423.98053590078251
 30
0.0
 11
938.10129575627434
 21
428.9135190956415
 31
0.0
  0
LINE
  5
E16C
  8
0
 10
938.10129575627434
 20
428.9135190956415
 30
0.0
 11
941.44109575627431
 21
428.9135190956415
 31
0.0
  0
LINE
  5
E16D
  8
0
 10
929.44109575627419
 20
408.73243080698188
 30
0.0
 11
927.77119575627432
 21
411.52685422243769
 31
0.0
  0
LINE
  5
E16E
  8
0
 10
929.44109575627419
 20
408.73243080698188
 30
0.0
 11
938.10129575627434
 21
403.79944761212522
 31
0.0
  0
LINE
  5
E16F
  8
0
 10
927.77119575627432
 20
421.18611248532869
 30
0.0
 11
927.77119575627432
 21
411.52685422243769
 31
0.0
  0
LINE
  5
E170
  8
0
 10
951.77119575627444
 20
421.18611248532869
 30
0.0
 11
950.10129575627434
 21
423.98053590078251
 31
0.0
  0
LINE
  5
E171
  8
0
 10
950.10129575627434
 20
423.98053590078251
 30
0.0
 11
941.44109575627431
 21
428.9135190956415
 31
0.0
  0
LINE
  5
E172
  8
0
 10
950.10129575627434
 20
408.73243080698188
 30
0.0
 11
951.77119575627444
 21
411.52685422243769
 31
0.0
  0
LINE
  5
E173
  8
0
 10
950.10129575627434
 20
408.73243080698188
 30
0.0
 11
941.44109575627431
 21
403.79944761212522
 31
0.0
  0
LINE
  5
E174
  8
0
 10
951.77119575627444
 20
421.18611248532869
 30
0.0
 11
951.77119575627444
 21
411.52685422243769
 31
0.0
  0
LINE
  5
E175
  8
0
 10
938.10129575627434
 20
403.79944761212522
 30
0.0
 11
941.44109575627431
 21
403.79944761212522
 31
0.0
  0
LINE
  5
E176
  8
0
 10
929.44109575627419
 20
425.34399463038238
 30
0.0
 11
938.10129575627434
 21
430.27697782524137
 31
0.0
  0
LINE
  5
E177
  8
0
 10
938.10129575627434
 20
430.27697782524137
 30
0.0
 11
941.44109575627431
 21
430.27697782524137
 31
0.0
  0
LINE
  5
E178
  8
0
 10
950.10129575627434
 20
425.34399463038238
 30
0.0
 11
941.44109575627431
 21
430.27697782524137
 31
0.0
  0
LINE
  5
E179
  8
0
 10
927.77119575627432
 20
422.54957121492862
 30
0.0
 11
929.44109575627419
 21
425.34399463038238
 31
0.0
  0
LINE
  5
E17A
  8
0
 10
951.77119575627444
 20
422.54957121492862
 30
0.0
 11
950.10129575627434
 21
425.34399463038238
 31
0.0
  0
LINE
  5
E17B
  8
0
 10
927.77119575627432
 20
422.54957121492862
 30
0.0
 11
927.77119575627432
 21
421.18611248532869
 31
0.0
  0
LINE
  5
E17C
  8
0
 10
929.44109575627419
 20
425.34399463038238
 30
0.0
 11
929.44109575627419
 21
423.98053590078251
 31
0.0
  0
LINE
  5
E17D
  8
0
 10
950.10129575627434
 20
425.34399463038238
 30
0.0
 11
950.10129575627434
 21
423.98053590078251
 31
0.0
  0
LINE
  5
E17E
  8
0
 10
951.77119575627444
 20
422.54957121492862
 30
0.0
 11
951.77119575627444
 21
421.18611248532869
 31
0.0
  0
LINE
  5
E17F
  8
0
 10
941.44109575627465
 20
430.27697782524109
 30
0.0
 11
941.44109575627431
 21
428.9135190956415
 31
0.0
  0
LINE
  5
E180
  8
0
 10
938.10129575627434
 20
430.27697782524137
 30
0.0
 11
938.10129575627434
 21
428.9135190956415
 31
0.0
  0
POLYLINE
  5
E181
  8
0
 10
928.27119575627421
 20
416.13234606082409
 30
0.0
 66
     1
 70
     8
  0
VERTEX
  8
0
  5
E765
 10
928.271
 20
416.132
 30
0.000000
  70
    32
  0
VERTEX
  8
0
  5
E766
 10
928.285
 20
415.587
 30
0.000000
  70
    32
  0
VERTEX
  8
0
  5
E767
 10
928.327
 20
415.044
 30
0.000000
  70
    32
  0
VERTEX
  8
0
  5
E768
 10
928.396
 20
414.502
 30
0.000000
  70
    32
  0
VERTEX
  8
0
  5
E769
 10
928.492
 20
413.965
 30
0.000000
  70
    32
  0
VERTEX
  8
0
  5
E76A
 10
928.616
 20
413.433
 30
0.000000
  70
    32
  0
VERTEX
  8
0
  5
E76B
 10
928.766
 20
412.908
 30
0.000000
  70
    32
  0
VERTEX
  8
0
  5
E76C
 10
928.943
 20
412.390
 30
0.000000
  70
    32
  0
VERTEX
  8
0
  5
E76D
 10
929.147
 20
411.881
 30
0.000000
  70
    32
  0
VERTEX
  8
0
  5
E76E
 10
929.375
 20
411.383
 30
0.000000
  70
    32
  0
VERTEX
  8
0
  5
E76F
 10
929.629
 20
410.896
 30
0.000000
  70
    32
  0
VERTEX
  8
0
  5
E770
 10
929.907
 20
410.422
 30
0.000000
  70
    32
  0
VERTEX
  8
0
  5
E771
 10
930.209
 20
409.961
 30
0.000000
  70
    32
  0
VERTEX
  8
0
  5
E772
 10
930.534
 20
409.515
 30
0.000000
  70
    32
  0
VERTEX
  8
0
  5
E773
 10
930.882
 20
409.085
 30
0.000000
  70
    32
  0
VERTEX
  8
0
  5
E774
 10
931.250
 20
408.673
 30
0.000000
  70
    32
  0
VERTEX
  8
0
  5
E775
 10
931.639
 20
408.278
 30
0.000000
  70
    32
  0
VERTEX
  8
0
  5
E776
 10
932.048
 20
407.902
 30
0.000000
  70
    32
  0
VERTEX
  8
0
  5
E777
 10
932.476
 20
407.546
 30
0.000000
  70
    32
  0
VERTEX
  8
0
  5
E778
 10
932.921
 20
407.210
 30
0.000000
  70
    32
  0
VERTEX
  8
0
  5
E779
 10
933.382
 20
406.896
 30
0.000000
  70
    32
  0
VERTEX
  8
0
  5
E77A
 10
933.859
 20
406.605
 30
0.000000
  70
    32
  0
VERTEX
  8
0
  5
E77B
 10
934.350
 20
406.336
 30
0.000000
  70
    32
  0
VERTEX
  8
0
  5
E77C
 10
934.854
 20
406.091
 30
0.000000
  70
    32
  0
VERTEX
  8
0
  5
E77D
 10
935.370
 20
405.870
 30
0.000000
  70
    32
  0
VERTEX
  8
0
  5
E77E
 10
935.897
 20
405.674
 30
0.000000
  70
    32
  0
VERTEX
  8
0
  5
E77F
 10
936.433
 20
405.503
 30
0.000000
  70
    32
  0
VERTEX
  8
0
  5
E780
 10
936.977
 20
405.357
 30
0.000000
  70
    32
  0
VERTEX
  8
0
  5
E781
 10
937.528
 20
405.238
 30
0.000000
  70
    32
  0
VERTEX
  8
0
  5
E782
 10
938.084
 20
405.144
 30
0.000000
  70
    32
  0
VERTEX
  8
0
  5
E783
 10
938.644
 20
405.078
 30
0.000000
  70
    32
  0
VERTEX
  8
0
  5
E784
 10
939.207
 20
405.038
 30
0.000000
  70
    32
  0
VERTEX
  8
0
  5
E785
 10
939.771
 20
405.024
 30
0.000000
  70
    32
  0
VERTEX
  8
0
  5
E786
 10
940.335
 20
405.038
 30
0.000000
  70
    32
  0
VERTEX
  8
0
  5
E787
 10
940.898
 20
405.078
 30
0.000000
  70
    32
  0
VERTEX
  8
0
  5
E788
 10
941.459
 20
405.144
 30
0.000000
  70
    32
  0
VERTEX
  8
0
  5
E789
 10
942.015
 20
405.238
 30
0.000000
  70
    32
  0
VERTEX
  8
0
  5
E78A
 10
942.565
 20
405.357
 30
0.000000
  70
    32
  0
VERTEX
  8
0
  5
E78B
 10
943.109
 20
405.503
 30
0.000000
  70
    32
  0
VERTEX
  8
0
  5
E78C
 10
943.645
 20
405.674
 30
0.000000
  70
    32
  0
VERTEX
  8
0
  5
E78D
 10
944.172
 20
405.870
 30
0.000000
  70
    32
  0
VERTEX
  8
0
  5
E78E
 10
944.688
 20
406.091
 30
0.000000
  70
    32
  0
VERTEX
  8
0
  5
E78F
 10
945.192
 20
406.336
 30
0.000000
  70
    32
  0
VERTEX
  8
0
  5
E790
 10
945.683
 20
406.605
 30
0.000000
  70
    32
  0
VERTEX
  8
0
  5
E791
 10
946.160
 20
406.896
 30
0.000000
  70
    32
  0
VERTEX
  8
0
  5
E792
 10
946.622
 20
407.210
 30
0.000000
  70
    32
  0
VERTEX
  8
0
  5
E793
 10
947.067
 20
407.546
 30
0.000000
  70
    32
  0
VERTEX
  8
0
  5
E794
 10
947.494
 20
407.902
 30
0.000000
  70
    32
  0
VERTEX
  8
0
  5
E795
 10
947.903
 20
408.278
 30
0.000000
  70
    32
  0
VERTEX
  8
0
  5
E796
 10
948.292
 20
408.673
 30
0.000000
  70
    32
  0
VERTEX
  8
0
  5
E797
 10
948.661
 20
409.085
 30
0.000000
  70
    32
  0
VERTEX
  8
0
  5
E798
 10
949.008
 20
409.515
 30
0.000000
  70
    32
  0
VERTEX
  8
0
  5
E799
 10
949.333
 20
409.961
 30
0.000000
  70
    32
  0
VERTEX
  8
0
  5
E79A
 10
949.635
 20
410.422
 30
0.000000
  70
    32
  0
VERTEX
  8
0
  5
E79B
 10
949.913
 20
410.896
 30
0.000000
  70
    32
  0
VERTEX
  8
0
  5
E79C
 10
950.167
 20
411.383
 30
0.000000
  70
    32
  0
VERTEX
  8
0
  5
E79D
 10
950.396
 20
411.881
 30
0.000000
  70
    32
  0
VERTEX
  8
0
  5
E79E
 10
950.599
 20
412.390
 30
0.000000
  70
    32
  0
VERTEX
  8
0
  5
E79F
 10
950.776
 20
412.908
 30
0.000000
  70
    32
  0
VERTEX
  8
0
  5
E7A0
 10
950.927
 20
413.433
 30
0.000000
  70
    32
  0
VERTEX
  8
0
  5
E7A1
 10
951.050
 20
413.965
 30
0.000000
  70
    32
  0
VERTEX
  8
0
  5
E7A2
 10
951.147
 20
414.502
 30
0.000000
  70
    32
  0
VERTEX
  8
0
  5
E7A3
 10
951.216
 20
415.044
 30
0.000000
  70
    32
  0
VERTEX
  8
0
  5
E7A4
 10
951.257
 20
415.587
 30
0.000000
  70
    32
  0
VERTEX
  8
0
  5
E7A5
 10
951.271
 20
416.132
 30
0.000000
  70
    32
  0
VERTEX
  8
0
  5
E7A6
 10
951.257
 20
416.677
 30
0.000000
  70
    32
  0
VERTEX
  8
0
  5
E7A7
 10
951.216
 20
417.221
 30
0.000000
  70
    32
  0
VERTEX
  8
0
  5
E7A8
 10
951.147
 20
417.762
 30
0.000000
  70
    32
  0
VERTEX
  8
0
  5
E7A9
 10
951.050
 20
418.299
 30
0.000000
  70
    32
  0
VERTEX
  8
0
  5
E7AA
 10
950.927
 20
418.831
 30
0.000000
  70
    32
  0
VERTEX
  8
0
  5
E7AB
 10
950.776
 20
419.357
 30
0.000000
  70
    32
  0
VERTEX
  8
0
  5
E7AC
 10
950.599
 20
419.875
 30
0.000000
  70
    32
  0
VERTEX
  8
0
  5
E7AD
 10
950.396
 20
420.383
 30
0.000000
  70
    32
  0
VERTEX
  8
0
  5
E7AE
 10
950.167
 20
420.882
 30
0.000000
  70
    32
  0
VERTEX
  8
0
  5
E7AF
 10
949.913
 20
421.369
 30
0.000000
  70
    32
  0
VERTEX
  8
0
  5
E7B0
 10
949.635
 20
421.843
 30
0.000000
  70
    32
  0
VERTEX
  8
0
  5
E7B1
 10
949.333
 20
422.304
 30
0.000000
  70
    32
  0
VERTEX
  8
0
  5
E7B2
 10
949.008
 20
422.749
 30
0.000000
  70
    32
  0
VERTEX
  8
0
  5
E7B3
 10
948.661
 20
423.179
 30
0.000000
  70
    32
  0
VERTEX
  8
0
  5
E7B4
 10
948.292
 20
423.592
 30
0.000000
  70
    32
  0
VERTEX
  8
0
  5
E7B5
 10
947.903
 20
423.987
 30
0.000000
  70
    32
  0
VERTEX
  8
0
  5
E7B6
 10
947.494
 20
424.363
 30
0.000000
  70
    32
  0
VERTEX
  8
0
  5
E7B7
 10
947.067
 20
424.719
 30
0.000000
  70
    32
  0
VERTEX
  8
0
  5
E7B8
 10
946.622
 20
425.054
 30
0.000000
  70
    32
  0
VERTEX
  8
0
  5
E7B9
 10
946.160
 20
425.368
 30
0.000000
  70
    32
  0
VERTEX
  8
0
  5
E7BA
 10
945.683
 20
425.660
 30
0.000000
  70
    32
  0
VERTEX
  8
0
  5
E7BB
 10
945.192
 20
425.929
 30
0.000000
  70
    32
  0
VERTEX
  8
0
  5
E7BC
 10
944.688
 20
426.174
 30
0.000000
  70
    32
  0
VERTEX
  8
0
  5
E7BD
 10
944.172
 20
426.395
 30
0.000000
  70
    32
  0
VERTEX
  8
0
  5
E7BE
 10
943.645
 20
426.591
 30
0.000000
  70
    32
  0
VERTEX
  8
0
  5
E7BF
 10
943.109
 20
426.762
 30
0.000000
  70
    32
  0
VERTEX
  8
0
  5
E7C0
 10
942.565
 20
426.908
 30
0.000000
  70
    32
  0
VERTEX
  8
0
  5
E7C1
 10
942.015
 20
427.027
 30
0.000000
  70
    32
  0
VERTEX
  8
0
  5
E7C2
 10
941.459
 20
427.120
 30
0.000000
  70
    32
  0
VERTEX
  8
0
  5
E7C3
 10
940.898
 20
427.187
 30
0.000000
  70
    32
  0
VERTEX
  8
0
  5
E7C4
 10
940.335
 20
427.227
 30
0.000000
  70
    32
  0
VERTEX
  8
0
  5
E7C5
 10
939.771
 20
427.240
 30
0.000000
  70
    32
  0
VERTEX
  8
0
  5
E7C6
 10
939.207
 20
427.227
 30
0.000000
  70
    32
  0
VERTEX
  8
0
  5
E7C7
 10
938.644
 20
427.187
 30
0.000000
  70
    32
  0
VERTEX
  8
0
  5
E7C8
 10
938.084
 20
427.120
 30
0.000000
  70
    32
  0
VERTEX
  8
0
  5
E7C9
 10
937.528
 20
427.027
 30
0.000000
  70
    32
  0
VERTEX
  8
0
  5
E7CA
 10
936.977
 20
426.908
 30
0.000000
  70
    32
  0
VERTEX
  8
0
  5
E7CB
 10
936.433
 20
426.762
 30
0.000000
  70
    32
  0
VERTEX
  8
0
  5
E7CC
 10
935.897
 20
426.591
 30
0.000000
  70
    32
  0
VERTEX
  8
0
  5
E7CD
 10
935.370
 20
426.395
 30
0.000000
  70
    32
  0
VERTEX
  8
0
  5
E7CE
 10
934.854
 20
426.174
 30
0.000000
  70
    32
  0
VERTEX
  8
0
  5
E7CF
 10
934.350
 20
425.929
 30
0.000000
  70
    32
  0
VERTEX
  8
0
  5
E7D0
 10
933.859
 20
425.660
 30
0.000000
  70
    32
  0
VERTEX
  8
0
  5
E7D1
 10
933.382
 20
425.368
 30
0.000000
  70
    32
  0
VERTEX
  8
0
  5
E7D2
 10
932.921
 20
425.054
 30
0.000000
  70
    32
  0
VERTEX
  8
0
  5
E7D3
 10
932.476
 20
424.719
 30
0.000000
  70
    32
  0
VERTEX
  8
0
  5
E7D4
 10
932.048
 20
424.363
 30
0.000000
  70
    32
  0
VERTEX
  8
0
  5
E7D5
 10
931.639
 20
423.987
 30
0.000000
  70
    32
  0
VERTEX
  8
0
  5
E7D6
 10
931.250
 20
423.592
 30
0.000000
  70
    32
  0
VERTEX
  8
0
  5
E7D7
 10
930.882
 20
423.179
 30
0.000000
  70
    32
  0
VERTEX
  8
0
  5
E7D8
 10
930.534
 20
422.749
 30
0.000000
  70
    32
  0
VERTEX
  8
0
  5
E7D9
 10
930.209
 20
422.304
 30
0.000000
  70
    32
  0
VERTEX
  8
0
  5
E7DA
 10
929.907
 20
421.843
 30
0.000000
  70
    32
  0
VERTEX
  8
0
  5
E7DB
 10
929.629
 20
421.369
 30
0.000000
  70
    32
  0
VERTEX
  8
0
  5
E7DC
 10
929.375
 20
420.882
 30
0.000000
  70
    32
  0
VERTEX
  8
0
  5
E7DD
 10
929.147
 20
420.383
 30
0.000000
  70
    32
  0
VERTEX
  8
0
  5
E7DE
 10
928.943
 20
419.875
 30
0.000000
  70
    32
  0
VERTEX
  8
0
  5
E7DF
 10
928.766
 20
419.357
 30
0.000000
  70
    32
  0
VERTEX
  8
0
  5
E7E0
 10
928.616
 20
418.831
 30
0.000000
  70
    32
  0
VERTEX
  8
0
  5
E7E1
 10
928.492
 20
418.299
 30
0.000000
  70
    32
  0
VERTEX
  8
0
  5
E7E2
 10
928.396
 20
417.762
 30
0.000000
  70
    32
  0
VERTEX
  8
0
  5
E7E3
 10
928.327
 20
417.221
 30
0.000000
  70
    32
  0
VERTEX
  8
0
  5
E7E4
 10
928.285
 20
416.677
 30
0.000000
  70
    32
  0
VERTEX
  8
0
  5
E7E5
 10
928.271
 20
416.132
 30
0.000000
  70
    32
  0
SEQEND
  8
0
  5
E7E6
  0
LINE
  5
E182
  8
0
 10
774.86799631068504
 20
480.63247506674531
 30
0.0
 11
774.86799631068504
 21
468.63247506674549
 31
0.0
  0
ARC
  5
E183
  8
0
 10
773.86799631068504
 20
480.63247506674531
 30
0.0
 40
1.0
 50
0.0
 51
90.0
  0
LINE
  5
E184
  8
0
 10
762.86799631068516
 20
480.63247506674549
 30
0.0
 11
762.86799631068516
 21
468.63247506674549
 31
0.0
  0
ARC
  5
E185
  8
0
 10
763.86799631068504
 20
468.63247506674549
 30
0.0
 40
1.0
 50
180.0
 51
270.0
  0
ARC
  5
E186
  8
0
 10
763.86799631068504
 20
480.63247506674549
 30
0.0
 40
1.0
 50
90.0
 51
180.0
  0
LINE
  5
E187
  8
0
 10
763.86799631068504
 20
467.63247506674549
 30
0.0
 11
773.86799631068504
 21
467.63247506674549
 31
0.0
  0
ARC
  5
E188
  8
0
 10
773.86799631068504
 20
468.63247506674549
 30
0.0
 40
1.0
 50
270.0
 51
0.0
  0
LINE
  5
E189
  8
0
 10
763.86799631068504
 20
481.63247506674549
 30
0.0
 11
773.86799631068504
 21
481.63247506674531
 31
0.0
  0
POLYLINE
  5
E18A
  8
0
 10
954.77119575627432
 20
420.56738395843348
 30
0.0
 66
     1
 70
     8
  0
VERTEX
  8
0
  5
E7E7
 10
954.771
 20
420.567
 30
0.000000
  70
    32
  0
VERTEX
  8
0
  5
E7E8
 10
954.767
 20
420.926
 30
0.000000
  70
    32
  0
VERTEX
  8
0
  5
E7E9
 10
954.753
 20
421.285
 30
0.000000
  70
    32
  0
VERTEX
  8
0
  5
E7EA
 10
954.731
 20
421.643
 30
0.000000
  70
    32
  0
VERTEX
  8
0
  5
E7EB
 10
954.699
 20
422.000
 30
0.000000
  70
    32
  0
VERTEX
  8
0
  5
E7EC
 10
954.658
 20
422.357
 30
0.000000
  70
    32
  0
VERTEX
  8
0
  5
E7ED
 10
954.609
 20
422.712
 30
0.000000
  70
    32
  0
VERTEX
  8
0
  5
E7EE
 10
954.550
 20
423.067
 30
0.000000
  70
    32
  0
VERTEX
  8
0
  5
E7EF
 10
954.483
 20
423.419
 30
0.000000
  70
    32
  0
VERTEX
  8
0
  5
E7F0
 10
954.407
 20
423.770
 30
0.000000
  70
    32
  0
VERTEX
  8
0
  5
E7F1
 10
954.322
 20
424.119
 30
0.000000
  70
    32
  0
VERTEX
  8
0
  5
E7F2
 10
954.228
 20
424.466
 30
0.000000
  70
    32
  0
VERTEX
  8
0
  5
E7F3
 10
954.125
 20
424.811
 30
0.000000
  70
    32
  0
VERTEX
  8
0
  5
E7F4
 10
954.014
 20
425.153
 30
0.000000
  70
    32
  0
VERTEX
  8
0
  5
E7F5
 10
953.894
 20
425.492
 30
0.000000
  70
    32
  0
VERTEX
  8
0
  5
E7F6
 10
953.766
 20
425.828
 30
0.000000
  70
    32
  0
VERTEX
  8
0
  5
E7F7
 10
953.629
 20
426.162
 30
0.000000
  70
    32
  0
VERTEX
  8
0
  5
E7F8
 10
953.484
 20
426.491
 30
0.000000
  70
    32
  0
VERTEX
  8
0
  5
E7F9
 10
953.331
 20
426.817
 30
0.000000
  70
    32
  0
VERTEX
  8
0
  5
E7FA
 10
953.170
 20
427.140
 30
0.000000
  70
    32
  0
VERTEX
  8
0
  5
E7FB
 10
953.000
 20
427.458
 30
0.000000
  70
    32
  0
VERTEX
  8
0
  5
E7FC
 10
952.823
 20
427.773
 30
0.000000
  70
    32
  0
VERTEX
  8
0
  5
E7FD
 10
952.637
 20
428.083
 30
0.000000
  70
    32
  0
VERTEX
  8
0
  5
E7FE
 10
952.444
 20
428.388
 30
0.000000
  70
    32
  0
VERTEX
  8
0
  5
E7FF
 10
952.243
 20
428.689
 30
0.000000
  70
    32
  0
VERTEX
  8
0
  5
E800
 10
952.035
 20
428.985
 30
0.000000
  70
    32
  0
VERTEX
  8
0
  5
E801
 10
951.819
 20
429.275
 30
0.000000
  70
    32
  0
VERTEX
  8
0
  5
E802
 10
951.596
 20
429.561
 30
0.000000
  70
    32
  0
VERTEX
  8
0
  5
E803
 10
951.366
 20
429.841
 30
0.000000
  70
    32
  0
VERTEX
  8
0
  5
E804
 10
951.129
 20
430.116
 30
0.000000
  70
    32
  0
VERTEX
  8
0
  5
E805
 10
950.885
 20
430.384
 30
0.000000
  70
    32
  0
VERTEX
  8
0
  5
E806
 10
950.635
 20
430.647
 30
0.000000
  70
    32
  0
VERTEX
  8
0
  5
E807
 10
950.378
 20
430.904
 30
0.000000
  70
    32
  0
VERTEX
  8
0
  5
E808
 10
950.114
 20
431.155
 30
0.000000
  70
    32
  0
VERTEX
  8
0
  5
E809
 10
949.845
 20
431.399
 30
0.000000
  70
    32
  0
VERTEX
  8
0
  5
E80A
 10
949.569
 20
431.636
 30
0.000000
  70
    32
  0
VERTEX
  8
0
  5
E80B
 10
949.287
 20
431.867
 30
0.000000
  70
    32
  0
VERTEX
  8
0
  5
E80C
 10
949.000
 20
432.092
 30
0.000000
  70
    32
  0
VERTEX
  8
0
  5
E80D
 10
948.707
 20
432.309
 30
0.000000
  70
    32
  0
VERTEX
  8
0
  5
E80E
 10
948.408
 20
432.519
 30
0.000000
  70
    32
  0
VERTEX
  8
0
  5
E80F
 10
948.105
 20
432.722
 30
0.000000
  70
    32
  0
VERTEX
  8
0
  5
E810
 10
947.796
 20
432.918
 30
0.000000
  70
    32
  0
VERTEX
  8
0
  5
E811
 10
947.483
 20
433.106
 30
0.000000
  70
    32
  0
VERTEX
  8
0
  5
E812
 10
947.165
 20
433.286
 30
0.000000
  70
    32
  0
VERTEX
  8
0
  5
E813
 10
946.842
 20
433.459
 30
0.000000
  70
    32
  0
VERTEX
  8
0
  5
E814
 10
946.515
 20
433.625
 30
0.000000
  70
    32
  0
VERTEX
  8
0
  5
E815
 10
946.185
 20
433.782
 30
0.000000
  70
    32
  0
VERTEX
  8
0
  5
E816
 10
945.850
 20
433.931
 30
0.000000
  70
    32
  0
VERTEX
  8
0
  5
E817
 10
945.511
 20
434.073
 30
0.000000
  70
    32
  0
VERTEX
  8
0
  5
E818
 10
945.170
 20
434.206
 30
0.000000
  70
    32
  0
VERTEX
  8
0
  5
E819
 10
944.825
 20
434.331
 30
0.000000
  70
    32
  0
VERTEX
  8
0
  5
E81A
 10
944.476
 20
434.448
 30
0.000000
  70
    32
  0
VERTEX
  8
0
  5
E81B
 10
944.125
 20
434.556
 30
0.000000
  70
    32
  0
VERTEX
  8
0
  5
E81C
 10
943.772
 20
434.656
 30
0.000000
  70
    32
  0
VERTEX
  8
0
  5
E81D
 10
943.416
 20
434.747
 30
0.000000
  70
    32
  0
VERTEX
  8
0
  5
E81E
 10
943.058
 20
434.830
 30
0.000000
  70
    32
  0
VERTEX
  8
0
  5
E81F
 10
942.698
 20
434.905
 30
0.000000
  70
    32
  0
VERTEX
  8
0
  5
E820
 10
942.336
 20
434.970
 30
0.000000
  70
    32
  0
VERTEX
  8
0
  5
E821
 10
941.972
 20
435.027
 30
0.000000
  70
    32
  0
VERTEX
  8
0
  5
E822
 10
941.607
 20
435.076
 30
0.000000
  70
    32
  0
VERTEX
  8
0
  5
E823
 10
941.241
 20
435.115
 30
0.000000
  70
    32
  0
VERTEX
  8
0
  5
E824
 10
940.875
 20
435.146
 30
0.000000
  70
    32
  0
VERTEX
  8
0
  5
E825
 10
940.507
 20
435.168
 30
0.000000
  70
    32
  0
VERTEX
  8
0
  5
E826
 10
940.139
 20
435.181
 30
0.000000
  70
    32
  0
VERTEX
  8
0
  5
E827
 10
939.771
 20
435.186
 30
0.000000
  70
    32
  0
VERTEX
  8
0
  5
E828
 10
939.403
 20
435.181
 30
0.000000
  70
    32
  0
VERTEX
  8
0
  5
E829
 10
939.035
 20
435.168
 30
0.000000
  70
    32
  0
VERTEX
  8
0
  5
E82A
 10
938.668
 20
435.146
 30
0.000000
  70
    32
  0
VERTEX
  8
0
  5
E82B
 10
938.301
 20
435.115
 30
0.000000
  70
    32
  0
VERTEX
  8
0
  5
E82C
 10
937.935
 20
435.076
 30
0.000000
  70
    32
  0
VERTEX
  8
0
  5
E82D
 10
937.570
 20
435.027
 30
0.000000
  70
    32
  0
VERTEX
  8
0
  5
E82E
 10
937.207
 20
434.970
 30
0.000000
  70
    32
  0
VERTEX
  8
0
  5
E82F
 10
936.845
 20
434.905
 30
0.000000
  70
    32
  0
VERTEX
  8
0
  5
E830
 10
936.485
 20
434.830
 30
0.000000
  70
    32
  0
VERTEX
  8
0
  5
E831
 10
936.126
 20
434.747
 30
0.000000
  70
    32
  0
VERTEX
  8
0
  5
E832
 10
935.771
 20
434.656
 30
0.000000
  70
    32
  0
VERTEX
  8
0
  5
E833
 10
935.417
 20
434.556
 30
0.000000
  70
    32
  0
VERTEX
  8
0
  5
E834
 10
935.066
 20
434.448
 30
0.000000
  70
    32
  0
VERTEX
  8
0
  5
E835
 10
934.718
 20
434.331
 30
0.000000
  70
    32
  0
VERTEX
  8
0
  5
E836
 10
934.373
 20
434.206
 30
0.000000
  70
    32
  0
VERTEX
  8
0
  5
E837
 10
934.031
 20
434.073
 30
0.000000
  70
    32
  0
VERTEX
  8
0
  5
E838
 10
933.693
 20
433.931
 30
0.000000
  70
    32
  0
VERTEX
  8
0
  5
E839
 10
933.358
 20
433.782
 30
0.000000
  70
    32
  0
VERTEX
  8
0
  5
E83A
 10
933.027
 20
433.625
 30
0.000000
  70
    32
  0
VERTEX
  8
0
  5
E83B
 10
932.700
 20
433.459
 30
0.000000
  70
    32
  0
VERTEX
  8
0
  5
E83C
 10
932.378
 20
433.286
 30
0.000000
  70
    32
  0
VERTEX
  8
0
  5
E83D
 10
932.060
 20
433.106
 30
0.000000
  70
    32
  0
VERTEX
  8
0
  5
E83E
 10
931.746
 20
432.918
 30
0.000000
  70
    32
  0
VERTEX
  8
0
  5
E83F
 10
931.438
 20
432.722
 30
0.000000
  70
    32
  0
VERTEX
  8
0
  5
E840
 10
931.134
 20
432.519
 30
0.000000
  70
    32
  0
VERTEX
  8
0
  5
E841
 10
930.836
 20
432.309
 30
0.000000
  70
    32
  0
VERTEX
  8
0
  5
E842
 10
930.543
 20
432.092
 30
0.000000
  70
    32
  0
VERTEX
  8
0
  5
E843
 10
930.255
 20
431.867
 30
0.000000
  70
    32
  0
VERTEX
  8
0
  5
E844
 10
929.974
 20
431.636
 30
0.000000
  70
    32
  0
VERTEX
  8
0
  5
E845
 10
929.698
 20
431.399
 30
0.000000
  70
    32
  0
VERTEX
  8
0
  5
E846
 10
929.428
 20
431.155
 30
0.000000
  70
    32
  0
VERTEX
  8
0
  5
E847
 10
929.165
 20
430.904
 30
0.000000
  70
    32
  0
VERTEX
  8
0
  5
E848
 10
928.907
 20
430.647
 30
0.000000
  70
    32
  0
VERTEX
  8
0
  5
E849
 10
928.657
 20
430.384
 30
0.000000
  70
    32
  0
VERTEX
  8
0
  5
E84A
 10
928.413
 20
430.116
 30
0.000000
  70
    32
  0
VERTEX
  8
0
  5
E84B
 10
928.176
 20
429.841
 30
0.000000
  70
    32
  0
VERTEX
  8
0
  5
E84C
 10
927.946
 20
429.561
 30
0.000000
  70
    32
  0
VERTEX
  8
0
  5
E84D
 10
927.723
 20
429.275
 30
0.000000
  70
    32
  0
VERTEX
  8
0
  5
E84E
 10
927.507
 20
428.985
 30
0.000000
  70
    32
  0
VERTEX
  8
0
  5
E84F
 10
927.299
 20
428.689
 30
0.000000
  70
    32
  0
VERTEX
  8
0
  5
E850
 10
927.098
 20
428.388
 30
0.000000
  70
    32
  0
VERTEX
  8
0
  5
E851
 10
926.905
 20
428.083
 30
0.000000
  70
    32
  0
VERTEX
  8
0
  5
E852
 10
926.720
 20
427.773
 30
0.000000
  70
    32
  0
VERTEX
  8
0
  5
E853
 10
926.542
 20
427.458
 30
0.000000
  70
    32
  0
VERTEX
  8
0
  5
E854
 10
926.373
 20
427.140
 30
0.000000
  70
    32
  0
VERTEX
  8
0
  5
E855
 10
926.211
 20
426.817
 30
0.000000
  70
    32
  0
VERTEX
  8
0
  5
E856
 10
926.058
 20
426.491
 30
0.000000
  70
    32
  0
VERTEX
  8
0
  5
E857
 10
925.913
 20
426.162
 30
0.000000
  70
    32
  0
VERTEX
  8
0
  5
E858
 10
925.776
 20
425.828
 30
0.000000
  70
    32
  0
VERTEX
  8
0
  5
E859
 10
925.648
 20
425.492
 30
0.000000
  70
    32
  0
VERTEX
  8
0
  5
E85A
 10
925.528
 20
425.153
 30
0.000000
  70
    32
  0
VERTEX
  8
0
  5
E85B
 10
925.417
 20
424.811
 30
0.000000
  70
    32
  0
VERTEX
  8
0
  5
E85C
 10
925.315
 20
424.466
 30
0.000000
  70
    32
  0
VERTEX
  8
0
  5
E85D
 10
925.221
 20
424.119
 30
0.000000
  70
    32
  0
VERTEX
  8
0
  5
E85E
 10
925.136
 20
423.770
 30
0.000000
  70
    32
  0
VERTEX
  8
0
  5
E85F
 10
925.059
 20
423.419
 30
0.000000
  70
    32
  0
VERTEX
  8
0
  5
E860
 10
924.992
 20
423.067
 30
0.000000
  70
    32
  0
VERTEX
  8
0
  5
E861
 10
924.934
 20
422.712
 30
0.000000
  70
    32
  0
VERTEX
  8
0
  5
E862
 10
924.884
 20
422.357
 30
0.000000
  70
    32
  0
VERTEX
  8
0
  5
E863
 10
924.843
 20
422.000
 30
0.000000
  70
    32
  0
VERTEX
  8
0
  5
E864
 10
924.812
 20
421.643
 30
0.000000
  70
    32
  0
VERTEX
  8
0
  5
E865
 10
924.789
 20
421.285
 30
0.000000
  70
    32
  0
VERTEX
  8
0
  5
E866
 10
924.776
 20
420.926
 30
0.000000
  70
    32
  0
VERTEX
  8
0
  5
E867
 10
924.771
 20
420.567
 30
0.000000
  70
    32
  0
SEQEND
  8
0
  5
E868
  0
LINE
  5
E18B
  8
0
 10
978.77119575627432
 20
486.13247506674543
 30
0.0
 11
958.77119575627421
 21
486.13247506674543
 31
0.0
  0
LINE
  5
E1A2
  8
0
 10
927.77119575627421
 20
513.15658439464528
 30
0.0
 11
927.77119575627421
 21
508.15658439464522
 31
0.0
  0
ARC
  5
E1A3
  8
0
 10
935.77119575627421
 20
513.13247506674566
 30
0.0
 40
8.0
 50
90.0
 51
180.0
  0
LINE
  5
E1A4
  8
0
 10
951.77119575627421
 20
513.15658439464528
 30
0.0
 11
951.77119575627421
 21
508.15658439464522
 31
0.0
  0
ARC
  5
E1A5
  8
0
 10
943.77119575627421
 20
513.13247506674566
 30
0.0
 40
8.0
 50
0.0
 51
90.0
  0
LINE
  5
E1A6
  8
0
 10
899.77119575627444
 20
505.15658439464528
 30
0.0
 11
899.77119575627444
 21
496.1324750667456
 31
0.0
  0
ARC
  5
E1A7
  8
0
 10
900.77119575627444
 20
505.15658439464528
 30
0.0
 40
1.0
 50
90.0
 51
180.0
  0
LINE
  5
E1A8
  8
0
 10
979.77119575627455
 20
505.15658439464528
 30
0.0
 11
979.7711957562741
 21
496.13247506674543
 31
0.0
  0
ARC
  5
E1A9
  8
0
 10
978.77119575627455
 20
505.15658439464528
 30
0.0
 40
1.0
 50
0.0
 51
90.0
  0
LINE
  5
E1AA
  8
0
 10
935.77119575627421
 20
521.13247506674566
 30
0.0
 11
943.77119575627421
 21
521.13247506674566
 31
0.0
  0
LINE
  5
E1AB
  8
0
 10
900.77119575627444
 20
506.15658439464528
 30
0.0
 11
926.77121811243569
 21
506.15658439464528
 31
0.0
  0
ARC
  5
E1AC
  8
0
 10
925.77119575627421
 20
508.15658439464522
 30
0.0
 40
2.0
 50
270.0
 51
0.0
  0
CIRCLE
  5
E1AD
  8
0
 10
939.77119575627444
 20
511.13247506674543
 30
0.0
 40
5.0
  0
LINE
  5
E1AE
  8
0
 10
952.77117340011296
 20
506.15658439464528
 30
0.0
 11
978.77119575627455
 21
506.15658439464528
 31
0.0
  0
ARC
  5
E1AF
  8
0
 10
953.7711957562741
 20
508.15658439464551
 30
0.0
 40
2.0
 50
180.0
 51
270.0
  0
LINE
  5
E1B0
  8
0
 10
923.80098481852815
 20
506.15658439464528
 30
0.0
 11
924.77119575627421
 21
506.15658439464528
 31
0.0
  0
ARC
  5
E1B1
  8
0
 10
939.77119575627444
 20
511.10836573884581
 30
0.0
 40
7.9999999999999849
 50
0.1062587328812627
 51
179.89374126711871
  0
ARC
  5
E1B2
  8
0
 10
926.77121811243569
 20
511.15658439464522
 30
0.0
 40
5.0
 50
270.0
 51
359.89374126711868
  0
ARC
  5
E1B3
  8
0
 10
952.77117340011307
 20
511.15658439464551
 30
0.0
 40
5.0
 50
180.1062587328812
 51
270.0
  0
LINE
  5
E1B4
  8
0
 10
899.77119575627444
 20
496.13247506674543
 30
0.0
 11
979.7711957562741
 21
496.13247506674543
 31
0.0
  0
LINE
  5
E1B5
  8
0
 10
878.21714946914108
 20
429.05214595718053
 30
0.0
 11
877.25123063568969
 21
429.31099109849828
 31
0.0
  0
LINE
  5
E1B6
  8
0
 10
872.26401132639489
 20
406.8359323742186
 30
0.0
 11
871.29779238755543
 21
407.09485793722291
 31
0.0
  0
POLYLINE
  5
E1B7
  8
0
 10
954.77119575627432
 20
418.20292451786048
 30
0.0
 66
     1
 70
     8
  0
VERTEX
  8
0
  5
E869
 10
954.771
 20
418.203
 30
0.000000
  70
    32
  0
VERTEX
  8
0
  5
E86A
 10
954.753
 20
418.920
 30
0.000000
  70
    32
  0
VERTEX
  8
0
  5
E86B
 10
954.699
 20
419.636
 30
0.000000
  70
    32
  0
VERTEX
  8
0
  5
E86C
 10
954.609
 20
420.348
 30
0.000000
  70
    32
  0
VERTEX
  8
0
  5
E86D
 10
954.483
 20
421.055
 30
0.000000
  70
    32
  0
VERTEX
  8
0
  5
E86E
 10
954.322
 20
421.755
 30
0.000000
  70
    32
  0
VERTEX
  8
0
  5
E86F
 10
954.125
 20
422.446
 30
0.000000
  70
    32
  0
VERTEX
  8
0
  5
E870
 10
953.894
 20
423.128
 30
0.000000
  70
    32
  0
VERTEX
  8
0
  5
E871
 10
953.629
 20
423.797
 30
0.000000
  70
    32
  0
VERTEX
  8
0
  5
E872
 10
953.331
 20
424.453
 30
0.000000
  70
    32
  0
VERTEX
  8
0
  5
E873
 10
953.000
 20
425.094
 30
0.000000
  70
    32
  0
VERTEX
  8
0
  5
E874
 10
952.637
 20
425.718
 30
0.000000
  70
    32
  0
VERTEX
  8
0
  5
E875
 10
952.243
 20
426.324
 30
0.000000
  70
    32
  0
VERTEX
  8
0
  5
E876
 10
951.819
 20
426.911
 30
0.000000
  70
    32
  0
VERTEX
  8
0
  5
E877
 10
951.366
 20
427.477
 30
0.000000
  70
    32
  0
VERTEX
  8
0
  5
E878
 10
950.885
 20
428.020
 30
0.000000
  70
    32
  0
VERTEX
  8
0
  5
E879
 10
950.378
 20
428.540
 30
0.000000
  70
    32
  0
VERTEX
  8
0
  5
E87A
 10
949.845
 20
429.034
 30
0.000000
  70
    32
  0
VERTEX
  8
0
  5
E87B
 10
949.287
 20
429.503
 30
0.000000
  70
    32
  0
VERTEX
  8
0
  5
E87C
 10
948.707
 20
429.944
 30
0.000000
  70
    32
  0
VERTEX
  8
0
  5
E87D
 10
948.105
 20
430.357
 30
0.000000
  70
    32
  0
VERTEX
  8
0
  5
E87E
 10
947.483
 20
430.741
 30
0.000000
  70
    32
  0
VERTEX
  8
0
  5
E87F
 10
946.842
 20
431.095
 30
0.000000
  70
    32
  0
VERTEX
  8
0
  5
E880
 10
946.185
 20
431.418
 30
0.000000
  70
    32
  0
VERTEX
  8
0
  5
E881
 10
945.511
 20
431.708
 30
0.000000
  70
    32
  0
VERTEX
  8
0
  5
E882
 10
944.825
 20
431.967
 30
0.000000
  70
    32
  0
VERTEX
  8
0
  5
E883
 10
944.125
 20
432.192
 30
0.000000
  70
    32
  0
VERTEX
  8
0
  5
E884
 10
943.416
 20
432.383
 30
0.000000
  70
    32
  0
VERTEX
  8
0
  5
E885
 10
942.698
 20
432.540
 30
0.000000
  70
    32
  0
VERTEX
  8
0
  5
E886
 10
941.972
 20
432.663
 30
0.000000
  70
    32
  0
VERTEX
  8
0
  5
E887
 10
941.241
 20
432.751
 30
0.000000
  70
    32
  0
VERTEX
  8
0
  5
E888
 10
940.507
 20
432.803
 30
0.000000
  70
    32
  0
VERTEX
  8
0
  5
E889
 10
939.771
 20
432.821
 30
0.000000
  70
    32
  0
VERTEX
  8
0
  5
E88A
 10
939.035
 20
432.803
 30
0.000000
  70
    32
  0
VERTEX
  8
0
  5
E88B
 10
938.301
 20
432.751
 30
0.000000
  70
    32
  0
VERTEX
  8
0
  5
E88C
 10
937.570
 20
432.663
 30
0.000000
  70
    32
  0
VERTEX
  8
0
  5
E88D
 10
936.845
 20
432.540
 30
0.000000
  70
    32
  0
VERTEX
  8
0
  5
E88E
 10
936.126
 20
432.383
 30
0.000000
  70
    32
  0
VERTEX
  8
0
  5
E88F
 10
935.417
 20
432.192
 30
0.000000
  70
    32
  0
VERTEX
  8
0
  5
E890
 10
934.718
 20
431.967
 30
0.000000
  70
    32
  0
VERTEX
  8
0
  5
E891
 10
934.031
 20
431.708
 30
0.000000
  70
    32
  0
VERTEX
  8
0
  5
E892
 10
933.358
 20
431.418
 30
0.000000
  70
    32
  0
VERTEX
  8
0
  5
E893
 10
932.700
 20
431.095
 30
0.000000
  70
    32
  0
VERTEX
  8
0
  5
E894
 10
932.060
 20
430.741
 30
0.000000
  70
    32
  0
VERTEX
  8
0
  5
E895
 10
931.438
 20
430.357
 30
0.000000
  70
    32
  0
VERTEX
  8
0
  5
E896
 10
930.836
 20
429.944
 30
0.000000
  70
    32
  0
VERTEX
  8
0
  5
E897
 10
930.255
 20
429.503
 30
0.000000
  70
    32
  0
VERTEX
  8
0
  5
E898
 10
929.698
 20
429.034
 30
0.000000
  70
    32
  0
VERTEX
  8
0
  5
E899
 10
929.165
 20
428.540
 30
0.000000
  70
    32
  0
VERTEX
  8
0
  5
E89A
 10
928.657
 20
428.020
 30
0.000000
  70
    32
  0
VERTEX
  8
0
  5
E89B
 10
928.176
 20
427.477
 30
0.000000
  70
    32
  0
VERTEX
  8
0
  5
E89C
 10
927.723
 20
426.911
 30
0.000000
  70
    32
  0
VERTEX
  8
0
  5
E89D
 10
927.299
 20
426.324
 30
0.000000
  70
    32
  0
VERTEX
  8
0
  5
E89E
 10
926.905
 20
425.718
 30
0.000000
  70
    32
  0
VERTEX
  8
0
  5
E89F
 10
926.542
 20
425.094
 30
0.000000
  70
    32
  0
VERTEX
  8
0
  5
E8A0
 10
926.211
 20
424.453
 30
0.000000
  70
    32
  0
VERTEX
  8
0
  5
E8A1
 10
925.913
 20
423.797
 30
0.000000
  70
    32
  0
VERTEX
  8
0
  5
E8A2
 10
925.648
 20
423.128
 30
0.000000
  70
    32
  0
VERTEX
  8
0
  5
E8A3
 10
925.417
 20
422.446
 30
0.000000
  70
    32
  0
VERTEX
  8
0
  5
E8A4
 10
925.221
 20
421.755
 30
0.000000
  70
    32
  0
VERTEX
  8
0
  5
E8A5
 10
925.059
 20
421.055
 30
0.000000
  70
    32
  0
VERTEX
  8
0
  5
E8A6
 10
924.934
 20
420.348
 30
0.000000
  70
    32
  0
VERTEX
  8
0
  5
E8A7
 10
924.843
 20
419.636
 30
0.000000
  70
    32
  0
VERTEX
  8
0
  5
E8A8
 10
924.789
 20
418.920
 30
0.000000
  70
    32
  0
VERTEX
  8
0
  5
E8A9
 10
924.771
 20
418.203
 30
0.000000
  70
    32
  0
VERTEX
  8
0
  5
E8AA
 10
924.789
 20
417.486
 30
0.000000
  70
    32
  0
VERTEX
  8
0
  5
E8AB
 10
924.843
 20
416.770
 30
0.000000
  70
    32
  0
VERTEX
  8
0
  5
E8AC
 10
924.934
 20
416.058
 30
0.000000
  70
    32
  0
VERTEX
  8
0
  5
E8AD
 10
925.059
 20
415.351
 30
0.000000
  70
    32
  0
VERTEX
  8
0
  5
E8AE
 10
925.221
 20
414.651
 30
0.000000
  70
    32
  0
VERTEX
  8
0
  5
E8AF
 10
925.417
 20
413.959
 30
0.000000
  70
    32
  0
VERTEX
  8
0
  5
E8B0
 10
925.648
 20
413.278
 30
0.000000
  70
    32
  0
VERTEX
  8
0
  5
E8B1
 10
925.913
 20
412.609
 30
0.000000
  70
    32
  0
VERTEX
  8
0
  5
E8B2
 10
926.211
 20
411.953
 30
0.000000
  70
    32
  0
VERTEX
  8
0
  5
E8B3
 10
926.542
 20
411.312
 30
0.000000
  70
    32
  0
VERTEX
  8
0
  5
E8B4
 10
926.905
 20
410.688
 30
0.000000
  70
    32
  0
VERTEX
  8
0
  5
E8B5
 10
927.299
 20
410.082
 30
0.000000
  70
    32
  0
VERTEX
  8
0
  5
E8B6
 10
927.723
 20
409.495
 30
0.000000
  70
    32
  0
VERTEX
  8
0
  5
E8B7
 10
928.176
 20
408.929
 30
0.000000
  70
    32
  0
VERTEX
  8
0
  5
E8B8
 10
928.657
 20
408.386
 30
0.000000
  70
    32
  0
VERTEX
  8
0
  5
E8B9
 10
929.165
 20
407.866
 30
0.000000
  70
    32
  0
VERTEX
  8
0
  5
E8BA
 10
929.698
 20
407.372
 30
0.000000
  70
    32
  0
VERTEX
  8
0
  5
E8BB
 10
930.255
 20
406.903
 30
0.000000
  70
    32
  0
VERTEX
  8
0
  5
E8BC
 10
930.836
 20
406.461
 30
0.000000
  70
    32
  0
VERTEX
  8
0
  5
E8BD
 10
931.438
 20
406.048
 30
0.000000
  70
    32
  0
VERTEX
  8
0
  5
E8BE
 10
932.060
 20
405.665
 30
0.000000
  70
    32
  0
VERTEX
  8
0
  5
E8BF
 10
932.700
 20
405.311
 30
0.000000
  70
    32
  0
VERTEX
  8
0
  5
E8C0
 10
933.358
 20
404.988
 30
0.000000
  70
    32
  0
VERTEX
  8
0
  5
E8C1
 10
934.031
 20
404.697
 30
0.000000
  70
    32
  0
VERTEX
  8
0
  5
E8C2
 10
934.718
 20
404.439
 30
0.000000
  70
    32
  0
VERTEX
  8
0
  5
E8C3
 10
935.417
 20
404.214
 30
0.000000
  70
    32
  0
VERTEX
  8
0
  5
E8C4
 10
936.126
 20
404.023
 30
0.000000
  70
    32
  0
VERTEX
  8
0
  5
E8C5
 10
936.845
 20
403.866
 30
0.000000
  70
    32
  0
VERTEX
  8
0
  5
E8C6
 10
937.570
 20
403.743
 30
0.000000
  70
    32
  0
VERTEX
  8
0
  5
E8C7
 10
938.301
 20
403.655
 30
0.000000
  70
    32
  0
VERTEX
  8
0
  5
E8C8
 10
939.035
 20
403.602
 30
0.000000
  70
    32
  0
VERTEX
  8
0
  5
E8C9
 10
939.771
 20
403.585
 30
0.000000
  70
    32
  0
VERTEX
  8
0
  5
E8CA
 10
940.507
 20
403.602
 30
0.000000
  70
    32
  0
VERTEX
  8
0
  5
E8CB
 10
941.241
 20
403.655
 30
0.000000
  70
    32
  0
VERTEX
  8
0
  5
E8CC
 10
941.972
 20
403.743
 30
0.000000
  70
    32
  0
VERTEX
  8
0
  5
E8CD
 10
942.698
 20
403.866
 30
0.000000
  70
    32
  0
VERTEX
  8
0
  5
E8CE
 10
943.416
 20
404.023
 30
0.000000
  70
    32
  0
VERTEX
  8
0
  5
E8CF
 10
944.125
 20
404.214
 30
0.000000
  70
    32
  0
VERTEX
  8
0
  5
E8D0
 10
944.825
 20
404.439
 30
0.000000
  70
    32
  0
VERTEX
  8
0
  5
E8D1
 10
945.511
 20
404.697
 30
0.000000
  70
    32
  0
VERTEX
  8
0
  5
E8D2
 10
946.185
 20
404.988
 30
0.000000
  70
    32
  0
VERTEX
  8
0
  5
E8D3
 10
946.842
 20
405.311
 30
0.000000
  70
    32
  0
VERTEX
  8
0
  5
E8D4
 10
947.483
 20
405.665
 30
0.000000
  70
    32
  0
VERTEX
  8
0
  5
E8D5
 10
948.105
 20
406.048
 30
0.000000
  70
    32
  0
VERTEX
  8
0
  5
E8D6
 10
948.707
 20
406.461
 30
0.000000
  70
    32
  0
VERTEX
  8
0
  5
E8D7
 10
949.287
 20
406.903
 30
0.000000
  70
    32
  0
VERTEX
  8
0
  5
E8D8
 10
949.845
 20
407.372
 30
0.000000
  70
    32
  0
VERTEX
  8
0
  5
E8D9
 10
950.378
 20
407.866
 30
0.000000
  70
    32
  0
VERTEX
  8
0
  5
E8DA
 10
950.885
 20
408.386
 30
0.000000
  70
    32
  0
VERTEX
  8
0
  5
E8DB
 10
951.366
 20
408.929
 30
0.000000
  70
    32
  0
VERTEX
  8
0
  5
E8DC
 10
951.819
 20
409.495
 30
0.000000
  70
    32
  0
VERTEX
  8
0
  5
E8DD
 10
952.243
 20
410.082
 30
0.000000
  70
    32
  0
VERTEX
  8
0
  5
E8DE
 10
952.637
 20
410.688
 30
0.000000
  70
    32
  0
VERTEX
  8
0
  5
E8DF
 10
953.000
 20
411.312
 30
0.000000
  70
    32
  0
VERTEX
  8
0
  5
E8E0
 10
953.331
 20
411.953
 30
0.000000
  70
    32
  0
VERTEX
  8
0
  5
E8E1
 10
953.629
 20
412.609
 30
0.000000
  70
    32
  0
VERTEX
  8
0
  5
E8E2
 10
953.894
 20
413.278
 30
0.000000
  70
    32
  0
VERTEX
  8
0
  5
E8E3
 10
954.125
 20
413.959
 30
0.000000
  70
    32
  0
VERTEX
  8
0
  5
E8E4
 10
954.322
 20
414.651
 30
0.000000
  70
    32
  0
VERTEX
  8
0
  5
E8E5
 10
954.483
 20
415.351
 30
0.000000
  70
    32
  0
VERTEX
  8
0
  5
E8E6
 10
954.609
 20
416.058
 30
0.000000
  70
    32
  0
VERTEX
  8
0
  5
E8E7
 10
954.699
 20
416.770
 30
0.000000
  70
    32
  0
VERTEX
  8
0
  5
E8E8
 10
954.753
 20
417.486
 30
0.000000
  70
    32
  0
VERTEX
  8
0
  5
E8E9
 10
954.771
 20
418.203
 30
0.000000
  70
    32
  0
SEQEND
  8
0
  5
E8EA
  0
LINE
  5
E1B8
  8
0
 10
961.32323395670255
 20
513.15758439464526
 30
0.0
 11
978.32323395670255
 21
513.15758439464526
 31
0.0
  0
ARC
  5
E1B9
  8
0
 10
965.57323395670267
 20
502.71526359818489
 30
0.0
 40
10.44232079646028
 50
65.983629264472114
 51
114.0163707355279
  0
LINE
  5
E1BA
  8
0
 10
961.32323395670255
 20
513.15758439464526
 30
0.0
 11
961.32323395670255
 21
506.15658439464528
 31
0.0
  0
LINE
  5
E1BB
  8
0
 10
978.32323395670255
 20
513.15758439464526
 30
0.0
 11
978.32323395670255
 21
506.15658439464528
 31
0.0
  0
LINE
  5
E1BC
  8
0
 10
969.82323395670255
 20
512.25358439464515
 30
0.0
 11
969.82323395670255
 21
506.15658439464528
 31
0.0
  0
ARC
  5
E1BD
  8
0
 10
974.07323395670255
 20
502.71526359818489
 30
0.0
 40
10.44232079646028
 50
65.983629264472114
 51
114.0163707355279
  0
LINE
  5
E1BE
  8
0
 10
918.21915755584621
 20
513.15758439464526
 30
0.0
 11
901.21915755584621
 21
513.15758439464526
 31
0.0
  0
ARC
  5
E1BF
  8
0
 10
913.96915755584621
 20
502.71526359818489
 30
0.0
 40
10.44232079646028
 50
65.983629264472114
 51
114.0163707355279
  0
LINE
  5
E1C0
  8
0
 10
918.21915755584621
 20
513.15758439464526
 30
0.0
 11
918.21915755584621
 21
506.15658439464528
 31
0.0
  0
LINE
  5
E1C1
  8
0
 10
901.21915755584621
 20
513.15758439464526
 30
0.0
 11
901.21915755584621
 21
506.15658439464528
 31
0.0
  0
LINE
  5
E1C2
  8
0
 10
909.7191575558461
 20
512.25358439464515
 30
0.0
 11
909.7191575558461
 21
506.15658439464528
 31
0.0
  0
ARC
  5
E1C3
  8
0
 10
905.46915755584632
 20
502.71526359818489
 30
0.0
 40
10.44232079646028
 50
65.983629264472114
 51
114.0163707355279
  0
LINE
  5
E1C4
  8
0
 10
721.96479686509599
 20
455.19522113355151
 30
0.0
 11
721.96479686509599
 21
434.13247506674543
 31
0.0
  0
LINE
  5
E1C5
  8
0
 10
728.96479686509588
 20
485.4004242591763
 30
0.0
 11
728.96479686509588
 21
463.13247506674543
 31
0.0
  0
LINE
  5
E1C6
  8
0
 10
657.96479686509588
 20
434.13247506674543
 30
0.0
 11
657.96479686509588
 21
455.19522113355151
 31
0.0
  0
LINE
  5
E1C8
  8
0
 10
729.96479686509588
 20
496.13247506674543
 30
0.0
 11
729.96479686509588
 21
487.13247506674531
 31
0.0
  0
ARC
  5
E1C9
  8
0
 10
724.96479686509588
 20
463.13247506674543
 30
0.0
 40
4.0
 50
277.18075578145852
 51
0.0
  0
ARC
  5
E1CA
  8
0
 10
725.96479686509588
 20
455.19522113355151
 30
0.0
 40
4.0
 50
97.180755781458572
 51
180.0
  0
LINE
  5
E1CB
  8
0
 10
728.96479686509588
 20
486.13247506674543
 30
0.0
 11
709.27638661531785
 21
486.13247506674543
 31
0.0
  0
ARC
  5
E1CC
  8
0
 10
728.96479686509588
 20
487.13247506674531
 30
0.0
 40
1.0
 50
299.99999999999449
 51
0.0
  0
ARC
  5
E1CD
  8
0
 10
729.96479686509588
 20
485.4004242591763
 30
0.0
 40
1.0
 50
119.9999999999944
 51
180.0
  0
LINE
  5
E1D0
  8
0
 10
650.96479686509576
 20
485.4004242591763
 30
0.0
 11
650.96479686509565
 21
463.13247506674543
 31
0.0
  0
LINE
  5
E1D1
  8
0
 10
649.96479686509576
 20
496.13247506674543
 30
0.0
 11
649.96479686509576
 21
487.13247506674531
 31
0.0
  0
ARC
  5
E1D2
  8
0
 10
650.96479686509576
 20
487.13247506674531
 30
0.0
 40
1.0
 50
180.0
 51
240.00000000000551
  0
ARC
  5
E1D3
  8
0
 10
649.96479686509576
 20
485.4004242591763
 30
0.0
 40
1.0
 50
0.0
 51
60.000000000005542
  0
ARC
  5
E1D4
  8
0
 10
654.96479686509576
 20
463.13247506674543
 30
0.0
 40
4.0
 50
180.0
 51
262.81924421854148
  0
ARC
  5
E1D5
  8
0
 10
653.96479686509588
 20
455.19522113355151
 30
0.0
 40
4.0
 50
0.0
 51
82.819244218541442
  0
LINE
  5
E1D9
  8
0
 10
729.75608471257397
 20
496.13247506674543
 30
0.0
 11
650.17350901761802
 21
496.13247506674543
 31
0.0
  0
LINE
  5
E1DA
  8
0
 10
725.46479686509588
 20
459.16384810014841
 30
0.0
 11
698.73547350936099
 21
459.16384810014841
 31
0.0
  0
ARC
  5
E1DB
  8
0
 10
689.96479686509599
 20
434.13247506674543
 30
0.0
 40
32.0
 50
180.0
 51
0.0
  0
LINE
  5
E1DD
  8
0
 10
650.96479686509588
 20
486.13247506674543
 30
0.0
 11
670.65320711487368
 21
486.13247506674531
 31
0.0
  0
LINE
  5
E1E4
  8
0
 10
701.9647968650961
 20
513.15658439464528
 30
0.0
 11
701.9647968650961
 21
508.15658439464522
 31
0.0
  0
ARC
  5
E1E5
  8
0
 10
693.9647968650961
 20
513.13247506674566
 30
0.0
 40
8.0
 50
0.0
 51
90.0
  0
LINE
  5
E1E6
  8
0
 10
677.96479686509599
 20
513.15658439464528
 30
0.0
 11
677.96479686509599
 21
508.15658439464522
 31
0.0
  0
ARC
  5
E1E7
  8
0
 10
685.9647968650961
 20
513.13247506674566
 30
0.0
 40
8.0
 50
90.0
 51
180.0
  0
LINE
  5
E1E8
  8
0
 10
729.96479686509576
 20
505.15658439464528
 30
0.0
 11
729.96479686509576
 21
496.1324750667456
 31
0.0
  0
ARC
  5
E1E9
  8
0
 10
728.96479686509576
 20
505.15658439464528
 30
0.0
 40
1.0
 50
0.0
 51
90.0
  0
LINE
  5
E1EA
  8
0
 10
649.96479686509576
 20
505.15658439464528
 30
0.0
 11
649.9647968650961
 21
496.13247506674543
 31
0.0
  0
ARC
  5
E1EB
  8
0
 10
650.96479686509576
 20
505.15658439464528
 30
0.0
 40
1.0
 50
90.0
 51
180.0
  0
LINE
  5
E1EC
  8
0
 10
693.9647968650961
 20
521.13247506674566
 30
0.0
 11
685.9647968650961
 21
521.13247506674566
 31
0.0
  0
LINE
  5
E1ED
  8
0
 10
728.96479686509576
 20
506.15658439464528
 30
0.0
 11
650.96479686509576
 21
506.15658439464528
 31
0.0
  0
ARC
  5
E1EE
  8
0
 10
703.96479686509599
 20
508.15658439464522
 30
0.0
 40
2.0
 50
180.0
 51
270.0
  0
ARC
  5
E1EF
  8
0
 10
675.9647968650961
 20
508.15658439464551
 30
0.0
 40
2.0
 50
270.0
 51
0.0
  0
LINE
  5
E1F0
  8
0
 10
705.93500780284216
 20
506.15658439464528
 30
0.0
 11
704.9647968650961
 21
506.15658439464528
 31
0.0
  0
LINE
  5
E1F2
  8
0
 10
668.41275866466765
 20
513.15758439464526
 30
0.0
 11
651.41275866466765
 21
513.15758439464526
 31
0.0
  0
ARC
  5
E1F3
  8
0
 10
664.16275866466765
 20
502.71526359818489
 30
0.0
 40
10.44232079646028
 50
65.983629264472114
 51
114.0163707355279
  0
LINE
  5
E1F4
  8
0
 10
668.41275866466765
 20
513.15758439464526
 30
0.0
 11
668.41275866466776
 21
506.15658439464528
 31
0.0
  0
LINE
  5
E1F5
  8
0
 10
651.41275866466765
 20
513.15758439464526
 30
0.0
 11
651.41275866466765
 21
506.15658439464528
 31
0.0
  0
LINE
  5
E1F6
  8
0
 10
659.91275866466765
 20
512.25358439464515
 30
0.0
 11
659.91275866466765
 21
506.15658439464528
 31
0.0
  0
ARC
  5
E1F7
  8
0
 10
655.66275866466765
 20
502.71526359818489
 30
0.0
 40
10.44232079646028
 50
65.983629264472114
 51
114.0163707355279
  0
LINE
  5
E1F8
  8
0
 10
711.51683506552411
 20
513.15758439464526
 30
0.0
 11
728.51683506552411
 21
513.15758439464526
 31
0.0
  0
ARC
  5
E1F9
  8
0
 10
715.76683506552399
 20
502.71526359818489
 30
0.0
 40
10.44232079646028
 50
65.983629264472114
 51
114.0163707355279
  0
LINE
  5
E1FA
  8
0
 10
711.51683506552411
 20
513.15758439464526
 30
0.0
 11
711.51683506552388
 21
506.15658439464528
 31
0.0
  0
LINE
  5
E1FB
  8
0
 10
728.51683506552411
 20
513.15758439464526
 30
0.0
 11
728.51683506552411
 21
506.15658439464528
 31
0.0
  0
LINE
  5
E1FC
  8
0
 10
720.01683506552411
 20
512.25358439464515
 30
0.0
 11
720.01683506552411
 21
506.15658439464528
 31
0.0
  0
ARC
  5
E1FD
  8
0
 10
724.26683506552399
 20
502.71526359818489
 30
0.0
 40
10.44232079646028
 50
65.983629264472114
 51
114.0163707355279
  0
CIRCLE
  5
E1FE
  8
0
 10
689.96479686509599
 20
414.14173944748762
 30
0.0
 40
11.00926438074225
  0
LINE
  5
E1FF
  8
0
 10
846.86799631068504
 20
733.96436872914126
 30
0.0
 11
846.86799631068504
 21
712.17651137195571
 31
0.0
  0
LINE
  5
E200
  8
0
 10
847.86799631068516
 20
681.17651137195571
 30
0.0
 11
822.80499631068506
 21
681.17651137195571
 31
0.0
  0
ARC
  5
E201
  8
0
 10
814.86799631068516
 20
712.17651137195571
 30
0.0
 40
32.0
 50
348.11884397898712
 51
0.0
  0
ARC
  5
E202
  8
0
 10
848.13960582991342
 20
705.1765113719556
 30
0.0
 40
2.0
 50
168.118843978987
 51
262.1948421986944
  0
ARC
  5
E203
  8
0
 10
789.98612443625507
 20
684.79234711550168
 30
0.0
 40
5.0
 50
47.741003769912311
 51
105.00017609622959
  0
LINE
  5
E204
  8
0
 10
771.65928415816302
 20
773.17651137195571
 30
0.0
 11
771.65928415816302
 21
773.17651137195571
 31
0.0
  0
LINE
  5
E205
  8
0
 10
866.86799631068516
 20
773.17651137195571
 30
0.0
 11
866.86799631068516
 21
772.1765113719556
 31
0.0
  0
ARC
  5
E206
  8
0
 10
864.36799631068504
 20
773.17651137195571
 30
0.0
 40
2.5
 50
0.0
 51
23.57817847820715
  0
ARC
  5
E207
  8
0
 10
867.86799631068504
 20
772.1765113719556
 30
0.0
 40
1.0
 50
180.0
 51
270.0
  0
LINE
  5
E208
  8
0
 10
749.86799631068516
 20
770.17651137195571
 30
0.0
 11
749.86799631068516
 21
740.17626137195555
 31
0.0
  0
LINE
  5
E209
  8
0
 10
752.86799631068504
 20
761.17651137195537
 30
0.0
 11
752.86799631068504
 21
749.17651137195571
 31
0.0
  0
ARC
  5
E20A
  8
0
 10
753.86799631068504
 20
761.17651137195537
 30
0.0
 40
1.0
 50
90.0
 51
180.0
  0
LINE
  5
E20B
  8
0
 10
764.86799631068504
 20
761.17651137195571
 30
0.0
 11
764.86799631068504
 21
749.17651137195571
 31
0.0
  0
ARC
  5
E20C
  8
0
 10
763.86799631068504
 20
749.17651137195571
 30
0.0
 40
1.0
 50
270.0
 51
0.0
  0
ARC
  5
E20D
  8
0
 10
763.86799631068504
 20
761.17651137195571
 30
0.0
 40
1.0
 50
0.0
 51
90.0
  0
LINE
  5
E20E
  8
0
 10
750.86799631068504
 20
771.17651137195571
 30
0.0
 11
749.86799631068516
 21
770.17651137195571
 31
0.0
  0
LINE
  5
E20F
  8
0
 10
869.86799631068504
 20
770.17651137195571
 30
0.0
 11
869.86799631068504
 21
740.17651137195571
 31
0.0
  0
LINE
  5
E210
  8
0
 10
854.86799631068504
 20
771.17651137195571
 30
0.0
 11
868.86799631068504
 21
771.17651137195571
 31
0.0
  0
LINE
  5
E211
  8
0
 10
869.86799631068504
 20
770.17651137195571
 30
0.0
 11
868.86799631068504
 21
771.17651137195571
 31
0.0
  0
LINE
  5
E212
  8
0
 10
771.86799631068504
 20
774.17651137195571
 30
0.0
 11
866.65928415816302
 21
774.17651137195571
 31
0.0
  0
ARC
  5
E213
  8
0
 10
848.36799631068504
 20
744.67651137195571
 30
0.0
 40
7.0
 50
283.13655878694249
 51
300.27264131890257
  0
ARC
  5
E214
  8
0
 10
850.86799631068504
 20
733.96436872914126
 30
0.0
 40
4.0
 50
103.1365587869425
 51
180.0
  0
ARC
  5
E215
  8
0
 10
853.9132645638897
 20
735.17651137195571
 30
0.0
 40
4.0
 50
90.0
 51
120.2726413189026
  0
LINE
  5
E216
  8
0
 10
853.9132645638897
 20
739.17651137195571
 30
0.0
 11
868.86799631068504
 21
739.17651137195571
 31
0.0
  0
LINE
  5
E217
  8
0
 10
749.86799631068516
 20
740.17626137195555
 30
0.0
 11
750.86799631068504
 21
739.17626137195555
 31
0.0
  0
LINE
  5
E218
  8
0
 10
869.86799631068504
 20
740.17651137195571
 30
0.0
 11
868.86799631068504
 21
739.17651137195571
 31
0.0
  0
LINE
  5
E219
  8
0
 10
750.86799631068504
 20
771.17651137195571
 30
0.0
 11
768.75095724496703
 21
771.17651137195571
 31
0.0
  0
LINE
  5
E21A
  8
0
 10
788.69201436708147
 20
689.62197226957574
 30
0.0
 11
759.82744116514914
 21
681.88763810670355
 31
0.0
  0
LINE
  5
E21B
  8
0
 10
760.88599631068507
 20
715.53156521935568
 30
0.0
 11
760.88599631068507
 21
736.17676137195554
 31
0.0
  0
ARC
  5
E21C
  8
0
 10
757.88599631068507
 20
736.17676137195554
 30
0.0
 40
3.0
 50
0.0
 51
90.0
  0
LINE
  5
E21D
  8
0
 10
758.66246235218944
 20
712.63379012691121
 30
0.0
 11
752.06182202907087
 21
710.86513213946148
 31
0.0
  0
ARC
  5
E21E
  8
0
 10
757.88599631068507
 20
715.53156521935546
 30
0.0
 40
3.0
 50
285.00017609622961
 51
0.0
  0
ARC
  5
E21F
  8
0
 10
759.30979713747945
 20
683.81948816833324
 30
0.0
 40
2.0
 50
270.51308777825147
 51
285.00017609622961
  0
LINE
  5
E220
  8
0
 10
759.32770704026609
 20
681.81956836109543
 30
0.0
 11
751.59525517922953
 21
710.67435328504587
 31
0.0
  0
LINE
  5
E221
  8
0
 10
757.4722814003635
 20
684.88004910111556
 30
0.0
 11
751.51884315222924
 21
707.09618226239081
 31
0.0
  0
ARC
  5
E222
  8
0
 10
752.57946605674033
 20
708.93328207783202
 30
0.0
 40
2.0
 50
105.00017609622959
 51
119.479060139583
  0
LINE
  5
E223
  8
0
 10
757.88599631068507
 20
739.17676137195554
 30
0.0
 11
750.86799631068504
 21
739.17626137195555
 31
0.0
  0
ARC
  5
E224
  8
0
 10
768.75095724496703
 20
774.17651137195571
 30
0.0
 40
3.0
 50
270.0
 51
349.52431830360632
  0
ARC
  5
E225
  8
0
 10
774.1592841581629
 20
773.17651137195571
 30
0.0
 40
2.5
 50
156.42182152179279
 51
169.52431830360629
  0
LINE
  5
E226
  8
0
 10
847.86799631068516
 20
703.19504013344022
 30
0.0
 11
847.86799631068516
 21
681.17651137195571
 31
0.0
  0
ARC
  5
E227
  8
0
 10
814.86799631068516
 20
712.17651137195571
 30
0.0
 40
32.0
 50
180.0
 51
0.0
  0
LINE
  5
E228
  8
0
 10
771.86799631068504
 20
774.17651137195594
 30
0.0
 11
771.86799631068504
 21
766.17651137195571
 31
0.0
  0
ARC
  5
E229
  8
0
 10
773.86799631068504
 20
766.17651137195571
 30
0.0
 40
2.0
 50
180.0
 51
270.0
  0
LINE
  5
E22A
  8
0
 10
779.74467555664751
 20
737.20788440535887
 30
0.0
 11
845.82686056854504
 21
737.20788440535887
 31
0.0
  0
ARC
  5
E22B
  8
0
 10
779.74467555664751
 20
742.20788440535887
 30
0.0
 40
5.0
 50
180.0
 51
270.0
  0
LINE
  5
E22C
  8
0
 10
854.86799631068504
 20
774.17651137195571
 30
0.0
 11
854.86799631068504
 21
766.17651137195571
 31
0.0
  0
LINE
  5
E22D
  8
0
 10
774.74467555664751
 20
764.17651137195571
 30
0.0
 11
774.74467555664751
 21
742.20788440535887
 31
0.0
  0
LINE
  5
E22E
  8
0
 10
773.86799631068504
 20
764.17651137195571
 30
0.0
 11
852.86799631068504
 21
764.17651137195571
 31
0.0
  0
ARC
  5
E22F
  8
0
 10
852.86799631068504
 20
766.17651137195571
 30
0.0
 40
2.0
 50
270.0
 51
0.0
  0
LINE
  5
E230
  8
0
 10
850.82686056854504
 20
764.17651137195594
 30
0.0
 11
850.82686056854504
 21
742.20788440535887
 31
0.0
  0
ARC
  5
E231
  8
0
 10
845.82686056854504
 20
742.20788440535887
 30
0.0
 40
5.0
 50
270.0
 51
0.0
  0
LINE
  5
E232
  8
0
 10
782.86799631068504
 20
712.17651137195571
 30
0.0
 11
782.86799631068504
 21
737.20788440535887
 31
0.0
  0
LINE
  5
E233
  8
0
 10
771.86799631068504
 20
784.17651137195594
 30
0.0
 11
853.86799631068527
 21
784.17651137195594
 31
0.0
  0
LINE
  5
E234
  8
0
 10
810.86799631068493
 20
799.17651137195594
 30
0.0
 11
818.86799631068527
 21
799.17651137195594
 31
0.0
  0
ARC
  5
E235
  8
0
 10
828.86799631068527
 20
786.17651137195594
 30
0.0
 40
2.0
 50
180.0
 51
270.0
  0
LINE
  5
E236
  8
0
 10
826.86799631068527
 20
791.17651137195594
 30
0.0
 11
826.86799631068527
 21
786.17651137195594
 31
0.0
  0
ARC
  5
E237
  8
0
 10
818.86799631068527
 20
791.17651137195594
 30
0.0
 40
8.0
 50
0.0
 51
90.0
  0
LINE
  5
E238
  8
0
 10
771.86799631068504
 20
774.17651137195594
 30
0.0
 11
771.86799631068504
 21
795.15240204405609
 31
0.0
  0
ARC
  5
E239
  8
0
 10
773.86799631068504
 20
795.15240204405609
 30
0.0
 40
2.0
 50
90.0
 51
180.0
  0
LINE
  5
E23A
  8
0
 10
804.83598437545925
 20
797.15240204405598
 30
0.0
 11
773.86799631068504
 21
797.15240204405598
 31
0.0
  0
LINE
  5
E23B
  8
0
 10
854.86799631068516
 20
774.17651137195594
 30
0.0
 11
854.86799631068516
 21
783.17651137195594
 31
0.0
  0
ARC
  5
E23C
  8
0
 10
853.86799631068527
 20
783.17651137195594
 30
0.0
 40
1.0
 50
0.0
 51
90.0
  0
ARC
  5
E23D
  8
0
 10
804.83598437545925
 20
799.15240204405609
 30
0.0
 40
2.0
 50
270.0
 51
307.09951192718808
  0
LINE
  5
E23E
  8
0
 10
802.86799631068493
 20
791.17651137195594
 30
0.0
 11
802.86799631068493
 21
786.17651137195594
 31
0.0
  0
ARC
  5
E23F
  8
0
 10
810.86799631068493
 20
791.17651137195594
 30
0.0
 40
8.0
 50
90.0
 51
180.0
  0
ARC
  5
E240
  8
0
 10
800.86799631068504
 20
786.17651137195594
 30
0.0
 40
2.0
 50
270.0
 51
0.0
  0
LINE
  5
E241
  8
0
 10
836.6700345111135
 20
791.17751137195592
 30
0.0
 11
853.1700345111135
 21
791.17751137195592
 31
0.0
  0
ARC
  5
E242
  8
0
 10
852.28103451111349
 20
786.34618730653915
 30
0.0
 40
4.6309815714167701
 50
58.000676159490958
 51
121.99932384050901
  0
LINE
  5
E243
  8
0
 10
839.57703451111342
 20
790.5145113719559
 30
0.0
 11
839.10703451111351
 21
790.71051137195582
 31
0.0
  0
LINE
  5
E244
  8
0
 10
835.10503451111344
 20
784.17651137195594
 30
0.0
 11
835.10503451111344
 21
790.27351137195581
 31
0.0
  0
LINE
  5
E245
  8
0
 10
835.10503451111344
 20
790.27351137195581
 30
0.0
 11
836.6700345111135
 21
791.17751137195592
 31
0.0
  0
LINE
  5
E246
  8
0
 10
836.01103451111339
 20
790.71151137195602
 30
0.0
 11
835.10503451111344
 21
790.27351137195581
 31
0.0
  0
LINE
  5
E247
  8
0
 10
836.51003451111364
 20
790.856511371956
 30
0.0
 11
836.01103451111339
 21
790.71151137195602
 31
0.0
  0
LINE
  5
E248
  8
0
 10
837.0300345111134
 20
790.94651137195592
 30
0.0
 11
836.51003451111364
 21
790.856511371956
 31
0.0
  0
LINE
  5
E249
  8
0
 10
837.55903451111351
 20
790.97751137195576
 30
0.0
 11
837.0300345111134
 21
790.94651137195592
 31
0.0
  0
LINE
  5
E24A
  8
0
 10
838.08803451111351
 20
790.94651137195592
 30
0.0
 11
837.55903451111351
 21
790.97751137195576
 31
0.0
  0
LINE
  5
E24B
  8
0
 10
838.6070345111134
 20
790.856511371956
 30
0.0
 11
838.08803451111351
 21
790.94651137195592
 31
0.0
  0
LINE
  5
E24C
  8
0
 10
839.10703451111351
 20
790.71051137195582
 30
0.0
 11
838.6070345111134
 21
790.856511371956
 31
0.0
  0
LINE
  5
E24D
  8
0
 10
849.82703451111354
 20
790.27351137195581
 30
0.0
 11
849.82703451111354
 21
784.17651137195594
 31
0.0
  0
LINE
  5
E24E
  8
0
 10
840.01303451111346
 20
790.27351137195581
 30
0.0
 11
840.01303451111346
 21
784.17651137195594
 31
0.0
  0
ARC
  5
E24F
  8
0
 10
844.9200345111135
 20
773.51451977884244
 30
0.0
 40
17.462601416113358
 50
73.680072331670786
 51
106.3199276683292
  0
LINE
  5
E250
  8
0
 10
840.01303451111346
 20
790.27351137195581
 30
0.0
 11
839.57703451111342
 21
790.5145113719559
 31
0.0
  0
LINE
  5
E251
  8
0
 10
854.73503451111355
 20
790.27351137195581
 30
0.0
 11
854.73503451111355
 21
784.17651137195594
 31
0.0
  0
LINE
  5
E252
  8
0
 10
853.1700345111135
 20
791.17751137195592
 30
0.0
 11
854.73503451111355
 21
790.27351137195581
 31
0.0
  0
LINE
  5
E253
  8
0
 10
854.73503451111355
 20
784.17651137195594
 30
0.0
 11
853.86799631068527
 21
784.17651137195594
 31
0.0
  0
LINE
  5
E254
  8
0
 10
776.55667387774247
 20
791.17751137195614
 30
0.0
 11
793.05667387774247
 21
791.17751137195614
 31
0.0
  0
ARC
  5
E255
  8
0
 10
792.16767387774246
 20
786.34618730653938
 30
0.0
 40
4.6309815714167701
 50
58.000676159490958
 51
121.99932384050901
  0
LINE
  5
E256
  8
0
 10
779.46367387774262
 20
790.51451137195613
 30
0.0
 11
778.99367387774248
 21
790.71051137195604
 31
0.0
  0
LINE
  5
E257
  8
0
 10
774.99167387774264
 20
784.17651137195605
 30
0.0
 11
774.99167387774264
 21
790.27351137195615
 31
0.0
  0
LINE
  5
E258
  8
0
 10
774.99167387774264
 20
790.27351137195615
 30
0.0
 11
776.55667387774247
 21
791.17751137195614
 31
0.0
  0
LINE
  5
E259
  8
0
 10
775.89767387774259
 20
790.71151137195625
 30
0.0
 11
774.99167387774264
 21
790.27351137195615
 31
0.0
  0
LINE
  5
E25A
  8
0
 10
776.39667387774261
 20
790.85651137195623
 30
0.0
 11
775.89767387774259
 21
790.71151137195625
 31
0.0
  0
LINE
  5
E25B
  8
0
 10
776.9166738777426
 20
790.94651137195615
 30
0.0
 11
776.39667387774261
 21
790.85651137195623
 31
0.0
  0
LINE
  5
E25C
  8
0
 10
777.44567387774248
 20
790.9775113719561
 30
0.0
 11
776.9166738777426
 21
790.94651137195615
 31
0.0
  0
LINE
  5
E25D
  8
0
 10
777.97467387774259
 20
790.94651137195615
 30
0.0
 11
777.44567387774248
 21
790.9775113719561
 31
0.0
  0
LINE
  5
E25E
  8
0
 10
778.49367387774248
 20
790.85651137195623
 30
0.0
 11
777.97467387774259
 21
790.94651137195615
 31
0.0
  0
LINE
  5
E25F
  8
0
 10
778.99367387774248
 20
790.71051137195604
 30
0.0
 11
778.49367387774248
 21
790.85651137195623
 31
0.0
  0
LINE
  5
E260
  8
0
 10
789.71367387774262
 20
790.27351137195615
 30
0.0
 11
789.71367387774262
 21
784.17651137195605
 31
0.0
  0
LINE
  5
E261
  8
0
 10
779.89967387774254
 20
790.27351137195615
 30
0.0
 11
779.89967387774254
 21
784.17651137195605
 31
0.0
  0
ARC
  5
E262
  8
0
 10
784.80667387774258
 20
773.51451977884255
 30
0.0
 40
17.462601416113358
 50
73.680072331670786
 51
106.3199276683292
  0
LINE
  5
E263
  8
0
 10
779.89967387774254
 20
790.27351137195615
 30
0.0
 11
779.46367387774262
 21
790.51451137195613
 31
0.0
  0
LINE
  5
E264
  8
0
 10
794.62167387774252
 20
790.27351137195615
 30
0.0
 11
794.62167387774252
 21
784.17651137195605
 31
0.0
  0
LINE
  5
E265
  8
0
 10
793.05667387774247
 20
791.17751137195614
 30
0.0
 11
794.62167387774252
 21
790.27351137195615
 31
0.0
  0
LINE
  5
E266
  8
0
 10
763.86799631068504
 20
748.17651137195571
 30
0.0
 11
753.86799631068504
 21
748.17651137195571
 31
0.0
  0
ARC
  5
E267
  8
0
 10
753.86799631068504
 20
749.17651137195571
 30
0.0
 40
1.0
 50
180.0
 51
270.0
  0
LINE
  5
E268
  8
0
 10
763.86799631068504
 20
762.17651137195571
 30
0.0
 11
753.86799631068504
 21
762.17651137195537
 31
0.0
  0
LINE
  5
E269
  8
0
 10
756.8249336822189
 20
687.29478324515162
 30
0.0
 11
751.51914325761732
 21
707.09626268407726
 31
0.0
  0
LINE
  5
E26A
  8
0
 10
755.70192923372417
 20
688.13992584179448
 30
0.0
 11
750.6134319808333
 21
686.77646711219438
 31
0.0
  0
LINE
  5
E26B
  8
0
 10
750.6134319808333
 20
686.77646711219438
 30
0.0
 11
749.86466848335169
 21
689.57089052764923
 31
0.0
  0
LINE
  5
E26C
  8
0
 10
749.86466848335169
 20
689.57089052764923
 30
0.0
 11
754.95316573624257
 21
690.93434925724932
 31
0.0
  0
LINE
  5
E26D
  8
0
 10
754.95316573624257
 20
690.93434925724932
 30
0.0
 11
755.70192923372417
 21
688.13992584179448
 31
0.0
  0
LINE
  5
E26E
  8
0
 10
751.51914325761732
 20
707.09626268407726
 30
0.0
 11
750.29442292439705
 21
708.32101413045245
 31
0.0
  0
LINE
  5
E26F
  8
0
 10
750.29442292439705
 20
708.32101413045245
 30
0.0
 11
745.20592567150618
 21
706.95755540085236
 31
0.0
  0
LINE
  5
E270
  8
0
 10
745.20592567150618
 20
706.95755540085236
 30
0.0
 11
744.75766247359388
 21
705.28452936835993
 31
0.0
  0
LINE
  5
E271
  8
0
 10
744.75766247359388
 20
705.28452936835993
 30
0.0
 11
750.71050051095165
 21
683.0682353637111
 31
0.0
  0
LINE
  5
E272
  8
0
 10
750.71050051095165
 20
683.0682353637111
 30
0.0
 11
751.93522084417191
 21
681.84348391733636
 31
0.0
  0
LINE
  5
E273
  8
0
 10
751.93522084417191
 20
681.84348391733636
 30
0.0
 11
757.02371809706278
 21
683.20694264693657
 31
0.0
  0
LINE
  5
E274
  8
0
 10
757.02371809706278
 20
683.20694264693657
 30
0.0
 11
757.47198129497542
 21
684.87996867942877
 31
0.0
  0
LINE
  5
E275
  8
0
 10
757.47198129497542
 20
684.87996867942877
 30
0.0
 11
756.8249336822189
 21
687.29478324515162
 31
0.0
  0
LINE
  5
E276
  8
0
 10
751.61621178773578
 20
703.38803093559397
 30
0.0
 11
746.52771453484502
 21
702.02457220599388
 31
0.0
  0
LINE
  5
E277
  8
0
 10
746.52771453484502
 20
702.02457220599388
 30
0.0
 11
747.27647803232662
 21
699.23014879053972
 31
0.0
  0
LINE
  5
E278
  8
0
 10
747.27647803232662
 20
699.23014879053972
 30
0.0
 11
752.36497528521716
 21
700.59360752013981
 31
0.0
  0
LINE
  5
E279
  8
0
 10
752.36497528521716
 20
700.59360752013981
 30
0.0
 11
751.61621178773578
 21
703.38803093559397
 31
0.0
  0
ARC
  5
E27A
  8
0
 10
749.08494044096699
 20
705.35335654908056
 30
0.0
 40
4.1976433314087407
 50
157.5320517966469
 51
232.4679482033626
  0
ARC
  5
E27B
  8
0
 10
762.09467475220777
 20
698.02429173286691
 30
0.0
 40
14.867180138568379
 50
175.34770562304959
 51
214.65229437695339
  0
ARC
  5
E27C
  8
0
 10
754.49244675029445
 20
685.17226826042247
 30
0.0
 40
4.1976433314087407
 50
157.5320517966469
 51
232.4679482033626
  0
ARC
  5
E27D
  8
0
 10
747.73719701827497
 20
704.99222978736577
 30
0.0
 40
4.1976433314087407
 50
337.5320517966469
 51
52.467948203350844
  0
ARC
  5
E27E
  8
0
 10
740.13496901636131
 20
692.14020631492167
 30
0.0
 40
14.867180138568379
 50
355.34770562304971
 51
34.652294376953421
  0
ARC
  5
E27F
  8
0
 10
753.14470332760197
 20
684.81114149870746
 30
0.0
 40
4.1976433314087407
 50
337.5320517966469
 51
52.467948203356009
  0
LINE
  5
E280
  8
0
 10
854.86799631068516
 20
761.17651137195537
 30
0.0
 11
854.86799631068516
 21
749.17651137195571
 31
0.0
  0
ARC
  5
E281
  8
0
 10
855.86799631068516
 20
761.17651137195537
 30
0.0
 40
1.0
 50
90.0
 51
180.0
  0
LINE
  5
E282
  8
0
 10
866.86799631068516
 20
761.17651137195571
 30
0.0
 11
866.86799631068516
 21
749.17651137195571
 31
0.0
  0
ARC
  5
E283
  8
0
 10
865.86799631068516
 20
749.17651137195571
 30
0.0
 40
1.0
 50
270.0
 51
0.0
  0
ARC
  5
E284
  8
0
 10
865.86799631068516
 20
761.17651137195571
 30
0.0
 40
1.0
 50
0.0
 51
90.0
  0
LINE
  5
E285
  8
0
 10
865.86799631068516
 20
748.17651137195571
 30
0.0
 11
855.86799631068516
 21
748.17651137195571
 31
0.0
  0
ARC
  5
E286
  8
0
 10
855.86799631068516
 20
749.17651137195571
 30
0.0
 40
1.0
 50
180.0
 51
270.0
  0
LINE
  5
E287
  8
0
 10
865.86799631068516
 20
762.17651137195571
 30
0.0
 11
855.86799631068516
 21
762.17651137195537
 31
0.0
  0
LINE
  5
E288
  8
0
 10
751.51884315222924
 20
707.09618226239081
 30
0.0
 11
752.48476198568051
 21
707.35502740370862
 31
0.0
  0
LINE
  5
E289
  8
0
 10
757.47198129497542
 20
684.87996867942877
 30
0.0
 11
758.43820023381488
 21
685.13889424243325
 31
0.0
  0
LINE
  5
E292
  8
0
 10
879.86799631068516
 20
491.63247506674543
 30
0.0
 11
879.86799631068504
 21
457.63247490685319
 31
0.0
  0
LINE
  5
E29B
  8
0
 10
707.96479686509588
 20
481.8824749867992
 30
0.0
 11
707.96479686509588
 21
467.8824749867992
 31
0.0
  0
LINE
  5
E29C
  8
0
 10
707.96479686509588
 20
467.8824749867992
 30
0.0
 11
707.19848480471001
 21
467.8824749867992
 31
0.0
  0
LINE
  5
E29D
  8
0
 10
707.96479686509588
 20
481.8824749867992
 30
0.0
 11
707.19848480471001
 21
481.8824749867992
 31
0.0
  0
CIRCLE
  5
E2A0
  8
0
 10
689.96479686509588
 20
474.8824749867992
 30
0.0
 40
18.0
  0
ARC
  5
E2A1
  8
0
 10
709.27638661531796
 20
483.13247506674543
 30
0.0
 40
3.0
 50
90.00000000000216
 51
196.49582346295321
  0
ARC
  5
E2A2
  8
0
 10
707.19848480471001
 20
466.8824749867992
 30
0.0
 40
1.0
 50
90.0
 51
155.09893762963321
  0
ARC
  5
E2A4
  8
0
 10
707.19848480471001
 20
482.8824749867992
 30
0.0
 40
1.0
 50
204.90106237036679
 51
270.0
  0
LINE
  5
E2A5
  8
0
 10
671.96479686509576
 20
481.88247498679902
 30
0.0
 11
671.96479686509622
 21
467.88247498679902
 31
0.0
  0
LINE
  5
E2A6
  8
0
 10
671.9647968650961
 20
467.88247498679902
 30
0.0
 11
672.73110892548198
 21
467.88247498679902
 31
0.0
  0
LINE
  5
E2A7
  8
0
 10
671.96479686509576
 20
481.88247498679902
 30
0.0
 11
672.73110892548175
 21
481.88247498679902
 31
0.0
  0
ARC
  5
E2A8
  8
0
 10
672.73110892548175
 20
482.88247498679891
 30
0.0
 40
1.0
 50
270.00000000000068
 51
335.09893762963401
  0
ARC
  5
E2A9
  8
0
 10
672.73110892548198
 20
466.88247498679902
 30
0.0
 40
1.0
 50
24.901062370367601
 51
90.000000000000782
  0
ARC
  5
E2AA
  8
0
 10
670.65320711487368
 20
483.1324750667452
 30
0.0
 40
3.0
 50
343.5041765370475
 51
89.999999999998607
  0
LINE
  5
E2AB
  8
0
 10
681.19412022083065
 20
459.16384810014841
 30
0.0
 11
654.46479686509633
 21
459.16384810014841
 31
0.0
  0
LINE
  5
E2AC
  8
0
 10
957.77119575627455
 20
481.88247498679931
 30
0.0
 11
957.77119575627444
 21
467.88247498679942
 31
0.0
  0
LINE
  5
E2AD
  8
0
 10
957.77119575627455
 20
467.88247498679942
 30
0.0
 11
957.00488369588857
 21
467.88247498679942
 31
0.0
  0
LINE
  5
E2AE
  8
0
 10
957.77119575627455
 20
481.88247498679931
 30
0.0
 11
957.00488369588857
 21
481.88247498679931
 31
0.0
  0
CIRCLE
  5
E2AF
  8
0
 10
939.77119575627444
 20
474.88247498679931
 30
0.0
 40
18.0
  0
ARC
  5
E2B0
  8
0
 10
957.00488369588857
 20
482.88247498679931
 30
0.0
 40
1.0
 50
204.90106237036679
 51
270.0
  0
ARC
  5
E2B1
  8
0
 10
957.00488369588857
 20
466.88247498679931
 30
0.0
 40
1.0
 50
90.0
 51
155.09893762963321
  0
ARC
  5
E2B2
  8
0
 10
959.08278550649675
 20
483.13247506674549
 30
0.0
 40
3.0
 50
90.00000000000216
 51
196.49582346295321
  0
LINE
  5
E2B3
  8
0
 10
921.77119575627455
 20
481.88247498679908
 30
0.0
 11
921.77119575627478
 21
467.88247498679908
 31
0.0
  0
LINE
  5
E2B4
  8
0
 10
921.77119575627455
 20
467.88247498679908
 30
0.0
 11
922.53750781666065
 21
467.88247498679908
 31
0.0
  0
LINE
  5
E2B5
  8
0
 10
921.77119575627455
 20
481.88247498679908
 30
0.0
 11
922.53750781666054
 21
481.88247498679908
 31
0.0
  0
ARC
  5
E2B6
  8
0
 10
922.53750781666054
 20
482.88247498679908
 30
0.0
 40
1.0
 50
270.00000000000068
 51
335.09893762963401
  0
ARC
  5
E2B7
  8
0
 10
922.53750781666065
 20
466.88247498679908
 30
0.0
 40
1.0
 50
24.901062370367601
 51
90.000000000000782
  0
ARC
  5
E2B8
  8
0
 10
920.45960600605235
 20
483.13247506674531
 30
0.0
 40
3.0
 50
343.5041765370475
 51
89.999999999998607
  0
ARC
  5
E2BC
  8
0
 10
515.36799631068504
 20
594.11784137269683
 30
0.0
 40
340.0
 50
355.1321215440131
 51
357.4385862107253
  0
ARC
  5
E2BD
  8
0
 10
515.36799631068504
 20
594.11784137269683
 30
0.0
 40
340.0
 50
5.3483922940061621
 51
5.4039378865571202
  0
LINE
  5
E2C0
  8
0
 10
1274.7533074995749
 20
435.53806219795081
 30
0.0
 11
1274.7533074995749
 21
419.75020484076509
 31
0.0
  0
LINE
  5
E2C1
  8
0
 10
1273.7533074995749
 20
388.75020484076521
 30
0.0
 11
1298.816307499575
 21
388.75020484076521
 31
0.0
  0
ARC
  5
E2C2
  8
0
 10
1306.7533074995749
 20
419.75020484076509
 30
0.0
 40
32.0
 50
180.0
 51
191.88115602101291
  0
ARC
  5
E2C3
  8
0
 10
1273.481697980347
 20
412.75020484076509
 30
0.0
 40
2.0
 50
277.8051578013056
 51
11.88115602101295
  0
ARC
  5
E2C4
  8
0
 10
1331.635179374005
 20
392.36604058431118
 30
0.0
 40
5.0
 50
74.999823903770391
 51
132.25899623008769
  0
LINE
  5
E2C5
  8
0
 10
1349.962019652098
 20
486.75020484076509
 30
0.0
 11
1349.962019652098
 21
486.75020484076509
 31
0.0
  0
LINE
  5
E2C6
  8
0
 10
1254.7533074995749
 20
487.75020484076509
 30
0.0
 11
1254.7533074995749
 21
485.75020484076509
 31
0.0
  0
ARC
  5
E2C7
  8
0
 10
1257.2533074995749
 20
487.75020484076509
 30
0.0
 40
2.5
 50
156.42182152179279
 51
180.0
  0
ARC
  5
E2C8
  8
0
 10
1253.7533074995749
 20
485.75020484076509
 30
0.0
 40
1.0
 50
270.0
 51
0.0
  0
LINE
  5
E2C9
  8
0
 10
1368.7533074995749
 20
470.75020484076492
 30
0.0
 11
1368.7533074995749
 21
454.75020484076509
 31
0.0
  0
ARC
  5
E2CA
  8
0
 10
1367.7533074995749
 20
470.75020484076492
 30
0.0
 40
1.0
 50
0.0
 51
90.0
  0
LINE
  5
E2CB
  8
0
 10
1356.7533074995749
 20
470.75020484076509
 30
0.0
 11
1356.7533074995749
 21
454.75020484076509
 31
0.0
  0
ARC
  5
E2CC
  8
0
 10
1357.7533074995749
 20
454.75020484076509
 30
0.0
 40
1.0
 50
180.0
 51
270.0
  0
ARC
  5
E2CD
  8
0
 10
1357.7533074995749
 20
470.75020484076509
 30
0.0
 40
1.0
 50
90.0
 51
180.0
  0
LINE
  5
E2CE
  8
0
 10
1370.7533074995749
 20
484.75020484076509
 30
0.0
 11
1371.7533074995749
 21
483.75020484076509
 31
0.0
  0
LINE
  5
E2CF
  8
0
 10
1251.7533074995749
 20
483.75020484076509
 30
0.0
 11
1251.7533074995749
 21
441.75020484076509
 31
0.0
  0
LINE
  5
E2D0
  8
0
 10
1266.7533074995749
 20
484.75020484076509
 30
0.0
 11
1252.7533074995749
 21
484.75020484076509
 31
0.0
  0
LINE
  5
E2D1
  8
0
 10
1251.7533074995749
 20
483.75020484076509
 30
0.0
 11
1252.7533074995749
 21
484.75020484076509
 31
0.0
  0
LINE
  5
E2D2
  8
0
 10
1349.7533074995749
 20
488.75020484076509
 30
0.0
 11
1254.9620196520971
 21
488.75020484076509
 31
0.0
  0
ARC
  5
E2D3
  8
0
 10
1273.2533074995749
 20
446.25020484076509
 30
0.0
 40
7.0
 50
239.7273586810974
 51
256.86344121305751
  0
ARC
  5
E2D4
  8
0
 10
1270.7533074995749
 20
435.53806219795081
 30
0.0
 40
4.0
 50
0.0
 51
76.863441213057513
  0
ARC
  5
E2D5
  8
0
 10
1267.7080392463711
 20
436.75020484076509
 30
0.0
 40
4.0
 50
59.727358681097428
 51
90.0
  0
LINE
  5
E2D6
  8
0
 10
1267.7080392463711
 20
440.75020484076509
 30
0.0
 11
1252.7533074995749
 21
440.75020484076509
 31
0.0
  0
LINE
  5
E2D7
  8
0
 10
1371.7533074995749
 20
441.74995484076521
 30
0.0
 11
1370.7533074995749
 21
440.74995484076521
 31
0.0
  0
LINE
  5
E2D8
  8
0
 10
1251.7533074995749
 20
441.75020484076509
 30
0.0
 11
1252.7533074995749
 21
440.75020484076509
 31
0.0
  0
LINE
  5
E2D9
  8
0
 10
1370.7533074995749
 20
484.75020484076509
 30
0.0
 11
1352.8703465652941
 21
484.75020484076509
 31
0.0
  0
LINE
  5
E2DA
  8
0
 10
1332.929289443179
 20
397.19566573838517
 30
0.0
 11
1361.7938626451109
 21
389.4613315755131
 31
0.0
  0
LINE
  5
E2DB
  8
0
 10
1360.7353074995749
 20
423.10525868816518
 30
0.0
 11
1360.7353074995749
 21
437.75045484076497
 31
0.0
  0
ARC
  5
E2DC
  8
0
 10
1363.7353074995749
 20
437.75045484076497
 30
0.0
 40
3.0
 50
90.0
 51
180.0
  0
LINE
  5
E2DD
  8
0
 10
1362.958841458071
 20
420.20748359572059
 30
0.0
 11
1369.55948178119
 21
418.43882560827097
 31
0.0
  0
ARC
  5
E2DE
  8
0
 10
1363.7353074995749
 20
423.10525868816489
 30
0.0
 40
3.0
 50
180.0
 51
254.99982390377039
  0
ARC
  5
E2DF
  8
0
 10
1362.311506672781
 20
391.39318163714267
 30
0.0
 40
2.0
 50
254.99982390377039
 51
269.48691222174853
  0
LINE
  5
E2E0
  8
0
 10
1362.2935967699941
 20
389.39326182990487
 30
0.0
 11
1370.026048631031
 21
418.24804675385542
 31
0.0
  0
LINE
  5
E2E1
  8
0
 10
1364.149022409897
 20
392.45374256992511
 30
0.0
 11
1370.1024606580311
 21
414.66987573120019
 31
0.0
  0
ARC
  5
E2E2
  8
0
 10
1369.04183775352
 20
416.5069755466414
 30
0.0
 40
2.0
 50
60.520939860416938
 51
74.999823903770391
  0
LINE
  5
E2E3
  8
0
 10
1363.7353074995749
 20
440.75045484076509
 30
0.0
 11
1370.7533074995749
 21
440.74995484076521
 31
0.0
  0
ARC
  5
E2E4
  8
0
 10
1352.8703465652941
 20
487.75020484076509
 30
0.0
 40
3.0
 50
190.47568169639359
 51
270.0
  0
ARC
  5
E2E5
  8
0
 10
1347.462019652098
 20
486.75020484076509
 30
0.0
 40
2.5
 50
10.475681696393639
 51
23.57817847820715
  0
LINE
  5
E2E6
  8
0
 10
1273.7533074995749
 20
410.7687336022496
 30
0.0
 11
1273.7533074995749
 21
388.75020484076521
 31
0.0
  0
ARC
  5
E2E7
  8
0
 10
1306.7533074995749
 20
419.75020484076509
 30
0.0
 40
32.0
 50
180.0
 51
0.0
  0
LINE
  5
E2E8
  8
0
 10
1413.469800152692
 20
447.81295090757118
 30
0.0
 11
1413.469800152692
 21
419.75020484076498
 31
0.0
  0
LINE
  5
E2E9
  8
0
 10
1406.469800152692
 20
478.01815403319608
 30
0.0
 11
1406.469800152692
 21
455.75020484076509
 31
0.0
  0
LINE
  5
E2EA
  8
0
 10
1477.469800152692
 20
419.75020484076498
 30
0.0
 11
1477.469800152692
 21
447.81295090757118
 31
0.0
  0
LINE
  5
E2EB
  8
0
 10
1405.469800152692
 20
488.75020484076509
 30
0.0
 11
1405.469800152692
 21
479.75020484076509
 31
0.0
  0
ARC
  5
E2EC
  8
0
 10
1410.469800152692
 20
455.75020484076509
 30
0.0
 40
4.0
 50
180.0
 51
262.81924421854148
  0
ARC
  5
E2ED
  8
0
 10
1409.469800152692
 20
447.81295090757118
 30
0.0
 40
4.0
 50
0.0
 51
82.819244218541442
  0
LINE
  5
E2EE
  8
0
 10
1406.469800152692
 20
478.75020484076521
 30
0.0
 11
1430.3701312821511
 21
478.75020484076521
 31
0.0
  0
ARC
  5
E2EF
  8
0
 10
1406.469800152692
 20
479.75020484076509
 30
0.0
 40
1.0
 50
180.0
 51
240.00000000000551
  0
ARC
  5
E2F0
  8
0
 10
1405.469800152692
 20
478.01815403319608
 30
0.0
 40
1.0
 50
0.0
 51
60.000000000005542
  0
LINE
  5
E2F1
  8
0
 10
1484.469800152692
 20
478.01815403319608
 30
0.0
 11
1484.4698001526931
 21
455.75020484076509
 31
0.0
  0
LINE
  5
E2F2
  8
0
 10
1485.469800152692
 20
488.75020484076509
 30
0.0
 11
1485.469800152692
 21
479.75020484076509
 31
0.0
  0
ARC
  5
E2F3
  8
0
 10
1484.469800152692
 20
479.75020484076509
 30
0.0
 40
1.0
 50
299.99999999999449
 51
0.0
  0
ARC
  5
E2F4
  8
0
 10
1485.469800152692
 20
478.01815403319608
 30
0.0
 40
1.0
 50
119.9999999999944
 51
180.0
  0
ARC
  5
E2F5
  8
0
 10
1480.469800152692
 20
455.75020484076509
 30
0.0
 40
4.0
 50
277.18075578145852
 51
0.0
  0
ARC
  5
E2F6
  8
0
 10
1481.469800152692
 20
447.81295090757118
 30
0.0
 40
4.0
 50
97.180755781458572
 51
180.0
  0
LINE
  5
E2F7
  8
0
 10
1405.6785123052141
 20
488.75020484076509
 30
0.0
 11
1485.26108800017
 21
488.75020484076509
 31
0.0
  0
LINE
  5
E2F8
  8
0
 10
1349.7533074995749
 20
488.75020484076532
 30
0.0
 11
1349.7533074995749
 21
480.75020484076509
 31
0.0
  0
ARC
  5
E2F9
  8
0
 10
1347.7533074995749
 20
480.75020484076509
 30
0.0
 40
2.0
 50
270.0
 51
0.0
  0
LINE
  5
E2FA
  8
0
 10
1409.969800152692
 20
451.78157787416819
 30
0.0
 11
1426.3991624478949
 21
451.78157787416819
 31
0.0
  0
LINE
  5
E2FB
  8
0
 10
1464.5404378574899
 20
451.78157787416819
 30
0.0
 11
1480.969800152692
 21
451.78157787416819
 31
0.0
  0
LINE
  5
E2FC
  8
0
 10
1341.876628253613
 20
451.78157787416842
 30
0.0
 11
1275.794443241715
 21
451.78157787416842
 31
0.0
  0
ARC
  5
E2FD
  8
0
 10
1341.876628253613
 20
456.78157787416831
 30
0.0
 40
5.0
 50
270.0
 51
0.0
  0
LINE
  5
E2FE
  8
0
 10
1266.7533074995749
 20
488.75020484076509
 30
0.0
 11
1266.7533074995749
 21
480.75020484076509
 31
0.0
  0
LINE
  5
E2FF
  8
0
 10
1346.876628253613
 20
478.75020484076521
 30
0.0
 11
1346.876628253613
 21
456.78157787416831
 31
0.0
  0
LINE
  5
E300
  8
0
 10
1347.7533074995749
 20
478.75020484076521
 30
0.0
 11
1268.7533074995749
 21
478.75020484076521
 31
0.0
  0
ARC
  5
E301
  8
0
 10
1268.7533074995749
 20
480.75020484076509
 30
0.0
 40
2.0
 50
180.0
 51
270.0
  0
LINE
  5
E302
  8
0
 10
1270.794443241715
 20
478.75020484076532
 30
0.0
 11
1270.794443241715
 21
456.78157787416831
 31
0.0
  0
ARC
  5
E303
  8
0
 10
1275.794443241715
 20
456.78157787416831
 30
0.0
 40
5.0
 50
180.0
 51
270.0
  0
LINE
  5
E304
  8
0
 10
1338.7533074995749
 20
419.75020484076509
 30
0.0
 11
1338.7533074995749
 21
451.78157787416842
 31
0.0
  0
LINE
  5
E305
  8
0
 10
1349.7533074995749
 20
498.75020484076532
 30
0.0
 11
1267.7533074995749
 21
498.75020484076532
 31
0.0
  0
LINE
  5
E306
  8
0
 10
1310.7533074995749
 20
513.75020484076526
 30
0.0
 11
1302.7533074995749
 21
513.75020484076526
 31
0.0
  0
ARC
  5
E307
  8
0
 10
1292.7533074995749
 20
500.75020484076532
 30
0.0
 40
2.0
 50
270.0
 51
0.0
  0
LINE
  5
E308
  8
0
 10
1294.7533074995749
 20
505.75020484076538
 30
0.0
 11
1294.7533074995749
 21
500.75020484076532
 31
0.0
  0
ARC
  5
E309
  8
0
 10
1302.7533074995749
 20
505.75020484076538
 30
0.0
 40
8.0
 50
90.0
 51
180.0
  0
LINE
  5
E30A
  8
0
 10
1349.7533074995749
 20
488.75020484076532
 30
0.0
 11
1349.7533074995749
 21
509.72609551286553
 31
0.0
  0
ARC
  5
E30B
  8
0
 10
1347.7533074995749
 20
509.72609551286553
 30
0.0
 40
2.0
 50
0.0
 51
90.0
  0
LINE
  5
E30C
  8
0
 10
1316.7853194348011
 20
511.72609551286553
 30
0.0
 11
1347.7533074995749
 21
511.72609551286553
 31
0.0
  0
LINE
  5
E30D
  8
0
 10
1266.7533074995749
 20
625.29034137269673
 30
0.0
 11
1266.7533074995749
 21
563.29034137269673
 31
0.0
  0
LINE
  5
E30E
  8
0
 10
1349.00256784813
 20
586.29034137269673
 30
0.0
 11
1318.3722575381969
 21
586.29034137269673
 31
0.0
  0
LINE
  5
E30F
  8
0
 10
1349.00256784813
 20
602.29034137269673
 30
0.0
 11
1318.3722575381969
 21
602.29034137269673
 31
0.0
  0
LINE
  5
E310
  8
0
 10
1336.8146299325181
 20
554.29034137269673
 30
0.0
 11
1275.7533074995749
 21
554.29034137269673
 31
0.0
  0
ARC
  5
E311
  8
0
 10
1275.7533074995749
 20
563.29034137269673
 30
0.0
 40
9.0
 50
180.0
 51
270.0
  0
LINE
  5
E312
  8
0
 10
1336.782176104057
 20
634.29034137269673
 30
0.0
 11
1275.7533074995749
 21
634.29034137269673
 31
0.0
  0
ARC
  5
E313
  8
0
 10
1275.7533074995749
 20
625.29034137269673
 30
0.0
 40
9.0
 50
90.0
 51
180.0
  0
ARC
  5
E314
  8
0
 10
1007.253307499575
 20
594.11784137269683
 30
0.0
 40
340.0
 50
2.627413928670943
 51
4.9186949834369491
  0
ARC
  5
E315
  8
0
 10
1007.253307499575
 20
594.11784137269683
 30
0.0
 40
340.0
 50
5.3483922940061621
 51
5.4039378865571202
  0
ARC
  5
E316
  8
0
 10
1306.7533074995749
 20
594.29034137269673
 30
0.0
 40
43.0
 50
339.06085846259879
 51
21.00514167678606
  0
ARC
  5
E317
  8
0
 10
1007.253307499575
 20
594.11784137269683
 30
0.0
 40
340.0
 50
354.65604492731069
 51
354.72120780791062
  0
ARC
  5
E318
  8
0
 10
1007.253307499575
 20
594.11784137269683
 30
0.0
 40
340.0
 50
355.1321215440131
 51
357.4385862107253
  0
ARC
  5
E319
  8
0
 10
1336.782176104057
 20
625.29034137269673
 30
0.0
 40
9.0
 50
5.4039378865571202
 51
90.0
  0
ARC
  5
E31A
  8
0
 10
1336.8146299325181
 20
563.29034137269673
 30
0.0
 40
9.0
 50
270.0
 51
354.65604492731069
  0
LINE
  5
E31B
  8
0
 10
1266.7533074995749
 20
488.75020484076532
 30
0.0
 11
1266.7533074995749
 21
497.75020484076538
 31
0.0
  0
ARC
  5
E31C
  8
0
 10
1267.7533074995749
 20
497.75020484076538
 30
0.0
 40
1.0
 50
90.0
 51
180.0
  0
CIRCLE
  5
E31D
  8
0
 10
1306.7533074995749
 20
594.29034137269673
 30
0.0
 40
13.0
  0
ARC
  5
E31E
  8
0
 10
1318.3722575381969
 20
583.29034137269673
 30
0.0
 40
3.0
 50
90.0
 51
136.56746344221119
  0
ARC
  5
E31F
  8
0
 10
1318.3722575381969
 20
605.29034137269673
 30
0.0
 40
3.0
 50
223.43253655778881
 51
270.0
  0
ARC
  5
E320
  8
0
 10
1316.7853194348011
 20
513.72609551286553
 30
0.0
 40
2.0
 50
232.9004880728119
 51
270.0
  0
LINE
  5
E321
  8
0
 10
1318.7533074995749
 20
505.75020484076538
 30
0.0
 11
1318.7533074995749
 21
500.75020484076532
 31
0.0
  0
ARC
  5
E322
  8
0
 10
1310.7533074995749
 20
505.75020484076538
 30
0.0
 40
8.0
 50
0.0
 51
90.0
  0
ARC
  5
E323
  8
0
 10
1320.7533074995749
 20
500.75020484076532
 30
0.0
 40
2.0
 50
180.0
 51
270.0
  0
LINE
  5
E324
  8
0
 10
1284.951269299147
 20
505.7512048407653
 30
0.0
 11
1268.451269299147
 21
505.7512048407653
 31
0.0
  0
ARC
  5
E325
  8
0
 10
1269.3402692991469
 20
500.91988077534847
 30
0.0
 40
4.6309815714167701
 50
58.000676159490958
 51
121.99932384050901
  0
LINE
  5
E326
  8
0
 10
1282.0442692991469
 20
505.08820484076529
 30
0.0
 11
1282.5142692991469
 21
505.28420484076531
 31
0.0
  0
LINE
  5
E327
  8
0
 10
1286.5162692991471
 20
498.75020484076532
 30
0.0
 11
1286.5162692991471
 21
504.8472048407653
 31
0.0
  0
LINE
  5
E328
  8
0
 10
1286.5162692991471
 20
504.8472048407653
 30
0.0
 11
1284.951269299147
 21
505.7512048407653
 31
0.0
  0
LINE
  5
E329
  8
0
 10
1285.6102692991469
 20
505.2852048407654
 30
0.0
 11
1286.5162692991471
 21
504.8472048407653
 31
0.0
  0
LINE
  5
E32A
  8
0
 10
1285.1112692991469
 20
505.43020484076538
 30
0.0
 11
1285.6102692991469
 21
505.2852048407654
 31
0.0
  0
LINE
  5
E32B
  8
0
 10
1284.5912692991469
 20
505.5202048407653
 30
0.0
 11
1285.1112692991469
 21
505.43020484076538
 31
0.0
  0
LINE
  5
E32C
  8
0
 10
1284.0622692991469
 20
505.55120484076531
 30
0.0
 11
1284.5912692991469
 21
505.5202048407653
 31
0.0
  0
LINE
  5
E32D
  8
0
 10
1283.5332692991469
 20
505.5202048407653
 30
0.0
 11
1284.0622692991469
 21
505.55120484076531
 31
0.0
  0
LINE
  5
E32E
  8
0
 10
1283.0142692991469
 20
505.43020484076538
 30
0.0
 11
1283.5332692991469
 21
505.5202048407653
 31
0.0
  0
LINE
  5
E32F
  8
0
 10
1282.5142692991469
 20
505.28420484076531
 30
0.0
 11
1283.0142692991469
 21
505.43020484076538
 31
0.0
  0
LINE
  5
E330
  8
0
 10
1271.7942692991469
 20
504.8472048407653
 30
0.0
 11
1271.7942692991469
 21
498.75020484076532
 31
0.0
  0
LINE
  5
E331
  8
0
 10
1281.608269299147
 20
504.8472048407653
 30
0.0
 11
1281.608269299147
 21
498.75020484076532
 31
0.0
  0
ARC
  5
E332
  8
0
 10
1276.701269299147
 20
488.08821324765188
 30
0.0
 40
17.462601416113358
 50
73.680072331670786
 51
106.3199276683292
  0
LINE
  5
E333
  8
0
 10
1281.608269299147
 20
504.8472048407653
 30
0.0
 11
1282.0442692991469
 21
505.08820484076529
 31
0.0
  0
LINE
  5
E334
  8
0
 10
1266.886269299147
 20
504.8472048407653
 30
0.0
 11
1266.886269299147
 21
498.75020484076532
 31
0.0
  0
LINE
  5
E335
  8
0
 10
1268.451269299147
 20
505.7512048407653
 30
0.0
 11
1266.886269299147
 21
504.8472048407653
 31
0.0
  0
LINE
  5
E336
  8
0
 10
1266.886269299147
 20
498.75020484076532
 30
0.0
 11
1267.7533074995749
 21
498.75020484076532
 31
0.0
  0
LINE
  5
E337
  8
0
 10
1345.0646299325181
 20
505.75120484076552
 30
0.0
 11
1328.5646299325181
 21
505.75120484076552
 31
0.0
  0
ARC
  5
E338
  8
0
 10
1329.453629932518
 20
500.91988077534882
 30
0.0
 40
4.6309815714167701
 50
58.000676159490958
 51
121.99932384050901
  0
LINE
  5
E339
  8
0
 10
1342.1576299325179
 20
505.08820484076563
 30
0.0
 11
1342.6276299325179
 21
505.28420484076543
 31
0.0
  0
LINE
  5
E33A
  8
0
 10
1346.6296299325179
 20
498.75020484076549
 30
0.0
 11
1346.6296299325179
 21
504.84720484076553
 31
0.0
  0
LINE
  5
E33B
  8
0
 10
1346.6296299325179
 20
504.84720484076553
 30
0.0
 11
1345.0646299325181
 21
505.75120484076552
 31
0.0
  0
LINE
  5
E33C
  8
0
 10
1345.723629932518
 20
505.28520484076569
 30
0.0
 11
1346.6296299325179
 21
504.84720484076553
 31
0.0
  0
LINE
  5
E33D
  8
0
 10
1345.2246299325179
 20
505.43020484076561
 30
0.0
 11
1345.723629932518
 21
505.28520484076569
 31
0.0
  0
LINE
  5
E33E
  8
0
 10
1344.7046299325179
 20
505.52020484076559
 30
0.0
 11
1345.2246299325179
 21
505.43020484076561
 31
0.0
  0
LINE
  5
E33F
  8
0
 10
1344.1756299325179
 20
505.55120484076548
 30
0.0
 11
1344.7046299325179
 21
505.52020484076559
 31
0.0
  0
LINE
  5
E340
  8
0
 10
1343.646629932518
 20
505.52020484076559
 30
0.0
 11
1344.1756299325179
 21
505.55120484076548
 31
0.0
  0
LINE
  5
E341
  8
0
 10
1343.1276299325179
 20
505.43020484076561
 30
0.0
 11
1343.646629932518
 21
505.52020484076559
 31
0.0
  0
LINE
  5
E342
  8
0
 10
1342.6276299325179
 20
505.28420484076543
 30
0.0
 11
1343.1276299325179
 21
505.43020484076561
 31
0.0
  0
LINE
  5
E343
  8
0
 10
1331.9076299325179
 20
504.84720484076553
 30
0.0
 11
1331.9076299325179
 21
498.75020484076549
 31
0.0
  0
LINE
  5
E344
  8
0
 10
1341.721629932518
 20
504.84720484076553
 30
0.0
 11
1341.721629932518
 21
498.75020484076549
 31
0.0
  0
ARC
  5
E345
  8
0
 10
1336.8146299325181
 20
488.08821324765211
 30
0.0
 40
17.462601416113358
 50
73.680072331670786
 51
106.3199276683292
  0
LINE
  5
E346
  8
0
 10
1341.721629932518
 20
504.84720484076553
 30
0.0
 11
1342.1576299325179
 21
505.08820484076563
 31
0.0
  0
LINE
  5
E347
  8
0
 10
1326.999629932518
 20
504.84720484076553
 30
0.0
 11
1326.999629932518
 21
498.75020484076549
 31
0.0
  0
LINE
  5
E348
  8
0
 10
1328.5646299325181
 20
505.75120484076552
 30
0.0
 11
1326.999629932518
 21
504.84720484076553
 31
0.0
  0
LINE
  5
E349
  8
0
 10
1266.886269299147
 20
564.23830317226862
 30
0.0
 11
1271.7942692991469
 21
572.73830317226862
 31
0.0
  0
LINE
  5
E34A
  8
0
 10
1281.608269299147
 20
572.73830317226862
 30
0.0
 11
1286.5162692991471
 21
564.23830317226862
 31
0.0
  0
CIRCLE
  5
E34B
  8
0
 10
1276.701269299147
 20
564.23830317226862
 30
0.0
 40
8.2499099999999999
  0
LINE
  5
E34C
  8
0
 10
1271.7942692991469
 20
555.73830317226862
 30
0.0
 11
1266.886269299147
 21
564.23830317226862
 31
0.0
  0
LINE
  5
E34D
  8
0
 10
1286.5162692991471
 20
564.23830317226862
 30
0.0
 11
1281.608269299147
 21
555.73830317226862
 31
0.0
  0
LINE
  5
E34E
  8
0
 10
1281.608269299147
 20
555.73830317226862
 30
0.0
 11
1271.7942692991469
 21
555.73830317226862
 31
0.0
  0
LINE
  5
E34F
  8
0
 10
1271.7942692991469
 20
572.73830317226862
 30
0.0
 11
1281.608269299147
 21
572.73830317226862
 31
0.0
  0
LINE
  5
E350
  8
0
 10
1326.9903457000039
 20
564.23830317226827
 30
0.0
 11
1331.8983457000029
 21
572.73830317226827
 31
0.0
  0
LINE
  5
E351
  8
0
 10
1341.712345700003
 20
572.73830317226827
 30
0.0
 11
1346.6203457000031
 21
564.23830317226827
 31
0.0
  0
CIRCLE
  5
E352
  8
0
 10
1336.805345700003
 20
564.23830317226827
 30
0.0
 40
8.2499099999999999
  0
LINE
  5
E353
  8
0
 10
1331.8983457000029
 20
555.73830317226827
 30
0.0
 11
1326.9903457000039
 21
564.23830317226827
 31
0.0
  0
LINE
  5
E354
  8
0
 10
1346.6203457000031
 20
564.23830317226827
 30
0.0
 11
1341.712345700003
 21
555.73830317226827
 31
0.0
  0
LINE
  5
E355
  8
0
 10
1341.712345700003
 20
555.73830317226827
 30
0.0
 11
1331.8983457000029
 21
555.73830317226827
 31
0.0
  0
LINE
  5
E356
  8
0
 10
1331.8983457000029
 20
572.73830317226827
 30
0.0
 11
1341.712345700003
 21
572.73830317226827
 31
0.0
  0
LINE
  5
E357
  8
0
 10
1326.9903457000039
 20
624.34237957312496
 30
0.0
 11
1331.8983457000029
 21
632.84237957312496
 31
0.0
  0
LINE
  5
E358
  8
0
 10
1341.712345700003
 20
632.84237957312496
 30
0.0
 11
1346.620345700004
 21
624.34237957312496
 31
0.0
  0
CIRCLE
  5
E359
  8
0
 10
1336.805345700003
 20
624.34237957312496
 30
0.0
 40
8.2499099999999999
  0
LINE
  5
E35A
  8
0
 10
1331.8983457000029
 20
615.84237957312496
 30
0.0
 11
1326.9903457000039
 21
624.34237957312496
 31
0.0
  0
LINE
  5
E35B
  8
0
 10
1346.620345700004
 20
624.34237957312496
 30
0.0
 11
1341.712345700003
 21
615.84237957312496
 31
0.0
  0
LINE
  5
E35C
  8
0
 10
1341.712345700003
 20
615.84237957312496
 30
0.0
 11
1331.8983457000029
 21
615.84237957312496
 31
0.0
  0
LINE
  5
E35D
  8
0
 10
1331.8983457000029
 20
632.84237957312496
 30
0.0
 11
1341.712345700003
 21
632.84237957312496
 31
0.0
  0
LINE
  5
E35E
  8
0
 10
1266.886269299147
 20
624.34237957312496
 30
0.0
 11
1271.7942692991469
 21
632.84237957312496
 31
0.0
  0
LINE
  5
E35F
  8
0
 10
1281.608269299147
 20
632.84237957312496
 30
0.0
 11
1286.5162692991471
 21
624.34237957312496
 31
0.0
  0
CIRCLE
  5
E360
  8
0
 10
1276.701269299147
 20
624.34237957312496
 30
0.0
 40
8.2499099999999999
  0
LINE
  5
E361
  8
0
 10
1271.7942692991469
 20
615.84237957312496
 30
0.0
 11
1266.886269299147
 21
624.34237957312496
 31
0.0
  0
LINE
  5
E362
  8
0
 10
1286.5162692991471
 20
624.34237957312496
 30
0.0
 11
1281.608269299147
 21
615.84237957312496
 31
0.0
  0
LINE
  5
E363
  8
0
 10
1281.608269299147
 20
615.84237957312496
 30
0.0
 11
1271.7942692991469
 21
615.84237957312496
 31
0.0
  0
LINE
  5
E364
  8
0
 10
1271.7942692991469
 20
632.84237957312496
 30
0.0
 11
1281.608269299147
 21
632.84237957312496
 31
0.0
  0
LINE
  5
E365
  8
0
 10
1371.7533074995749
 20
615.29046637269676
 30
0.0
 11
1371.7533074995749
 21
573.29046616965627
 31
0.0
  0
LINE
  5
E366
  8
0
 10
1370.7533074995749
 20
616.29046637269676
 30
0.0
 11
1371.7533074995749
 21
615.29046637269676
 31
0.0
  0
LINE
  5
E367
  8
0
 10
1251.7533074995749
 20
615.29046637269676
 30
0.0
 11
1251.7533074995749
 21
573.29046637269676
 31
0.0
  0
LINE
  5
E368
  8
0
 10
1266.7533074995749
 20
616.29046637269676
 30
0.0
 11
1252.7533074995749
 21
616.29046637269676
 31
0.0
  0
LINE
  5
E369
  8
0
 10
1251.7533074995749
 20
615.29046637269676
 30
0.0
 11
1252.7533074995749
 21
616.29046637269676
 31
0.0
  0
LINE
  5
E36A
  8
0
 10
1266.7533074995749
 20
572.29046637269698
 30
0.0
 11
1252.7533074995749
 21
572.29046637269676
 31
0.0
  0
LINE
  5
E36B
  8
0
 10
1371.7533074995749
 20
573.29046616965627
 30
0.0
 11
1370.7533074995749
 21
572.29046616965627
 31
0.0
  0
LINE
  5
E36C
  8
0
 10
1251.7533074995749
 20
573.29046637269676
 30
0.0
 11
1252.7533074995749
 21
572.29046637269676
 31
0.0
  0
LINE
  5
E36D
  8
0
 10
1370.7533074995749
 20
616.29046637269676
 30
0.0
 11
1346.8684517446591
 21
616.29046637269676
 31
0.0
  0
LINE
  5
E36E
  8
0
 10
1346.884784418909
 20
572.29216669139169
 30
0.0
 11
1370.7533074995749
 21
572.29046616965627
 31
0.0
  0
LINE
  5
E36F
  8
0
 10
1260.7533074995749
 20
588.29034137269673
 30
0.0
 11
1264.7533074995749
 21
588.29034137269673
 31
0.0
  0
ARC
  5
E370
  8
0
 10
1264.7533074995749
 20
586.29034137269673
 30
0.0
 40
2.0
 50
0.0
 51
90.0
  0
ARC
  5
E371
  8
0
 10
1260.7633074995749
 20
594.29034137269673
 30
0.0
 40
6.0
 50
90.0
 51
270.0
  0
LINE
  5
E372
  8
0
 10
1260.7533074995749
 20
600.29034137269673
 30
0.0
 11
1264.7533074995749
 21
600.29034137269673
 31
0.0
  0
ARC
  5
E373
  8
0
 10
1264.7533074995749
 20
602.29034137269673
 30
0.0
 40
2.0
 50
270.0
 51
0.0
  0
LINE
  5
E374
  8
0
 10
1357.7533074995749
 20
453.75020484076521
 30
0.0
 11
1367.7533074995749
 21
453.75020484076521
 31
0.0
  0
ARC
  5
E375
  8
0
 10
1367.7533074995749
 20
454.75020484076509
 30
0.0
 40
1.0
 50
270.0
 51
0.0
  0
LINE
  5
E376
  8
0
 10
1357.7533074995749
 20
471.75020484076509
 30
0.0
 11
1367.7533074995749
 21
471.75020484076492
 31
0.0
  0
LINE
  5
E377
  8
0
 10
1460.469800152692
 20
446.65672790133368
 30
0.0
 11
1460.469800152692
 21
403.82065429188009
 31
0.0
  0
LINE
  5
E378
  8
0
 10
1430.469800152692
 20
446.65672790133442
 30
0.0
 11
1430.469800152692
 21
403.82065429188009
 31
0.0
  0
ARC
  5
E379
  8
0
 10
1445.469800152692
 20
419.75020484076498
 30
0.0
 40
32.0
 50
180.0
 51
0.0
  0
LINE
  5
E37A
  8
0
 10
1364.7963701280421
 20
394.868476713961
 30
0.0
 11
1370.102160552643
 21
414.6699561528867
 31
0.0
  0
LINE
  5
E37B
  8
0
 10
1365.919374576536
 20
395.71361931060397
 30
0.0
 11
1371.0078718294269
 21
394.35016058100388
 31
0.0
  0
LINE
  5
E37C
  8
0
 10
1371.0078718294269
 20
394.35016058100388
 30
0.0
 11
1371.756635326909
 21
397.14458399645872
 31
0.0
  0
LINE
  5
E37D
  8
0
 10
1371.756635326909
 20
397.14458399645872
 30
0.0
 11
1366.6681380740181
 21
398.50804272605882
 31
0.0
  0
LINE
  5
E37E
  8
0
 10
1366.6681380740181
 20
398.50804272605882
 30
0.0
 11
1365.919374576536
 21
395.71361931060397
 31
0.0
  0
LINE
  5
E37F
  8
0
 10
1370.102160552643
 20
414.6699561528867
 30
0.0
 11
1371.3268808858629
 21
415.89470759926189
 31
0.0
  0
LINE
  5
E380
  8
0
 10
1371.3268808858629
 20
415.89470759926189
 30
0.0
 11
1376.415378138754
 21
414.53124886966179
 31
0.0
  0
LINE
  5
E381
  8
0
 10
1376.415378138754
 20
414.53124886966179
 30
0.0
 11
1376.863641336666
 21
412.85822283716931
 31
0.0
  0
LINE
  5
E382
  8
0
 10
1376.863641336666
 20
412.85822283716931
 30
0.0
 11
1370.910803299309
 21
390.64192883252059
 31
0.0
  0
LINE
  5
E383
  8
0
 10
1370.910803299309
 20
390.64192883252059
 30
0.0
 11
1369.6860829660891
 21
389.41717738614591
 31
0.0
  0
LINE
  5
E384
  8
0
 10
1369.6860829660891
 20
389.41717738614591
 30
0.0
 11
1364.597585713198
 21
390.78063611574601
 31
0.0
  0
LINE
  5
E385
  8
0
 10
1364.597585713198
 20
390.78063611574601
 30
0.0
 11
1364.1493225152849
 21
392.45366214823832
 31
0.0
  0
LINE
  5
E386
  8
0
 10
1364.1493225152849
 20
392.45366214823832
 30
0.0
 11
1364.7963701280421
 21
394.868476713961
 31
0.0
  0
LINE
  5
E387
  8
0
 10
1370.005092022524
 20
410.96172440440353
 30
0.0
 11
1375.0935892754151
 21
409.59826567480332
 31
0.0
  0
LINE
  5
E388
  8
0
 10
1375.0935892754151
 20
409.59826567480332
 30
0.0
 11
1374.3448257779339
 21
406.8038422593491
 31
0.0
  0
LINE
  5
E389
  8
0
 10
1374.3448257779339
 20
406.8038422593491
 30
0.0
 11
1369.256328525043
 21
408.16730098894919
 31
0.0
  0
LINE
  5
E38A
  8
0
 10
1369.256328525043
 20
408.16730098894919
 30
0.0
 11
1370.005092022524
 21
410.96172440440353
 31
0.0
  0
ARC
  5
E38B
  8
0
 10
1372.536363369293
 20
412.92705001789
 30
0.0
 40
4.1976433314087407
 50
307.53205179663752
 51
22.4679482033531
  0
ARC
  5
E38C
  8
0
 10
1359.5266290580521
 20
405.59798520167629
 30
0.0
 40
14.867180138568379
 50
325.34770562304658
 51
4.6522943769503566
  0
ARC
  5
E38D
  8
0
 10
1367.1288570599661
 20
392.74596172923191
 30
0.0
 40
4.1976433314087407
 50
307.53205179663752
 51
22.4679482033531
  0
ARC
  5
E38E
  8
0
 10
1373.884106791985
 20
412.56592325617532
 30
0.0
 40
4.1976433314087407
 50
127.5320517966491
 51
202.4679482033531
  0
ARC
  5
E38F
  8
0
 10
1381.486334793899
 20
399.71389978373111
 30
0.0
 40
14.867180138568379
 50
145.34770562304649
 51
184.65229437695029
  0
ARC
  5
E390
  8
0
 10
1368.4766004826579
 20
392.38483496751689
 30
0.0
 40
4.1976433314087407
 50
127.532051796644
 51
202.4679482033531
  0
LINE
  5
E391
  8
0
 10
1433.469800152692
 20
406.8038422593483
 30
0.0
 11
1435.1397001526921
 21
409.59826567480212
 31
0.0
  0
LINE
  5
E392
  8
0
 10
1435.1397001526921
 20
409.59826567480212
 30
0.0
 11
1443.7999001526921
 21
414.531248869661
 31
0.0
  0
LINE
  5
E393
  8
0
 10
1443.7999001526921
 20
414.531248869661
 30
0.0
 11
1447.1397001526921
 21
414.531248869661
 31
0.0
  0
LINE
  5
E394
  8
0
 10
1435.1397001526921
 20
394.35016058100149
 30
0.0
 11
1433.469800152692
 21
397.14458399645741
 31
0.0
  0
LINE
  5
E395
  8
0
 10
1435.1397001526921
 20
394.35016058100149
 30
0.0
 11
1443.7999001526921
 21
389.41717738614489
 31
0.0
  0
LINE
  5
E396
  8
0
 10
1433.469800152692
 20
406.8038422593483
 30
0.0
 11
1433.469800152692
 21
397.14458399645741
 31
0.0
  0
LINE
  5
E397
  8
0
 10
1457.469800152692
 20
406.8038422593483
 30
0.0
 11
1455.7999001526921
 21
409.59826567480212
 31
0.0
  0
LINE
  5
E398
  8
0
 10
1455.7999001526921
 20
409.59826567480212
 30
0.0
 11
1447.1397001526921
 21
414.531248869661
 31
0.0
  0
LINE
  5
E399
  8
0
 10
1455.7999001526921
 20
394.35016058100149
 30
0.0
 11
1457.469800152692
 21
397.14458399645741
 31
0.0
  0
LINE
  5
E39A
  8
0
 10
1455.7999001526921
 20
394.35016058100149
 30
0.0
 11
1447.1397001526921
 21
389.41717738614489
 31
0.0
  0
LINE
  5
E39B
  8
0
 10
1457.469800152692
 20
406.8038422593483
 30
0.0
 11
1457.469800152692
 21
397.14458399645741
 31
0.0
  0
LINE
  5
E39C
  8
0
 10
1443.7999001526921
 20
389.41717738614489
 30
0.0
 11
1447.1397001526921
 21
389.41717738614489
 31
0.0
  0
LINE
  5
E39D
  8
0
 10
1435.1397001526921
 20
410.96172440440199
 30
0.0
 11
1443.7999001526921
 21
415.89470759926093
 31
0.0
  0
LINE
  5
E39E
  8
0
 10
1443.7999001526921
 20
415.89470759926093
 30
0.0
 11
1447.1397001526921
 21
415.89470759926093
 31
0.0
  0
LINE
  5
E39F
  8
0
 10
1455.7999001526921
 20
410.96172440440199
 30
0.0
 11
1447.1397001526921
 21
415.89470759926093
 31
0.0
  0
LINE
  5
E3A0
  8
0
 10
1433.469800152692
 20
408.16730098894823
 30
0.0
 11
1435.1397001526921
 21
410.96172440440199
 31
0.0
  0
LINE
  5
E3A1
  8
0
 10
1457.469800152692
 20
408.16730098894823
 30
0.0
 11
1455.7999001526921
 21
410.96172440440199
 31
0.0
  0
LINE
  5
E3A2
  8
0
 10
1433.469800152692
 20
408.16730098894823
 30
0.0
 11
1433.469800152692
 21
406.8038422593483
 31
0.0
  0
LINE
  5
E3A3
  8
0
 10
1435.1397001526921
 20
410.96172440440199
 30
0.0
 11
1435.1397001526921
 21
409.59826567480212
 31
0.0
  0
LINE
  5
E3A4
  8
0
 10
1455.7999001526921
 20
410.96172440440199
 30
0.0
 11
1455.7999001526921
 21
409.59826567480212
 31
0.0
  0
LINE
  5
E3A5
  8
0
 10
1457.469800152692
 20
408.16730098894823
 30
0.0
 11
1457.469800152692
 21
406.8038422593483
 31
0.0
  0
LINE
  5
E3A6
  8
0
 10
1447.139700152693
 20
415.8947075992607
 30
0.0
 11
1447.1397001526921
 21
414.531248869661
 31
0.0
  0
LINE
  5
E3A7
  8
0
 10
1443.7999001526921
 20
415.89470759926093
 30
0.0
 11
1443.7999001526921
 21
414.531248869661
 31
0.0
  0
POLYLINE
  5
E3A8
  8
0
 10
1433.969800152692
 20
401.7500758348437
 30
0.0
 66
     1
 70
     8
  0
VERTEX
  8
0
  5
E8EB
 10
1433.97
 20
401.750
 30
0.000000
  70
    32
  0
VERTEX
  8
0
  5
E8EC
 10
1433.98
 20
401.205
 30
0.000000
  70
    32
  0
VERTEX
  8
0
  5
E8ED
 10
1434.03
 20
400.661
 30
0.000000
  70
    32
  0
VERTEX
  8
0
  5
E8EE
 10
1434.09
 20
400.120
 30
0.000000
  70
    32
  0
VERTEX
  8
0
  5
E8EF
 10
1434.19
 20
399.583
 30
0.000000
  70
    32
  0
VERTEX
  8
0
  5
E8F0
 10
1434.31
 20
399.051
 30
0.000000
  70
    32
  0
VERTEX
  8
0
  5
E8F1
 10
1434.46
 20
398.526
 30
0.000000
  70
    32
  0
VERTEX
  8
0
  5
E8F2
 10
1434.64
 20
398.008
 30
0.000000
  70
    32
  0
VERTEX
  8
0
  5
E8F3
 10
1434.85
 20
397.499
 30
0.000000
  70
    32
  0
VERTEX
  8
0
  5
E8F4
 10
1435.07
 20
397.001
 30
0.000000
  70
    32
  0
VERTEX
  8
0
  5
E8F5
 10
1435.33
 20
396.514
 30
0.000000
  70
    32
  0
VERTEX
  8
0
  5
E8F6
 10
1435.61
 20
396.039
 30
0.000000
  70
    32
  0
VERTEX
  8
0
  5
E8F7
 10
1435.91
 20
395.579
 30
0.000000
  70
    32
  0
VERTEX
  8
0
  5
E8F8
 10
1436.23
 20
395.133
 30
0.000000
  70
    32
  0
VERTEX
  8
0
  5
E8F9
 10
1436.58
 20
394.703
 30
0.000000
  70
    32
  0
VERTEX
  8
0
  5
E8FA
 10
1436.95
 20
394.290
 30
0.000000
  70
    32
  0
VERTEX
  8
0
  5
E8FB
 10
1437.34
 20
393.895
 30
0.000000
  70
    32
  0
VERTEX
  8
0
  5
E8FC
 10
1437.75
 20
393.519
 30
0.000000
  70
    32
  0
VERTEX
  8
0
  5
E8FD
 10
1438.17
 20
393.163
 30
0.000000
  70
    32
  0
VERTEX
  8
0
  5
E8FE
 10
1438.62
 20
392.828
 30
0.000000
  70
    32
  0
VERTEX
  8
0
  5
E8FF
 10
1439.08
 20
392.514
 30
0.000000
  70
    32
  0
VERTEX
  8
0
  5
E900
 10
1439.56
 20
392.222
 30
0.000000
  70
    32
  0
VERTEX
  8
0
  5
E901
 10
1440.05
 20
391.954
 30
0.000000
  70
    32
  0
VERTEX
  8
0
  5
E902
 10
1440.55
 20
391.708
 30
0.000000
  70
    32
  0
VERTEX
  8
0
  5
E903
 10
1441.07
 20
391.487
 30
0.000000
  70
    32
  0
VERTEX
  8
0
  5
E904
 10
1441.60
 20
391.291
 30
0.000000
  70
    32
  0
VERTEX
  8
0
  5
E905
 10
1442.13
 20
391.120
 30
0.000000
  70
    32
  0
VERTEX
  8
0
  5
E906
 10
1442.68
 20
390.975
 30
0.000000
  70
    32
  0
VERTEX
  8
0
  5
E907
 10
1443.23
 20
390.855
 30
0.000000
  70
    32
  0
VERTEX
  8
0
  5
E908
 10
1443.78
 20
390.762
 30
0.000000
  70
    32
  0
VERTEX
  8
0
  5
E909
 10
1444.34
 20
390.695
 30
0.000000
  70
    32
  0
VERTEX
  8
0
  5
E90A
 10
1444.91
 20
390.655
 30
0.000000
  70
    32
  0
VERTEX
  8
0
  5
E90B
 10
1445.47
 20
390.642
 30
0.000000
  70
    32
  0
VERTEX
  8
0
  5
E90C
 10
1446.03
 20
390.655
 30
0.000000
  70
    32
  0
VERTEX
  8
0
  5
E90D
 10
1446.60
 20
390.695
 30
0.000000
  70
    32
  0
VERTEX
  8
0
  5
E90E
 10
1447.16
 20
390.762
 30
0.000000
  70
    32
  0
VERTEX
  8
0
  5
E90F
 10
1447.71
 20
390.855
 30
0.000000
  70
    32
  0
VERTEX
  8
0
  5
E910
 10
1448.26
 20
390.975
 30
0.000000
  70
    32
  0
VERTEX
  8
0
  5
E911
 10
1448.81
 20
391.120
 30
0.000000
  70
    32
  0
VERTEX
  8
0
  5
E912
 10
1449.34
 20
391.291
 30
0.000000
  70
    32
  0
VERTEX
  8
0
  5
E913
 10
1449.87
 20
391.487
 30
0.000000
  70
    32
  0
VERTEX
  8
0
  5
E914
 10
1450.39
 20
391.708
 30
0.000000
  70
    32
  0
VERTEX
  8
0
  5
E915
 10
1450.89
 20
391.954
 30
0.000000
  70
    32
  0
VERTEX
  8
0
  5
E916
 10
1451.38
 20
392.222
 30
0.000000
  70
    32
  0
VERTEX
  8
0
  5
E917
 10
1451.86
 20
392.514
 30
0.000000
  70
    32
  0
VERTEX
  8
0
  5
E918
 10
1452.32
 20
392.828
 30
0.000000
  70
    32
  0
VERTEX
  8
0
  5
E919
 10
1452.77
 20
393.163
 30
0.000000
  70
    32
  0
VERTEX
  8
0
  5
E91A
 10
1453.19
 20
393.519
 30
0.000000
  70
    32
  0
VERTEX
  8
0
  5
E91B
 10
1453.60
 20
393.895
 30
0.000000
  70
    32
  0
VERTEX
  8
0
  5
E91C
 10
1453.99
 20
394.290
 30
0.000000
  70
    32
  0
VERTEX
  8
0
  5
E91D
 10
1454.36
 20
394.703
 30
0.000000
  70
    32
  0
VERTEX
  8
0
  5
E91E
 10
1454.71
 20
395.133
 30
0.000000
  70
    32
  0
VERTEX
  8
0
  5
E91F
 10
1455.03
 20
395.579
 30
0.000000
  70
    32
  0
VERTEX
  8
0
  5
E920
 10
1455.33
 20
396.039
 30
0.000000
  70
    32
  0
VERTEX
  8
0
  5
E921
 10
1455.61
 20
396.514
 30
0.000000
  70
    32
  0
VERTEX
  8
0
  5
E922
 10
1455.87
 20
397.001
 30
0.000000
  70
    32
  0
VERTEX
  8
0
  5
E923
 10
1456.09
 20
397.499
 30
0.000000
  70
    32
  0
VERTEX
  8
0
  5
E924
 10
1456.30
 20
398.008
 30
0.000000
  70
    32
  0
VERTEX
  8
0
  5
E925
 10
1456.47
 20
398.526
 30
0.000000
  70
    32
  0
VERTEX
  8
0
  5
E926
 10
1456.63
 20
399.051
 30
0.000000
  70
    32
  0
VERTEX
  8
0
  5
E927
 10
1456.75
 20
399.583
 30
0.000000
  70
    32
  0
VERTEX
  8
0
  5
E928
 10
1456.85
 20
400.120
 30
0.000000
  70
    32
  0
VERTEX
  8
0
  5
E929
 10
1456.91
 20
400.661
 30
0.000000
  70
    32
  0
VERTEX
  8
0
  5
E92A
 10
1456.96
 20
401.205
 30
0.000000
  70
    32
  0
VERTEX
  8
0
  5
E92B
 10
1456.97
 20
401.750
 30
0.000000
  70
    32
  0
VERTEX
  8
0
  5
E92C
 10
1456.96
 20
402.295
 30
0.000000
  70
    32
  0
VERTEX
  8
0
  5
E92D
 10
1456.91
 20
402.839
 30
0.000000
  70
    32
  0
VERTEX
  8
0
  5
E92E
 10
1456.85
 20
403.380
 30
0.000000
  70
    32
  0
VERTEX
  8
0
  5
E92F
 10
1456.75
 20
403.917
 30
0.000000
  70
    32
  0
VERTEX
  8
0
  5
E930
 10
1456.63
 20
404.449
 30
0.000000
  70
    32
  0
VERTEX
  8
0
  5
E931
 10
1456.47
 20
404.975
 30
0.000000
  70
    32
  0
VERTEX
  8
0
  5
E932
 10
1456.30
 20
405.492
 30
0.000000
  70
    32
  0
VERTEX
  8
0
  5
E933
 10
1456.09
 20
406.001
 30
0.000000
  70
    32
  0
VERTEX
  8
0
  5
E934
 10
1455.87
 20
406.499
 30
0.000000
  70
    32
  0
VERTEX
  8
0
  5
E935
 10
1455.61
 20
406.986
 30
0.000000
  70
    32
  0
VERTEX
  8
0
  5
E936
 10
1455.33
 20
407.461
 30
0.000000
  70
    32
  0
VERTEX
  8
0
  5
E937
 10
1455.03
 20
407.921
 30
0.000000
  70
    32
  0
VERTEX
  8
0
  5
E938
 10
1454.71
 20
408.367
 30
0.000000
  70
    32
  0
VERTEX
  8
0
  5
E939
 10
1454.36
 20
408.797
 30
0.000000
  70
    32
  0
VERTEX
  8
0
  5
E93A
 10
1453.99
 20
409.210
 30
0.000000
  70
    32
  0
VERTEX
  8
0
  5
E93B
 10
1453.60
 20
409.605
 30
0.000000
  70
    32
  0
VERTEX
  8
0
  5
E93C
 10
1453.19
 20
409.981
 30
0.000000
  70
    32
  0
VERTEX
  8
0
  5
E93D
 10
1452.77
 20
410.337
 30
0.000000
  70
    32
  0
VERTEX
  8
0
  5
E93E
 10
1452.32
 20
410.672
 30
0.000000
  70
    32
  0
VERTEX
  8
0
  5
E93F
 10
1451.86
 20
410.986
 30
0.000000
  70
    32
  0
VERTEX
  8
0
  5
E940
 10
1451.38
 20
411.278
 30
0.000000
  70
    32
  0
VERTEX
  8
0
  5
E941
 10
1450.89
 20
411.547
 30
0.000000
  70
    32
  0
VERTEX
  8
0
  5
E942
 10
1450.39
 20
411.792
 30
0.000000
  70
    32
  0
VERTEX
  8
0
  5
E943
 10
1449.87
 20
412.013
 30
0.000000
  70
    32
  0
VERTEX
  8
0
  5
E944
 10
1449.34
 20
412.209
 30
0.000000
  70
    32
  0
VERTEX
  8
0
  5
E945
 10
1448.81
 20
412.380
 30
0.000000
  70
    32
  0
VERTEX
  8
0
  5
E946
 10
1448.26
 20
412.525
 30
0.000000
  70
    32
  0
VERTEX
  8
0
  5
E947
 10
1447.71
 20
412.645
 30
0.000000
  70
    32
  0
VERTEX
  8
0
  5
E948
 10
1447.16
 20
412.738
 30
0.000000
  70
    32
  0
VERTEX
  8
0
  5
E949
 10
1446.60
 20
412.805
 30
0.000000
  70
    32
  0
VERTEX
  8
0
  5
E94A
 10
1446.03
 20
412.845
 30
0.000000
  70
    32
  0
VERTEX
  8
0
  5
E94B
 10
1445.47
 20
412.858
 30
0.000000
  70
    32
  0
VERTEX
  8
0
  5
E94C
 10
1444.91
 20
412.845
 30
0.000000
  70
    32
  0
VERTEX
  8
0
  5
E94D
 10
1444.34
 20
412.805
 30
0.000000
  70
    32
  0
VERTEX
  8
0
  5
E94E
 10
1443.78
 20
412.738
 30
0.000000
  70
    32
  0
VERTEX
  8
0
  5
E94F
 10
1443.23
 20
412.645
 30
0.000000
  70
    32
  0
VERTEX
  8
0
  5
E950
 10
1442.68
 20
412.525
 30
0.000000
  70
    32
  0
VERTEX
  8
0
  5
E951
 10
1442.13
 20
412.380
 30
0.000000
  70
    32
  0
VERTEX
  8
0
  5
E952
 10
1441.60
 20
412.209
 30
0.000000
  70
    32
  0
VERTEX
  8
0
  5
E953
 10
1441.07
 20
412.013
 30
0.000000
  70
    32
  0
VERTEX
  8
0
  5
E954
 10
1440.55
 20
411.792
 30
0.000000
  70
    32
  0
VERTEX
  8
0
  5
E955
 10
1440.05
 20
411.547
 30
0.000000
  70
    32
  0
VERTEX
  8
0
  5
E956
 10
1439.56
 20
411.278
 30
0.000000
  70
    32
  0
VERTEX
  8
0
  5
E957
 10
1439.08
 20
410.986
 30
0.000000
  70
    32
  0
VERTEX
  8
0
  5
E958
 10
1438.62
 20
410.672
 30
0.000000
  70
    32
  0
VERTEX
  8
0
  5
E959
 10
1438.17
 20
410.337
 30
0.000000
  70
    32
  0
VERTEX
  8
0
  5
E95A
 10
1437.75
 20
409.981
 30
0.000000
  70
    32
  0
VERTEX
  8
0
  5
E95B
 10
1437.34
 20
409.605
 30
0.000000
  70
    32
  0
VERTEX
  8
0
  5
E95C
 10
1436.95
 20
409.210
 30
0.000000
  70
    32
  0
VERTEX
  8
0
  5
E95D
 10
1436.58
 20
408.797
 30
0.000000
  70
    32
  0
VERTEX
  8
0
  5
E95E
 10
1436.23
 20
408.367
 30
0.000000
  70
    32
  0
VERTEX
  8
0
  5
E95F
 10
1435.91
 20
407.921
 30
0.000000
  70
    32
  0
VERTEX
  8
0
  5
E960
 10
1435.61
 20
407.461
 30
0.000000
  70
    32
  0
VERTEX
  8
0
  5
E961
 10
1435.33
 20
406.986
 30
0.000000
  70
    32
  0
VERTEX
  8
0
  5
E962
 10
1435.07
 20
406.499
 30
0.000000
  70
    32
  0
VERTEX
  8
0
  5
E963
 10
1434.85
 20
406.001
 30
0.000000
  70
    32
  0
VERTEX
  8
0
  5
E964
 10
1434.64
 20
405.492
 30
0.000000
  70
    32
  0
VERTEX
  8
0
  5
E965
 10
1434.46
 20
404.975
 30
0.000000
  70
    32
  0
VERTEX
  8
0
  5
E966
 10
1434.31
 20
404.449
 30
0.000000
  70
    32
  0
VERTEX
  8
0
  5
E967
 10
1434.19
 20
403.917
 30
0.000000
  70
    32
  0
VERTEX
  8
0
  5
E968
 10
1434.09
 20
403.380
 30
0.000000
  70
    32
  0
VERTEX
  8
0
  5
E969
 10
1434.03
 20
402.839
 30
0.000000
  70
    32
  0
VERTEX
  8
0
  5
E96A
 10
1433.98
 20
402.295
 30
0.000000
  70
    32
  0
VERTEX
  8
0
  5
E96B
 10
1433.97
 20
401.750
 30
0.000000
  70
    32
  0
SEQEND
  8
0
  5
E96C
  0
LINE
  5
E3A9
  8
0
 10
1266.7533074995749
 20
470.75020484076498
 30
0.0
 11
1266.7533074995749
 21
454.75020484076521
 31
0.0
  0
ARC
  5
E3AA
  8
0
 10
1265.7533074995749
 20
470.75020484076498
 30
0.0
 40
1.0
 50
0.0
 51
90.0
  0
LINE
  5
E3AB
  8
0
 10
1254.7533074995749
 20
470.75020484076521
 30
0.0
 11
1254.7533074995749
 21
454.75020484076521
 31
0.0
  0
ARC
  5
E3AC
  8
0
 10
1255.7533074995749
 20
454.75020484076521
 30
0.0
 40
1.0
 50
180.0
 51
270.0
  0
ARC
  5
E3AD
  8
0
 10
1255.7533074995749
 20
470.75020484076521
 30
0.0
 40
1.0
 50
90.0
 51
180.0
  0
LINE
  5
E3AE
  8
0
 10
1255.7533074995749
 20
453.75020484076521
 30
0.0
 11
1265.7533074995749
 21
453.75020484076521
 31
0.0
  0
ARC
  5
E3AF
  8
0
 10
1265.7533074995749
 20
454.75020484076521
 30
0.0
 40
1.0
 50
270.0
 51
0.0
  0
LINE
  5
E3B0
  8
0
 10
1255.7533074995749
 20
471.75020484076521
 30
0.0
 11
1265.7533074995749
 21
471.75020484076498
 31
0.0
  0
POLYLINE
  5
E3B1
  8
0
 10
1460.469800152692
 20
406.18511373245309
 30
0.0
 66
     1
 70
     8
  0
VERTEX
  8
0
  5
E96D
 10
1460.47
 20
406.185
 30
0.000000
  70
    32
  0
VERTEX
  8
0
  5
E96E
 10
1460.47
 20
406.544
 30
0.000000
  70
    32
  0
VERTEX
  8
0
  5
E96F
 10
1460.45
 20
406.902
 30
0.000000
  70
    32
  0
VERTEX
  8
0
  5
E970
 10
1460.43
 20
407.260
 30
0.000000
  70
    32
  0
VERTEX
  8
0
  5
E971
 10
1460.40
 20
407.618
 30
0.000000
  70
    32
  0
VERTEX
  8
0
  5
E972
 10
1460.36
 20
407.975
 30
0.000000
  70
    32
  0
VERTEX
  8
0
  5
E973
 10
1460.31
 20
408.330
 30
0.000000
  70
    32
  0
VERTEX
  8
0
  5
E974
 10
1460.25
 20
408.684
 30
0.000000
  70
    32
  0
VERTEX
  8
0
  5
E975
 10
1460.18
 20
409.037
 30
0.000000
  70
    32
  0
VERTEX
  8
0
  5
E976
 10
1460.11
 20
409.388
 30
0.000000
  70
    32
  0
VERTEX
  8
0
  5
E977
 10
1460.02
 20
409.737
 30
0.000000
  70
    32
  0
VERTEX
  8
0
  5
E978
 10
1459.93
 20
410.084
 30
0.000000
  70
    32
  0
VERTEX
  8
0
  5
E979
 10
1459.82
 20
410.429
 30
0.000000
  70
    32
  0
VERTEX
  8
0
  5
E97A
 10
1459.71
 20
410.771
 30
0.000000
  70
    32
  0
VERTEX
  8
0
  5
E97B
 10
1459.59
 20
411.110
 30
0.000000
  70
    32
  0
VERTEX
  8
0
  5
E97C
 10
1459.46
 20
411.446
 30
0.000000
  70
    32
  0
VERTEX
  8
0
  5
E97D
 10
1459.33
 20
411.779
 30
0.000000
  70
    32
  0
VERTEX
  8
0
  5
E97E
 10
1459.18
 20
412.109
 30
0.000000
  70
    32
  0
VERTEX
  8
0
  5
E97F
 10
1459.03
 20
412.435
 30
0.000000
  70
    32
  0
VERTEX
  8
0
  5
E980
 10
1458.87
 20
412.758
 30
0.000000
  70
    32
  0
VERTEX
  8
0
  5
E981
 10
1458.70
 20
413.076
 30
0.000000
  70
    32
  0
VERTEX
  8
0
  5
E982
 10
1458.52
 20
413.390
 30
0.000000
  70
    32
  0
VERTEX
  8
0
  5
E983
 10
1458.34
 20
413.700
 30
0.000000
  70
    32
  0
VERTEX
  8
0
  5
E984
 10
1458.14
 20
414.006
 30
0.000000
  70
    32
  0
VERTEX
  8
0
  5
E985
 10
1457.94
 20
414.307
 30
0.000000
  70
    32
  0
VERTEX
  8
0
  5
E986
 10
1457.73
 20
414.602
 30
0.000000
  70
    32
  0
VERTEX
  8
0
  5
E987
 10
1457.52
 20
414.893
 30
0.000000
  70
    32
  0
VERTEX
  8
0
  5
E988
 10
1457.29
 20
415.179
 30
0.000000
  70
    32
  0
VERTEX
  8
0
  5
E989
 10
1457.06
 20
415.459
 30
0.000000
  70
    32
  0
VERTEX
  8
0
  5
E98A
 10
1456.83
 20
415.733
 30
0.000000
  70
    32
  0
VERTEX
  8
0
  5
E98B
 10
1456.58
 20
416.002
 30
0.000000
  70
    32
  0
VERTEX
  8
0
  5
E98C
 10
1456.33
 20
416.265
 30
0.000000
  70
    32
  0
VERTEX
  8
0
  5
E98D
 10
1456.08
 20
416.522
 30
0.000000
  70
    32
  0
VERTEX
  8
0
  5
E98E
 10
1455.81
 20
416.772
 30
0.000000
  70
    32
  0
VERTEX
  8
0
  5
E98F
 10
1455.54
 20
417.016
 30
0.000000
  70
    32
  0
VERTEX
  8
0
  5
E990
 10
1455.27
 20
417.254
 30
0.000000
  70
    32
  0
VERTEX
  8
0
  5
E991
 10
1454.99
 20
417.485
 30
0.000000
  70
    32
  0
VERTEX
  8
0
  5
E992
 10
1454.70
 20
417.709
 30
0.000000
  70
    32
  0
VERTEX
  8
0
  5
E993
 10
1454.41
 20
417.927
 30
0.000000
  70
    32
  0
VERTEX
  8
0
  5
E994
 10
1454.11
 20
418.137
 30
0.000000
  70
    32
  0
VERTEX
  8
0
  5
E995
 10
1453.80
 20
418.340
 30
0.000000
  70
    32
  0
VERTEX
  8
0
  5
E996
 10
1453.49
 20
418.535
 30
0.000000
  70
    32
  0
VERTEX
  8
0
  5
E997
 10
1453.18
 20
418.724
 30
0.000000
  70
    32
  0
VERTEX
  8
0
  5
E998
 10
1452.86
 20
418.904
 30
0.000000
  70
    32
  0
VERTEX
  8
0
  5
E999
 10
1452.54
 20
419.077
 30
0.000000
  70
    32
  0
VERTEX
  8
0
  5
E99A
 10
1452.21
 20
419.242
 30
0.000000
  70
    32
  0
VERTEX
  8
0
  5
E99B
 10
1451.88
 20
419.400
 30
0.000000
  70
    32
  0
VERTEX
  8
0
  5
E99C
 10
1451.55
 20
419.549
 30
0.000000
  70
    32
  0
VERTEX
  8
0
  5
E99D
 10
1451.21
 20
419.691
 30
0.000000
  70
    32
  0
VERTEX
  8
0
  5
E99E
 10
1450.87
 20
419.824
 30
0.000000
  70
    32
  0
VERTEX
  8
0
  5
E99F
 10
1450.52
 20
419.949
 30
0.000000
  70
    32
  0
VERTEX
  8
0
  5
E9A0
 10
1450.18
 20
420.065
 30
0.000000
  70
    32
  0
VERTEX
  8
0
  5
E9A1
 10
1449.82
 20
420.174
 30
0.000000
  70
    32
  0
VERTEX
  8
0
  5
E9A2
 10
1449.47
 20
420.274
 30
0.000000
  70
    32
  0
VERTEX
  8
0
  5
E9A3
 10
1449.11
 20
420.365
 30
0.000000
  70
    32
  0
VERTEX
  8
0
  5
E9A4
 10
1448.76
 20
420.448
 30
0.000000
  70
    32
  0
VERTEX
  8
0
  5
E9A5
 10
1448.40
 20
420.522
 30
0.000000
  70
    32
  0
VERTEX
  8
0
  5
E9A6
 10
1448.03
 20
420.588
 30
0.000000
  70
    32
  0
VERTEX
  8
0
  5
E9A7
 10
1447.67
 20
420.645
 30
0.000000
  70
    32
  0
VERTEX
  8
0
  5
E9A8
 10
1447.31
 20
420.693
 30
0.000000
  70
    32
  0
VERTEX
  8
0
  5
E9A9
 10
1446.94
 20
420.733
 30
0.000000
  70
    32
  0
VERTEX
  8
0
  5
E9AA
 10
1446.57
 20
420.764
 30
0.000000
  70
    32
  0
VERTEX
  8
0
  5
E9AB
 10
1446.21
 20
420.786
 30
0.000000
  70
    32
  0
VERTEX
  8
0
  5
E9AC
 10
1445.84
 20
420.799
 30
0.000000
  70
    32
  0
VERTEX
  8
0
  5
E9AD
 10
1445.47
 20
420.803
 30
0.000000
  70
    32
  0
VERTEX
  8
0
  5
E9AE
 10
1445.10
 20
420.799
 30
0.000000
  70
    32
  0
VERTEX
  8
0
  5
E9AF
 10
1444.73
 20
420.786
 30
0.000000
  70
    32
  0
VERTEX
  8
0
  5
E9B0
 10
1444.37
 20
420.764
 30
0.000000
  70
    32
  0
VERTEX
  8
0
  5
E9B1
 10
1444.00
 20
420.733
 30
0.000000
  70
    32
  0
VERTEX
  8
0
  5
E9B2
 10
1443.63
 20
420.693
 30
0.000000
  70
    32
  0
VERTEX
  8
0
  5
E9B3
 10
1443.27
 20
420.645
 30
0.000000
  70
    32
  0
VERTEX
  8
0
  5
E9B4
 10
1442.91
 20
420.588
 30
0.000000
  70
    32
  0
VERTEX
  8
0
  5
E9B5
 10
1442.54
 20
420.522
 30
0.000000
  70
    32
  0
VERTEX
  8
0
  5
E9B6
 10
1442.18
 20
420.448
 30
0.000000
  70
    32
  0
VERTEX
  8
0
  5
E9B7
 10
1441.83
 20
420.365
 30
0.000000
  70
    32
  0
VERTEX
  8
0
  5
E9B8
 10
1441.47
 20
420.274
 30
0.000000
  70
    32
  0
VERTEX
  8
0
  5
E9B9
 10
1441.12
 20
420.174
 30
0.000000
  70
    32
  0
VERTEX
  8
0
  5
E9BA
 10
1440.76
 20
420.065
 30
0.000000
  70
    32
  0
VERTEX
  8
0
  5
E9BB
 10
1440.42
 20
419.949
 30
0.000000
  70
    32
  0
VERTEX
  8
0
  5
E9BC
 10
1440.07
 20
419.824
 30
0.000000
  70
    32
  0
VERTEX
  8
0
  5
E9BD
 10
1439.73
 20
419.691
 30
0.000000
  70
    32
  0
VERTEX
  8
0
  5
E9BE
 10
1439.39
 20
419.549
 30
0.000000
  70
    32
  0
VERTEX
  8
0
  5
E9BF
 10
1439.06
 20
419.400
 30
0.000000
  70
    32
  0
VERTEX
  8
0
  5
E9C0
 10
1438.73
 20
419.242
 30
0.000000
  70
    32
  0
VERTEX
  8
0
  5
E9C1
 10
1438.40
 20
419.077
 30
0.000000
  70
    32
  0
VERTEX
  8
0
  5
E9C2
 10
1438.08
 20
418.904
 30
0.000000
  70
    32
  0
VERTEX
  8
0
  5
E9C3
 10
1437.76
 20
418.724
 30
0.000000
  70
    32
  0
VERTEX
  8
0
  5
E9C4
 10
1437.44
 20
418.535
 30
0.000000
  70
    32
  0
VERTEX
  8
0
  5
E9C5
 10
1437.14
 20
418.340
 30
0.000000
  70
    32
  0
VERTEX
  8
0
  5
E9C6
 10
1436.83
 20
418.137
 30
0.000000
  70
    32
  0
VERTEX
  8
0
  5
E9C7
 10
1436.53
 20
417.927
 30
0.000000
  70
    32
  0
VERTEX
  8
0
  5
E9C8
 10
1436.24
 20
417.709
 30
0.000000
  70
    32
  0
VERTEX
  8
0
  5
E9C9
 10
1435.95
 20
417.485
 30
0.000000
  70
    32
  0
VERTEX
  8
0
  5
E9CA
 10
1435.67
 20
417.254
 30
0.000000
  70
    32
  0
VERTEX
  8
0
  5
E9CB
 10
1435.40
 20
417.016
 30
0.000000
  70
    32
  0
VERTEX
  8
0
  5
E9CC
 10
1435.13
 20
416.772
 30
0.000000
  70
    32
  0
VERTEX
  8
0
  5
E9CD
 10
1434.86
 20
416.522
 30
0.000000
  70
    32
  0
VERTEX
  8
0
  5
E9CE
 10
1434.61
 20
416.265
 30
0.000000
  70
    32
  0
VERTEX
  8
0
  5
E9CF
 10
1434.36
 20
416.002
 30
0.000000
  70
    32
  0
VERTEX
  8
0
  5
E9D0
 10
1434.11
 20
415.733
 30
0.000000
  70
    32
  0
VERTEX
  8
0
  5
E9D1
 10
1433.87
 20
415.459
 30
0.000000
  70
    32
  0
VERTEX
  8
0
  5
E9D2
 10
1433.64
 20
415.179
 30
0.000000
  70
    32
  0
VERTEX
  8
0
  5
E9D3
 10
1433.42
 20
414.893
 30
0.000000
  70
    32
  0
VERTEX
  8
0
  5
E9D4
 10
1433.21
 20
414.602
 30
0.000000
  70
    32
  0
VERTEX
  8
0
  5
E9D5
 10
1433.00
 20
414.307
 30
0.000000
  70
    32
  0
VERTEX
  8
0
  5
E9D6
 10
1432.80
 20
414.006
 30
0.000000
  70
    32
  0
VERTEX
  8
0
  5
E9D7
 10
1432.60
 20
413.700
 30
0.000000
  70
    32
  0
VERTEX
  8
0
  5
E9D8
 10
1432.42
 20
413.390
 30
0.000000
  70
    32
  0
VERTEX
  8
0
  5
E9D9
 10
1432.24
 20
413.076
 30
0.000000
  70
    32
  0
VERTEX
  8
0
  5
E9DA
 10
1432.07
 20
412.758
 30
0.000000
  70
    32
  0
VERTEX
  8
0
  5
E9DB
 10
1431.91
 20
412.435
 30
0.000000
  70
    32
  0
VERTEX
  8
0
  5
E9DC
 10
1431.76
 20
412.109
 30
0.000000
  70
    32
  0
VERTEX
  8
0
  5
E9DD
 10
1431.61
 20
411.779
 30
0.000000
  70
    32
  0
VERTEX
  8
0
  5
E9DE
 10
1431.47
 20
411.446
 30
0.000000
  70
    32
  0
VERTEX
  8
0
  5
E9DF
 10
1431.35
 20
411.110
 30
0.000000
  70
    32
  0
VERTEX
  8
0
  5
E9E0
 10
1431.23
 20
410.771
 30
0.000000
  70
    32
  0
VERTEX
  8
0
  5
E9E1
 10
1431.12
 20
410.429
 30
0.000000
  70
    32
  0
VERTEX
  8
0
  5
E9E2
 10
1431.01
 20
410.084
 30
0.000000
  70
    32
  0
VERTEX
  8
0
  5
E9E3
 10
1430.92
 20
409.737
 30
0.000000
  70
    32
  0
VERTEX
  8
0
  5
E9E4
 10
1430.83
 20
409.388
 30
0.000000
  70
    32
  0
VERTEX
  8
0
  5
E9E5
 10
1430.76
 20
409.037
 30
0.000000
  70
    32
  0
VERTEX
  8
0
  5
E9E6
 10
1430.69
 20
408.684
 30
0.000000
  70
    32
  0
VERTEX
  8
0
  5
E9E7
 10
1430.63
 20
408.330
 30
0.000000
  70
    32
  0
VERTEX
  8
0
  5
E9E8
 10
1430.58
 20
407.975
 30
0.000000
  70
    32
  0
VERTEX
  8
0
  5
E9E9
 10
1430.54
 20
407.618
 30
0.000000
  70
    32
  0
VERTEX
  8
0
  5
E9EA
 10
1430.51
 20
407.260
 30
0.000000
  70
    32
  0
VERTEX
  8
0
  5
E9EB
 10
1430.49
 20
406.902
 30
0.000000
  70
    32
  0
VERTEX
  8
0
  5
E9EC
 10
1430.47
 20
406.544
 30
0.000000
  70
    32
  0
VERTEX
  8
0
  5
E9ED
 10
1430.47
 20
406.185
 30
0.000000
  70
    32
  0
SEQEND
  8
0
  5
E9EE
  0
LINE
  5
E3B2
  8
0
 10
1484.469800152692
 20
478.75020484076521
 30
0.0
 11
1460.569469023234
 21
478.75020484076521
 31
0.0
  0
LINE
  5
E3C3
  8
0
 10
1433.469800152692
 20
505.774314168665
 30
0.0
 11
1433.469800152692
 21
500.774314168665
 31
0.0
  0
ARC
  5
E3C4
  8
0
 10
1441.469800152692
 20
505.75020484076538
 30
0.0
 40
8.0
 50
90.0
 51
180.0
  0
LINE
  5
E3C5
  8
0
 10
1457.469800152692
 20
505.774314168665
 30
0.0
 11
1457.469800152692
 21
500.774314168665
 31
0.0
  0
ARC
  5
E3C6
  8
0
 10
1449.469800152692
 20
505.75020484076538
 30
0.0
 40
8.0
 50
0.0
 51
90.0
  0
LINE
  5
E3C7
  8
0
 10
1405.469800152692
 20
497.774314168665
 30
0.0
 11
1405.469800152692
 21
488.75020484076532
 31
0.0
  0
ARC
  5
E3C8
  8
0
 10
1406.469800152692
 20
497.774314168665
 30
0.0
 40
1.0
 50
90.0
 51
180.0
  0
LINE
  5
E3C9
  8
0
 10
1485.469800152692
 20
497.774314168665
 30
0.0
 11
1485.469800152692
 21
488.75020484076509
 31
0.0
  0
ARC
  5
E3CA
  8
0
 10
1484.469800152692
 20
497.774314168665
 30
0.0
 40
1.0
 50
0.0
 51
90.0
  0
LINE
  5
E3CB
  8
0
 10
1441.469800152692
 20
513.75020484076526
 30
0.0
 11
1449.469800152692
 21
513.75020484076526
 31
0.0
  0
LINE
  5
E3CC
  8
0
 10
1406.469800152692
 20
498.774314168665
 30
0.0
 11
1432.4698225088539
 21
498.774314168665
 31
0.0
  0
ARC
  5
E3CD
  8
0
 10
1431.469800152692
 20
500.774314168665
 30
0.0
 40
2.0
 50
270.0
 51
0.0
  0
CIRCLE
  5
E3CE
  8
0
 10
1445.469800152692
 20
503.75020484076521
 30
0.0
 40
5.0
  0
LINE
  5
E3CF
  8
0
 10
1458.4697777965309
 20
498.774314168665
 30
0.0
 11
1484.469800152692
 21
498.774314168665
 31
0.0
  0
ARC
  5
E3D0
  8
0
 10
1459.469800152692
 20
500.77431416866523
 30
0.0
 40
2.0
 50
180.0
 51
270.0
  0
LINE
  5
E3D1
  8
0
 10
1429.4995892149459
 20
498.774314168665
 30
0.0
 11
1430.469800152692
 21
498.774314168665
 31
0.0
  0
ARC
  5
E3D2
  8
0
 10
1445.469800152692
 20
503.72609551286553
 30
0.0
 40
7.9999999999999849
 50
0.1062587328812627
 51
179.89374126711871
  0
ARC
  5
E3D3
  8
0
 10
1432.4698225088539
 20
503.77431416866489
 30
0.0
 40
5.0
 50
270.0
 51
359.89374126711868
  0
ARC
  5
E3D4
  8
0
 10
1458.4697777965309
 20
503.77431416866523
 30
0.0
 40
5.0
 50
180.1062587328812
 51
270.0
  0
LINE
  5
E3D5
  8
0
 10
1405.469800152692
 20
488.75020484076509
 30
0.0
 11
1485.469800152692
 21
488.75020484076509
 31
0.0
  0
LINE
  5
E3D6
  8
0
 10
1370.1024606580311
 20
414.66987573120019
 30
0.0
 11
1369.13654182458
 21
414.928720872518
 31
0.0
  0
LINE
  5
E3D7
  8
0
 10
1364.1493225152849
 20
392.45366214823832
 30
0.0
 11
1363.1831035764451
 21
392.71258771124269
 31
0.0
  0
POLYLINE
  5
E3D8
  8
0
 10
1460.469800152692
 20
403.82065429188009
 30
0.0
 66
     1
 70
     8
  0
VERTEX
  8
0
  5
E9EF
 10
1460.47
 20
403.821
 30
0.000000
  70
    32
  0
VERTEX
  8
0
  5
E9F0
 10
1460.45
 20
404.538
 30
0.000000
  70
    32
  0
VERTEX
  8
0
  5
E9F1
 10
1460.40
 20
405.253
 30
0.000000
  70
    32
  0
VERTEX
  8
0
  5
E9F2
 10
1460.31
 20
405.966
 30
0.000000
  70
    32
  0
VERTEX
  8
0
  5
E9F3
 10
1460.18
 20
406.673
 30
0.000000
  70
    32
  0
VERTEX
  8
0
  5
E9F4
 10
1460.02
 20
407.373
 30
0.000000
  70
    32
  0
VERTEX
  8
0
  5
E9F5
 10
1459.82
 20
408.064
 30
0.000000
  70
    32
  0
VERTEX
  8
0
  5
E9F6
 10
1459.59
 20
408.745
 30
0.000000
  70
    32
  0
VERTEX
  8
0
  5
E9F7
 10
1459.33
 20
409.415
 30
0.000000
  70
    32
  0
VERTEX
  8
0
  5
E9F8
 10
1459.03
 20
410.071
 30
0.000000
  70
    32
  0
VERTEX
  8
0
  5
E9F9
 10
1458.70
 20
410.712
 30
0.000000
  70
    32
  0
VERTEX
  8
0
  5
E9FA
 10
1458.34
 20
411.336
 30
0.000000
  70
    32
  0
VERTEX
  8
0
  5
E9FB
 10
1457.94
 20
411.942
 30
0.000000
  70
    32
  0
VERTEX
  8
0
  5
E9FC
 10
1457.52
 20
412.529
 30
0.000000
  70
    32
  0
VERTEX
  8
0
  5
E9FD
 10
1457.06
 20
413.094
 30
0.000000
  70
    32
  0
VERTEX
  8
0
  5
E9FE
 10
1456.58
 20
413.638
 30
0.000000
  70
    32
  0
VERTEX
  8
0
  5
E9FF
 10
1456.08
 20
414.157
 30
0.000000
  70
    32
  0
VERTEX
  8
0
  5
EA00
 10
1455.54
 20
414.652
 30
0.000000
  70
    32
  0
VERTEX
  8
0
  5
EA01
 10
1454.99
 20
415.121
 30
0.000000
  70
    32
  0
VERTEX
  8
0
  5
EA02
 10
1454.41
 20
415.562
 30
0.000000
  70
    32
  0
VERTEX
  8
0
  5
EA03
 10
1453.80
 20
415.975
 30
0.000000
  70
    32
  0
VERTEX
  8
0
  5
EA04
 10
1453.18
 20
416.359
 30
0.000000
  70
    32
  0
VERTEX
  8
0
  5
EA05
 10
1452.54
 20
416.713
 30
0.000000
  70
    32
  0
VERTEX
  8
0
  5
EA06
 10
1451.88
 20
417.035
 30
0.000000
  70
    32
  0
VERTEX
  8
0
  5
EA07
 10
1451.21
 20
417.326
 30
0.000000
  70
    32
  0
VERTEX
  8
0
  5
EA08
 10
1450.52
 20
417.584
 30
0.000000
  70
    32
  0
VERTEX
  8
0
  5
EA09
 10
1449.82
 20
417.809
 30
0.000000
  70
    32
  0
VERTEX
  8
0
  5
EA0A
 10
1449.11
 20
418.001
 30
0.000000
  70
    32
  0
VERTEX
  8
0
  5
EA0B
 10
1448.40
 20
418.158
 30
0.000000
  70
    32
  0
VERTEX
  8
0
  5
EA0C
 10
1447.67
 20
418.281
 30
0.000000
  70
    32
  0
VERTEX
  8
0
  5
EA0D
 10
1446.94
 20
418.368
 30
0.000000
  70
    32
  0
VERTEX
  8
0
  5
EA0E
 10
1446.21
 20
418.421
 30
0.000000
  70
    32
  0
VERTEX
  8
0
  5
EA0F
 10
1445.47
 20
418.439
 30
0.000000
  70
    32
  0
VERTEX
  8
0
  5
EA10
 10
1444.73
 20
418.421
 30
0.000000
  70
    32
  0
VERTEX
  8
0
  5
EA11
 10
1444.00
 20
418.368
 30
0.000000
  70
    32
  0
VERTEX
  8
0
  5
EA12
 10
1443.27
 20
418.281
 30
0.000000
  70
    32
  0
VERTEX
  8
0
  5
EA13
 10
1442.54
 20
418.158
 30
0.000000
  70
    32
  0
VERTEX
  8
0
  5
EA14
 10
1441.83
 20
418.001
 30
0.000000
  70
    32
  0
VERTEX
  8
0
  5
EA15
 10
1441.12
 20
417.809
 30
0.000000
  70
    32
  0
VERTEX
  8
0
  5
EA16
 10
1440.42
 20
417.584
 30
0.000000
  70
    32
  0
VERTEX
  8
0
  5
EA17
 10
1439.73
 20
417.326
 30
0.000000
  70
    32
  0
VERTEX
  8
0
  5
EA18
 10
1439.06
 20
417.035
 30
0.000000
  70
    32
  0
VERTEX
  8
0
  5
EA19
 10
1438.40
 20
416.713
 30
0.000000
  70
    32
  0
VERTEX
  8
0
  5
EA1A
 10
1437.76
 20
416.359
 30
0.000000
  70
    32
  0
VERTEX
  8
0
  5
EA1B
 10
1437.14
 20
415.975
 30
0.000000
  70
    32
  0
VERTEX
  8
0
  5
EA1C
 10
1436.53
 20
415.562
 30
0.000000
  70
    32
  0
VERTEX
  8
0
  5
EA1D
 10
1435.95
 20
415.121
 30
0.000000
  70
    32
  0
VERTEX
  8
0
  5
EA1E
 10
1435.40
 20
414.652
 30
0.000000
  70
    32
  0
VERTEX
  8
0
  5
EA1F
 10
1434.86
 20
414.157
 30
0.000000
  70
    32
  0
VERTEX
  8
0
  5
EA20
 10
1434.36
 20
413.638
 30
0.000000
  70
    32
  0
VERTEX
  8
0
  5
EA21
 10
1433.87
 20
413.094
 30
0.000000
  70
    32
  0
VERTEX
  8
0
  5
EA22
 10
1433.42
 20
412.529
 30
0.000000
  70
    32
  0
VERTEX
  8
0
  5
EA23
 10
1433.00
 20
411.942
 30
0.000000
  70
    32
  0
VERTEX
  8
0
  5
EA24
 10
1432.60
 20
411.336
 30
0.000000
  70
    32
  0
VERTEX
  8
0
  5
EA25
 10
1432.24
 20
410.712
 30
0.000000
  70
    32
  0
VERTEX
  8
0
  5
EA26
 10
1431.91
 20
410.071
 30
0.000000
  70
    32
  0
VERTEX
  8
0
  5
EA27
 10
1431.61
 20
409.415
 30
0.000000
  70
    32
  0
VERTEX
  8
0
  5
EA28
 10
1431.35
 20
408.745
 30
0.000000
  70
    32
  0
VERTEX
  8
0
  5
EA29
 10
1431.12
 20
408.064
 30
0.000000
  70
    32
  0
VERTEX
  8
0
  5
EA2A
 10
1430.92
 20
407.373
 30
0.000000
  70
    32
  0
VERTEX
  8
0
  5
EA2B
 10
1430.76
 20
406.673
 30
0.000000
  70
    32
  0
VERTEX
  8
0
  5
EA2C
 10
1430.63
 20
405.966
 30
0.000000
  70
    32
  0
VERTEX
  8
0
  5
EA2D
 10
1430.54
 20
405.253
 30
0.000000
  70
    32
  0
VERTEX
  8
0
  5
EA2E
 10
1430.49
 20
404.538
 30
0.000000
  70
    32
  0
VERTEX
  8
0
  5
EA2F
 10
1430.47
 20
403.821
 30
0.000000
  70
    32
  0
VERTEX
  8
0
  5
EA30
 10
1430.49
 20
403.103
 30
0.000000
  70
    32
  0
VERTEX
  8
0
  5
EA31
 10
1430.54
 20
402.388
 30
0.000000
  70
    32
  0
VERTEX
  8
0
  5
EA32
 10
1430.63
 20
401.676
 30
0.000000
  70
    32
  0
VERTEX
  8
0
  5
EA33
 10
1430.76
 20
400.969
 30
0.000000
  70
    32
  0
VERTEX
  8
0
  5
EA34
 10
1430.92
 20
400.269
 30
0.000000
  70
    32
  0
VERTEX
  8
0
  5
EA35
 10
1431.12
 20
399.577
 30
0.000000
  70
    32
  0
VERTEX
  8
0
  5
EA36
 10
1431.35
 20
398.896
 30
0.000000
  70
    32
  0
VERTEX
  8
0
  5
EA37
 10
1431.61
 20
398.227
 30
0.000000
  70
    32
  0
VERTEX
  8
0
  5
EA38
 10
1431.91
 20
397.571
 30
0.000000
  70
    32
  0
VERTEX
  8
0
  5
EA39
 10
1432.24
 20
396.930
 30
0.000000
  70
    32
  0
VERTEX
  8
0
  5
EA3A
 10
1432.60
 20
396.305
 30
0.000000
  70
    32
  0
VERTEX
  8
0
  5
EA3B
 10
1433.00
 20
395.699
 30
0.000000
  70
    32
  0
VERTEX
  8
0
  5
EA3C
 10
1433.42
 20
395.113
 30
0.000000
  70
    32
  0
VERTEX
  8
0
  5
EA3D
 10
1433.87
 20
394.547
 30
0.000000
  70
    32
  0
VERTEX
  8
0
  5
EA3E
 10
1434.36
 20
394.004
 30
0.000000
  70
    32
  0
VERTEX
  8
0
  5
EA3F
 10
1434.86
 20
393.484
 30
0.000000
  70
    32
  0
VERTEX
  8
0
  5
EA40
 10
1435.40
 20
392.989
 30
0.000000
  70
    32
  0
VERTEX
  8
0
  5
EA41
 10
1435.95
 20
392.521
 30
0.000000
  70
    32
  0
VERTEX
  8
0
  5
EA42
 10
1436.53
 20
392.079
 30
0.000000
  70
    32
  0
VERTEX
  8
0
  5
EA43
 10
1437.14
 20
391.666
 30
0.000000
  70
    32
  0
VERTEX
  8
0
  5
EA44
 10
1437.76
 20
391.282
 30
0.000000
  70
    32
  0
VERTEX
  8
0
  5
EA45
 10
1438.40
 20
390.929
 30
0.000000
  70
    32
  0
VERTEX
  8
0
  5
EA46
 10
1439.06
 20
390.606
 30
0.000000
  70
    32
  0
VERTEX
  8
0
  5
EA47
 10
1439.73
 20
390.315
 30
0.000000
  70
    32
  0
VERTEX
  8
0
  5
EA48
 10
1440.42
 20
390.057
 30
0.000000
  70
    32
  0
VERTEX
  8
0
  5
EA49
 10
1441.12
 20
389.832
 30
0.000000
  70
    32
  0
VERTEX
  8
0
  5
EA4A
 10
1441.83
 20
389.641
 30
0.000000
  70
    32
  0
VERTEX
  8
0
  5
EA4B
 10
1442.54
 20
389.483
 30
0.000000
  70
    32
  0
VERTEX
  8
0
  5
EA4C
 10
1443.27
 20
389.361
 30
0.000000
  70
    32
  0
VERTEX
  8
0
  5
EA4D
 10
1444.00
 20
389.273
 30
0.000000
  70
    32
  0
VERTEX
  8
0
  5
EA4E
 10
1444.73
 20
389.220
 30
0.000000
  70
    32
  0
VERTEX
  8
0
  5
EA4F
 10
1445.47
 20
389.202
 30
0.000000
  70
    32
  0
VERTEX
  8
0
  5
EA50
 10
1446.21
 20
389.220
 30
0.000000
  70
    32
  0
VERTEX
  8
0
  5
EA51
 10
1446.94
 20
389.273
 30
0.000000
  70
    32
  0
VERTEX
  8
0
  5
EA52
 10
1447.67
 20
389.361
 30
0.000000
  70
    32
  0
VERTEX
  8
0
  5
EA53
 10
1448.40
 20
389.483
 30
0.000000
  70
    32
  0
VERTEX
  8
0
  5
EA54
 10
1449.11
 20
389.641
 30
0.000000
  70
    32
  0
VERTEX
  8
0
  5
EA55
 10
1449.82
 20
389.832
 30
0.000000
  70
    32
  0
VERTEX
  8
0
  5
EA56
 10
1450.52
 20
390.057
 30
0.000000
  70
    32
  0
VERTEX
  8
0
  5
EA57
 10
1451.21
 20
390.315
 30
0.000000
  70
    32
  0
VERTEX
  8
0
  5
EA58
 10
1451.88
 20
390.606
 30
0.000000
  70
    32
  0
VERTEX
  8
0
  5
EA59
 10
1452.54
 20
390.929
 30
0.000000
  70
    32
  0
VERTEX
  8
0
  5
EA5A
 10
1453.18
 20
391.282
 30
0.000000
  70
    32
  0
VERTEX
  8
0
  5
EA5B
 10
1453.80
 20
391.666
 30
0.000000
  70
    32
  0
VERTEX
  8
0
  5
EA5C
 10
1454.41
 20
392.079
 30
0.000000
  70
    32
  0
VERTEX
  8
0
  5
EA5D
 10
1454.99
 20
392.521
 30
0.000000
  70
    32
  0
VERTEX
  8
0
  5
EA5E
 10
1455.54
 20
392.989
 30
0.000000
  70
    32
  0
VERTEX
  8
0
  5
EA5F
 10
1456.08
 20
393.484
 30
0.000000
  70
    32
  0
VERTEX
  8
0
  5
EA60
 10
1456.58
 20
394.004
 30
0.000000
  70
    32
  0
VERTEX
  8
0
  5
EA61
 10
1457.06
 20
394.547
 30
0.000000
  70
    32
  0
VERTEX
  8
0
  5
EA62
 10
1457.52
 20
395.113
 30
0.000000
  70
    32
  0
VERTEX
  8
0
  5
EA63
 10
1457.94
 20
395.699
 30
0.000000
  70
    32
  0
VERTEX
  8
0
  5
EA64
 10
1458.34
 20
396.305
 30
0.000000
  70
    32
  0
VERTEX
  8
0
  5
EA65
 10
1458.70
 20
396.930
 30
0.000000
  70
    32
  0
VERTEX
  8
0
  5
EA66
 10
1459.03
 20
397.571
 30
0.000000
  70
    32
  0
VERTEX
  8
0
  5
EA67
 10
1459.33
 20
398.227
 30
0.000000
  70
    32
  0
VERTEX
  8
0
  5
EA68
 10
1459.59
 20
398.896
 30
0.000000
  70
    32
  0
VERTEX
  8
0
  5
EA69
 10
1459.82
 20
399.577
 30
0.000000
  70
    32
  0
VERTEX
  8
0
  5
EA6A
 10
1460.02
 20
400.269
 30
0.000000
  70
    32
  0
VERTEX
  8
0
  5
EA6B
 10
1460.18
 20
400.969
 30
0.000000
  70
    32
  0
VERTEX
  8
0
  5
EA6C
 10
1460.31
 20
401.676
 30
0.000000
  70
    32
  0
VERTEX
  8
0
  5
EA6D
 10
1460.40
 20
402.388
 30
0.000000
  70
    32
  0
VERTEX
  8
0
  5
EA6E
 10
1460.45
 20
403.103
 30
0.000000
  70
    32
  0
VERTEX
  8
0
  5
EA6F
 10
1460.47
 20
403.821
 30
0.000000
  70
    32
  0
SEQEND
  8
0
  5
EA70
  0
LINE
  5
E3D9
  8
0
 10
1467.0218383531201
 20
505.77531416866492
 30
0.0
 11
1484.0218383531201
 21
505.77531416866492
 31
0.0
  0
ARC
  5
E3DA
  8
0
 10
1471.2718383531201
 20
495.33299337220461
 30
0.0
 40
10.44232079646028
 50
65.983629264472114
 51
114.0163707355279
  0
LINE
  5
E3DB
  8
0
 10
1467.0218383531201
 20
505.77531416866492
 30
0.0
 11
1467.0218383531201
 21
498.774314168665
 31
0.0
  0
LINE
  5
E3DC
  8
0
 10
1484.0218383531201
 20
505.77531416866492
 30
0.0
 11
1484.0218383531201
 21
498.774314168665
 31
0.0
  0
LINE
  5
E3DD
  8
0
 10
1475.5218383531201
 20
504.87131416866498
 30
0.0
 11
1475.5218383531201
 21
498.774314168665
 31
0.0
  0
ARC
  5
E3DE
  8
0
 10
1479.7718383531201
 20
495.33299337220461
 30
0.0
 40
10.44232079646028
 50
65.983629264472114
 51
114.0163707355279
  0
LINE
  5
E3DF
  8
0
 10
1423.9177619522641
 20
505.77531416866492
 30
0.0
 11
1406.9177619522641
 21
505.77531416866492
 31
0.0
  0
ARC
  5
E3E0
  8
0
 10
1419.6677619522641
 20
495.33299337220461
 30
0.0
 40
10.44232079646028
 50
65.983629264472114
 51
114.0163707355279
  0
LINE
  5
E3E1
  8
0
 10
1423.9177619522641
 20
505.77531416866492
 30
0.0
 11
1423.9177619522641
 21
498.774314168665
 31
0.0
  0
LINE
  5
E3E2
  8
0
 10
1406.9177619522641
 20
505.77531416866492
 30
0.0
 11
1406.9177619522641
 21
498.774314168665
 31
0.0
  0
LINE
  5
E3E3
  8
0
 10
1415.4177619522641
 20
504.87131416866498
 30
0.0
 11
1415.4177619522641
 21
498.774314168665
 31
0.0
  0
ARC
  5
E3E4
  8
0
 10
1411.1677619522641
 20
495.33299337220461
 30
0.0
 40
10.44232079646028
 50
65.983629264472114
 51
114.0163707355279
  0
LINE
  5
E3E5
  8
0
 10
1213.8501080539861
 20
447.81295090757118
 30
0.0
 11
1213.8501080539861
 21
419.75020484076532
 31
0.0
  0
LINE
  5
E3E6
  8
0
 10
1220.8501080539861
 20
478.01815403319608
 30
0.0
 11
1220.8501080539861
 21
455.75020484076509
 31
0.0
  0
LINE
  5
E3E7
  8
0
 10
1149.8501080539861
 20
419.75020484076532
 30
0.0
 11
1149.8501080539861
 21
447.81295090757118
 31
0.0
  0
LINE
  5
E3E8
  8
0
 10
1221.8501080539861
 20
488.75020484076509
 30
0.0
 11
1221.8501080539861
 21
479.75020484076509
 31
0.0
  0
ARC
  5
E3E9
  8
0
 10
1216.8501080539861
 20
455.75020484076509
 30
0.0
 40
4.0
 50
277.18075578145852
 51
0.0
  0
ARC
  5
E3EA
  8
0
 10
1217.8501080539861
 20
447.81295090757118
 30
0.0
 40
4.0
 50
97.180755781458572
 51
180.0
  0
LINE
  5
E3EB
  8
0
 10
1220.8501080539861
 20
478.75020484076521
 30
0.0
 11
1196.9497769245279
 21
478.75020484076521
 31
0.0
  0
ARC
  5
E3EC
  8
0
 10
1220.8501080539861
 20
479.75020484076509
 30
0.0
 40
1.0
 50
299.99999999999449
 51
0.0
  0
ARC
  5
E3ED
  8
0
 10
1221.8501080539861
 20
478.01815403319608
 30
0.0
 40
1.0
 50
119.9999999999944
 51
180.0
  0
LINE
  5
E3EE
  8
0
 10
1142.8501080539861
 20
478.01815403319608
 30
0.0
 11
1142.8501080539861
 21
455.75020484076509
 31
0.0
  0
LINE
  5
E3EF
  8
0
 10
1141.8501080539861
 20
488.75020484076509
 30
0.0
 11
1141.8501080539861
 21
479.75020484076509
 31
0.0
  0
ARC
  5
E3F0
  8
0
 10
1142.8501080539861
 20
479.75020484076509
 30
0.0
 40
1.0
 50
180.0
 51
240.00000000000551
  0
ARC
  5
E3F1
  8
0
 10
1141.8501080539861
 20
478.01815403319608
 30
0.0
 40
1.0
 50
0.0
 51
60.000000000005542
  0
ARC
  5
E3F2
  8
0
 10
1146.8501080539861
 20
455.75020484076509
 30
0.0
 40
4.0
 50
180.0
 51
262.81924421854148
  0
ARC
  5
E3F3
  8
0
 10
1145.8501080539861
 20
447.81295090757118
 30
0.0
 40
4.0
 50
0.0
 51
82.819244218541442
  0
LINE
  5
E3F4
  8
0
 10
1221.641395901464
 20
488.75020484076509
 30
0.0
 11
1142.058820206508
 21
488.75020484076509
 31
0.0
  0
LINE
  5
E3F5
  8
0
 10
1217.350108053987
 20
451.78157787416819
 30
0.0
 11
1200.9207457587841
 21
451.78157787416831
 31
0.0
  0
LINE
  5
E3F6
  8
0
 10
1162.7794703491891
 20
451.78157787416819
 30
0.0
 11
1146.350108053987
 21
451.78157787416819
 31
0.0
  0
ARC
  5
E3F7
  8
0
 10
1181.8501080539861
 20
419.75020484076532
 30
0.0
 40
32.0
 50
180.0
 51
0.0
  0
LINE
  5
E3F8
  8
0
 10
1142.8501080539861
 20
478.75020484076521
 30
0.0
 11
1166.750439183445
 21
478.75020484076498
 31
0.0
  0
LINE
  5
E3F9
  8
0
 10
1193.8501080539861
 20
505.774314168665
 30
0.0
 11
1193.8501080539861
 21
500.774314168665
 31
0.0
  0
ARC
  5
E3FA
  8
0
 10
1185.8501080539861
 20
505.75020484076538
 30
0.0
 40
8.0
 50
0.0
 51
90.0
  0
LINE
  5
E3FB
  8
0
 10
1169.8501080539861
 20
505.774314168665
 30
0.0
 11
1169.8501080539861
 21
500.774314168665
 31
0.0
  0
ARC
  5
E3FC
  8
0
 10
1177.8501080539861
 20
505.75020484076538
 30
0.0
 40
8.0
 50
90.0
 51
180.0
  0
LINE
  5
E3FD
  8
0
 10
1221.8501080539861
 20
497.774314168665
 30
0.0
 11
1221.8501080539861
 21
488.75020484076532
 31
0.0
  0
ARC
  5
E3FE
  8
0
 10
1220.8501080539861
 20
497.774314168665
 30
0.0
 40
1.0
 50
0.0
 51
90.0
  0
LINE
  5
E3FF
  8
0
 10
1141.8501080539861
 20
497.774314168665
 30
0.0
 11
1141.8501080539861
 21
488.75020484076509
 31
0.0
  0
ARC
  5
E400
  8
0
 10
1142.8501080539861
 20
497.774314168665
 30
0.0
 40
1.0
 50
90.0
 51
180.0
  0
LINE
  5
E401
  8
0
 10
1185.8501080539861
 20
513.75020484076526
 30
0.0
 11
1177.8501080539861
 21
513.75020484076526
 31
0.0
  0
LINE
  5
E402
  8
0
 10
1220.8501080539861
 20
498.774314168665
 30
0.0
 11
1142.8501080539861
 21
498.774314168665
 31
0.0
  0
ARC
  5
E403
  8
0
 10
1195.8501080539861
 20
500.774314168665
 30
0.0
 40
2.0
 50
180.0
 51
270.0
  0
ARC
  5
E404
  8
0
 10
1167.8501080539861
 20
500.77431416866523
 30
0.0
 40
2.0
 50
270.0
 51
0.0
  0
LINE
  5
E405
  8
0
 10
1197.8203189917319
 20
498.774314168665
 30
0.0
 11
1196.8501080539861
 21
498.774314168665
 31
0.0
  0
LINE
  5
E406
  8
0
 10
1221.8501080539861
 20
488.75020484076509
 30
0.0
 11
1141.8501080539861
 21
488.75020484076509
 31
0.0
  0
LINE
  5
E407
  8
0
 10
1160.298069853558
 20
505.77531416866492
 30
0.0
 11
1143.298069853558
 21
505.77531416866492
 31
0.0
  0
ARC
  5
E408
  8
0
 10
1156.048069853558
 20
495.33299337220461
 30
0.0
 40
10.44232079646028
 50
65.983629264472114
 51
114.0163707355279
  0
LINE
  5
E409
  8
0
 10
1160.298069853558
 20
505.77531416866492
 30
0.0
 11
1160.298069853558
 21
498.774314168665
 31
0.0
  0
LINE
  5
E40A
  8
0
 10
1143.298069853558
 20
505.77531416866492
 30
0.0
 11
1143.298069853558
 21
498.774314168665
 31
0.0
  0
LINE
  5
E40B
  8
0
 10
1151.798069853558
 20
504.87131416866498
 30
0.0
 11
1151.798069853558
 21
498.774314168665
 31
0.0
  0
ARC
  5
E40C
  8
0
 10
1147.548069853558
 20
495.33299337220461
 30
0.0
 40
10.44232079646028
 50
65.983629264472114
 51
114.0163707355279
  0
LINE
  5
E40D
  8
0
 10
1203.402146254414
 20
505.77531416866492
 30
0.0
 11
1220.402146254414
 21
505.77531416866492
 31
0.0
  0
ARC
  5
E40E
  8
0
 10
1207.652146254414
 20
495.33299337220461
 30
0.0
 40
10.44232079646028
 50
65.983629264472114
 51
114.0163707355279
  0
LINE
  5
E40F
  8
0
 10
1203.402146254414
 20
505.77531416866492
 30
0.0
 11
1203.402146254414
 21
498.774314168665
 31
0.0
  0
LINE
  5
E410
  8
0
 10
1220.402146254414
 20
505.77531416866492
 30
0.0
 11
1220.402146254414
 21
498.774314168665
 31
0.0
  0
LINE
  5
E411
  8
0
 10
1211.902146254414
 20
504.87131416866498
 30
0.0
 11
1211.902146254414
 21
498.774314168665
 31
0.0
  0
ARC
  5
E412
  8
0
 10
1216.152146254414
 20
495.33299337220461
 30
0.0
 40
10.44232079646028
 50
65.983629264472114
 51
114.0163707355279
  0
CIRCLE
  5
E413
  8
0
 10
1181.8501080539861
 20
399.75946922150752
 30
0.0
 40
11.00926438074225
  0
LINE
  5
E49F
  8
0
 10
1371.7533074995749
 20
483.75020484076521
 30
0.0
 11
1371.7533074995749
 21
441.74995484076521
 31
0.0
  0
CIRCLE
  5
E4C9
  8
0
 10
1181.8501080539861
 20
462.75020484076509
 30
0.0
 40
22.0
  0
LINE
  5
E4CB
  8
0
 10
1202.850108053987
 20
471.75020484076509
 30
0.0
 11
1201.9249679538709
 21
471.75020484076509
 31
0.0
  0
LINE
  5
E4CC
  8
0
 10
1203.8501080539861
 20
454.75020484076498
 30
0.0
 11
1203.850108053987
 21
470.75020484076509
 31
0.0
  0
LINE
  5
E4CD
  8
0
 10
1202.850108053987
 20
453.75020484076498
 30
0.0
 11
1201.9249679538709
 21
453.75020484076498
 31
0.0
  0
LINE
  5
E4CE
  8
0
 10
1160.8501080539861
 20
471.75020484076521
 30
0.0
 11
1161.775248154102
 21
471.75020484076509
 31
0.0
  0
LINE
  5
E4CF
  8
0
 10
1159.8501080539861
 20
454.75020484076498
 30
0.0
 11
1159.8501080539861
 21
470.75020484076521
 31
0.0
  0
LINE
  5
E4D0
  8
0
 10
1160.8501080539861
 20
453.75020484076498
 30
0.0
 11
1161.775248154102
 21
453.75020484076498
 31
0.0
  0
ARC
  5
E4D1
  8
0
 10
1202.850108053987
 20
470.75020484076509
 30
0.0
 40
1.0
 50
0.0000000000007124
 51
89.999999999998323
  0
ARC
  5
E4D2
  8
0
 10
1202.850108053987
 20
454.75020484076498
 30
0.0
 40
1.0
 50
270.00000000000171
 51
0.0
  0
ARC
  5
E4D3
  8
0
 10
1160.8501080539861
 20
470.75020484076521
 30
0.0
 40
1.0
 50
90.000000000001705
 51
179.99999999999929
  0
ARC
  5
E4D4
  8
0
 10
1160.8501080539861
 20
454.75020484076498
 30
0.0
 40
1.0
 50
179.9999999999992
 51
269.99999999999829
  0
LINE
  5
E4D5
  8
0
 10
1175.8501080539861
 20
488.75020484076509
 30
0.0
 11
1175.8501080539861
 21
483.91621532928178
 31
0.0
  0
LINE
  5
E4D6
  8
0
 10
1187.8501080539861
 20
488.75020484076509
 30
0.0
 11
1187.8501080539861
 21
483.91621532928178
 31
0.0
  0
CIRCLE
  5
E4DE
  8
0
 10
1445.469800152692
 20
462.75020484076509
 30
0.0
 40
22.0
  0
LINE
  5
E4DF
  8
0
 10
1466.4698001526931
 20
471.75020484076509
 30
0.0
 11
1465.544660052577
 21
471.75020484076509
 31
0.0
  0
LINE
  5
E4E0
  8
0
 10
1467.4698001526931
 20
454.75020484076498
 30
0.0
 11
1467.4698001526931
 21
470.75020484076509
 31
0.0
  0
ARC
  5
E4E1
  8
0
 10
1466.4698001526931
 20
470.75020484076509
 30
0.0
 40
1.0
 50
0.0000000000007124
 51
89.999999999998323
  0
LINE
  5
E4E2
  8
0
 10
1466.4698001526931
 20
453.75020484076498
 30
0.0
 11
1465.544660052577
 21
453.75020484076498
 31
0.0
  0
ARC
  5
E4E3
  8
0
 10
1466.4698001526931
 20
454.75020484076498
 30
0.0
 40
1.0
 50
270.00000000000171
 51
0.0
  0
LINE
  5
E4E4
  8
0
 10
1424.469800152692
 20
471.75020484076521
 30
0.0
 11
1425.3949402528081
 21
471.75020484076509
 31
0.0
  0
ARC
  5
E4E5
  8
0
 10
1424.469800152692
 20
470.75020484076521
 30
0.0
 40
1.0
 50
90.000000000001705
 51
179.99999999999929
  0
LINE
  5
E4E6
  8
0
 10
1423.469800152692
 20
454.75020484076498
 30
0.0
 11
1423.469800152692
 21
470.75020484076521
 31
0.0
  0
ARC
  5
E4E7
  8
0
 10
1424.469800152692
 20
454.75020484076498
 30
0.0
 40
1.0
 50
179.9999999999992
 51
269.99999999999829
  0
LINE
  5
E4E8
  8
0
 10
1424.469800152692
 20
453.75020484076498
 30
0.0
 11
1425.3949402528081
 21
453.75020484076498
 31
0.0
  0
LINE
  5
E4ED
  8
0
 10
1338.7533074995749
 20
732.67445591770036
 30
0.0
 11
1338.7533074995749
 21
716.8865985605147
 31
0.0
  0
LINE
  5
E4EE
  8
0
 10
1339.7533074995749
 20
685.8865985605147
 30
0.0
 11
1314.6903074995751
 21
685.8865985605147
 31
0.0
  0
ARC
  5
E4EF
  8
0
 10
1306.7533074995749
 20
716.8865985605147
 30
0.0
 40
32.0
 50
348.11884397898712
 51
0.000000000000007
  0
ARC
  5
E4F0
  8
0
 10
1340.0249170188031
 20
709.88659856051459
 30
0.0
 40
2.0
 50
168.118843978987
 51
262.1948421986944
  0
ARC
  5
E4F1
  8
0
 10
1281.8714356251451
 20
689.50243430406067
 30
0.0
 40
5.0
 50
47.741003769912311
 51
105.00017609622959
  0
LINE
  5
E4F2
  8
0
 10
1263.544595347053
 20
783.8865985605147
 30
0.0
 11
1263.544595347053
 21
783.8865985605147
 31
0.0
  0
LINE
  5
E4F3
  8
0
 10
1358.7533074995749
 20
784.88659856051481
 30
0.0
 11
1358.7533074995749
 21
782.88659856051481
 31
0.0
  0
ARC
  5
E4F4
  8
0
 10
1356.2533074995749
 20
784.88659856051481
 30
0.0
 40
2.5
 50
0.000000000000007
 51
23.57817847820715
  0
ARC
  5
E4F5
  8
0
 10
1359.7533074995749
 20
782.88659856051481
 30
0.0
 40
1.0
 50
180.0
 51
270.0
  0
LINE
  5
E4F6
  8
0
 10
1244.7533074995749
 20
767.88659856051424
 30
0.0
 11
1244.7533074995749
 21
751.88659856051459
 31
0.0
  0
ARC
  5
E4F7
  8
0
 10
1245.7533074995749
 20
767.88659856051424
 30
0.0
 40
1.0
 50
90.0
 51
180.0
  0
LINE
  5
E4F8
  8
0
 10
1256.7533074995749
 20
767.88659856051481
 30
0.0
 11
1256.7533074995749
 21
751.88659856051459
 31
0.0
  0
ARC
  5
E4F9
  8
0
 10
1255.7533074995749
 20
751.88659856051459
 30
0.0
 40
1.0
 50
270.0
 51
0.000000000000007
  0
ARC
  5
E4FA
  8
0
 10
1255.7533074995749
 20
767.88659856051481
 30
0.0
 40
1.0
 50
0.000000000000007
 51
90.0
  0
LINE
  5
E4FB
  8
0
 10
1242.7533074995749
 20
781.88659856051481
 30
0.0
 11
1241.7533074995749
 21
780.88659856051481
 31
0.0
  0
LINE
  5
E4FC
  8
0
 10
1361.7533074995749
 20
780.88659856051481
 30
0.0
 11
1361.7533074995749
 21
738.88659856051459
 31
0.0
  0
LINE
  5
E4FD
  8
0
 10
1346.7533074995749
 20
781.88659856051481
 30
0.0
 11
1360.7533074995749
 21
781.88659856051481
 31
0.0
  0
LINE
  5
E4FE
  8
0
 10
1361.7533074995749
 20
780.88659856051481
 30
0.0
 11
1360.7533074995749
 21
781.88659856051481
 31
0.0
  0
LINE
  5
E4FF
  8
0
 10
1263.7533074995749
 20
785.88659856051481
 30
0.0
 11
1358.544595347053
 21
785.88659856051481
 31
0.0
  0
ARC
  5
E500
  8
0
 10
1340.2533074995749
 20
743.38659856051459
 30
0.0
 40
7.0
 50
283.13655878694249
 51
300.27264131890257
  0
ARC
  5
E501
  8
0
 10
1342.7533074995749
 20
732.67445591770036
 30
0.0
 40
4.0
 50
103.1365587869425
 51
180.0
  0
ARC
  5
E502
  8
0
 10
1345.7985757527799
 20
733.8865985605147
 30
0.0
 40
4.0
 50
90.0
 51
120.2726413189026
  0
LINE
  5
E503
  8
0
 10
1345.7985757527799
 20
737.8865985605147
 30
0.0
 11
1360.7533074995749
 21
737.8865985605147
 31
0.0
  0
LINE
  5
E504
  8
0
 10
1241.7533074995749
 20
738.88634856051465
 30
0.0
 11
1242.7533074995749
 21
737.88634856051476
 31
0.0
  0
LINE
  5
E505
  8
0
 10
1361.7533074995749
 20
738.88659856051459
 30
0.0
 11
1360.7533074995749
 21
737.8865985605147
 31
0.0
  0
LINE
  5
E506
  8
0
 10
1242.7533074995749
 20
781.88659856051481
 30
0.0
 11
1260.6362684338569
 21
781.88659856051481
 31
0.0
  0
LINE
  5
E507
  8
0
 10
1280.577325555972
 20
694.33205945813472
 30
0.0
 11
1251.7127523540389
 21
686.59772529526265
 31
0.0
  0
LINE
  5
E508
  8
0
 10
1252.771307499575
 20
720.24165240791467
 30
0.0
 11
1252.7713074995761
 21
734.88684856051464
 31
0.0
  0
ARC
  5
E509
  8
0
 10
1249.771307499575
 20
734.88684856051464
 30
0.0
 40
3.0
 50
0.000000000000007
 51
90.0
  0
LINE
  5
E50A
  8
0
 10
1250.5477735410791
 20
717.34387731547019
 30
0.0
 11
1243.947133217961
 21
715.57521932802047
 31
0.0
  0
ARC
  5
E50B
  8
0
 10
1249.771307499575
 20
720.24165240791444
 30
0.0
 40
3.0
 50
285.00017609622961
 51
0.000000000000007
  0
ARC
  5
E50C
  8
0
 10
1251.19510832637
 20
688.52957535689222
 30
0.0
 40
2.0
 50
270.51308777825147
 51
285.00017609622961
  0
LINE
  5
E50D
  8
0
 10
1251.213018229156
 20
686.52965554965442
 30
0.0
 11
1243.48056636812
 21
715.38444047360485
 31
0.0
  0
LINE
  5
E50E
  8
0
 10
1249.357592589254
 20
689.59013628967455
 30
0.0
 11
1243.404154341119
 21
711.8062694509498
 31
0.0
  0
ARC
  5
E50F
  8
0
 10
1244.4647772456301
 20
713.64336926639101
 30
0.0
 40
2.0
 50
105.00017609622959
 51
119.479060139583
  0
LINE
  5
E510
  8
0
 10
1249.771307499575
 20
737.88684856051464
 30
0.0
 11
1242.7533074995749
 21
737.88634856051476
 31
0.0
  0
ARC
  5
E511
  8
0
 10
1260.6362684338569
 20
784.88659856051481
 30
0.0
 40
3.0
 50
270.0
 51
349.52431830360632
  0
ARC
  5
E512
  8
0
 10
1266.044595347053
 20
783.8865985605147
 30
0.0
 40
2.5
 50
156.42182152179279
 51
169.52431830360629
  0
LINE
  5
E513
  8
0
 10
1339.7533074995749
 20
707.9051273219992
 30
0.0
 11
1339.7533074995749
 21
685.8865985605147
 31
0.0
  0
ARC
  5
E514
  8
0
 10
1306.7533074995749
 20
716.8865985605147
 30
0.0
 40
32.0
 50
180.0
 51
0.000000000000007
  0
LINE
  5
E515
  8
0
 10
1263.7533074995749
 20
785.88659856051481
 30
0.0
 11
1263.7533074995749
 21
777.88659856051481
 31
0.0
  0
ARC
  5
E516
  8
0
 10
1265.7533074995749
 20
777.88659856051481
 30
0.0
 40
2.0
 50
180.0
 51
270.0
  0
LINE
  5
E517
  8
0
 10
1271.629986745538
 20
748.91797159391785
 30
0.0
 11
1337.712171757435
 21
748.91797159391785
 31
0.0
  0
ARC
  5
E518
  8
0
 10
1271.629986745538
 20
753.91797159391785
 30
0.0
 40
5.0
 50
180.0
 51
270.0
  0
LINE
  5
E519
  8
0
 10
1346.7533074995749
 20
785.88659856051481
 30
0.0
 11
1346.7533074995749
 21
777.88659856051481
 31
0.0
  0
LINE
  5
E51A
  8
0
 10
1266.6299867455371
 20
775.88659856051481
 30
0.0
 11
1266.6299867455371
 21
753.91797159391785
 31
0.0
  0
LINE
  5
E51B
  8
0
 10
1265.7533074995749
 20
775.88659856051481
 30
0.0
 11
1344.7533074995749
 21
775.88659856051481
 31
0.0
  0
ARC
  5
E51C
  8
0
 10
1344.7533074995749
 20
777.88659856051481
 30
0.0
 40
2.0
 50
270.0
 51
0.000000000000007
  0
LINE
  5
E51D
  8
0
 10
1342.712171757435
 20
775.88659856051481
 30
0.0
 11
1342.712171757435
 21
753.91797159391785
 31
0.0
  0
ARC
  5
E51E
  8
0
 10
1337.712171757435
 20
753.91797159391785
 30
0.0
 40
5.0
 50
270.0
 51
0.000000000000007
  0
LINE
  5
E51F
  8
0
 10
1274.7533074995749
 20
716.8865985605147
 30
0.0
 11
1274.7533074995749
 21
748.91797159391785
 31
0.0
  0
LINE
  5
E520
  8
0
 10
1263.7533074995749
 20
795.88659856051481
 30
0.0
 11
1345.7533074995749
 21
795.88659856051481
 31
0.0
  0
LINE
  5
E521
  8
0
 10
1302.7533074995749
 20
810.8865985605147
 30
0.0
 11
1310.7533074995749
 21
810.8865985605147
 31
0.0
  0
ARC
  5
E522
  8
0
 10
1320.7533074995749
 20
797.88659856051481
 30
0.0
 40
2.0
 50
180.0
 51
270.0
  0
LINE
  5
E523
  8
0
 10
1318.7533074995749
 20
802.8865985605147
 30
0.0
 11
1318.7533074995749
 21
797.88659856051481
 31
0.0
  0
ARC
  5
E524
  8
0
 10
1310.7533074995749
 20
802.8865985605147
 30
0.0
 40
8.0
 50
0.000000000000007
 51
90.0
  0
LINE
  5
E525
  8
0
 10
1263.7533074995749
 20
785.88659856051481
 30
0.0
 11
1263.7533074995749
 21
806.86248923261519
 31
0.0
  0
ARC
  5
E526
  8
0
 10
1265.7533074995749
 20
806.86248923261519
 30
0.0
 40
2.0
 50
90.0
 51
180.0
  0
LINE
  5
E527
  8
0
 10
1296.721295564349
 20
808.86248923261508
 30
0.0
 11
1265.7533074995749
 21
808.86248923261508
 31
0.0
  0
LINE
  5
E528
  8
0
 10
1346.7533074995749
 20
785.88659856051481
 30
0.0
 11
1346.7533074995749
 21
794.88659856051481
 31
0.0
  0
ARC
  5
E529
  8
0
 10
1345.7533074995749
 20
794.88659856051481
 30
0.0
 40
1.0
 50
0.000000000000007
 51
90.0
  0
ARC
  5
E52A
  8
0
 10
1296.721295564349
 20
810.86248923261508
 30
0.0
 40
2.0
 50
270.0
 51
307.09951192718808
  0
LINE
  5
E52B
  8
0
 10
1294.7533074995749
 20
802.8865985605147
 30
0.0
 11
1294.7533074995749
 21
797.88659856051481
 31
0.0
  0
ARC
  5
E52C
  8
0
 10
1302.7533074995749
 20
802.8865985605147
 30
0.0
 40
8.0
 50
90.0
 51
180.0
  0
ARC
  5
E52D
  8
0
 10
1292.7533074995749
 20
797.88659856051481
 30
0.0
 40
2.0
 50
270.0
 51
0.000000000000007
  0
LINE
  5
E52E
  8
0
 10
1328.555345700004
 20
802.88759856051502
 30
0.0
 11
1345.055345700004
 21
802.88759856051502
 31
0.0
  0
ARC
  5
E52F
  8
0
 10
1344.1663457000029
 20
798.05627449509802
 30
0.0
 40
4.6309815714167701
 50
58.000676159490972
 51
121.99932384050901
  0
LINE
  5
E530
  8
0
 10
1331.4623457000041
 20
802.22459856051489
 30
0.0
 11
1330.9923457000041
 21
802.42059856051492
 31
0.0
  0
LINE
  5
E531
  8
0
 10
1326.9903457000039
 20
795.88659856051481
 30
0.0
 11
1326.9903457000039
 21
801.98359856051491
 31
0.0
  0
LINE
  5
E532
  8
0
 10
1326.9903457000039
 20
801.98359856051491
 30
0.0
 11
1328.555345700004
 21
802.88759856051502
 31
0.0
  0
LINE
  5
E533
  8
0
 10
1327.8963457000029
 20
802.42159856051512
 30
0.0
 11
1326.9903457000039
 21
801.98359856051491
 31
0.0
  0
LINE
  5
E534
  8
0
 10
1328.3953457000041
 20
802.5665985605151
 30
0.0
 11
1327.8963457000029
 21
802.42159856051512
 31
0.0
  0
LINE
  5
E535
  8
0
 10
1328.9153457000041
 20
802.65659856051468
 30
0.0
 11
1328.3953457000041
 21
802.5665985605151
 31
0.0
  0
LINE
  5
E536
  8
0
 10
1329.4443457000041
 20
802.68759856051474
 30
0.0
 11
1328.9153457000041
 21
802.65659856051468
 31
0.0
  0
LINE
  5
E537
  8
0
 10
1329.9733457000041
 20
802.65659856051468
 30
0.0
 11
1329.4443457000041
 21
802.68759856051474
 31
0.0
  0
LINE
  5
E538
  8
0
 10
1330.4923457000029
 20
802.5665985605151
 30
0.0
 11
1329.9733457000041
 21
802.65659856051468
 31
0.0
  0
LINE
  5
E539
  8
0
 10
1330.9923457000041
 20
802.42059856051492
 30
0.0
 11
1330.4923457000029
 21
802.5665985605151
 31
0.0
  0
LINE
  5
E53A
  8
0
 10
1341.7123457000041
 20
801.98359856051491
 30
0.0
 11
1341.7123457000041
 21
795.88659856051481
 31
0.0
  0
LINE
  5
E53B
  8
0
 10
1331.8983457000029
 20
801.98359856051491
 30
0.0
 11
1331.8983457000029
 21
795.88659856051481
 31
0.0
  0
ARC
  5
E53C
  8
0
 10
1336.805345700003
 20
785.22460696740154
 30
0.0
 40
17.462601416113358
 50
73.6800723316708
 51
106.3199276683292
  0
LINE
  5
E53D
  8
0
 10
1331.8983457000029
 20
801.98359856051491
 30
0.0
 11
1331.4623457000041
 21
802.22459856051489
 31
0.0
  0
LINE
  5
E53E
  8
0
 10
1346.620345700004
 20
801.98359856051491
 30
0.0
 11
1346.620345700004
 21
795.88659856051481
 31
0.0
  0
LINE
  5
E53F
  8
0
 10
1345.055345700004
 20
802.88759856051502
 30
0.0
 11
1346.620345700004
 21
801.98359856051491
 31
0.0
  0
LINE
  5
E540
  8
0
 10
1346.620345700004
 20
795.88659856051481
 30
0.0
 11
1345.7533074995749
 21
795.88659856051481
 31
0.0
  0
LINE
  5
E541
  8
0
 10
1268.4419850666329
 20
802.88759856051502
 30
0.0
 11
1284.9419850666329
 21
802.88759856051502
 31
0.0
  0
ARC
  5
E542
  8
0
 10
1284.052985066633
 20
798.05627449509848
 30
0.0
 40
4.6309815714167701
 50
58.000676159490972
 51
121.99932384050901
  0
LINE
  5
E543
  8
0
 10
1271.3489850666331
 20
802.22459856051489
 30
0.0
 11
1270.878985066633
 21
802.42059856051492
 31
0.0
  0
LINE
  5
E544
  8
0
 10
1266.8769850666331
 20
795.88659856051515
 30
0.0
 11
1266.8769850666331
 21
801.98359856051491
 31
0.0
  0
LINE
  5
E545
  8
0
 10
1266.8769850666331
 20
801.98359856051491
 30
0.0
 11
1268.4419850666329
 21
802.88759856051502
 31
0.0
  0
LINE
  5
E546
  8
0
 10
1267.782985066633
 20
802.42159856051512
 30
0.0
 11
1266.8769850666331
 21
801.98359856051491
 31
0.0
  0
LINE
  5
E547
  8
0
 10
1268.2819850666331
 20
802.5665985605151
 30
0.0
 11
1267.782985066633
 21
802.42159856051512
 31
0.0
  0
LINE
  5
E548
  8
0
 10
1268.8019850666331
 20
802.65659856051525
 30
0.0
 11
1268.2819850666331
 21
802.5665985605151
 31
0.0
  0
LINE
  5
E549
  8
0
 10
1269.3309850666319
 20
802.68759856051508
 30
0.0
 11
1268.8019850666331
 21
802.65659856051525
 31
0.0
  0
LINE
  5
E54A
  8
0
 10
1269.859985066633
 20
802.65659856051525
 30
0.0
 11
1269.3309850666319
 21
802.68759856051508
 31
0.0
  0
LINE
  5
E54B
  8
0
 10
1270.378985066633
 20
802.5665985605151
 30
0.0
 11
1269.859985066633
 21
802.65659856051525
 31
0.0
  0
LINE
  5
E54C
  8
0
 10
1270.878985066633
 20
802.42059856051492
 30
0.0
 11
1270.378985066633
 21
802.5665985605151
 31
0.0
  0
LINE
  5
E54D
  8
0
 10
1281.5989850666331
 20
801.98359856051491
 30
0.0
 11
1281.5989850666331
 21
795.88659856051515
 31
0.0
  0
LINE
  5
E54E
  8
0
 10
1271.784985066633
 20
801.98359856051491
 30
0.0
 11
1271.784985066633
 21
795.88659856051515
 31
0.0
  0
ARC
  5
E54F
  8
0
 10
1276.691985066632
 20
785.22460696740154
 30
0.0
 40
17.462601416113358
 50
73.6800723316708
 51
106.3199276683292
  0
LINE
  5
E550
  8
0
 10
1271.784985066633
 20
801.98359856051491
 30
0.0
 11
1271.3489850666331
 21
802.22459856051489
 31
0.0
  0
LINE
  5
E551
  8
0
 10
1286.506985066633
 20
801.98359856051491
 30
0.0
 11
1286.506985066633
 21
795.88659856051515
 31
0.0
  0
LINE
  5
E552
  8
0
 10
1284.9419850666329
 20
802.88759856051502
 30
0.0
 11
1286.506985066633
 21
801.98359856051491
 31
0.0
  0
LINE
  5
E553
  8
0
 10
1255.7533074995749
 20
750.88659856051459
 30
0.0
 11
1245.7533074995749
 21
750.88659856051459
 31
0.0
  0
ARC
  5
E554
  8
0
 10
1245.7533074995749
 20
751.88659856051459
 30
0.0
 40
1.0
 50
180.0
 51
270.0
  0
LINE
  5
E555
  8
0
 10
1255.7533074995749
 20
768.88659856051481
 30
0.0
 11
1245.7533074995749
 21
768.88659856051436
 31
0.0
  0
LINE
  5
E556
  8
0
 10
1248.7102448711089
 20
692.00487043371061
 30
0.0
 11
1243.4044544465071
 21
711.80634987263625
 31
0.0
  0
LINE
  5
E557
  8
0
 10
1247.5872404226141
 20
692.85001303035347
 30
0.0
 11
1242.498743169723
 21
691.48655430075337
 31
0.0
  0
LINE
  5
E558
  8
0
 10
1242.498743169723
 20
691.48655430075337
 30
0.0
 11
1241.749979672242
 21
694.28097771620821
 31
0.0
  0
LINE
  5
E559
  8
0
 10
1241.749979672242
 20
694.28097771620821
 30
0.0
 11
1246.8384769251329
 21
695.64443644580831
 31
0.0
  0
LINE
  5
E55A
  8
0
 10
1246.8384769251329
 20
695.64443644580831
 30
0.0
 11
1247.5872404226141
 21
692.85001303035347
 31
0.0
  0
LINE
  5
E55B
  8
0
 10
1243.4044544465071
 20
711.80634987263625
 30
0.0
 11
1242.1797341132869
 21
713.03110131901155
 31
0.0
  0
LINE
  5
E55C
  8
0
 10
1242.1797341132869
 20
713.03110131901155
 30
0.0
 11
1237.0912368603961
 21
711.66764258941134
 31
0.0
  0
LINE
  5
E55D
  8
0
 10
1237.0912368603961
 20
711.66764258941134
 30
0.0
 11
1236.6429736624841
 21
709.99461655691891
 31
0.0
  0
LINE
  5
E55E
  8
0
 10
1236.6429736624841
 20
709.99461655691891
 30
0.0
 11
1242.595811699842
 21
687.77832255227008
 31
0.0
  0
LINE
  5
E55F
  8
0
 10
1242.595811699842
 20
687.77832255227008
 30
0.0
 11
1243.8205320330619
 21
686.55357110589534
 31
0.0
  0
LINE
  5
E560
  8
0
 10
1243.8205320330619
 20
686.55357110589534
 30
0.0
 11
1248.909029285953
 21
687.91702983549555
 31
0.0
  0
LINE
  5
E561
  8
0
 10
1248.909029285953
 20
687.91702983549555
 30
0.0
 11
1249.3572924838661
 21
689.59005586798776
 31
0.0
  0
LINE
  5
E562
  8
0
 10
1249.3572924838661
 20
689.59005586798776
 30
0.0
 11
1248.7102448711089
 21
692.00487043371061
 31
0.0
  0
LINE
  5
E563
  8
0
 10
1243.5015229766259
 20
708.09811812415296
 30
0.0
 11
1238.413025723735
 21
706.73465939455286
 31
0.0
  0
LINE
  5
E564
  8
0
 10
1238.413025723735
 20
706.73465939455286
 30
0.0
 11
1239.1617892212171
 21
703.9402359790987
 31
0.0
  0
LINE
  5
E565
  8
0
 10
1239.1617892212171
 20
703.9402359790987
 30
0.0
 11
1244.250286474107
 21
705.3036947086988
 31
0.0
  0
LINE
  5
E566
  8
0
 10
1244.250286474107
 20
705.3036947086988
 30
0.0
 11
1243.5015229766259
 21
708.09811812415296
 31
0.0
  0
ARC
  5
E567
  8
0
 10
1240.9702516298571
 20
710.06344373763955
 30
0.0
 40
4.1976433314087407
 50
157.5320517966469
 51
232.4679482033626
  0
ARC
  5
E568
  8
0
 10
1253.979985941098
 20
702.7343789214259
 30
0.0
 40
14.867180138568379
 50
175.34770562304959
 51
214.65229437695351
  0
ARC
  5
E569
  8
0
 10
1246.3777579391849
 20
689.88235544898146
 30
0.0
 40
4.1976433314087407
 50
157.5320517966469
 51
232.4679482033626
  0
ARC
  5
E56A
  8
0
 10
1239.6225082071651
 20
709.70231697592476
 30
0.0
 40
4.1976433314087407
 50
337.53205179664701
 51
52.467948203350858
  0
ARC
  5
E56B
  8
0
 10
1232.0202802052511
 20
696.85029350348054
 30
0.0
 40
14.867180138568379
 50
355.34770562304971
 51
34.652294376953421
  0
ARC
  5
E56C
  8
0
 10
1245.030014516492
 20
689.52122868726644
 30
0.0
 40
4.1976433314087407
 50
337.53205179664701
 51
52.467948203356009
  0
LINE
  5
E56D
  8
0
 10
1346.7533074995749
 20
767.88659856051447
 30
0.0
 11
1346.7533074995749
 21
751.88659856051481
 31
0.0
  0
ARC
  5
E56E
  8
0
 10
1347.7533074995749
 20
767.88659856051447
 30
0.0
 40
1.0
 50
90.0
 51
180.0
  0
LINE
  5
E56F
  8
0
 10
1358.7533074995749
 20
767.88659856051481
 30
0.0
 11
1358.7533074995749
 21
751.88659856051481
 31
0.0
  0
ARC
  5
E570
  8
0
 10
1357.7533074995749
 20
751.88659856051481
 30
0.0
 40
1.0
 50
270.0
 51
0.000000000000007
  0
ARC
  5
E571
  8
0
 10
1357.7533074995749
 20
767.88659856051481
 30
0.0
 40
1.0
 50
0.000000000000007
 51
90.0
  0
LINE
  5
E572
  8
0
 10
1357.7533074995749
 20
750.8865985605147
 30
0.0
 11
1347.7533074995749
 21
750.8865985605147
 31
0.0
  0
ARC
  5
E573
  8
0
 10
1347.7533074995749
 20
751.88659856051481
 30
0.0
 40
1.0
 50
180.0
 51
270.0
  0
LINE
  5
E574
  8
0
 10
1357.7533074995749
 20
768.88659856051481
 30
0.0
 11
1347.7533074995749
 21
768.88659856051447
 31
0.0
  0
LINE
  5
E575
  8
0
 10
1243.404154341119
 20
711.8062694509498
 30
0.0
 11
1244.370073174571
 21
712.06511459226761
 31
0.0
  0
LINE
  5
E576
  8
0
 10
1249.3572924838661
 20
689.59005586798776
 30
0.0
 11
1250.323511422705
 21
689.84898143099224
 31
0.0
  0
LINE
  5
E577
  8
0
 10
1241.7533074995749
 20
780.88659856051481
 30
0.0
 11
1241.7533074995749
 21
738.88634856051465
 31
0.0
  0
LINE
  5
E586
  8
0
 10
683.96479686509576
 20
491.85303773527642
 30
0.0
 11
683.96479686509576
 21
496.13247506674531
 31
0.0
  0
LINE
  5
E587
  8
0
 10
683.96479686509576
 20
491.85303773527642
 30
0.0
 11
683.96479686509576
 21
496.13247506674531
 31
0.0
  0
LINE
  5
E588
  8
0
 10
695.96479686509576
 20
491.85303773527642
 30
0.0
 11
695.96479686509576
 21
496.1324750667452
 31
0.0
  0
LINE
  5
E58A
  8
0
 10
209.52445582916141
 20
491.96487204093683
 30
0.0
 11
209.52445582916141
 21
496.13247506674543
 31
0.0
  0
LINE
  5
E58B
  8
0
 10
221.52445582916141
 20
491.96487204093683
 30
0.0
 11
221.52445582916141
 21
496.13247506674543
 31
0.0
  0
LINE
  5
E597
  8
0
 10
354.94208957699158
 20
632.29034137269673
 30
0.0
 11
324.94208957699158
 21
632.29034137269673
 31
0.0
  0
LINE
  5
E599
  8
0
 10
322.94208957699158
 20
630.29034137269673
 30
0.0
 11
322.94208957699158
 21
612.29034137269662
 31
0.0
  0
LINE
  5
E59A
  8
0
 10
356.94208957699158
 20
630.29034137269673
 30
0.0
 11
356.94208957699158
 21
612.29034137269662
 31
0.0
  0
LINE
  5
E59B
  8
0
 10
354.94208957699158
 20
610.2903413726965
 30
0.0
 11
324.94208957699158
 21
610.2903413726965
 31
0.0
  0
ARC
  5
E59C
  8
0
 10
324.94208957699158
 20
630.29034137269673
 30
0.0
 40
2.0
 50
90.0
 51
180.0
  0
ARC
  5
E59D
  8
0
 10
324.94208957699158
 20
612.29034137269662
 30
0.0
 40
2.0
 50
180.0
 51
270.0
  0
ARC
  5
E59E
  8
0
 10
354.94208957699158
 20
612.29034137269662
 30
0.0
 40
2.0
 50
270.00000000000023
 51
0.0
  0
ARC
  5
E59F
  8
0
 10
354.94208957699158
 20
630.29034137269673
 30
0.0
 40
2.0
 50
359.99999999999977
 51
90.0
  0
LINE
  5
E5A0
  8
0
 10
829.38243061292633
 20
632.29034137269673
 30
0.0
 11
799.38243061292621
 21
632.29034137269673
 31
0.0
  0
ARC
  5
E5A1
  8
0
 10
829.38243061292633
 20
630.29034137269673
 30
0.0
 40
2.0
 50
359.99999999999977
 51
90.0
  0
LINE
  5
E5A2
  8
0
 10
829.3824306129261
 20
610.2903413726965
 30
0.0
 11
799.3824306129261
 21
610.2903413726965
 31
0.0
  0
ARC
  5
E5A3
  8
0
 10
799.3824306129261
 20
612.29034137269662
 30
0.0
 40
2.0
 50
180.0
 51
270.0
  0
LINE
  5
E5A4
  8
0
 10
831.38243061292621
 20
630.29034137269673
 30
0.0
 11
831.38243061292599
 21
612.29034137269662
 31
0.0
  0
ARC
  5
E5A5
  8
0
 10
829.3824306129261
 20
612.29034137269662
 30
0.0
 40
2.0
 50
270.00000000000023
 51
0.0
  0
LINE
  5
E5A6
  8
0
 10
797.3824306129261
 20
630.29034137269673
 30
0.0
 11
797.3824306129261
 21
612.29034137269662
 31
0.0
  0
ARC
  5
E5A7
  8
0
 10
799.38243061292621
 20
630.29034137269673
 30
0.0
 40
2.0
 50
90.0
 51
180.0
  0
LINE
  5
E5A8
  8
0
 10
1321.2677418018161
 20
632.29034137269673
 30
0.0
 11
1291.267741801817
 21
632.29034137269673
 31
0.0
  0
ARC
  5
E5A9
  8
0
 10
1321.2677418018161
 20
630.29034137269673
 30
0.0
 40
2.0
 50
359.99999999999977
 51
90.0
  0
LINE
  5
E5AA
  8
0
 10
1321.2677418018161
 20
610.2903413726965
 30
0.0
 11
1291.267741801817
 21
610.2903413726965
 31
0.0
  0
ARC
  5
E5AB
  8
0
 10
1291.267741801817
 20
612.29034137269662
 30
0.0
 40
2.0
 50
180.0
 51
270.0
  0
LINE
  5
E5AC
  8
0
 10
1323.267741801817
 20
630.29034137269673
 30
0.0
 11
1323.267741801817
 21
612.29034137269662
 31
0.0
  0
ARC
  5
E5AD
  8
0
 10
1321.2677418018161
 20
612.29034137269662
 30
0.0
 40
2.0
 50
270.00000000000023
 51
0.0
  0
LINE
  5
E5AE
  8
0
 10
1289.267741801817
 20
630.29034137269673
 30
0.0
 11
1289.267741801817
 21
612.29034137269662
 31
0.0
  0
ARC
  5
E5AF
  8
0
 10
1291.267741801817
 20
630.29034137269673
 30
0.0
 40
2.0
 50
90.0
 51
180.0
  0
VIEWPORT
  5
41
 67
     1
  8
0
 10
117.358407079646
 20
73.5
 30
0.0
 40
234.716814159292
 41
147.0
 68
     1
 69
     1
1001
ACAD
1000
MVIEW
1002
{
1070
    16
1010
0.0
1020
0.0
1030
0.0
1010
0.0
1020
0.0
1030
1.0
1040
0.0
1040
147.0
1040
117.358407079646
1040
73.5
1040
50.0
1040
0.0
1040
0.0
1070
     0
1070
   100
1070
     1
1070
     1
1070
     0
1070
     0
1070
     0
1070
     0
1040
0.0
1040
0.0
1040
0.0
1040
1.0
1040
1.0
1040
0.0
1040
0.0
1070
     0
1002
{
1002
}
1002
}
  0
ENDSEC
  0
EOF
