  0
SECTION
  2
HEADER
  9
$ACADVER
  1
AC1009
  9
$INSBASE
 10
0.0
 20
0.0
 30
0.0
  9
$EXTMIN
 10
71.982425870353381
 20
27.970644888433981
 30
-0.0015258207003583
  9
$EXTMAX
 10
1636.0876503448089
 20
1128.0344265243441
 30
0.0000000349246037
  9
$LIMMIN
 10
0.0
 20
0.0
  9
$LIMMAX
 10
1680.0
 20
1188.0
  9
$ORTHOMODE
 70
     1
  9
$REGENMODE
 70
     1
  9
$FILLMODE
 70
     1
  9
$QTEXTMODE
 70
     0
  9
$MIRRTEXT
 70
     1
  9
$DRAGMODE
 70
     2
  9
$LTSCALE
 40
16.0
  9
$OSMODE
 70
   163
  9
$ATTMODE
 70
     1
  9
$TEXTSIZE
 40
16.0
  9
$TRACEWID
 40
0.05
  9
$TEXTSTYLE
  7
STANDARD
  9
$CLAYER
  8
0
  9
$CELTYPE
  6
BYLAYER
  9
$CECOLOR
 62
   256
  9
$DIMSCALE
 40
4.0
  9
$DIMASZ
 40
2.7999999999999989
  9
$DIMEXO
 40
1.0
  9
$DIMDLI
 40
5.0
  9
$DIMRND
 40
0.1
  9
$DIMDLE
 40
0.0
  9
$DIMEXE
 40
1.0
  9
$DIMTP
 40
0.0
  9
$DIMTM
 40
0.0
  9
$DIMTXT
 40
2.5
  9
$DIMCEN
 40
0.0
  9
$DIMTSZ
 40
0.0
  9
$DIMTOL
 70
     0
  9
$DIMLIM
 70
     0
  9
$DIMTIH
 70
     0
  9
$DIMTOH
 70
     0
  9
$DIMSE1
 70
     0
  9
$DIMSE2
 70
     0
  9
$DIMTAD
 70
     3
  9
$DIMZIN
 70
     8
  9
$DIMBLK
  1

  9
$DIMASO
 70
     1
  9
$DIMSHO
 70
     1
  9
$DIMPOST
  1

  9
$DIMAPOST
  1

  9
$DIMALT
 70
     0
  9
$DIMALTD
 70
     2
  9
$DIMALTF
 40
1.0
  9
$DIMLFAC
 40
1.0
  9
$DIMTOFL
 70
     1
  9
$DIMTVP
 40
0.0
  9
$DIMTIX
 70
     0
  9
$DIMSOXD
 70
     0
  9
$DIMSAH
 70
     1
  9
$DIMBLK1
  1
OPEN
  9
$DIMBLK2
  1
OPEN
  9
$DIMSTYLE
  2
DIM1
  9
$DIMCLRD
 70
     2
  9
$DIMCLRE
 70
     2
  9
$DIMCLRT
 70
     2
  9
$DIMTFAC
 40
0.7
  9
$DIMGAP
 40
0.85
  9
$LUNITS
 70
     2
  9
$LUPREC
 70
     4
  9
$SKETCHINC
 40
0.1
  9
$FILLETRAD
 40
2.0
  9
$AUNITS
 70
     0
  9
$AUPREC
 70
     0
  9
$MENU
  1
C:\ACADR13\WIN\SUPPORT\ACAD.mnc
  9
$ELEVATION
 40
0.0
  9
$PELEVATION
 40
0.0
  9
$THICKNESS
 40
0.0
  9
$LIMCHECK
 70
     0
  9
$BLIPMODE
 70
     0
  9
$CHAMFERA
 40
0.0
  9
$CHAMFERB
 40
0.0
  9
$SKPOLY
 70
     0
  9
$TDCREATE
 40
2453683.562213901
  9
$TDUPDATE
 40
2455531.3824092941
  9
$TDINDWG
 40
0.5253395486
  9
$TDUSRTIMER
 40
0.5253395486
  9
$USRTIMER
 70
     1
  9
$ANGBASE
 50
0.0
  9
$ANGDIR
 70
     0
  9
$PDMODE
 70
     0
  9
$PDSIZE
 40
0.0
  9
$PLINEWID
 40
0.0
  9
$COORDS
 70
     0
  9
$SPLFRAME
 70
     0
  9
$SPLINETYPE
 70
     6
  9
$SPLINESEGS
 70
     8
  9
$ATTDIA
 70
     0
  9
$ATTREQ
 70
     1
  9
$HANDLING
 70
     1
  9
$HANDSEED
  5
FE0E
  9
$SURFTAB1
 70
     6
  9
$SURFTAB2
 70
     6
  9
$SURFTYPE
 70
     6
  9
$SURFU
 70
     6
  9
$SURFV
 70
     6
  9
$UCSNAME
  2

  9
$UCSORG
 10
0.0
 20
0.0
 30
0.0
  9
$UCSXDIR
 10
1.0
 20
0.0
 30
0.0
  9
$UCSYDIR
 10
0.0
 20
1.0
 30
0.0
  9
$PUCSNAME
  2

  9
$PUCSORG
 10
0.0
 20
0.0
 30
0.0
  9
$PUCSXDIR
 10
1.0
 20
0.0
 30
0.0
  9
$PUCSYDIR
 10
0.0
 20
1.0
 30
0.0
  9
$USERI1
 70
     0
  9
$USERI2
 70
     0
  9
$USERI3
 70
     0
  9
$USERI4
 70
     0
  9
$USERI5
 70
     0
  9
$USERR1
 40
0.0
  9
$USERR2
 40
0.0
  9
$USERR3
 40
0.0
  9
$USERR4
 40
0.0
  9
$USERR5
 40
0.0
  9
$WORLDVIEW
 70
     1
  9
$SHADEDGE
 70
     3
  9
$SHADEDIF
 70
    70
  9
$TILEMODE
 70
     1
  9
$MAXACTVP
 70
    16
  9
$PLIMCHECK
 70
     0
  9
$PEXTMIN
 10
1.0000000000000000E+020
 20
1.0000000000000000E+020
 30
1.0000000000000000E+020
  9
$PEXTMAX
 10
-1.0000000000000000E+020
 20
-1.0000000000000000E+020
 30
-1.0000000000000000E+020
  9
$PLIMMIN
 10
0.0
 20
0.0
  9
$PLIMMAX
 10
20.0
 20
147.0
  9
$UNITMODE
 70
     0
  9
$VISRETAIN
 70
     0
  9
$PLINEGEN
 70
     0
  9
$PSLTSCALE
 70
     1
  0
ENDSEC
  0
SECTION
  2
TABLES
  0
TABLE
  2
VPORT
 70
     1
  0
VPORT
  2
*ACTIVE
 70
     0
 10
0.0
 20
0.0
 11
1.0
 21
1.0
 12
840.0
 22
594.0
 13
0.0
 23
0.0
 14
1.0
 24
1.0
 15
0.0
 25
0.0
 16
0.0
 26
0.0
 36
1.0
 17
0.0
 27
0.0
 37
0.0
 40
1199.085536547434
 41
1.7803738317757001
 42
50.0
 43
0.0
 44
0.0
 50
0.0
 51
0.0
 71
     0
 72
   100
 73
     1
 74
     1
 75
     0
 76
     0
 77
     0
 78
     0
  0
ENDTAB
  0
TABLE
  2
LTYPE
 70
     1
  0
LTYPE
  2
CONTINUOUS
 70
     0
  3
Solid line
 72
    65
 73
     0
 40
0.0
  0
ENDTAB
  0
TABLE
  2
LAYER
 70
     1
  0
LAYER
  2
0
 70
     0
 62
     7
  6
CONTINUOUS
  0
ENDTAB
  0
TABLE
  2
STYLE
 70
     3
  0
STYLE
  2
STANDARD
 70
     0
 40
0.0
 41
0.8
 50
0.0
 71
     0
 42
16.0
  3
simplex
  4
extfont
  0
STYLE
  2
PTSH
 70
     0
 40
0.0
 41
0.9
 50
0.0
 71
     0
 42
4.0
  3
SIMPLEX
  4
EXTFONT
  0
STYLE
  2
DIM
 70
     0
 40
0.0
 41
0.8
 50
0.0
 71
     0
 42
4.0
  3
simplex
  4
extfont
  0
ENDTAB
  0
TABLE
  2
VIEW
 70
     2
  0
ENDTAB
  0
TABLE
  2
UCS
 70
     0
  0
ENDTAB
  0
TABLE
  2
APPID
 70
     4
  0
APPID
  2
ACAD
 70
     0
  0
APPID
  2
ACAD_PSEXT
 70
     0
  0
APPID
  2
ACAD_MLEADERVER
 70
     0
  0
APPID
  2
ACAD_EXEMPT_FROM_CAD_STANDARDS
 70
     0
  0
ENDTAB
  0
TABLE
  2
DIMSTYLE
 70
     1
  0
DIMSTYLE
  2
DIM1
 70
     0
  3

  4

  5

  6
OPEN
  7
OPEN
 40
4.0
 41
2.7999999999999989
 42
1.0
 43
5.0
 44
1.0
 45
0.1
 46
0.0
 47
0.0
 48
0.0
140
2.5
141
0.0
142
0.0
143
1.0
144
1.0
145
0.0
146
0.7
147
0.85
 71
     0
 72
     0
 73
     0
 74
     0
 75
     0
 76
     0
 77
     3
 78
     8
170
     0
171
     2
172
     1
173
     1
174
     0
175
     0
176
     2
177
     2
178
     2
  0
ENDTAB
  0
ENDSEC
  0
SECTION
  2
BLOCKS
  0
BLOCK
  8
0
  2
$MODEL_SPACE
 70
     0
 10
0.0
 20
0.0
 30
0.0
  3
$MODEL_SPACE
  1

  0
ENDBLK
  5
3D
  8
0
  0
BLOCK
 67
     1
  8
0
  2
$PAPER_SPACE
 70
     0
 10
0.0
 20
0.0
 30
0.0
  3
$PAPER_SPACE
  1

  0
ENDBLK
  5
3B
 67
     1
  8
0
  0
BLOCK
  8
0
  2
_OPEN
 70
     0
 10
0.0
 20
0.0
 30
0.0
  3
_OPEN
  1
H1111.DWG
  0
LINE
  5
244A
  8
0
  6
BYBLOCK
 62
     0
 10
-1.0
 20
0.1666666666666666
 30
0.0
 11
0.0
 21
0.0
 31
0.0
  0
LINE
  5
244B
  8
0
  6
BYBLOCK
 62
     0
 10
0.0
 20
0.0
 30
0.0
 11
-1.0
 21
-0.1666666666666666
 31
0.0
  0
LINE
  5
244C
  8
0
  6
BYBLOCK
 62
     0
 10
0.0
 20
0.0
 30
0.0
 11
-1.0
 21
0.0
 31
0.0
  0
ENDBLK
  5
244D
  8
0
  0
BLOCK
  8
0
  2
DT-ARROW
 70
     0
 10
0.0
 20
0.0
 30
0.0
  3
DT-ARROW
  1

  0
LINE
  5
E6B8
  8
0
 10
-21.65100000000001
 20
-5.0
 30
0.0
 11
-50.0
 21
-5.0
 31
0.0
  0
LINE
  5
E6B9
  8
0
 10
-50.0
 20
5.0
 30
0.0
 11
-21.65100000000001
 21
5.0
 31
0.0
  0
LINE
  5
E6BA
  8
0
 10
-54.330100000000002
 20
-12.5
 30
0.0
 11
-100.0
 21
-12.5
 31
0.0
  0
LINE
  5
E6BB
  8
0
 10
-100.0
 20
12.5
 30
0.0
 11
-54.330100000000002
 21
12.5
 31
0.0
  0
LINE
  5
E6BC
  8
0
 10
-92.783199999999994
 20
0.0
 30
0.0
 11
-100.0
 21
12.5
 31
0.0
  0
LINE
  5
E6BD
  8
0
 10
-100.0
 20
-12.5
 30
0.0
 11
-92.783199999999994
 21
0.0
 31
0.0
  0
LINE
  5
E6BE
  8
0
 10
-54.330100000000002
 20
12.5
 30
0.0
 11
-50.0
 21
5.0
 31
0.0
  0
LINE
  5
E6BF
  8
0
 10
-50.0
 20
-5.0
 30
0.0
 11
-54.330100000000002
 21
-12.5
 31
0.0
  0
LINE
  5
E6C0
  8
0
 10
0.0
 20
0.0
 30
0.0
 11
-21.65100000000001
 21
-12.5
 31
0.0
  0
LINE
  5
E6C1
  8
0
 10
-21.65100000000001
 20
12.5
 30
0.0
 11
0.0
 21
0.0
 31
0.0
  0
LINE
  5
E6C2
  8
0
 10
-21.65100000000001
 20
5.0
 30
0.0
 11
-21.65100000000001
 21
12.5
 31
0.0
  0
LINE
  5
E6C3
  8
0
 10
-21.65100000000001
 20
-12.5
 30
0.0
 11
-21.65100000000001
 21
-5.0
 31
0.0
  0
ENDBLK
  5
E6C4
  8
0
  0
ENDSEC
  0
SECTION
  2
ENTITIES
  0
TEXT
  5
2529
  8
0
  6
CONTINUOUS
 10
1493.700000000001
 20
61.000000000000028
 30
0.0
 40
14.000000000000011
  1
J5S-X-F
 41
0.9
  7
PTSH
 72
     1
 11
1536.0
 21
68.000000000000028
 31
0.0
 73
     2
  0
POLYLINE
  5
2563
  8
0
 66
     1
 10
0.0
 20
0.0
 30
0.0
 70
     1
  0
VERTEX
  5
F9B9
  8
0
 10
72.000000000000014
 20
28.000000000000021
 30
0.0
  0
VERTEX
  5
F9BA
  8
0
 10
1636.0000000000009
 20
28.000000000000021
 30
0.0
  0
VERTEX
  5
F9BB
  8
0
 10
1636.0000000000009
 20
1128.0
 30
0.0
  0
VERTEX
  5
F9BC
  8
0
 10
72.000000000000014
 20
1128.0
 30
0.0
  0
SEQEND
  5
F9BD
  8
0
  0
TEXT
  5
AD05
  8
0
 10
731.48308668739719
 20
73.595728369523158
 30
0.0
 40
25.0
  1
TLV J5S-X (JIS10K)
 41
0.8
 72
     4
 11
876.34022954453997
 21
84.310014083808881
 31
0.0
  0
TEXT
  5
AD06
  8
0
 10
447.60509656367958
 20
339.63720420721671
 30
0.0
 40
20.000000000000011
  1
20
 41
0.8
 72
     4
 11
460.55747751606049
 21
349.63720420721671
 31
0.0
  0
LINE
  5
E76A
  8
0
 10
400.8670188111297
 20
510.45930933705171
 30
0.0
 11
543.8670188111297
 21
510.45930933705171
 31
0.0
  0
LINE
  5
E76B
  8
0
 10
401.36701881112958
 20
478.45930933705148
 30
0.0
 11
413.36701881112958
 21
478.45930933705148
 31
0.0
  0
ARC
  5
E76C
  8
0
 10
401.36701881112958
 20
479.95930933705148
 30
0.0
 40
1.4999999999999989
 50
180.0
 51
270.0
  0
LINE
  5
E76D
  8
0
 10
401.36701881112958
 20
496.45930933705148
 30
0.0
 11
413.36701881112958
 21
496.45930933705148
 31
0.0
  0
ARC
  5
E76E
  8
0
 10
401.36701881112958
 20
494.95930933705148
 30
0.0
 40
1.4999999999999989
 50
90.0
 51
180.0
  0
LINE
  5
E76F
  8
0
 10
411.8670188111297
 20
498.45930933705148
 30
0.0
 11
465.86701881112958
 21
498.45930933705131
 31
0.0
  0
ARC
  5
E770
  8
0
 10
415.3670188111297
 20
496.45930933705148
 30
0.0
 40
1.9999999999999989
 50
0.0
 51
90.0
  0
LINE
  5
E771
  8
0
 10
465.8670188111297
 20
498.45930933705148
 30
0.0
 11
519.8670188111297
 21
498.45930933705148
 31
0.0
  0
ARC
  5
E772
  8
0
 10
516.36701881112958
 20
496.45930933705148
 30
0.0
 40
1.9999999999999989
 50
90.0
 51
180.0
  0
LINE
  5
E774
  8
0
 10
423.8670188111297
 20
429.89580101015503
 30
0.0
 11
423.8670188111297
 21
406.02281766394799
 31
0.0
  0
LINE
  5
E777
  8
0
 10
417.36701881112958
 20
496.45930933705148
 30
0.0
 11
417.36701881112958
 21
474.80207547710251
 31
0.0
  0
LINE
  5
E778
  8
0
 10
521.86701881112992
 20
510.45930933705171
 30
0.0
 11
521.86701881112958
 21
500.45930933705148
 31
0.0
  0
ARC
  5
E779
  8
0
 10
519.8670188111297
 20
500.45930933705148
 30
0.0
 40
1.9999999999999989
 50
270.0
 51
0.0
  0
LINE
  5
E77C
  8
0
 10
536.09054690140704
 20
449.3834174420121
 30
0.0
 11
547.12729253359225
 21
446.42607005136892
 31
0.0
  0
ARC
  5
E77D
  8
0
 10
536.8670188111297
 20
452.28119096204642
 30
0.0
 40
2.9999999999999991
 50
180.0
 51
254.99970787535861
  0
LINE
  5
E77E
  8
0
 10
498.25108302024898
 20
416.04101902842899
 30
0.0
 11
536.25689263914535
 21
405.85718534670099
 31
0.0
  0
LINE
  5
E77F
  8
0
 10
536.86926441501214
 20
406.21073627487812
 30
0.0
 11
536.25689263914535
 21
405.85718534670099
 31
0.0
  0
LINE
  5
E780
  8
0
 10
533.86701881112958
 20
452.28119096204642
 30
0.0
 11
533.86701881112958
 21
461.45930933705171
 31
0.0
  0
LINE
  5
E781
  8
0
 10
423.8670188111297
 20
461.45930933705148
 30
0.0
 11
423.8670188111297
 21
446.45930933705148
 31
0.0
  0
ARC
  5
E782
  8
0
 10
418.8670188111297
 20
461.45930933705148
 30
0.0
 40
4.9999999999999982
 50
0.0
 51
90.0
  0
ARC
  5
E787
  8
0
 10
524.86701881112958
 20
511.45930933705148
 30
0.0
 40
2.9999999999999991
 50
199.47122063449291
 51
270.0
  0
LINE
  5
E78A
  8
0
 10
399.8670188111297
 20
494.95930933705148
 30
0.0
 11
399.8670188111297
 21
479.95930933705148
 31
0.0
  0
LINE
  5
E78B
  8
0
 10
414.8670188111297
 20
494.95930933705148
 30
0.0
 11
414.8670188111297
 21
479.95930933705148
 31
0.0
  0
ARC
  5
E78C
  8
0
 10
413.36701881112958
 20
479.95930933705148
 30
0.0
 40
1.4999999999999989
 50
270.0
 51
0.0
  0
ARC
  5
E78D
  8
0
 10
413.36701881112958
 20
494.95930933705148
 30
0.0
 40
1.4999999999999989
 50
0.0
 51
90.0
  0
LINE
  5
E78E
  8
0
 10
400.8670188111297
 20
466.45930933705148
 30
0.0
 11
418.8670188111297
 21
466.45930933705148
 31
0.0
  0
LINE
  5
E790
  8
0
 10
538.8670188111297
 20
466.45930933705171
 30
0.0
 11
543.8670188111297
 21
466.45930933705171
 31
0.0
  0
ARC
  5
E791
  8
0
 10
538.8670188111297
 20
461.45930933705171
 30
0.0
 40
4.9999999999999982
 50
90.0
 51
180.0
  0
ARC
  5
E792
  8
0
 10
465.8670188111297
 20
446.45930933705148
 30
0.0
 40
41.999999999999979
 50
254.64111441918089
 51
0.0
  0
ARC
  5
E793
  8
0
 10
496.95696317071088
 20
411.21139649503863
 30
0.0
 40
4.9999999999999982
 50
74.999707875358581
 51
131.41346868724699
  0
ARC
  5
E794
  8
0
 10
465.8670188111297
 20
446.45930933705148
 30
0.0
 40
41.999999999999979
 50
180.0
 51
254.64111441918089
  0
ARC
  5
E795
  8
0
 10
424.32487153875098
 20
431.95930933705148
 30
0.0
 40
1.9999999999999989
 50
270.0
 51
19.241188763128861
  0
LINE
  5
E796
  8
0
 10
454.74272108048609
 20
405.95930933705148
 30
0.0
 11
424.3670188111297
 21
405.95930933705148
 31
0.0
  0
ARC
  5
E797
  8
0
 10
424.3670188111297
 20
407.95930933705148
 30
0.0
 40
1.9999999999999989
 50
255.5224878140705
 51
270.0
  0
LINE
  5
E799
  8
0
 10
424.32487153875093
 20
429.95930933705148
 30
0.0
 11
424.3670188111297
 21
429.95930933705148
 31
0.0
  0
ARC
  5
E79A
  8
0
 10
424.3670188111297
 20
427.95930933705148
 30
0.0
 40
1.9999999999999989
 50
90.0
 51
104.4775121859294
  0
LINE
  5
E79B
  8
0
 10
547.48084526436639
 20
445.8136951532947
 30
0.0
 11
536.86926441501203
 21
406.21073627487789
 31
0.0
  0
LINE
  5
E79C
  8
0
 10
547.12729253359225
 20
446.42607005136892
 30
0.0
 11
547.48084526436639
 21
445.8136951532947
 31
0.0
  0
LINE
  5
E7A7
  8
0
 10
424.3670188111297
 20
467.80207547710251
 30
0.0
 11
507.36701881112958
 21
467.80207547710251
 31
0.0
  0
ARC
  5
E7A8
  8
0
 10
424.3670188111297
 20
474.80207547710251
 30
0.0
 40
6.9999999999999973
 50
180.0
 51
270.0
  0
LINE
  5
E7A9
  8
0
 10
514.36701881112947
 20
496.45930933705148
 30
0.0
 11
514.36701881112947
 21
474.80207547710251
 31
0.0
  0
ARC
  5
E7AA
  8
0
 10
507.36701881112958
 20
474.80207547710251
 30
0.0
 40
6.9999999999999973
 50
270.0
 51
0.0
  0
LINE
  5
E7AB
  8
0
 10
507.8670188111297
 20
467.81995545521818
 30
0.0
 11
507.8670188111297
 21
446.45930933705148
 31
0.0
  0
INSERT
  5
E7BD
  8
0
  2
DT-ARROW
 10
478.3670188111297
 20
460.45930933705148
 30
0.0
 41
0.2499999999999999
 42
0.2499999999999999
 43
0.2499999999999999
  0
LINE
  5
E7BE
  8
0
 10
409.8670188111297
 20
510.45930933705131
 30
0.0
 11
409.8670188111297
 21
500.45930933705148
 31
0.0
  0
ARC
  5
E7BF
  8
0
 10
411.8670188111297
 20
500.45930933705148
 30
0.0
 40
1.9999999999999989
 50
180.0
 51
270.0
  0
LINE
  5
E7C1
  8
0
 10
547.12729253359225
 20
446.42607005136892
 30
0.0
 11
536.25668579747366
 21
405.8572407708902
 31
0.0
  0
LINE
  5
E804
  8
0
 10
524.86701881112958
 20
508.45930933705148
 30
0.0
 11
543.86701881112981
 21
508.45930933705131
 31
0.0
  0
LINE
  5
E8F4
  8
0
 10
521.76033317475458
 20
731.89796285674072
 30
0.0
 11
476.06505783831523
 21
731.89796285674072
 31
0.0
  0
LINE
  5
E8F5
  8
0
 10
521.76033317475469
 20
747.89796285674072
 30
0.0
 11
476.06505783831523
 21
747.89796285674072
 31
0.0
  0
LINE
  5
E8F6
  8
0
 10
506.78806050513981
 20
685.89796285674072
 30
0.0
 11
424.94597711711918
 21
685.89796285674072
 31
0.0
  0
LINE
  5
E8F7
  8
0
 10
506.78806050513998
 20
793.89796285674072
 30
0.0
 11
424.9459771171193
 21
793.89796285674072
 31
0.0
  0
ARC
  5
E904
  8
0
 10
221.8670188111297
 20
739.89796285674072
 30
0.0
 40
300.0
 50
351.61446135291732
 51
351.90869271399168
  0
ARC
  5
E905
  8
0
 10
506.78806050513998
 20
697.89796285674072
 30
0.0
 40
12.0
 50
270.0
 51
351.61446135291732
  0
ARC
  5
E906
  8
0
 10
506.78806050513998
 20
781.89796285674072
 30
0.0
 40
12.0
 50
8.3855386470794091
 51
89.999999999999986
  0
ARC
  5
E907
  8
0
 10
709.86701881112981
 20
739.89796285674072
 30
0.0
 40
300.0
 50
171.61446135291729
 51
171.90869271399171
  0
ARC
  5
E908
  8
0
 10
424.9459771171193
 20
697.89796285674072
 30
0.0
 40
12.0
 50
188.38553864707939
 51
270.0
  0
ARC
  5
E909
  8
0
 10
424.9459771171193
 20
781.89796285674072
 30
0.0
 40
12.0
 50
89.999999999999986
 51
171.61446135292061
  0
INSERT
  5
E91C
  8
0
  2
DT-ARROW
 10
475.86701881112958
 20
696.89796285674072
 30
0.0
 41
0.2000000000000455
 42
0.2000000000000455
 43
0.2
  0
CIRCLE
  5
E963
  8
0
 10
465.8670188111297
 20
739.89796285674072
 30
0.0
 40
12.0
  0
ARC
  5
E965
  8
0
 10
476.06505783831523
 20
728.89796285674072
 30
0.0
 40
3.0
 50
89.999999999999986
 51
132.83342806606601
  0
ARC
  5
E966
  8
0
 10
476.06505783831523
 20
750.89796285674072
 30
0.0
 40
3.0
 50
227.16657193393399
 51
270.0
  0
LINE
  5
E9CA
  8
0
 10
521.86701881112981
 20
534.45930933705165
 30
0.0
 11
521.86701881112947
 21
511.45930933705159
 31
0.0
  0
ARC
  5
E9CB
  8
0
 10
519.8670188111297
 20
534.45930933705165
 30
0.0
 40
2.0
 50
0.0
 51
89.999999999999986
  0
ARC
  5
E9CC
  8
0
 10
519.8670188111297
 20
511.45930933705159
 30
0.0
 40
2.0
 50
329.99999999999937
 51
0.0
  0
LINE
  5
E9CD
  8
0
 10
475.86701881112958
 20
545.45930933705165
 30
0.0
 11
455.86701881112958
 21
545.45930933705165
 31
0.0
  0
LINE
  5
E9CE
  8
0
 10
519.8670188111297
 20
536.45930933705165
 30
0.0
 11
479.86701881112958
 21
536.45930933705142
 31
0.0
  0
ARC
  5
E9CF
  8
0
 10
479.86701881112958
 20
538.45930933705142
 30
0.0
 40
2.0
 50
180.0
 51
270.0
  0
ARC
  5
E9D0
  8
0
 10
448.8670188111297
 20
527.45930933705154
 30
0.0
 40
5.0
 50
270.0
 51
0.0
  0
LINE
  5
E9D1
  8
0
 10
409.86701881112958
 20
520.45930933705165
 30
0.0
 11
409.86701881112958
 21
511.45930933705159
 31
0.0
  0
ARC
  5
E9D2
  8
0
 10
411.8670188111297
 20
520.45930933705154
 30
0.0
 40
2.0
 50
89.999999999999986
 51
180.0
  0
ARC
  5
E9D3
  8
0
 10
411.8670188111297
 20
511.45930933705148
 30
0.0
 40
2.0
 50
180.0
 51
210.00000000000051
  0
LINE
  5
E9D4
  8
0
 10
453.86701881112958
 20
543.45930933705165
 30
0.0
 11
453.86701881112958
 21
527.45930933705165
 31
0.0
  0
LINE
  5
E9D5
  8
0
 10
455.86701881112958
 20
545.45930933705165
 30
0.0
 11
453.86701881112958
 21
543.45930933705165
 31
0.0
  0
LINE
  5
E9D6
  8
0
 10
477.86701881112958
 20
543.45930933705165
 30
0.0
 11
477.86701881112958
 21
527.45930933705154
 31
0.0
  0
LINE
  5
E9D7
  8
0
 10
475.86701881112958
 20
545.45930933705165
 30
0.0
 11
477.86701881112958
 21
543.45930933705165
 31
0.0
  0
LINE
  5
E9D8
  8
0
 10
521.86701881112958
 20
522.45930933705176
 30
0.0
 11
411.86701881112958
 21
522.45930933705165
 31
0.0
  0
LINE
  5
E9D9
  8
0
 10
410.13496800356091
 20
510.45930933705148
 30
0.0
 11
521.59906961869854
 21
510.45930933705171
 31
0.0
  0
ARC
  5
E9DA
  8
0
 10
482.86701881112958
 20
527.45930933705154
 30
0.0
 40
5.0
 50
180.0
 51
270.0
  0
LINE
  5
EBF0
  8
0
 10
542.23710145381278
 20
417.36112293187813
 30
0.0
 11
549.38688442000444
 21
415.44534436002931
 31
0.0
  0
LINE
  5
EBF1
  8
0
 10
549.38688442000444
 20
415.44534436002931
 30
0.0
 11
548.36610210612002
 21
411.63573290114522
 31
0.0
  0
LINE
  5
EBF2
  8
0
 10
548.36610210612002
 20
411.63573290114522
 30
0.0
 11
541.21631913992826
 21
413.55151147299398
 31
0.0
  0
LINE
  5
EBF3
  8
0
 10
557.58832523890555
 20
441.03458759803971
 30
0.0
 11
556.91593044203671
 21
443.5441266467783
 31
0.0
  0
LINE
  5
EBF4
  8
0
 10
556.91593044203671
 20
443.5441266467783
 30
0.0
 11
549.76614747584495
 21
445.45990521862723
 31
0.0
  0
LINE
  5
EBF5
  8
0
 10
549.76614747584495
 20
445.45990521862723
 30
0.0
 11
547.92906697601484
 21
443.62277804906478
 31
0.0
  0
LINE
  5
EBF6
  8
0
 10
547.92906697601688
 20
443.62277804906711
 30
0.0
 11
538.35289171674413
 21
407.88400543928259
 31
0.0
  0
LINE
  5
EBF7
  8
0
 10
538.35289171674413
 20
407.88400543928259
 30
0.0
 11
539.02528651361285
 21
405.374466390544
 31
0.0
  0
LINE
  5
EBF8
  8
0
 10
539.02528651361285
 20
405.374466390544
 30
0.0
 11
546.17506947980473
 21
403.45868781869518
 31
0.0
  0
LINE
  5
EBF9
  8
0
 10
546.17506947980473
 20
403.45868781869518
 30
0.0
 11
548.01214997963484
 21
405.29581498825752
 31
0.0
  0
LINE
  5
EBFA
  8
0
 10
548.01214997963484
 20
405.29581498825752
 30
0.0
 11
557.58832523890555
 21
441.03458759803971
 31
0.0
  0
ARC
  5
EBFC
  8
0
 10
538.66126229345923
 20
409.85407163899021
 30
0.0
 40
9.8670275484803067
 50
319.59720228553488
 51
10.40279771446655
  0
LINE
  5
EBFD
  8
0
 10
546.55420312612273
 20
433.47276571437988
 30
0.0
 11
553.70398609231427
 21
431.55698714253111
 31
0.0
  0
LINE
  5
EBFE
  8
0
 10
553.70398609231427
 20
431.55698714253111
 30
0.0
 11
554.72476840619868
 21
435.36659860141521
 31
0.0
  0
LINE
  5
EBFF
  8
0
 10
554.72476840619868
 20
435.36659860141521
 30
0.0
 11
547.57498544000714
 21
437.28237717326402
 31
0.0
  0
ARC
  5
EC00
  8
0
 10
547.2109612198534
 20
441.76198242171051
 30
0.0
 40
9.8670275484803067
 50
319.59720228553351
 51
10.4027977144651
  0
ARC
  5
EC01
  8
0
 10
516.79362925316263
 20
432.81288410530618
 30
0.0
 40
36.931716981134642
 50
331.9487713334932
 51
358.05122866650697
  0
LINE
  5
EC02
  8
0
 10
542.23710145381278
 20
417.36112293187813
 30
0.0
 11
541.21631913992826
 21
413.55151147299398
 31
0.0
  0
ARC
  5
EC03
  8
0
 10
548.73012632627365
 20
407.15612765269879
 30
0.0
 40
9.8670275484803067
 50
139.5972022855334
 51
190.40279771446501
  0
LINE
  5
EC04
  8
0
 10
546.55420312612273
 20
433.47276571437988
 30
0.0
 11
547.57498544000714
 21
437.28237717326402
 31
0.0
  0
ARC
  5
EC05
  8
0
 10
557.27982525266793
 20
439.06403843541909
 30
0.0
 40
9.8670275484803067
 50
139.59720228553491
 51
190.40279771446649
  0
ARC
  5
EC06
  8
0
 10
579.14745829296453
 20
416.105225969103
 30
0.0
 40
36.931716981134642
 50
151.948771333493
 51
178.0512286665068
  0
LINE
  5
EC08
  8
0
 10
538.35289171674413
 20
407.88400543928259
 30
0.0
 11
537.38696589045514
 21
408.14282448438502
 31
0.0
  0
LINE
  5
EC09
  8
0
 10
547.92906697601484
 20
443.62277804906478
 30
0.0
 11
546.96314114972552
 21
443.88159709416738
 31
0.0
  0
ARC
  5
EC9D
  8
0
 10
690.04978004043608
 20
496.17716772059788
 30
0.0
 40
2.288705507838829
 50
40.956807535280042
 51
85.659625382623247
  0
LINE
  5
ECA3
  8
0
 10
698.72299246511625
 20
446.45930933705148
 30
0.0
 11
698.72299246511625
 21
460.32998940455042
 31
0.0
  0
LINE
  5
ECA8
  8
0
 10
686.72299246511614
 20
509.4593093370512
 30
0.0
 11
686.72299246511625
 21
500.4593093370512
 31
0.0
  0
ARC
  5
ECA9
  8
0
 10
689.22299246511614
 20
509.4593093370512
 30
0.0
 40
2.5
 50
156.42182152179279
 51
180.0
  0
LINE
  5
ECAE
  8
0
 10
688.72299246511625
 20
498.45930933705131
 30
0.0
 11
691.94799887208728
 21
498.45930933705131
 31
0.0
  0
ARC
  5
ECAF
  8
0
 10
688.72299246511625
 20
500.4593093370512
 30
0.0
 40
2.0
 50
180.0
 51
270.0
  0
ARC
  5
ECC7
  8
0
 10
792.22299246511625
 20
495.45930933705148
 30
0.0
 40
3.0
 50
90.0
 51
144.91109049197419
  0
ARC
  5
ECCA
  8
0
 10
782.22299246511625
 20
475.45930933705148
 30
0.0
 40
7.0
 50
329.077486515359
 51
358.66736183272172
  0
LINE
  5
ECCD
  8
0
 10
782.72299246511625
 20
446.45930933705148
 30
0.0
 11
782.72299246511625
 21
460.32998940455042
 31
0.0
  0
LINE
  5
ECD2
  8
0
 10
794.72299246511625
 20
509.4593093370512
 30
0.0
 11
794.72299246511602
 21
500.45930933705142
 31
0.0
  0
ARC
  5
ECD3
  8
0
 10
792.22299246511625
 20
509.45930933705142
 30
0.0
 40
2.5
 50
0.0
 51
23.578178478207171
  0
ARC
  5
ECD4
  8
0
 10
792.72299246511602
 20
500.45930933705142
 30
0.0
 40
2.0
 50
270.0
 51
0.0
  0
LINE
  5
ECD9
  8
0
 10
792.72299246511602
 20
498.45930933705142
 30
0.0
 11
792.22299246511625
 21
498.45930933705148
 31
0.0
  0
LINE
  5
ECED
  8
0
 10
686.93170461763827
 20
510.45930933705142
 30
0.0
 11
696.32704670426995
 21
510.45930933705148
 31
0.0
  0
LINE
  5
ED2D
  8
0
 10
792.72299246511625
 20
498.45930933705131
 30
0.0
 11
789.4979860581451
 21
498.45930933705131
 31
0.0
  0
LINE
  5
ED37
  8
0
 10
556.91593044203671
 20
443.5441266467783
 30
0.0
 11
546.17506947980473
 21
403.45868781869518
 31
0.0
  0
LINE
  5
ED3C
  8
0
 10
729.8217436245842
 20
438.66214985295028
 30
0.0
 11
723.99999246511607
 21
435.36659860141521
 31
0.0
  0
LINE
  5
ED3D
  8
0
 10
723.99999246511607
 20
435.36659860141521
 30
0.0
 11
721.72299246511614
 21
431.55698714253077
 31
0.0
  0
LINE
  5
ED40
  8
0
 10
721.72299246511614
 20
415.44534436002931
 30
0.0
 11
723.99999246511607
 21
411.63573290114499
 31
0.0
  0
LINE
  5
ED41
  8
0
 10
723.99999246511607
 20
411.63573290114499
 30
0.0
 11
729.63767853238073
 21
408.85917244309348
 31
0.0
  0
LINE
  5
ED42
  8
0
 10
751.62424130564796
 20
438.66214985295028
 30
0.0
 11
757.44599246511609
 21
435.36659860141521
 31
0.0
  0
LINE
  5
ED43
  8
0
 10
757.44599246511609
 20
435.36659860141521
 30
0.0
 11
759.72299246511625
 21
431.55698714253077
 31
0.0
  0
LINE
  5
ED44
  8
0
 10
759.72299246511625
 20
415.44534436002931
 30
0.0
 11
757.44599246511609
 21
411.63573290114499
 31
0.0
  0
LINE
  5
ED45
  8
0
 10
757.44599246511609
 20
411.63573290114499
 30
0.0
 11
751.80830639785165
 21
408.85917244309348
 31
0.0
  0
LINE
  5
ED46
  8
0
 10
759.72299246511625
 20
433.47276571437931
 30
0.0
 11
759.72299246511625
 21
415.44534436002942
 31
0.0
  0
LINE
  5
ED47
  8
0
 10
721.72299246511614
 20
433.47276571437959
 30
0.0
 11
721.72299246511614
 21
415.44534436002942
 31
0.0
  0
LINE
  5
ED49
  8
0
 10
727.47124559790768
 20
439.24736885580307
 30
0.0
 11
723.99999246511607
 21
437.28237717326402
 31
0.0
  0
LINE
  5
ED4A
  8
0
 10
723.99999246511607
 20
437.28237717326402
 30
0.0
 11
721.72299246511602
 21
433.47276571437959
 31
0.0
  0
LINE
  5
ED4B
  8
0
 10
753.97473933232448
 20
439.24736885580307
 30
0.0
 11
757.44599246511609
 21
437.28237717326402
 31
0.0
  0
LINE
  5
ED4C
  8
0
 10
757.44599246511609
 20
437.28237717326402
 30
0.0
 11
759.72299246511625
 21
433.47276571437959
 31
0.0
  0
LINE
  5
ED4D
  8
0
 10
723.99999246511607
 20
437.28237717326402
 30
0.0
 11
723.99999246511607
 21
435.36659860141521
 31
0.0
  0
LINE
  5
ED4E
  8
0
 10
757.44599246511609
 20
437.28237717326402
 30
0.0
 11
757.44599246511609
 21
435.36659860141521
 31
0.0
  0
POLYLINE
  5
ED58
  8
0
 10
731.05839785158116
 20
438.40224449460078
 30
0.0
 66
     1
 70
     8
  0
VERTEX
  8
0
  5
F9FE
 10
731.058
 20
438.402
 30
0.000000
  70
    32
  0
VERTEX
  8
0
  5
F9FF
 10
730.428
 20
438.012
 30
0.000000
  70
    32
  0
VERTEX
  8
0
  5
FA00
 10
729.814
 20
437.597
 30
0.000000
  70
    32
  0
VERTEX
  8
0
  5
FA01
 10
729.218
 20
437.159
 30
0.000000
  70
    32
  0
VERTEX
  8
0
  5
FA02
 10
728.641
 20
436.697
 30
0.000000
  70
    32
  0
VERTEX
  8
0
  5
FA03
 10
728.083
 20
436.213
 30
0.000000
  70
    32
  0
VERTEX
  8
0
  5
FA04
 10
727.547
 20
435.708
 30
0.000000
  70
    32
  0
VERTEX
  8
0
  5
FA05
 10
727.032
 20
435.183
 30
0.000000
  70
    32
  0
VERTEX
  8
0
  5
FA06
 10
726.539
 20
434.638
 30
0.000000
  70
    32
  0
VERTEX
  8
0
  5
FA07
 10
726.070
 20
434.074
 30
0.000000
  70
    32
  0
VERTEX
  8
0
  5
FA08
 10
725.625
 20
433.492
 30
0.000000
  70
    32
  0
VERTEX
  8
0
  5
FA09
 10
725.204
 20
432.893
 30
0.000000
  70
    32
  0
VERTEX
  8
0
  5
FA0A
 10
724.809
 20
432.278
 30
0.000000
  70
    32
  0
VERTEX
  8
0
  5
FA0B
 10
724.441
 20
431.648
 30
0.000000
  70
    32
  0
VERTEX
  8
0
  5
FA0C
 10
724.098
 20
431.004
 30
0.000000
  70
    32
  0
VERTEX
  8
0
  5
FA0D
 10
723.783
 20
430.348
 30
0.000000
  70
    32
  0
VERTEX
  8
0
  5
FA0E
 10
723.496
 20
429.679
 30
0.000000
  70
    32
  0
VERTEX
  8
0
  5
FA0F
 10
723.237
 20
429.000
 30
0.000000
  70
    32
  0
VERTEX
  8
0
  5
FA10
 10
723.007
 20
428.312
 30
0.000000
  70
    32
  0
VERTEX
  8
0
  5
FA11
 10
722.806
 20
427.615
 30
0.000000
  70
    32
  0
VERTEX
  8
0
  5
FA12
 10
722.634
 20
426.910
 30
0.000000
  70
    32
  0
VERTEX
  8
0
  5
FA13
 10
722.492
 20
426.200
 30
0.000000
  70
    32
  0
VERTEX
  8
0
  5
FA14
 10
722.380
 20
425.484
 30
0.000000
  70
    32
  0
VERTEX
  8
0
  5
FA15
 10
722.298
 20
424.765
 30
0.000000
  70
    32
  0
VERTEX
  8
0
  5
FA16
 10
722.246
 20
424.043
 30
0.000000
  70
    32
  0
VERTEX
  8
0
  5
FA17
 10
722.224
 20
423.320
 30
0.000000
  70
    32
  0
VERTEX
  8
0
  5
FA18
 10
722.233
 20
422.596
 30
0.000000
  70
    32
  0
VERTEX
  8
0
  5
FA19
 10
722.272
 20
421.873
 30
0.000000
  70
    32
  0
VERTEX
  8
0
  5
FA1A
 10
722.341
 20
421.153
 30
0.000000
  70
    32
  0
VERTEX
  8
0
  5
FA1B
 10
722.440
 20
420.436
 30
0.000000
  70
    32
  0
VERTEX
  8
0
  5
FA1C
 10
722.570
 20
419.723
 30
0.000000
  70
    32
  0
VERTEX
  8
0
  5
FA1D
 10
722.729
 20
419.016
 30
0.000000
  70
    32
  0
VERTEX
  8
0
  5
FA1E
 10
722.918
 20
418.316
 30
0.000000
  70
    32
  0
VERTEX
  8
0
  5
FA1F
 10
723.135
 20
417.623
 30
0.000000
  70
    32
  0
VERTEX
  8
0
  5
FA20
 10
723.382
 20
416.940
 30
0.000000
  70
    32
  0
VERTEX
  8
0
  5
FA21
 10
723.657
 20
416.267
 30
0.000000
  70
    32
  0
VERTEX
  8
0
  5
FA22
 10
723.960
 20
415.605
 30
0.000000
  70
    32
  0
VERTEX
  8
0
  5
FA23
 10
724.291
 20
414.956
 30
0.000000
  70
    32
  0
VERTEX
  8
0
  5
FA24
 10
724.649
 20
414.320
 30
0.000000
  70
    32
  0
VERTEX
  8
0
  5
FA25
 10
725.033
 20
413.698
 30
0.000000
  70
    32
  0
VERTEX
  8
0
  5
FA26
 10
725.442
 20
413.093
 30
0.000000
  70
    32
  0
VERTEX
  8
0
  5
FA27
 10
725.877
 20
412.503
 30
0.000000
  70
    32
  0
VERTEX
  8
0
  5
FA28
 10
726.336
 20
411.931
 30
0.000000
  70
    32
  0
VERTEX
  8
0
  5
FA29
 10
726.819
 20
411.378
 30
0.000000
  70
    32
  0
VERTEX
  8
0
  5
FA2A
 10
727.324
 20
410.844
 30
0.000000
  70
    32
  0
VERTEX
  8
0
  5
FA2B
 10
727.852
 20
410.330
 30
0.000000
  70
    32
  0
VERTEX
  8
0
  5
FA2C
 10
728.400
 20
409.837
 30
0.000000
  70
    32
  0
VERTEX
  8
0
  5
FA2D
 10
728.969
 20
409.366
 30
0.000000
  70
    32
  0
VERTEX
  8
0
  5
FA2E
 10
729.557
 20
408.918
 30
0.000000
  70
    32
  0
VERTEX
  8
0
  5
FA2F
 10
730.163
 20
408.493
 30
0.000000
  70
    32
  0
VERTEX
  8
0
  5
FA30
 10
730.787
 20
408.092
 30
0.000000
  70
    32
  0
VERTEX
  8
0
  5
FA31
 10
731.427
 20
407.716
 30
0.000000
  70
    32
  0
VERTEX
  8
0
  5
FA32
 10
732.082
 20
407.365
 30
0.000000
  70
    32
  0
VERTEX
  8
0
  5
FA33
 10
732.752
 20
407.040
 30
0.000000
  70
    32
  0
VERTEX
  8
0
  5
FA34
 10
733.434
 20
406.741
 30
0.000000
  70
    32
  0
VERTEX
  8
0
  5
FA35
 10
734.128
 20
406.470
 30
0.000000
  70
    32
  0
VERTEX
  8
0
  5
FA36
 10
734.834
 20
406.226
 30
0.000000
  70
    32
  0
VERTEX
  8
0
  5
FA37
 10
735.548
 20
406.009
 30
0.000000
  70
    32
  0
VERTEX
  8
0
  5
FA38
 10
736.272
 20
405.821
 30
0.000000
  70
    32
  0
VERTEX
  8
0
  5
FA39
 10
737.002
 20
405.661
 30
0.000000
  70
    32
  0
VERTEX
  8
0
  5
FA3A
 10
737.739
 20
405.530
 30
0.000000
  70
    32
  0
VERTEX
  8
0
  5
FA3B
 10
738.481
 20
405.428
 30
0.000000
  70
    32
  0
VERTEX
  8
0
  5
FA3C
 10
739.226
 20
405.354
 30
0.000000
  70
    32
  0
VERTEX
  8
0
  5
FA3D
 10
739.974
 20
405.310
 30
0.000000
  70
    32
  0
VERTEX
  8
0
  5
FA3E
 10
740.723
 20
405.296
 30
0.000000
  70
    32
  0
VERTEX
  8
0
  5
FA3F
 10
741.472
 20
405.310
 30
0.000000
  70
    32
  0
VERTEX
  8
0
  5
FA40
 10
742.220
 20
405.354
 30
0.000000
  70
    32
  0
VERTEX
  8
0
  5
FA41
 10
742.965
 20
405.428
 30
0.000000
  70
    32
  0
VERTEX
  8
0
  5
FA42
 10
743.707
 20
405.530
 30
0.000000
  70
    32
  0
VERTEX
  8
0
  5
FA43
 10
744.444
 20
405.661
 30
0.000000
  70
    32
  0
VERTEX
  8
0
  5
FA44
 10
745.174
 20
405.821
 30
0.000000
  70
    32
  0
VERTEX
  8
0
  5
FA45
 10
745.898
 20
406.009
 30
0.000000
  70
    32
  0
VERTEX
  8
0
  5
FA46
 10
746.612
 20
406.226
 30
0.000000
  70
    32
  0
VERTEX
  8
0
  5
FA47
 10
747.318
 20
406.470
 30
0.000000
  70
    32
  0
VERTEX
  8
0
  5
FA48
 10
748.012
 20
406.741
 30
0.000000
  70
    32
  0
VERTEX
  8
0
  5
FA49
 10
748.694
 20
407.040
 30
0.000000
  70
    32
  0
VERTEX
  8
0
  5
FA4A
 10
749.364
 20
407.365
 30
0.000000
  70
    32
  0
VERTEX
  8
0
  5
FA4B
 10
750.019
 20
407.716
 30
0.000000
  70
    32
  0
VERTEX
  8
0
  5
FA4C
 10
750.659
 20
408.092
 30
0.000000
  70
    32
  0
VERTEX
  8
0
  5
FA4D
 10
751.283
 20
408.493
 30
0.000000
  70
    32
  0
VERTEX
  8
0
  5
FA4E
 10
751.889
 20
408.918
 30
0.000000
  70
    32
  0
VERTEX
  8
0
  5
FA4F
 10
752.477
 20
409.366
 30
0.000000
  70
    32
  0
VERTEX
  8
0
  5
FA50
 10
753.046
 20
409.837
 30
0.000000
  70
    32
  0
VERTEX
  8
0
  5
FA51
 10
753.594
 20
410.330
 30
0.000000
  70
    32
  0
VERTEX
  8
0
  5
FA52
 10
754.122
 20
410.844
 30
0.000000
  70
    32
  0
VERTEX
  8
0
  5
FA53
 10
754.627
 20
411.378
 30
0.000000
  70
    32
  0
VERTEX
  8
0
  5
FA54
 10
755.110
 20
411.931
 30
0.000000
  70
    32
  0
VERTEX
  8
0
  5
FA55
 10
755.569
 20
412.503
 30
0.000000
  70
    32
  0
VERTEX
  8
0
  5
FA56
 10
756.004
 20
413.093
 30
0.000000
  70
    32
  0
VERTEX
  8
0
  5
FA57
 10
756.413
 20
413.698
 30
0.000000
  70
    32
  0
VERTEX
  8
0
  5
FA58
 10
756.797
 20
414.320
 30
0.000000
  70
    32
  0
VERTEX
  8
0
  5
FA59
 10
757.155
 20
414.956
 30
0.000000
  70
    32
  0
VERTEX
  8
0
  5
FA5A
 10
757.486
 20
415.605
 30
0.000000
  70
    32
  0
VERTEX
  8
0
  5
FA5B
 10
757.789
 20
416.267
 30
0.000000
  70
    32
  0
VERTEX
  8
0
  5
FA5C
 10
758.064
 20
416.940
 30
0.000000
  70
    32
  0
VERTEX
  8
0
  5
FA5D
 10
758.311
 20
417.623
 30
0.000000
  70
    32
  0
VERTEX
  8
0
  5
FA5E
 10
758.528
 20
418.316
 30
0.000000
  70
    32
  0
VERTEX
  8
0
  5
FA5F
 10
758.717
 20
419.016
 30
0.000000
  70
    32
  0
VERTEX
  8
0
  5
FA60
 10
758.876
 20
419.723
 30
0.000000
  70
    32
  0
VERTEX
  8
0
  5
FA61
 10
759.006
 20
420.436
 30
0.000000
  70
    32
  0
VERTEX
  8
0
  5
FA62
 10
759.105
 20
421.153
 30
0.000000
  70
    32
  0
VERTEX
  8
0
  5
FA63
 10
759.174
 20
421.873
 30
0.000000
  70
    32
  0
VERTEX
  8
0
  5
FA64
 10
759.213
 20
422.596
 30
0.000000
  70
    32
  0
VERTEX
  8
0
  5
FA65
 10
759.222
 20
423.320
 30
0.000000
  70
    32
  0
VERTEX
  8
0
  5
FA66
 10
759.200
 20
424.043
 30
0.000000
  70
    32
  0
VERTEX
  8
0
  5
FA67
 10
759.148
 20
424.765
 30
0.000000
  70
    32
  0
VERTEX
  8
0
  5
FA68
 10
759.066
 20
425.484
 30
0.000000
  70
    32
  0
VERTEX
  8
0
  5
FA69
 10
758.954
 20
426.200
 30
0.000000
  70
    32
  0
VERTEX
  8
0
  5
FA6A
 10
758.812
 20
426.910
 30
0.000000
  70
    32
  0
VERTEX
  8
0
  5
FA6B
 10
758.640
 20
427.615
 30
0.000000
  70
    32
  0
VERTEX
  8
0
  5
FA6C
 10
758.439
 20
428.312
 30
0.000000
  70
    32
  0
VERTEX
  8
0
  5
FA6D
 10
758.209
 20
429.000
 30
0.000000
  70
    32
  0
VERTEX
  8
0
  5
FA6E
 10
757.950
 20
429.679
 30
0.000000
  70
    32
  0
VERTEX
  8
0
  5
FA6F
 10
757.663
 20
430.348
 30
0.000000
  70
    32
  0
VERTEX
  8
0
  5
FA70
 10
757.348
 20
431.004
 30
0.000000
  70
    32
  0
VERTEX
  8
0
  5
FA71
 10
757.005
 20
431.648
 30
0.000000
  70
    32
  0
VERTEX
  8
0
  5
FA72
 10
756.637
 20
432.278
 30
0.000000
  70
    32
  0
VERTEX
  8
0
  5
FA73
 10
756.242
 20
432.893
 30
0.000000
  70
    32
  0
VERTEX
  8
0
  5
FA74
 10
755.821
 20
433.492
 30
0.000000
  70
    32
  0
VERTEX
  8
0
  5
FA75
 10
755.376
 20
434.074
 30
0.000000
  70
    32
  0
VERTEX
  8
0
  5
FA76
 10
754.907
 20
434.638
 30
0.000000
  70
    32
  0
VERTEX
  8
0
  5
FA77
 10
754.414
 20
435.183
 30
0.000000
  70
    32
  0
VERTEX
  8
0
  5
FA78
 10
753.899
 20
435.708
 30
0.000000
  70
    32
  0
VERTEX
  8
0
  5
FA79
 10
753.363
 20
436.213
 30
0.000000
  70
    32
  0
VERTEX
  8
0
  5
FA7A
 10
752.805
 20
436.697
 30
0.000000
  70
    32
  0
VERTEX
  8
0
  5
FA7B
 10
752.228
 20
437.159
 30
0.000000
  70
    32
  0
VERTEX
  8
0
  5
FA7C
 10
751.632
 20
437.597
 30
0.000000
  70
    32
  0
VERTEX
  8
0
  5
FA7D
 10
751.018
 20
438.012
 30
0.000000
  70
    32
  0
VERTEX
  8
0
  5
FA7E
 10
750.388
 20
438.402
 30
0.000000
  70
    32
  0
SEQEND
  8
0
  5
FA7F
  0
LINE
  5
ED59
  8
0
 10
746.19907475210937
 20
406.0966257879947
 30
0.0
 11
742.99999246511629
 21
404.52107772197257
 31
0.0
  0
LINE
  5
ED5A
  8
0
 10
735.24691017812302
 20
406.0966257879947
 30
0.0
 11
738.44599246511598
 21
404.52107772197257
 31
0.0
  0
LINE
  5
ED5D
  8
0
 10
719.72299246511625
 20
442.08310411889778
 30
0.0
 11
719.72299246511625
 21
426.14165541112948
 31
0.0
  0
LINE
  5
ED5E
  8
0
 10
761.72299246511614
 20
442.08310411889778
 30
0.0
 11
761.72299246511614
 21
426.14165541112948
 31
0.0
  0
POLYLINE
  5
ED61
  8
0
 10
759.72299246511625
 20
417.50216397886959
 30
0.0
 66
     1
 70
     8
  0
VERTEX
  8
0
  5
FA80
 10
759.723
 20
417.502
 30
0.000000
  70
    32
  0
VERTEX
  8
0
  5
FA81
 10
759.805
 20
417.672
 30
0.000000
  70
    32
  0
VERTEX
  8
0
  5
FA82
 10
759.885
 20
417.844
 30
0.000000
  70
    32
  0
VERTEX
  8
0
  5
FA83
 10
759.964
 20
418.015
 30
0.000000
  70
    32
  0
VERTEX
  8
0
  5
FA84
 10
760.041
 20
418.188
 30
0.000000
  70
    32
  0
VERTEX
  8
0
  5
FA85
 10
760.117
 20
418.361
 30
0.000000
  70
    32
  0
VERTEX
  8
0
  5
FA86
 10
760.190
 20
418.535
 30
0.000000
  70
    32
  0
VERTEX
  8
0
  5
FA87
 10
760.262
 20
418.709
 30
0.000000
  70
    32
  0
VERTEX
  8
0
  5
FA88
 10
760.333
 20
418.884
 30
0.000000
  70
    32
  0
VERTEX
  8
0
  5
FA89
 10
760.402
 20
419.060
 30
0.000000
  70
    32
  0
VERTEX
  8
0
  5
FA8A
 10
760.469
 20
419.236
 30
0.000000
  70
    32
  0
VERTEX
  8
0
  5
FA8B
 10
760.534
 20
419.413
 30
0.000000
  70
    32
  0
VERTEX
  8
0
  5
FA8C
 10
760.598
 20
419.591
 30
0.000000
  70
    32
  0
VERTEX
  8
0
  5
FA8D
 10
760.660
 20
419.769
 30
0.000000
  70
    32
  0
VERTEX
  8
0
  5
FA8E
 10
760.720
 20
419.947
 30
0.000000
  70
    32
  0
VERTEX
  8
0
  5
FA8F
 10
760.778
 20
420.127
 30
0.000000
  70
    32
  0
VERTEX
  8
0
  5
FA90
 10
760.835
 20
420.306
 30
0.000000
  70
    32
  0
VERTEX
  8
0
  5
FA91
 10
760.890
 20
420.486
 30
0.000000
  70
    32
  0
VERTEX
  8
0
  5
FA92
 10
760.944
 20
420.667
 30
0.000000
  70
    32
  0
VERTEX
  8
0
  5
FA93
 10
760.995
 20
420.848
 30
0.000000
  70
    32
  0
VERTEX
  8
0
  5
FA94
 10
761.045
 20
421.030
 30
0.000000
  70
    32
  0
VERTEX
  8
0
  5
FA95
 10
761.093
 20
421.212
 30
0.000000
  70
    32
  0
VERTEX
  8
0
  5
FA96
 10
761.140
 20
421.394
 30
0.000000
  70
    32
  0
VERTEX
  8
0
  5
FA97
 10
761.184
 20
421.577
 30
0.000000
  70
    32
  0
VERTEX
  8
0
  5
FA98
 10
761.227
 20
421.760
 30
0.000000
  70
    32
  0
VERTEX
  8
0
  5
FA99
 10
761.268
 20
421.944
 30
0.000000
  70
    32
  0
VERTEX
  8
0
  5
FA9A
 10
761.308
 20
422.128
 30
0.000000
  70
    32
  0
VERTEX
  8
0
  5
FA9B
 10
761.345
 20
422.312
 30
0.000000
  70
    32
  0
VERTEX
  8
0
  5
FA9C
 10
761.381
 20
422.497
 30
0.000000
  70
    32
  0
VERTEX
  8
0
  5
FA9D
 10
761.415
 20
422.682
 30
0.000000
  70
    32
  0
VERTEX
  8
0
  5
FA9E
 10
761.448
 20
422.867
 30
0.000000
  70
    32
  0
VERTEX
  8
0
  5
FA9F
 10
761.478
 20
423.052
 30
0.000000
  70
    32
  0
VERTEX
  8
0
  5
FAA0
 10
761.507
 20
423.238
 30
0.000000
  70
    32
  0
VERTEX
  8
0
  5
FAA1
 10
761.534
 20
423.424
 30
0.000000
  70
    32
  0
VERTEX
  8
0
  5
FAA2
 10
761.559
 20
423.611
 30
0.000000
  70
    32
  0
VERTEX
  8
0
  5
FAA3
 10
761.582
 20
423.797
 30
0.000000
  70
    32
  0
VERTEX
  8
0
  5
FAA4
 10
761.604
 20
423.984
 30
0.000000
  70
    32
  0
VERTEX
  8
0
  5
FAA5
 10
761.624
 20
424.171
 30
0.000000
  70
    32
  0
VERTEX
  8
0
  5
FAA6
 10
761.642
 20
424.358
 30
0.000000
  70
    32
  0
VERTEX
  8
0
  5
FAA7
 10
761.658
 20
424.545
 30
0.000000
  70
    32
  0
VERTEX
  8
0
  5
FAA8
 10
761.672
 20
424.732
 30
0.000000
  70
    32
  0
VERTEX
  8
0
  5
FAA9
 10
761.685
 20
424.920
 30
0.000000
  70
    32
  0
VERTEX
  8
0
  5
FAAA
 10
761.696
 20
425.107
 30
0.000000
  70
    32
  0
VERTEX
  8
0
  5
FAAB
 10
761.705
 20
425.295
 30
0.000000
  70
    32
  0
VERTEX
  8
0
  5
FAAC
 10
761.712
 20
425.483
 30
0.000000
  70
    32
  0
VERTEX
  8
0
  5
FAAD
 10
761.717
 20
425.670
 30
0.000000
  70
    32
  0
VERTEX
  8
0
  5
FAAE
 10
761.721
 20
425.858
 30
0.000000
  70
    32
  0
VERTEX
  8
0
  5
FAAF
 10
761.723
 20
426.046
 30
0.000000
  70
    32
  0
VERTEX
  8
0
  5
FAB0
 10
761.723
 20
426.234
 30
0.000000
  70
    32
  0
VERTEX
  8
0
  5
FAB1
 10
761.721
 20
426.422
 30
0.000000
  70
    32
  0
VERTEX
  8
0
  5
FAB2
 10
761.717
 20
426.609
 30
0.000000
  70
    32
  0
VERTEX
  8
0
  5
FAB3
 10
761.712
 20
426.797
 30
0.000000
  70
    32
  0
VERTEX
  8
0
  5
FAB4
 10
761.705
 20
426.985
 30
0.000000
  70
    32
  0
VERTEX
  8
0
  5
FAB5
 10
761.696
 20
427.173
 30
0.000000
  70
    32
  0
VERTEX
  8
0
  5
FAB6
 10
761.685
 20
427.360
 30
0.000000
  70
    32
  0
VERTEX
  8
0
  5
FAB7
 10
761.672
 20
427.548
 30
0.000000
  70
    32
  0
VERTEX
  8
0
  5
FAB8
 10
761.658
 20
427.735
 30
0.000000
  70
    32
  0
VERTEX
  8
0
  5
FAB9
 10
761.642
 20
427.922
 30
0.000000
  70
    32
  0
VERTEX
  8
0
  5
FABA
 10
761.624
 20
428.109
 30
0.000000
  70
    32
  0
VERTEX
  8
0
  5
FABB
 10
761.604
 20
428.296
 30
0.000000
  70
    32
  0
VERTEX
  8
0
  5
FABC
 10
761.583
 20
428.483
 30
0.000000
  70
    32
  0
VERTEX
  8
0
  5
FABD
 10
761.559
 20
428.669
 30
0.000000
  70
    32
  0
VERTEX
  8
0
  5
FABE
 10
761.534
 20
428.856
 30
0.000000
  70
    32
  0
VERTEX
  8
0
  5
FABF
 10
761.507
 20
429.042
 30
0.000000
  70
    32
  0
VERTEX
  8
0
  5
FAC0
 10
761.479
 20
429.227
 30
0.000000
  70
    32
  0
VERTEX
  8
0
  5
FAC1
 10
761.448
 20
429.413
 30
0.000000
  70
    32
  0
VERTEX
  8
0
  5
FAC2
 10
761.416
 20
429.598
 30
0.000000
  70
    32
  0
VERTEX
  8
0
  5
FAC3
 10
761.382
 20
429.783
 30
0.000000
  70
    32
  0
VERTEX
  8
0
  5
FAC4
 10
761.346
 20
429.968
 30
0.000000
  70
    32
  0
VERTEX
  8
0
  5
FAC5
 10
761.308
 20
430.152
 30
0.000000
  70
    32
  0
VERTEX
  8
0
  5
FAC6
 10
761.269
 20
430.336
 30
0.000000
  70
    32
  0
VERTEX
  8
0
  5
FAC7
 10
761.228
 20
430.520
 30
0.000000
  70
    32
  0
VERTEX
  8
0
  5
FAC8
 10
761.185
 20
430.703
 30
0.000000
  70
    32
  0
VERTEX
  8
0
  5
FAC9
 10
761.141
 20
430.886
 30
0.000000
  70
    32
  0
VERTEX
  8
0
  5
FACA
 10
761.094
 20
431.068
 30
0.000000
  70
    32
  0
VERTEX
  8
0
  5
FACB
 10
761.046
 20
431.250
 30
0.000000
  70
    32
  0
VERTEX
  8
0
  5
FACC
 10
760.996
 20
431.432
 30
0.000000
  70
    32
  0
VERTEX
  8
0
  5
FACD
 10
760.945
 20
431.613
 30
0.000000
  70
    32
  0
VERTEX
  8
0
  5
FACE
 10
760.891
 20
431.794
 30
0.000000
  70
    32
  0
VERTEX
  8
0
  5
FACF
 10
760.836
 20
431.974
 30
0.000000
  70
    32
  0
VERTEX
  8
0
  5
FAD0
 10
760.780
 20
432.153
 30
0.000000
  70
    32
  0
VERTEX
  8
0
  5
FAD1
 10
760.721
 20
432.333
 30
0.000000
  70
    32
  0
VERTEX
  8
0
  5
FAD2
 10
760.661
 20
432.511
 30
0.000000
  70
    32
  0
VERTEX
  8
0
  5
FAD3
 10
760.599
 20
432.689
 30
0.000000
  70
    32
  0
VERTEX
  8
0
  5
FAD4
 10
760.535
 20
432.867
 30
0.000000
  70
    32
  0
VERTEX
  8
0
  5
FAD5
 10
760.470
 20
433.044
 30
0.000000
  70
    32
  0
VERTEX
  8
0
  5
FAD6
 10
760.403
 20
433.220
 30
0.000000
  70
    32
  0
VERTEX
  8
0
  5
FAD7
 10
760.334
 20
433.396
 30
0.000000
  70
    32
  0
VERTEX
  8
0
  5
FAD8
 10
760.264
 20
433.571
 30
0.000000
  70
    32
  0
VERTEX
  8
0
  5
FAD9
 10
760.192
 20
433.745
 30
0.000000
  70
    32
  0
VERTEX
  8
0
  5
FADA
 10
760.118
 20
433.919
 30
0.000000
  70
    32
  0
VERTEX
  8
0
  5
FADB
 10
760.043
 20
434.092
 30
0.000000
  70
    32
  0
VERTEX
  8
0
  5
FADC
 10
759.966
 20
434.265
 30
0.000000
  70
    32
  0
VERTEX
  8
0
  5
FADD
 10
759.887
 20
434.437
 30
0.000000
  70
    32
  0
VERTEX
  8
0
  5
FADE
 10
759.807
 20
434.608
 30
0.000000
  70
    32
  0
VERTEX
  8
0
  5
FADF
 10
759.725
 20
434.778
 30
0.000000
  70
    32
  0
VERTEX
  8
0
  5
FAE0
 10
759.641
 20
434.948
 30
0.000000
  70
    32
  0
VERTEX
  8
0
  5
FAE1
 10
759.556
 20
435.116
 30
0.000000
  70
    32
  0
VERTEX
  8
0
  5
FAE2
 10
759.469
 20
435.284
 30
0.000000
  70
    32
  0
VERTEX
  8
0
  5
FAE3
 10
759.380
 20
435.452
 30
0.000000
  70
    32
  0
VERTEX
  8
0
  5
FAE4
 10
759.290
 20
435.618
 30
0.000000
  70
    32
  0
VERTEX
  8
0
  5
FAE5
 10
759.199
 20
435.784
 30
0.000000
  70
    32
  0
VERTEX
  8
0
  5
FAE6
 10
759.105
 20
435.949
 30
0.000000
  70
    32
  0
VERTEX
  8
0
  5
FAE7
 10
759.011
 20
436.113
 30
0.000000
  70
    32
  0
VERTEX
  8
0
  5
FAE8
 10
758.914
 20
436.276
 30
0.000000
  70
    32
  0
VERTEX
  8
0
  5
FAE9
 10
758.816
 20
436.438
 30
0.000000
  70
    32
  0
VERTEX
  8
0
  5
FAEA
 10
758.717
 20
436.600
 30
0.000000
  70
    32
  0
VERTEX
  8
0
  5
FAEB
 10
758.616
 20
436.760
 30
0.000000
  70
    32
  0
VERTEX
  8
0
  5
FAEC
 10
758.513
 20
436.920
 30
0.000000
  70
    32
  0
VERTEX
  8
0
  5
FAED
 10
758.409
 20
437.078
 30
0.000000
  70
    32
  0
VERTEX
  8
0
  5
FAEE
 10
758.303
 20
437.236
 30
0.000000
  70
    32
  0
VERTEX
  8
0
  5
FAEF
 10
758.196
 20
437.393
 30
0.000000
  70
    32
  0
VERTEX
  8
0
  5
FAF0
 10
758.088
 20
437.549
 30
0.000000
  70
    32
  0
VERTEX
  8
0
  5
FAF1
 10
757.978
 20
437.704
 30
0.000000
  70
    32
  0
VERTEX
  8
0
  5
FAF2
 10
757.866
 20
437.857
 30
0.000000
  70
    32
  0
VERTEX
  8
0
  5
FAF3
 10
757.753
 20
438.010
 30
0.000000
  70
    32
  0
VERTEX
  8
0
  5
FAF4
 10
757.638
 20
438.162
 30
0.000000
  70
    32
  0
VERTEX
  8
0
  5
FAF5
 10
757.522
 20
438.313
 30
0.000000
  70
    32
  0
VERTEX
  8
0
  5
FAF6
 10
757.405
 20
438.463
 30
0.000000
  70
    32
  0
VERTEX
  8
0
  5
FAF7
 10
757.286
 20
438.611
 30
0.000000
  70
    32
  0
VERTEX
  8
0
  5
FAF8
 10
757.166
 20
438.759
 30
0.000000
  70
    32
  0
VERTEX
  8
0
  5
FAF9
 10
757.044
 20
438.906
 30
0.000000
  70
    32
  0
VERTEX
  8
0
  5
FAFA
 10
756.921
 20
439.051
 30
0.000000
  70
    32
  0
VERTEX
  8
0
  5
FAFB
 10
756.797
 20
439.195
 30
0.000000
  70
    32
  0
VERTEX
  8
0
  5
FAFC
 10
756.671
 20
439.339
 30
0.000000
  70
    32
  0
VERTEX
  8
0
  5
FAFD
 10
756.544
 20
439.481
 30
0.000000
  70
    32
  0
VERTEX
  8
0
  5
FAFE
 10
756.415
 20
439.622
 30
0.000000
  70
    32
  0
VERTEX
  8
0
  5
FAFF
 10
756.285
 20
439.761
 30
0.000000
  70
    32
  0
VERTEX
  8
0
  5
FB00
 10
756.154
 20
439.900
 30
0.000000
  70
    32
  0
SEQEND
  8
0
  5
FB01
  0
POLYLINE
  5
ED64
  8
0
 10
761.72299246511602
 20
429.69480750860839
 30
0.0
 66
     1
 70
     8
  0
VERTEX
  8
0
  5
FB02
 10
761.723
 20
429.695
 30
0.000000
  70
    32
  0
VERTEX
  8
0
  5
FB03
 10
761.723
 20
429.785
 30
0.000000
  70
    32
  0
VERTEX
  8
0
  5
FB04
 10
761.722
 20
429.876
 30
0.000000
  70
    32
  0
VERTEX
  8
0
  5
FB05
 10
761.721
 20
429.967
 30
0.000000
  70
    32
  0
VERTEX
  8
0
  5
FB06
 10
761.720
 20
430.058
 30
0.000000
  70
    32
  0
VERTEX
  8
0
  5
FB07
 10
761.718
 20
430.148
 30
0.000000
  70
    32
  0
VERTEX
  8
0
  5
FB08
 10
761.715
 20
430.239
 30
0.000000
  70
    32
  0
VERTEX
  8
0
  5
FB09
 10
761.713
 20
430.330
 30
0.000000
  70
    32
  0
VERTEX
  8
0
  5
FB0A
 10
761.710
 20
430.420
 30
0.000000
  70
    32
  0
VERTEX
  8
0
  5
FB0B
 10
761.706
 20
430.511
 30
0.000000
  70
    32
  0
VERTEX
  8
0
  5
FB0C
 10
761.702
 20
430.601
 30
0.000000
  70
    32
  0
VERTEX
  8
0
  5
FB0D
 10
761.698
 20
430.692
 30
0.000000
  70
    32
  0
VERTEX
  8
0
  5
FB0E
 10
761.693
 20
430.783
 30
0.000000
  70
    32
  0
VERTEX
  8
0
  5
FB0F
 10
761.688
 20
430.873
 30
0.000000
  70
    32
  0
VERTEX
  8
0
  5
FB10
 10
761.682
 20
430.964
 30
0.000000
  70
    32
  0
VERTEX
  8
0
  5
FB11
 10
761.676
 20
431.054
 30
0.000000
  70
    32
  0
VERTEX
  8
0
  5
FB12
 10
761.669
 20
431.145
 30
0.000000
  70
    32
  0
VERTEX
  8
0
  5
FB13
 10
761.662
 20
431.235
 30
0.000000
  70
    32
  0
VERTEX
  8
0
  5
FB14
 10
761.655
 20
431.325
 30
0.000000
  70
    32
  0
VERTEX
  8
0
  5
FB15
 10
761.647
 20
431.416
 30
0.000000
  70
    32
  0
VERTEX
  8
0
  5
FB16
 10
761.639
 20
431.506
 30
0.000000
  70
    32
  0
VERTEX
  8
0
  5
FB17
 10
761.631
 20
431.596
 30
0.000000
  70
    32
  0
VERTEX
  8
0
  5
FB18
 10
761.621
 20
431.687
 30
0.000000
  70
    32
  0
VERTEX
  8
0
  5
FB19
 10
761.612
 20
431.777
 30
0.000000
  70
    32
  0
VERTEX
  8
0
  5
FB1A
 10
761.602
 20
431.867
 30
0.000000
  70
    32
  0
VERTEX
  8
0
  5
FB1B
 10
761.592
 20
431.957
 30
0.000000
  70
    32
  0
VERTEX
  8
0
  5
FB1C
 10
761.581
 20
432.047
 30
0.000000
  70
    32
  0
VERTEX
  8
0
  5
FB1D
 10
761.570
 20
432.137
 30
0.000000
  70
    32
  0
VERTEX
  8
0
  5
FB1E
 10
761.559
 20
432.227
 30
0.000000
  70
    32
  0
VERTEX
  8
0
  5
FB1F
 10
761.547
 20
432.317
 30
0.000000
  70
    32
  0
VERTEX
  8
0
  5
FB20
 10
761.534
 20
432.407
 30
0.000000
  70
    32
  0
VERTEX
  8
0
  5
FB21
 10
761.522
 20
432.497
 30
0.000000
  70
    32
  0
VERTEX
  8
0
  5
FB22
 10
761.508
 20
432.587
 30
0.000000
  70
    32
  0
VERTEX
  8
0
  5
FB23
 10
761.495
 20
432.677
 30
0.000000
  70
    32
  0
VERTEX
  8
0
  5
FB24
 10
761.481
 20
432.766
 30
0.000000
  70
    32
  0
VERTEX
  8
0
  5
FB25
 10
761.466
 20
432.856
 30
0.000000
  70
    32
  0
VERTEX
  8
0
  5
FB26
 10
761.452
 20
432.946
 30
0.000000
  70
    32
  0
VERTEX
  8
0
  5
FB27
 10
761.436
 20
433.035
 30
0.000000
  70
    32
  0
VERTEX
  8
0
  5
FB28
 10
761.421
 20
433.124
 30
0.000000
  70
    32
  0
VERTEX
  8
0
  5
FB29
 10
761.405
 20
433.214
 30
0.000000
  70
    32
  0
VERTEX
  8
0
  5
FB2A
 10
761.388
 20
433.303
 30
0.000000
  70
    32
  0
VERTEX
  8
0
  5
FB2B
 10
761.371
 20
433.392
 30
0.000000
  70
    32
  0
VERTEX
  8
0
  5
FB2C
 10
761.354
 20
433.481
 30
0.000000
  70
    32
  0
VERTEX
  8
0
  5
FB2D
 10
761.336
 20
433.570
 30
0.000000
  70
    32
  0
VERTEX
  8
0
  5
FB2E
 10
761.318
 20
433.659
 30
0.000000
  70
    32
  0
VERTEX
  8
0
  5
FB2F
 10
761.299
 20
433.748
 30
0.000000
  70
    32
  0
VERTEX
  8
0
  5
FB30
 10
761.280
 20
433.837
 30
0.000000
  70
    32
  0
VERTEX
  8
0
  5
FB31
 10
761.261
 20
433.926
 30
0.000000
  70
    32
  0
VERTEX
  8
0
  5
FB32
 10
761.241
 20
434.015
 30
0.000000
  70
    32
  0
VERTEX
  8
0
  5
FB33
 10
761.221
 20
434.103
 30
0.000000
  70
    32
  0
VERTEX
  8
0
  5
FB34
 10
761.200
 20
434.192
 30
0.000000
  70
    32
  0
VERTEX
  8
0
  5
FB35
 10
761.179
 20
434.280
 30
0.000000
  70
    32
  0
VERTEX
  8
0
  5
FB36
 10
761.158
 20
434.368
 30
0.000000
  70
    32
  0
VERTEX
  8
0
  5
FB37
 10
761.136
 20
434.456
 30
0.000000
  70
    32
  0
VERTEX
  8
0
  5
FB38
 10
761.114
 20
434.545
 30
0.000000
  70
    32
  0
VERTEX
  8
0
  5
FB39
 10
761.091
 20
434.633
 30
0.000000
  70
    32
  0
VERTEX
  8
0
  5
FB3A
 10
761.068
 20
434.721
 30
0.000000
  70
    32
  0
VERTEX
  8
0
  5
FB3B
 10
761.045
 20
434.808
 30
0.000000
  70
    32
  0
VERTEX
  8
0
  5
FB3C
 10
761.021
 20
434.896
 30
0.000000
  70
    32
  0
VERTEX
  8
0
  5
FB3D
 10
760.997
 20
434.984
 30
0.000000
  70
    32
  0
VERTEX
  8
0
  5
FB3E
 10
760.972
 20
435.071
 30
0.000000
  70
    32
  0
VERTEX
  8
0
  5
FB3F
 10
760.947
 20
435.159
 30
0.000000
  70
    32
  0
VERTEX
  8
0
  5
FB40
 10
760.921
 20
435.246
 30
0.000000
  70
    32
  0
VERTEX
  8
0
  5
FB41
 10
760.895
 20
435.333
 30
0.000000
  70
    32
  0
VERTEX
  8
0
  5
FB42
 10
760.869
 20
435.420
 30
0.000000
  70
    32
  0
VERTEX
  8
0
  5
FB43
 10
760.842
 20
435.507
 30
0.000000
  70
    32
  0
VERTEX
  8
0
  5
FB44
 10
760.815
 20
435.594
 30
0.000000
  70
    32
  0
VERTEX
  8
0
  5
FB45
 10
760.788
 20
435.681
 30
0.000000
  70
    32
  0
VERTEX
  8
0
  5
FB46
 10
760.760
 20
435.767
 30
0.000000
  70
    32
  0
VERTEX
  8
0
  5
FB47
 10
760.732
 20
435.854
 30
0.000000
  70
    32
  0
VERTEX
  8
0
  5
FB48
 10
760.703
 20
435.940
 30
0.000000
  70
    32
  0
VERTEX
  8
0
  5
FB49
 10
760.674
 20
436.026
 30
0.000000
  70
    32
  0
VERTEX
  8
0
  5
FB4A
 10
760.644
 20
436.112
 30
0.000000
  70
    32
  0
VERTEX
  8
0
  5
FB4B
 10
760.614
 20
436.198
 30
0.000000
  70
    32
  0
VERTEX
  8
0
  5
FB4C
 10
760.584
 20
436.284
 30
0.000000
  70
    32
  0
VERTEX
  8
0
  5
FB4D
 10
760.553
 20
436.370
 30
0.000000
  70
    32
  0
VERTEX
  8
0
  5
FB4E
 10
760.522
 20
436.455
 30
0.000000
  70
    32
  0
VERTEX
  8
0
  5
FB4F
 10
760.491
 20
436.541
 30
0.000000
  70
    32
  0
VERTEX
  8
0
  5
FB50
 10
760.459
 20
436.626
 30
0.000000
  70
    32
  0
VERTEX
  8
0
  5
FB51
 10
760.427
 20
436.711
 30
0.000000
  70
    32
  0
VERTEX
  8
0
  5
FB52
 10
760.394
 20
436.796
 30
0.000000
  70
    32
  0
VERTEX
  8
0
  5
FB53
 10
760.361
 20
436.881
 30
0.000000
  70
    32
  0
VERTEX
  8
0
  5
FB54
 10
760.327
 20
436.966
 30
0.000000
  70
    32
  0
VERTEX
  8
0
  5
FB55
 10
760.294
 20
437.050
 30
0.000000
  70
    32
  0
VERTEX
  8
0
  5
FB56
 10
760.259
 20
437.135
 30
0.000000
  70
    32
  0
VERTEX
  8
0
  5
FB57
 10
760.225
 20
437.219
 30
0.000000
  70
    32
  0
VERTEX
  8
0
  5
FB58
 10
760.190
 20
437.303
 30
0.000000
  70
    32
  0
VERTEX
  8
0
  5
FB59
 10
760.154
 20
437.387
 30
0.000000
  70
    32
  0
VERTEX
  8
0
  5
FB5A
 10
760.119
 20
437.471
 30
0.000000
  70
    32
  0
VERTEX
  8
0
  5
FB5B
 10
760.082
 20
437.555
 30
0.000000
  70
    32
  0
VERTEX
  8
0
  5
FB5C
 10
760.046
 20
437.638
 30
0.000000
  70
    32
  0
VERTEX
  8
0
  5
FB5D
 10
760.009
 20
437.722
 30
0.000000
  70
    32
  0
VERTEX
  8
0
  5
FB5E
 10
759.971
 20
437.805
 30
0.000000
  70
    32
  0
VERTEX
  8
0
  5
FB5F
 10
759.934
 20
437.888
 30
0.000000
  70
    32
  0
VERTEX
  8
0
  5
FB60
 10
759.896
 20
437.971
 30
0.000000
  70
    32
  0
VERTEX
  8
0
  5
FB61
 10
759.857
 20
438.054
 30
0.000000
  70
    32
  0
VERTEX
  8
0
  5
FB62
 10
759.818
 20
438.136
 30
0.000000
  70
    32
  0
VERTEX
  8
0
  5
FB63
 10
759.779
 20
438.218
 30
0.000000
  70
    32
  0
VERTEX
  8
0
  5
FB64
 10
759.739
 20
438.301
 30
0.000000
  70
    32
  0
VERTEX
  8
0
  5
FB65
 10
759.699
 20
438.383
 30
0.000000
  70
    32
  0
VERTEX
  8
0
  5
FB66
 10
759.659
 20
438.465
 30
0.000000
  70
    32
  0
VERTEX
  8
0
  5
FB67
 10
759.618
 20
438.546
 30
0.000000
  70
    32
  0
VERTEX
  8
0
  5
FB68
 10
759.577
 20
438.628
 30
0.000000
  70
    32
  0
VERTEX
  8
0
  5
FB69
 10
759.535
 20
438.709
 30
0.000000
  70
    32
  0
VERTEX
  8
0
  5
FB6A
 10
759.494
 20
438.790
 30
0.000000
  70
    32
  0
VERTEX
  8
0
  5
FB6B
 10
759.451
 20
438.871
 30
0.000000
  70
    32
  0
VERTEX
  8
0
  5
FB6C
 10
759.409
 20
438.952
 30
0.000000
  70
    32
  0
VERTEX
  8
0
  5
FB6D
 10
759.366
 20
439.033
 30
0.000000
  70
    32
  0
VERTEX
  8
0
  5
FB6E
 10
759.322
 20
439.113
 30
0.000000
  70
    32
  0
VERTEX
  8
0
  5
FB6F
 10
759.278
 20
439.193
 30
0.000000
  70
    32
  0
VERTEX
  8
0
  5
FB70
 10
759.234
 20
439.273
 30
0.000000
  70
    32
  0
VERTEX
  8
0
  5
FB71
 10
759.190
 20
439.353
 30
0.000000
  70
    32
  0
VERTEX
  8
0
  5
FB72
 10
759.145
 20
439.433
 30
0.000000
  70
    32
  0
VERTEX
  8
0
  5
FB73
 10
759.100
 20
439.512
 30
0.000000
  70
    32
  0
VERTEX
  8
0
  5
FB74
 10
759.054
 20
439.592
 30
0.000000
  70
    32
  0
VERTEX
  8
0
  5
FB75
 10
759.008
 20
439.671
 30
0.000000
  70
    32
  0
VERTEX
  8
0
  5
FB76
 10
758.962
 20
439.749
 30
0.000000
  70
    32
  0
VERTEX
  8
0
  5
FB77
 10
758.915
 20
439.828
 30
0.000000
  70
    32
  0
VERTEX
  8
0
  5
FB78
 10
758.868
 20
439.907
 30
0.000000
  70
    32
  0
VERTEX
  8
0
  5
FB79
 10
758.820
 20
439.985
 30
0.000000
  70
    32
  0
VERTEX
  8
0
  5
FB7A
 10
758.772
 20
440.063
 30
0.000000
  70
    32
  0
VERTEX
  8
0
  5
FB7B
 10
758.724
 20
440.141
 30
0.000000
  70
    32
  0
VERTEX
  8
0
  5
FB7C
 10
758.676
 20
440.218
 30
0.000000
  70
    32
  0
VERTEX
  8
0
  5
FB7D
 10
758.627
 20
440.296
 30
0.000000
  70
    32
  0
VERTEX
  8
0
  5
FB7E
 10
758.578
 20
440.373
 30
0.000000
  70
    32
  0
VERTEX
  8
0
  5
FB7F
 10
758.528
 20
440.450
 30
0.000000
  70
    32
  0
VERTEX
  8
0
  5
FB80
 10
758.478
 20
440.527
 30
0.000000
  70
    32
  0
VERTEX
  8
0
  5
FB81
 10
758.428
 20
440.603
 30
0.000000
  70
    32
  0
VERTEX
  8
0
  5
FB82
 10
758.377
 20
440.680
 30
0.000000
  70
    32
  0
SEQEND
  8
0
  5
FB83
  0
LINE
  5
ED65
  8
0
 10
738.44599246511598
 20
404.52107772197257
 30
0.0
 11
742.99999246511629
 21
404.52107772197257
 31
0.0
  0
ARC
  5
ED66
  8
0
 10
740.72299246511625
 20
446.45930933705148
 30
0.0
 40
42.000000000000007
 50
180.00000000000011
 51
0.0
  0
LINE
  5
EDAD
  8
0
 10
728.72299246511625
 20
543.45930933705154
 30
0.0
 11
728.72299246511625
 21
535.99795373509778
 31
0.0
  0
LINE
  5
EDAE
  8
0
 10
730.72299246511625
 20
545.45930933705154
 30
0.0
 11
728.72299246511625
 21
543.45930933705154
 31
0.0
  0
LINE
  5
EDAF
  8
0
 10
752.72299246511602
 20
543.45930933705142
 30
0.0
 11
752.72299246511614
 21
535.99795373509778
 31
0.0
  0
LINE
  5
EDB0
  8
0
 10
750.72299246511602
 20
545.45930933705154
 30
0.0
 11
752.72299246511602
 21
543.45930933705142
 31
0.0
  0
LINE
  5
EDB1
  8
0
 10
686.72299246511614
 20
520.45930933705154
 30
0.0
 11
686.72299246511614
 21
511.45930933705142
 31
0.0
  0
ARC
  5
EDB2
  8
0
 10
688.72299246511625
 20
520.45930933705131
 30
0.0
 40
2.0
 50
90.0
 51
180.0
  0
LINE
  5
EDB3
  8
0
 10
794.72299246511625
 20
520.45930933705131
 30
0.0
 11
794.72299246511625
 21
511.45930933705131
 31
0.0
  0
ARC
  5
EDB6
  8
0
 10
792.72299246511625
 20
520.4593093370512
 30
0.0
 40
2.0
 50
0.0
 51
90.0
  0
ARC
  5
EDB7
  8
0
 10
792.72299246511625
 20
511.4593093370512
 30
0.0
 40
2.0
 50
329.99999999999648
 51
0.0
  0
ARC
  5
EDB8
  8
0
 10
688.72299246511625
 20
511.4593093370512
 30
0.0
 40
2.0
 50
180.0
 51
209.99999999999761
  0
LINE
  5
EDB9
  8
0
 10
688.72299246511614
 20
522.45930933705154
 30
0.0
 11
705.015850322402
 21
522.45930933705154
 31
0.0
  0
LINE
  5
EDBA
  8
0
 10
686.9909416575473
 20
510.45930933705148
 30
0.0
 11
696.32704670426995
 21
510.45930933705142
 31
0.0
  0
LINE
  5
EDBE
  8
0
 10
776.43013460783084
 20
522.45930933705108
 30
0.0
 11
792.72299246511625
 21
522.45930933705131
 31
0.0
  0
LINE
  5
EDCA
  8
0
 10
730.72299246511625
 20
545.45930933705154
 30
0.0
 11
750.72299246511602
 21
545.45930933705154
 31
0.0
  0
CIRCLE
  5
EE39
  8
0
 10
506.87921211994939
 20
698.88576954792086
 30
0.0
 40
11.0
  0
POLYLINE
  5
EE3A
  8
0
 66
     1
 10
0.0
 20
0.0
 30
0.0
 70
     1
  0
VERTEX
  5
F9C3
  8
0
 10
500.52835915886351
 20
709.88576954792086
 30
0.0
  0
VERTEX
  5
F9C4
  8
0
 10
494.17750619777757
 20
698.88576954792075
 30
0.0
  0
VERTEX
  5
F9C5
  8
0
 10
500.5283591588634
 20
687.88576954792075
 30
0.0
  0
VERTEX
  5
F9C6
  8
0
 10
513.23006508103526
 20
687.88576954792075
 30
0.0
  0
VERTEX
  5
F9C7
  8
0
 10
519.58091804212097
 20
698.88576954792075
 30
0.0
  0
VERTEX
  5
F9C8
  8
0
 10
513.23006508103526
 20
709.88576954792086
 30
0.0
  0
SEQEND
  5
F9C9
  8
0
  0
CIRCLE
  5
EE3B
  8
0
 10
506.87921211994939
 20
780.91015616556035
 30
0.0
 40
11.0
  0
POLYLINE
  5
EE3C
  8
0
 66
     1
 10
0.0
 20
0.0
 30
0.0
 70
     1
  0
VERTEX
  5
F9CA
  8
0
 10
500.52835915886351
 20
791.91015616556024
 30
0.0
  0
VERTEX
  5
F9CB
  8
0
 10
494.17750619777757
 20
780.91015616556024
 30
0.0
  0
VERTEX
  5
F9CC
  8
0
 10
500.5283591588634
 20
769.91015616556024
 30
0.0
  0
VERTEX
  5
F9CD
  8
0
 10
513.23006508103526
 20
769.91015616556024
 30
0.0
  0
VERTEX
  5
F9CE
  8
0
 10
519.58091804212097
 20
780.91015616556024
 30
0.0
  0
VERTEX
  5
F9CF
  8
0
 10
513.23006508103526
 20
791.91015616556024
 30
0.0
  0
SEQEND
  5
F9D0
  8
0
  0
CIRCLE
  5
EE3D
  8
0
 10
424.85482550230989
 20
780.91015616556035
 30
0.0
 40
11.0
  0
POLYLINE
  5
EE3E
  8
0
 66
     1
 10
0.0
 20
0.0
 30
0.0
 70
     1
  0
VERTEX
  5
F9D1
  8
0
 10
418.50397254122407
 20
791.91015616556024
 30
0.0
  0
VERTEX
  5
F9D2
  8
0
 10
412.15311958013808
 20
780.91015616556024
 30
0.0
  0
VERTEX
  5
F9D3
  8
0
 10
418.5039725412239
 20
769.91015616556024
 30
0.0
  0
VERTEX
  5
F9D4
  8
0
 10
431.20567846339571
 20
769.91015616556024
 30
0.0
  0
VERTEX
  5
F9D5
  8
0
 10
437.55653142448159
 20
780.91015616556024
 30
0.0
  0
VERTEX
  5
F9D6
  8
0
 10
431.20567846339583
 20
791.91015616556024
 30
0.0
  0
SEQEND
  5
F9D7
  8
0
  0
CIRCLE
  5
EE3F
  8
0
 10
424.85482550230989
 20
698.88576954792086
 30
0.0
 40
11.0
  0
POLYLINE
  5
EE40
  8
0
 66
     1
 10
0.0
 20
0.0
 30
0.0
 70
     1
  0
VERTEX
  5
F9D8
  8
0
 10
418.50397254122407
 20
709.88576954792086
 30
0.0
  0
VERTEX
  5
F9D9
  8
0
 10
412.15311958013808
 20
698.88576954792075
 30
0.0
  0
VERTEX
  5
F9DA
  8
0
 10
418.5039725412239
 20
687.88576954792075
 30
0.0
  0
VERTEX
  5
F9DB
  8
0
 10
431.20567846339571
 20
687.88576954792075
 30
0.0
  0
VERTEX
  5
F9DC
  8
0
 10
437.55653142448159
 20
698.88576954792075
 30
0.0
  0
VERTEX
  5
F9DD
  8
0
 10
431.20567846339583
 20
709.88576954792086
 30
0.0
  0
SEQEND
  5
F9DE
  8
0
  0
ARC
  5
EE41
  8
0
 10
709.86701881112981
 20
739.89796285674072
 30
0.0
 40
300.0
 50
172.28583690367489
 51
187.714163096325
  0
ARC
  5
EE42
  8
0
 10
221.8670188111297
 20
739.89796285674072
 30
0.0
 40
300.0
 50
8.0913072860082771
 51
8.3855386470794091
  0
ARC
  5
EE43
  8
0
 10
709.86701881112981
 20
739.89796285674072
 30
0.0
 40
300.0
 50
188.09130728600829
 51
188.38553864707939
  0
ARC
  5
EE44
  8
0
 10
221.8670188111297
 20
739.89796285674072
 30
0.0
 40
300.0
 50
352.28583690367498
 51
7.7141630963250476
  0
LINE
  5
EE47
  8
0
 10
412.24427119494749
 20
530.45930933705165
 30
0.0
 11
412.24427119494749
 21
522.45930933705165
 31
0.0
  0
LINE
  5
EE48
  8
0
 10
437.64768303929122
 20
530.45930933705165
 30
0.0
 11
437.64768303929111
 21
522.45930933705165
 31
0.0
  0
LINE
  5
EE49
  8
0
 10
413.97632200251638
 20
531.45930933705165
 30
0.0
 11
435.91563223172233
 21
531.45930933705165
 31
0.0
  0
LINE
  5
EE4A
  8
0
 10
418.59512415603342
 20
530.45930933705165
 30
0.0
 11
418.59512415603342
 21
522.45930933705176
 31
0.0
  0
LINE
  5
EE4B
  8
0
 10
431.29683007820518
 20
530.45930933705165
 30
0.0
 11
431.29683007820518
 21
522.45930933705176
 31
0.0
  0
ARC
  5
EE4C
  8
0
 10
415.41969767549062
 20
525.91764267038525
 30
0.0
 40
5.5416666666664627
 50
55.039659594478827
 51
124.96034040552109
  0
ARC
  5
EE4D
  8
0
 10
424.9459771171193
 20
510.79264267038531
 30
0.0
 40
20.66666666666627
 50
72.103448870745382
 51
107.8965511292546
  0
ARC
  5
EE4E
  8
0
 10
434.47225655874809
 20
525.91764267038525
 30
0.0
 40
5.5416666666664627
 50
55.039659594478827
 51
124.96034040552109
  0
LINE
  5
EE4F
  8
0
 10
412.24427119494749
 20
530.45930933705165
 30
0.0
 11
413.97632200251638
 21
531.45930933705165
 31
0.0
  0
LINE
  5
EE50
  8
0
 10
437.64768303929111
 20
530.45930933705165
 30
0.0
 11
435.91563223172221
 21
531.45930933705165
 31
0.0
  0
LINE
  5
EE52
  8
0
 10
494.08635458296828
 20
530.45930933705176
 30
0.0
 11
494.08635458296828
 21
522.45930933705176
 31
0.0
  0
LINE
  5
EE53
  8
0
 10
519.48976642731191
 20
530.45930933705176
 30
0.0
 11
519.48976642731179
 21
522.45930933705176
 31
0.0
  0
LINE
  5
EE54
  8
0
 10
495.81840539053712
 20
531.45930933705176
 30
0.0
 11
517.75771561974295
 21
531.45930933705165
 31
0.0
  0
LINE
  5
EE55
  8
0
 10
500.43720754405399
 20
530.45930933705176
 30
0.0
 11
500.43720754405399
 21
522.45930933705176
 31
0.0
  0
LINE
  5
EE56
  8
0
 10
513.13891346622574
 20
530.45930933705176
 30
0.0
 11
513.13891346622574
 21
522.45930933705176
 31
0.0
  0
ARC
  5
EE57
  8
0
 10
497.26178106351119
 20
525.91764267038525
 30
0.0
 40
5.5416666666664627
 50
55.039659594478827
 51
124.96034040552109
  0
ARC
  5
EE58
  8
0
 10
506.78806050513992
 20
510.79264267038542
 30
0.0
 40
20.66666666666627
 50
72.103448870745382
 51
107.8965511292546
  0
ARC
  5
EE59
  8
0
 10
516.31433994676877
 20
525.91764267038536
 30
0.0
 40
5.5416666666664627
 50
55.039659594478827
 51
124.96034040552109
  0
LINE
  5
EE5A
  8
0
 10
494.08635458296828
 20
530.45930933705176
 30
0.0
 11
495.81840539053712
 21
531.45930933705176
 31
0.0
  0
LINE
  5
EE5B
  8
0
 10
519.48976642731179
 20
530.45930933705176
 30
0.0
 11
517.75771561974284
 21
531.45930933705176
 31
0.0
  0
LINE
  5
EE6B
  8
0
 10
688.71079915629628
 20
531.45930933705142
 30
0.0
 11
688.71079915629628
 21
522.45930933705142
 31
0.0
  0
LINE
  5
EE6C
  8
0
 10
710.7107991562965
 20
531.45930933705154
 30
0.0
 11
710.7107991562965
 21
527.45016145092904
 31
0.0
  0
LINE
  5
EE6D
  8
0
 10
699.71079915629628
 20
530.45930933705142
 30
0.0
 11
699.71079915629628
 21
522.45930933705131
 31
0.0
  0
LINE
  5
EE6E
  8
0
 10
688.71079915629628
 20
531.45930933705142
 30
0.0
 11
710.7107991562965
 21
531.45930933705154
 31
0.0
  0
ARC
  5
EE6F
  8
0
 10
694.21079915629639
 20
515.83430933705142
 30
0.0
 40
15.625
 50
69.390307062470271
 51
110.6096929375297
  0
ARC
  5
EE70
  8
0
 10
705.21079915629628
 20
515.83430933705142
 30
0.0
 40
15.625
 50
69.390307062470271
 51
110.6096929375297
  0
LINE
  5
EE71
  8
0
 10
770.73518577393577
 20
531.45930933705131
 30
0.0
 11
770.73518577393577
 21
527.45016145092927
 31
0.0
  0
LINE
  5
EE72
  8
0
 10
792.73518577393588
 20
531.45930933705142
 30
0.0
 11
792.73518577393588
 21
522.45930933705108
 31
0.0
  0
LINE
  5
EE73
  8
0
 10
781.73518577393588
 20
530.4593093370512
 30
0.0
 11
781.73518577393588
 21
522.45930933705108
 31
0.0
  0
LINE
  5
EE74
  8
0
 10
770.73518577393577
 20
531.45930933705131
 30
0.0
 11
792.73518577393588
 21
531.45930933705142
 31
0.0
  0
ARC
  5
EE75
  8
0
 10
776.23518577393588
 20
515.83430933705131
 30
0.0
 40
15.625
 50
69.390307062470271
 51
110.6096929375297
  0
ARC
  5
EE76
  8
0
 10
787.23518577393577
 20
515.83430933705131
 30
0.0
 40
15.625
 50
69.390307062470271
 51
110.6096929375297
  0
LINE
  5
EE7C
  8
0
 10
521.13111622343195
 20
718.89796285674117
 30
0.0
 11
543.86701881112981
 21
718.89796285674083
 31
0.0
  0
LINE
  5
EE83
  8
0
 10
400.86701881112958
 20
718.89796285674083
 30
0.0
 11
410.60292139882739
 21
718.89796285674072
 31
0.0
  0
ARC
  5
EE87
  8
0
 10
406.8670188111297
 20
739.89796285674072
 30
0.0
 40
6.0
 50
90.0
 51
270.0
  0
LINE
  5
EE88
  8
0
 10
406.8670188111297
 20
745.89796285674072
 30
0.0
 11
409.9270248123301
 21
745.89796285674072
 31
0.0
  0
LINE
  5
EE89
  8
0
 10
406.8670188111297
 20
733.89796285674072
 30
0.0
 11
409.9270248123301
 21
733.89796285674061
 31
0.0
  0
LINE
  5
EE95
  8
0
 10
527.49915062975901
 20
730.89796285674061
 30
0.0
 11
539.8670188111297
 21
730.89796285674061
 31
0.0
  0
LINE
  5
EE96
  8
0
 10
546.86701881112981
 20
739.89796285674049
 30
0.0
 11
546.86701881112958
 21
737.89796285674049
 31
0.0
  0
ARC
  5
EE97
  8
0
 10
539.8670188111297
 20
737.89796285674061
 30
0.0
 40
7.0
 50
270.0
 51
0.0
  0
ARC
  5
EE9A
  8
0
 10
527.49915062975901
 20
724.89796285674061
 30
0.0
 40
6.0
 50
90.0
 51
177.19025732474941
  0
LINE
  5
EE9B
  8
0
 10
527.49915062975901
 20
748.89796285674083
 30
0.0
 11
539.86701881112981
 21
748.89796285674072
 31
0.0
  0
LINE
  5
EE9C
  8
0
 10
546.86701881112981
 20
739.89796285674072
 30
0.0
 11
546.86701881112958
 21
741.89796285674083
 31
0.0
  0
ARC
  5
EE9D
  8
0
 10
539.8670188111297
 20
741.89796285674072
 30
0.0
 40
7.0
 50
359.9999999999992
 51
89.999999999999474
  0
ARC
  5
EE9E
  8
0
 10
527.49915062975913
 20
754.89796285674083
 30
0.0
 40
6.0
 50
182.80974267524971
 51
269.99999999999949
  0
ARC
  5
F118
  8
0
 10
217.60253041317091
 20
496.17716772059788
 30
0.0
 40
2.288705507838829
 50
94.340374617376767
 51
139.04319246471749
  0
LINE
  5
F11B
  8
0
 10
208.92931798849079
 20
446.45930933705148
 30
0.0
 11
208.92931798849079
 21
460.32998940455042
 31
0.0
  0
LINE
  5
F11C
  8
0
 10
220.92931798849091
 20
509.4593093370512
 30
0.0
 11
220.92931798849079
 21
500.4593093370512
 31
0.0
  0
ARC
  5
F11D
  8
0
 10
218.42931798849091
 20
509.4593093370512
 30
0.0
 40
2.5
 50
0.000000000000007
 51
23.578178478207182
  0
LINE
  5
F11E
  8
0
 10
218.92931798849079
 20
498.45930933705131
 30
0.0
 11
215.7043115815197
 21
498.45930933705131
 31
0.0
  0
ARC
  5
F11F
  8
0
 10
218.92931798849079
 20
500.4593093370512
 30
0.0
 40
2.0
 50
270.0
 51
0.000000000000007
  0
ARC
  5
F125
  8
0
 10
115.42931798849069
 20
495.45930933705148
 30
0.0
 40
3.0
 50
35.088909508023868
 51
90.0
  0
LINE
  5
F128
  8
0
 10
124.92931798849079
 20
446.45930933705148
 30
0.0
 11
124.92931798849079
 21
460.32998940455042
 31
0.0
  0
LINE
  5
F129
  8
0
 10
112.92931798849069
 20
509.4593093370512
 30
0.0
 11
112.92931798849099
 21
500.45930933705142
 31
0.0
  0
ARC
  5
F12A
  8
0
 10
115.42931798849069
 20
509.45930933705142
 30
0.0
 40
2.5
 50
156.42182152179279
 51
180.0
  0
ARC
  5
F12B
  8
0
 10
114.92931798849099
 20
500.45930933705142
 30
0.0
 40
2.0
 50
180.0
 51
270.0
  0
LINE
  5
F12C
  8
0
 10
114.92931798849099
 20
498.45930933705142
 30
0.0
 11
115.42931798849069
 21
498.45930933705148
 31
0.0
  0
LINE
  5
F12D
  8
0
 10
220.72060583596871
 20
510.45930933705142
 30
0.0
 11
211.3252637493371
 21
510.45930933705148
 31
0.0
  0
LINE
  5
F133
  8
0
 10
114.92931798849069
 20
498.45930933705131
 30
0.0
 11
118.154324395462
 21
498.45930933705131
 31
0.0
  0
ARC
  5
F154
  8
0
 10
166.92931798849079
 20
446.45930933705148
 30
0.0
 40
42.000000000000007
 50
180.0
 51
359.99999999999977
  0
LINE
  5
F155
  8
0
 10
178.92931798849071
 20
543.45930933705154
 30
0.0
 11
178.92931798849071
 21
535.99795373509778
 31
0.0
  0
LINE
  5
F156
  8
0
 10
176.92931798849071
 20
545.45930933705154
 30
0.0
 11
178.92931798849071
 21
543.45930933705154
 31
0.0
  0
LINE
  5
F157
  8
0
 10
154.92931798849099
 20
543.45930933705142
 30
0.0
 11
154.92931798849091
 21
535.99795373509778
 31
0.0
  0
LINE
  5
F158
  8
0
 10
156.92931798849099
 20
545.45930933705154
 30
0.0
 11
154.92931798849099
 21
543.45930933705142
 31
0.0
  0
LINE
  5
F159
  8
0
 10
220.92931798849091
 20
520.45930933705154
 30
0.0
 11
220.92931798849091
 21
511.45930933705142
 31
0.0
  0
ARC
  5
F15A
  8
0
 10
218.92931798849071
 20
520.45930933705131
 30
0.0
 40
2.0
 50
0.000000000000007
 51
90.0
  0
LINE
  5
F15B
  8
0
 10
112.92931798849069
 20
520.45930933705131
 30
0.0
 11
112.92931798849069
 21
511.45930933705131
 31
0.0
  0
ARC
  5
F15C
  8
0
 10
114.92931798849069
 20
520.4593093370512
 30
0.0
 40
2.0
 50
90.0
 51
180.0
  0
ARC
  5
F15D
  8
0
 10
114.92931798849069
 20
511.4593093370512
 30
0.0
 40
2.0
 50
180.0
 51
210.00000000000361
  0
ARC
  5
F15E
  8
0
 10
218.92931798849071
 20
511.4593093370512
 30
0.0
 40
2.0
 50
330.0000000000025
 51
0.000000000000007
  0
LINE
  5
F15F
  8
0
 10
218.92931798849091
 20
522.45930933705154
 30
0.0
 11
202.63646013120521
 21
522.45930933705142
 31
0.0
  0
LINE
  5
F160
  8
0
 10
220.66136879605969
 20
510.45930933705148
 30
0.0
 11
211.3252637493371
 21
510.45930933705142
 31
0.0
  0
LINE
  5
F168
  8
0
 10
176.92931798849071
 20
545.45930933705154
 30
0.0
 11
156.92931798849099
 21
545.45930933705154
 31
0.0
  0
LINE
  5
F16A
  8
0
 10
218.9415112973106
 20
531.45930933705142
 30
0.0
 11
218.9415112973106
 21
522.45930933705142
 31
0.0
  0
LINE
  5
F16B
  8
0
 10
196.94151129731051
 20
531.45930933705154
 30
0.0
 11
196.94151129731051
 21
527.45016145092927
 31
0.0
  0
LINE
  5
F16C
  8
0
 10
207.94151129731051
 20
530.45930933705142
 30
0.0
 11
207.94151129731051
 21
522.45930933705131
 31
0.0
  0
LINE
  5
F16D
  8
0
 10
218.9415112973106
 20
531.45930933705142
 30
0.0
 11
196.94151129731051
 21
531.45930933705154
 31
0.0
  0
ARC
  5
F16E
  8
0
 10
213.4415112973106
 20
515.83430933705142
 30
0.0
 40
15.625
 50
69.390307062470313
 51
110.6096929375297
  0
ARC
  5
F16F
  8
0
 10
202.4415112973106
 20
515.83430933705142
 30
0.0
 40
15.625
 50
69.390307062470313
 51
110.6096929375297
  0
LINE
  5
F170
  8
0
 10
136.91712467967119
 20
531.45930933705131
 30
0.0
 11
136.9171246796711
 21
527.45016145092927
 31
0.0
  0
LINE
  5
F171
  8
0
 10
114.9171246796711
 20
531.45930933705142
 30
0.0
 11
114.9171246796711
 21
522.45930933705108
 31
0.0
  0
LINE
  5
F172
  8
0
 10
125.9171246796711
 20
530.4593093370512
 30
0.0
 11
125.9171246796711
 21
522.45930933705108
 31
0.0
  0
LINE
  5
F173
  8
0
 10
136.91712467967119
 20
531.45930933705131
 30
0.0
 11
114.9171246796711
 21
531.45930933705142
 31
0.0
  0
ARC
  5
F174
  8
0
 10
131.4171246796711
 20
515.83430933705131
 30
0.0
 40
15.625
 50
69.390307062470313
 51
110.6096929375297
  0
ARC
  5
F175
  8
0
 10
120.4171246796711
 20
515.83430933705131
 30
0.0
 40
15.625
 50
69.390307062470313
 51
110.6096929375297
  0
CIRCLE
  5
F176
  8
0
 10
166.92931798849079
 20
417.95930933705148
 30
0.0
 40
12.01041214946431
  0
TEXT
  5
F1FB
  8
0
 10
1224.703718280776
 20
339.63720420721671
 30
0.0
 40
20.000000000000011
  1
25
 41
0.8
 72
     4
 11
1237.656099233157
 21
349.63720420721671
 31
0.0
  0
LINE
  5
F2D5
  8
0
 10
480.86701881112958
 20
786.89796285674038
 30
0.0
 11
450.86701881112958
 21
786.89796285674061
 31
0.0
  0
LINE
  5
F2D7
  8
0
 10
480.86701881112958
 20
764.89796285674049
 30
0.0
 11
450.86701881112958
 21
764.89796285674049
 31
0.0
  0
LINE
  5
F2D8
  8
0
 10
448.8670188111297
 20
766.89796285674061
 30
0.0
 11
448.8670188111297
 21
784.89796285674061
 31
0.0
  0
LINE
  5
F2D9
  8
0
 10
482.86701881112958
 20
766.89796285674061
 30
0.0
 11
482.86701881112958
 21
784.89796285674049
 31
0.0
  0
ARC
  5
F2DA
  8
0
 10
450.86701881112958
 20
784.89796285674061
 30
0.0
 40
2.0
 50
90.0
 51
180.0
  0
ARC
  5
F2DB
  8
0
 10
450.86701881112958
 20
766.89796285674061
 30
0.0
 40
2.0
 50
180.0
 51
270.0
  0
ARC
  5
F2DC
  8
0
 10
480.86701881112958
 20
766.89796285674061
 30
0.0
 40
2.0
 50
270.00000000000011
 51
0.0
  0
ARC
  5
F2DD
  8
0
 10
480.86701881112958
 20
784.89796285674049
 30
0.0
 40
2.0
 50
0.0
 51
90.000000000000071
  0
TEXT
  5
F386
  8
0
 10
438.84319180177482
 20
309.13130122181229
 30
0.0
 40
20.000000000000011
  1
3/4
 41
0.8
 72
     4
 11
460.55747751606049
 21
317.70272979324091
 31
0.0
  0
TEXT
  5
F387
  8
0
 10
1235.751337328395
 20
309.60242460951258
 30
0.0
 40
20.000000000000011
  1
1
 41
0.8
 72
     4
 11
1237.656099233157
 21
319.60242460951258
 31
0.0
  0
LINE
  5
F412
  8
0
 10
326.14481558338588
 20
485.07058994265429
 30
0.0
 11
286.14481558338588
 21
485.07058994265429
 31
0.0
  0
LINE
  5
F413
  8
0
 10
306.24081558338582
 20
489.07058994265429
 30
0.0
 11
318.14481558338588
 21
489.07058994265429
 31
0.0
  0
LINE
  5
F414
  8
0
 10
278.14481558338588
 20
493.07058994265429
 30
0.0
 11
286.14481558338588
 21
485.07058994265429
 31
0.0
  0
LINE
  5
F415
  8
0
 10
318.14481558338588
 20
489.07058994265429
 30
0.0
 11
318.14481558338588
 21
493.07058994265458
 31
0.0
  0
LINE
  5
F416
  8
0
 10
318.14481558338588
 20
493.07058994265429
 30
0.0
 11
326.14481558338588
 21
485.07058994265429
 31
0.0
  0
LINE
  5
F417
  8
0
 10
306.24081558338582
 20
489.07058994265429
 30
0.0
 11
302.14481558338588
 21
493.07058994265429
 31
0.0
  0
LINE
  5
F418
  8
0
 10
302.14481558338588
 20
493.07058994265429
 30
0.0
 11
278.14481558338588
 21
493.07058994265429
 31
0.0
  0
LINE
  5
F419
  8
0
 10
328.53594763897217
 20
733.60979525571508
 30
0.0
 11
288.53594763897217
 21
733.60979525571508
 31
0.0
  0
LINE
  5
F41A
  8
0
 10
308.63194763897212
 20
737.60979525571508
 30
0.0
 11
320.53594763897217
 21
737.60979525571508
 31
0.0
  0
LINE
  5
F41B
  8
0
 10
280.53594763897212
 20
741.60979525571508
 30
0.0
 11
288.53594763897217
 21
733.60979525571508
 31
0.0
  0
LINE
  5
F41C
  8
0
 10
320.53594763897217
 20
737.60979525571508
 30
0.0
 11
320.53594763897217
 21
741.60979525571543
 31
0.0
  0
LINE
  5
F41D
  8
0
 10
320.53594763897217
 20
741.60979525571508
 30
0.0
 11
328.53594763897217
 21
733.60979525571508
 31
0.0
  0
LINE
  5
F41E
  8
0
 10
308.63194763897212
 20
737.60979525571508
 30
0.0
 11
304.53594763897217
 21
741.60979525571508
 31
0.0
  0
LINE
  5
F41F
  8
0
 10
304.53594763897217
 20
741.60979525571508
 30
0.0
 11
280.53594763897212
 21
741.60979525571508
 31
0.0
  0
LINE
  5
F420
  8
0
 10
606.19218445244314
 20
938.27846499085126
 30
0.0
 11
646.19218445244314
 21
938.27846499085126
 31
0.0
  0
LINE
  5
F421
  8
0
 10
626.09618445244325
 20
942.27846499085115
 30
0.0
 11
614.19218445244314
 21
942.27846499085115
 31
0.0
  0
LINE
  5
F422
  8
0
 10
654.19218445244314
 20
946.27846499085115
 30
0.0
 11
646.19218445244314
 21
938.27846499085126
 31
0.0
  0
LINE
  5
F423
  8
0
 10
614.19218445244314
 20
942.27846499085115
 30
0.0
 11
614.19218445244314
 21
946.27846499085149
 31
0.0
  0
LINE
  5
F424
  8
0
 10
614.19218445244314
 20
946.27846499085115
 30
0.0
 11
606.19218445244314
 21
938.27846499085126
 31
0.0
  0
LINE
  5
F425
  8
0
 10
626.09618445244325
 20
942.27846499085115
 30
0.0
 11
630.19218445244314
 21
946.27846499085115
 31
0.0
  0
LINE
  5
F426
  8
0
 10
630.19218445244314
 20
946.27846499085115
 30
0.0
 11
654.19218445244314
 21
946.27846499085115
 31
0.0
  0
LINE
  5
F450
  8
0
 10
545.86701881112958
 20
471.45930933705171
 30
0.0
 11
546.7019553016687
 21
471.45930933705171
 31
0.0
  0
ARC
  5
F451
  8
0
 10
545.86701881112958
 20
469.45930933705171
 30
0.0
 40
2.0
 50
90.0
 51
180.0
  0
LINE
  5
F452
  8
0
 10
545.8670188111297
 20
503.45930933705159
 30
0.0
 11
546.70195530166859
 21
503.45930933705159
 31
0.0
  0
ARC
  5
F453
  8
0
 10
545.8670188111297
 20
505.45930933705159
 30
0.0
 40
2.0
 50
180.0
 51
270.0
  0
LINE
  5
F454
  8
0
 10
398.0320823205908
 20
471.45930933705159
 30
0.0
 11
398.8670188111297
 21
471.45930933705159
 31
0.0
  0
LINE
  5
F455
  8
0
 10
398.0320823205908
 20
503.45930933705159
 30
0.0
 11
398.8670188111297
 21
503.45930933705159
 31
0.0
  0
LINE
  5
F45D
  8
0
 10
400.86701881112958
 20
505.45930933705159
 30
0.0
 11
400.86701881112958
 21
510.45930933705171
 31
0.0
  0
ARC
  5
F45E
  8
0
 10
398.8670188111297
 20
505.45930933705159
 30
0.0
 40
2.0
 50
269.99999999999682
 51
0.0
  0
LINE
  5
F45F
  8
0
 10
400.86701881112958
 20
469.45930933705159
 30
0.0
 11
400.86701881112958
 21
466.45930933705159
 31
0.0
  0
ARC
  5
F460
  8
0
 10
398.8670188111297
 20
469.45930933705159
 30
0.0
 40
2.0
 50
0.0
 51
90.0
  0
LINE
  5
F462
  8
0
 10
543.8670188111297
 20
466.45930933705159
 30
0.0
 11
543.8670188111297
 21
469.45930933705171
 31
0.0
  0
LINE
  5
F463
  8
0
 10
543.86701881112981
 20
505.45930933705159
 30
0.0
 11
543.8670188111297
 21
510.45930933705171
 31
0.0
  0
CIRCLE
  5
F4D7
  8
0
 10
193.4458222829864
 20
513.97581363154711
 30
0.0
 40
7.5
  0
CIRCLE
  5
F4D8
  8
0
 10
193.4458222829864
 20
460.94280504255602
 30
0.0
 40
7.5
  0
CIRCLE
  5
F4E6
  8
0
 10
166.92931798849079
 20
487.45930933705148
 30
0.0
 40
50.0
  0
CIRCLE
  5
F4E7
  8
0
 10
140.41281369399519
 20
513.97581363154711
 30
0.0
 40
7.5
  0
CIRCLE
  5
F4E8
  8
0
 10
140.41281369399519
 20
460.94280504255602
 30
0.0
 40
7.5
  0
LINE
  5
F502
  8
0
 10
597.3670188111297
 20
537.45930933705165
 30
0.0
 11
597.3670188111297
 21
437.45930933705171
 31
0.0
  0
ARC
  5
F503
  8
0
 10
579.36701881112958
 20
467.45930933705171
 30
0.0
 40
4.0
 50
0.0
 51
90.0
  0
LINE
  5
F504
  8
0
 10
552.53208232059058
 20
471.45930933705171
 30
0.0
 11
579.36701881112958
 21
471.45930933705171
 31
0.0
  0
LINE
  5
F505
  8
0
 10
585.36701881112981
 20
437.45930933705171
 30
0.0
 11
597.3670188111297
 21
437.45930933705171
 31
0.0
  0
LINE
  5
F506
  8
0
 10
583.3670188111297
 20
439.45930933705171
 30
0.0
 11
585.36701881112981
 21
437.45930933705171
 31
0.0
  0
ARC
  5
F507
  8
0
 10
579.36701881112958
 20
507.45930933705159
 30
0.0
 40
4.0
 50
270.0
 51
0.0
  0
LINE
  5
F508
  8
0
 10
552.53208232059058
 20
503.45930933705159
 30
0.0
 11
579.36701881112958
 21
503.45930933705159
 31
0.0
  0
LINE
  5
F509
  8
0
 10
583.36701881112958
 20
535.45930933705165
 30
0.0
 11
583.36701881112958
 21
439.45930933705171
 31
0.0
  0
LINE
  5
F50A
  8
0
 10
585.3670188111297
 20
537.45930933705165
 30
0.0
 11
597.3670188111297
 21
537.45930933705165
 31
0.0
  0
LINE
  5
F50B
  8
0
 10
583.36701881112958
 20
535.45930933705165
 30
0.0
 11
585.3670188111297
 21
537.45930933705165
 31
0.0
  0
LINE
  5
F514
  8
0
 10
552.53208232059058
 20
503.45930933705159
 30
0.0
 11
552.53208232059058
 21
471.45930933705171
 31
0.0
  0
ARC
  5
F518
  8
0
 10
549.61701881113095
 20
499.90308258686349
 30
0.0
 40
4.598297941949661
 50
50.658291231535337
 51
129.3417087684935
  0
ARC
  5
F519
  8
0
 10
549.61701881113129
 20
475.01553608723981
 30
0.0
 40
4.598297941949661
 50
230.6582912315065
 51
309.34170876846599
  0
LINE
  5
F51A
  8
0
 10
546.70195530166939
 20
503.45930933705017
 30
0.0
 11
546.70195530166961
 21
471.45930933705301
 31
0.0
  0
LINE
  5
F51B
  8
0
 10
585.3670188111297
 20
537.45930933705165
 30
0.0
 11
585.36701881112981
 21
437.45930933705171
 31
0.0
  0
LINE
  5
F523
  8
0
 10
347.3670188111297
 20
537.45930933705165
 30
0.0
 11
347.3670188111297
 21
437.45930933705171
 31
0.0
  0
ARC
  5
F524
  8
0
 10
365.3670188111297
 20
467.45930933705171
 30
0.0
 40
4.0
 50
90.0
 51
180.0
  0
LINE
  5
F525
  8
0
 10
392.2019553016687
 20
471.45930933705171
 30
0.0
 11
365.3670188111297
 21
471.45930933705171
 31
0.0
  0
LINE
  5
F526
  8
0
 10
359.36701881112958
 20
437.45930933705171
 30
0.0
 11
347.3670188111297
 21
437.45930933705171
 31
0.0
  0
LINE
  5
F527
  8
0
 10
361.36701881112958
 20
439.45930933705171
 30
0.0
 11
359.36701881112958
 21
437.45930933705171
 31
0.0
  0
ARC
  5
F528
  8
0
 10
365.3670188111297
 20
507.45930933705159
 30
0.0
 40
4.0
 50
180.0
 51
270.0
  0
LINE
  5
F529
  8
0
 10
392.2019553016687
 20
503.45930933705159
 30
0.0
 11
365.3670188111297
 21
503.45930933705159
 31
0.0
  0
LINE
  5
F52A
  8
0
 10
361.3670188111297
 20
535.45930933705165
 30
0.0
 11
361.3670188111297
 21
439.45930933705171
 31
0.0
  0
LINE
  5
F52B
  8
0
 10
359.3670188111297
 20
537.45930933705165
 30
0.0
 11
347.3670188111297
 21
537.45930933705165
 31
0.0
  0
LINE
  5
F52C
  8
0
 10
361.3670188111297
 20
535.45930933705165
 30
0.0
 11
359.3670188111297
 21
537.45930933705165
 31
0.0
  0
LINE
  5
F52D
  8
0
 10
392.2019553016687
 20
503.45930933705159
 30
0.0
 11
392.2019553016687
 21
471.45930933705171
 31
0.0
  0
ARC
  5
F52E
  8
0
 10
395.1170188111285
 20
499.90308258686349
 30
0.0
 40
4.598297941949661
 50
50.658291231505231
 51
129.34170876846301
  0
ARC
  5
F52F
  8
0
 10
395.1170188111281
 20
475.01553608723981
 30
0.0
 40
4.598297941949661
 50
230.65829123153651
 51
309.34170876849481
  0
LINE
  5
F530
  8
0
 10
359.3670188111297
 20
537.45930933705165
 30
0.0
 11
359.36701881112958
 21
437.45930933705171
 31
0.0
  0
LINE
  5
F531
  8
0
 10
398.03208232059001
 20
503.45930933705017
 30
0.0
 11
398.03208232058802
 21
471.45930933705159
 31
0.0
  0
LINE
  5
F533
  8
0
 10
531.3670188111289
 20
478.4593093370533
 30
0.0
 11
543.3670188111289
 21
478.4593093370533
 31
0.0
  0
ARC
  5
F534
  8
0
 10
531.3670188111289
 20
479.9593093370533
 30
0.0
 40
1.4999999999999989
 50
180.0
 51
270.0
  0
LINE
  5
F535
  8
0
 10
531.3670188111289
 20
496.4593093370533
 30
0.0
 11
543.3670188111289
 21
496.4593093370533
 31
0.0
  0
ARC
  5
F536
  8
0
 10
531.3670188111289
 20
494.9593093370533
 30
0.0
 40
1.4999999999999989
 50
90.0
 51
180.0
  0
LINE
  5
F537
  8
0
 10
529.86701881112879
 20
494.9593093370533
 30
0.0
 11
529.86701881112879
 21
479.9593093370533
 31
0.0
  0
LINE
  5
F538
  8
0
 10
544.8670188111289
 20
494.9593093370533
 30
0.0
 11
544.8670188111289
 21
479.9593093370533
 31
0.0
  0
ARC
  5
F539
  8
0
 10
543.3670188111289
 20
479.9593093370533
 30
0.0
 40
1.4999999999999989
 50
270.0
 51
0.0
  0
ARC
  5
F53A
  8
0
 10
543.3670188111289
 20
494.9593093370533
 30
0.0
 40
1.4999999999999989
 50
0.0
 51
90.0
  0
LINE
  5
F586
  8
0
 10
400.8670188111297
 20
762.89796285674061
 30
0.0
 11
410.74998485953421
 21
762.89796285674061
 31
0.0
  0
LINE
  5
F587
  8
0
 10
538.8670188111297
 20
718.89796285674049
 30
0.0
 11
543.8670188111297
 21
718.89796285674049
 31
0.0
  0
LINE
  5
F588
  8
0
 10
545.86701881112958
 20
723.89796285674061
 30
0.0
 11
546.7019553016687
 21
723.89796285674061
 31
0.0
  0
ARC
  5
F589
  8
0
 10
545.86701881112958
 20
721.89796285674061
 30
0.0
 40
2.0
 50
90.0
 51
180.0
  0
ARC
  5
F58A
  8
0
 10
545.8670188111297
 20
757.89796285674061
 30
0.0
 40
2.0
 50
180.0
 51
270.0
  0
LINE
  5
F58B
  8
0
 10
398.0320823205908
 20
723.89796285674061
 30
0.0
 11
398.8670188111297
 21
723.89796285674061
 31
0.0
  0
LINE
  5
F58C
  8
0
 10
400.86701881112958
 20
757.89796285674061
 30
0.0
 11
400.86701881112958
 21
762.89796285674061
 31
0.0
  0
ARC
  5
F58D
  8
0
 10
398.8670188111297
 20
757.89796285674061
 30
0.0
 40
2.0
 50
269.99999999999682
 51
0.0
  0
LINE
  5
F58E
  8
0
 10
400.86701881112958
 20
721.89796285674061
 30
0.0
 11
400.86701881112958
 21
718.89796285674049
 31
0.0
  0
ARC
  5
F58F
  8
0
 10
398.8670188111297
 20
721.89796285674061
 30
0.0
 40
2.0
 50
0.0
 51
90.0
  0
LINE
  5
F590
  8
0
 10
543.8670188111297
 20
718.89796285674049
 30
0.0
 11
543.8670188111297
 21
721.89796285674061
 31
0.0
  0
LINE
  5
F591
  8
0
 10
543.86701881112981
 20
757.89796285674061
 30
0.0
 11
543.8670188111297
 21
762.89796285674061
 31
0.0
  0
LINE
  5
F592
  8
0
 10
546.70195530166939
 20
755.89796285673924
 30
0.0
 11
546.7019553016695
 21
743.40913563650065
 31
0.0
  0
LINE
  5
F593
  8
0
 10
398.03208232059001
 20
755.89796285673913
 30
0.0
 11
398.03208232058802
 21
723.89796285674061
 31
0.0
  0
LINE
  5
F595
  8
0
 10
398.86701881112958
 20
755.89796285674061
 30
0.0
 11
398.03208232059001
 21
755.89796285673913
 31
0.0
  0
LINE
  5
F596
  8
0
 10
545.8670188111297
 20
755.89796285674061
 30
0.0
 11
546.70195530166939
 21
755.89796285674061
 31
0.0
  0
LINE
  5
F597
  8
0
 10
597.3670188111297
 20
789.89796285674049
 30
0.0
 11
597.3670188111297
 21
689.89796285674049
 31
0.0
  0
ARC
  5
F598
  8
0
 10
579.36701881112958
 20
719.89796285674061
 30
0.0
 40
4.0
 50
0.0
 51
90.0
  0
LINE
  5
F599
  8
0
 10
552.53208232059058
 20
723.89796285674061
 30
0.0
 11
579.36701881112958
 21
723.89796285674061
 31
0.0
  0
LINE
  5
F59A
  8
0
 10
585.36701881112981
 20
689.89796285674049
 30
0.0
 11
597.3670188111297
 21
689.89796285674049
 31
0.0
  0
LINE
  5
F59B
  8
0
 10
583.3670188111297
 20
691.89796285674061
 30
0.0
 11
585.36701881112981
 21
689.89796285674049
 31
0.0
  0
ARC
  5
F59C
  8
0
 10
579.36701881112958
 20
759.89796285674061
 30
0.0
 40
4.0
 50
270.0
 51
0.0
  0
LINE
  5
F59D
  8
0
 10
552.53208232059058
 20
755.89796285674049
 30
0.0
 11
579.36701881112958
 21
755.89796285674049
 31
0.0
  0
LINE
  5
F59E
  8
0
 10
583.36701881112958
 20
787.89796285674061
 30
0.0
 11
583.36701881112958
 21
691.89796285674061
 31
0.0
  0
LINE
  5
F59F
  8
0
 10
585.3670188111297
 20
789.89796285674049
 30
0.0
 11
597.3670188111297
 21
789.89796285674049
 31
0.0
  0
LINE
  5
F5A0
  8
0
 10
583.36701881112958
 20
787.89796285674061
 30
0.0
 11
585.3670188111297
 21
789.89796285674049
 31
0.0
  0
LINE
  5
F5A1
  8
0
 10
552.53208232059058
 20
755.89796285674049
 30
0.0
 11
552.53208232059058
 21
723.89796285674061
 31
0.0
  0
ARC
  5
F5A2
  8
0
 10
549.61701881113095
 20
752.34173610655239
 30
0.0
 40
4.598297941949661
 50
50.658291231535152
 51
129.34170876849339
  0
ARC
  5
F5A3
  8
0
 10
549.61701881113129
 20
727.45418960692859
 30
0.0
 40
4.598297941949661
 50
230.6582912315065
 51
309.34170876846559
  0
LINE
  5
F5A4
  8
0
 10
585.3670188111297
 20
789.89796285674049
 30
0.0
 11
585.36701881112981
 21
689.89796285674049
 31
0.0
  0
LINE
  5
F5A5
  8
0
 10
347.3670188111297
 20
789.89796285674049
 30
0.0
 11
347.3670188111297
 21
689.89796285674049
 31
0.0
  0
ARC
  5
F5A6
  8
0
 10
365.3670188111297
 20
719.89796285674061
 30
0.0
 40
4.0
 50
90.0
 51
180.0
  0
LINE
  5
F5A7
  8
0
 10
392.2019553016687
 20
723.89796285674061
 30
0.0
 11
365.3670188111297
 21
723.89796285674061
 31
0.0
  0
LINE
  5
F5A8
  8
0
 10
359.36701881112958
 20
689.89796285674049
 30
0.0
 11
347.3670188111297
 21
689.89796285674049
 31
0.0
  0
LINE
  5
F5A9
  8
0
 10
361.36701881112958
 20
691.89796285674061
 30
0.0
 11
359.36701881112958
 21
689.89796285674049
 31
0.0
  0
ARC
  5
F5AA
  8
0
 10
365.3670188111297
 20
759.89796285674061
 30
0.0
 40
4.0
 50
180.0
 51
270.0
  0
LINE
  5
F5AB
  8
0
 10
392.2019553016687
 20
755.89796285674049
 30
0.0
 11
365.3670188111297
 21
755.89796285674049
 31
0.0
  0
LINE
  5
F5AC
  8
0
 10
361.3670188111297
 20
787.89796285674061
 30
0.0
 11
361.3670188111297
 21
691.89796285674061
 31
0.0
  0
LINE
  5
F5AD
  8
0
 10
359.3670188111297
 20
789.89796285674049
 30
0.0
 11
347.3670188111297
 21
789.89796285674049
 31
0.0
  0
LINE
  5
F5AE
  8
0
 10
361.3670188111297
 20
787.89796285674061
 30
0.0
 11
359.3670188111297
 21
789.89796285674049
 31
0.0
  0
LINE
  5
F5AF
  8
0
 10
392.2019553016687
 20
755.89796285674049
 30
0.0
 11
392.2019553016687
 21
723.89796285674061
 31
0.0
  0
ARC
  5
F5B0
  8
0
 10
395.1170188111285
 20
752.34173610655239
 30
0.0
 40
4.598297941949661
 50
50.658291231504748
 51
129.34170876846281
  0
ARC
  5
F5B1
  8
0
 10
395.1170188111281
 20
727.45418960692859
 30
0.0
 40
4.598297941949661
 50
230.65829123153691
 51
309.34170876849521
  0
LINE
  5
F5B2
  8
0
 10
359.3670188111297
 20
789.89796285674049
 30
0.0
 11
359.36701881112958
 21
689.89796285674049
 31
0.0
  0
LINE
  5
F5B3
  8
0
 10
530.86701881112936
 20
961.63538979118755
 30
0.0
 11
387.86701881112953
 21
961.63538979118755
 31
0.0
  0
LINE
  5
F5B4
  8
0
 10
530.36701881112947
 20
929.63538979118744
 30
0.0
 11
518.36701881112947
 21
929.63538979118744
 31
0.0
  0
ARC
  5
F5B5
  8
0
 10
530.36701881112947
 20
931.13538979118755
 30
0.0
 40
1.4999999999999989
 50
270.0
 51
0.0
  0
LINE
  5
F5B6
  8
0
 10
530.36701881112947
 20
947.63538979118744
 30
0.0
 11
518.36701881112947
 21
947.63538979118744
 31
0.0
  0
ARC
  5
F5B7
  8
0
 10
530.36701881112947
 20
946.13538979118755
 30
0.0
 40
1.4999999999999989
 50
0.0
 51
90.0
  0
LINE
  5
F5B8
  8
0
 10
519.86701881112958
 20
949.63538979118732
 30
0.0
 11
465.86701881112958
 21
949.63538979118721
 31
0.0
  0
ARC
  5
F5B9
  8
0
 10
516.36701881112958
 20
947.63538979118744
 30
0.0
 40
1.9999999999999989
 50
90.0
 51
180.0
  0
LINE
  5
F5BA
  8
0
 10
465.86701881112953
 20
949.63538979118732
 30
0.0
 11
411.86701881112953
 21
949.63538979118732
 31
0.0
  0
ARC
  5
F5BB
  8
0
 10
415.36701881112958
 20
947.63538979118744
 30
0.0
 40
1.9999999999999989
 50
0.0
 51
90.0
  0
LINE
  5
F5BC
  8
0
 10
507.86701881112953
 20
881.07188146429087
 30
0.0
 11
507.86701881112953
 21
857.19889811808378
 31
0.0
  0
LINE
  5
F5BD
  8
0
 10
514.36701881112947
 20
947.63538979118744
 30
0.0
 11
514.36701881112947
 21
925.97815593123846
 31
0.0
  0
LINE
  5
F5BE
  8
0
 10
409.8670188111293
 20
961.63538979118755
 30
0.0
 11
409.86701881112953
 21
951.63538979118755
 31
0.0
  0
ARC
  5
F5BF
  8
0
 10
411.86701881112953
 20
951.63538979118755
 30
0.0
 40
1.9999999999999989
 50
180.0
 51
270.0
  0
LINE
  5
F5C0
  8
0
 10
395.64349072085218
 20
900.55949789614806
 30
0.0
 11
384.60674508866691
 21
897.60215050550471
 31
0.0
  0
ARC
  5
F5C1
  8
0
 10
394.86701881112953
 20
903.45727141618227
 30
0.0
 40
2.9999999999999991
 50
285.0002921246417
 51
0.0
  0
LINE
  5
F5C2
  8
0
 10
433.48295460201018
 20
867.21709948256478
 30
0.0
 11
395.47714498311387
 21
857.03326580083694
 31
0.0
  0
LINE
  5
F5C3
  8
0
 10
394.86477320724708
 20
857.38681672901407
 30
0.0
 11
395.47714498311387
 21
857.03326580083694
 31
0.0
  0
LINE
  5
F5C4
  8
0
 10
397.86701881112953
 20
903.45727141618227
 30
0.0
 11
397.86701881112953
 21
912.63538979118755
 31
0.0
  0
LINE
  5
F5C5
  8
0
 10
507.86701881112953
 20
912.63538979118744
 30
0.0
 11
507.86701881112953
 21
897.63538979118744
 31
0.0
  0
ARC
  5
F5C6
  8
0
 10
512.86701881112947
 20
912.63538979118744
 30
0.0
 40
4.9999999999999982
 50
90.0
 51
180.0
  0
ARC
  5
F5C7
  8
0
 10
406.86701881112953
 20
962.63538979118744
 30
0.0
 40
2.9999999999999991
 50
270.0
 51
340.52877936550618
  0
LINE
  5
F5C8
  8
0
 10
531.86701881112958
 20
946.13538979118755
 30
0.0
 11
531.86701881112958
 21
931.13538979118755
 31
0.0
  0
LINE
  5
F5C9
  8
0
 10
516.86701881112947
 20
946.13538979118755
 30
0.0
 11
516.86701881112947
 21
931.13538979118755
 31
0.0
  0
ARC
  5
F5CA
  8
0
 10
518.36701881112947
 20
931.13538979118755
 30
0.0
 40
1.4999999999999989
 50
180.0
 51
270.0
  0
ARC
  5
F5CB
  8
0
 10
518.36701881112947
 20
946.13538979118755
 30
0.0
 40
1.4999999999999989
 50
90.0
 51
180.0
  0
LINE
  5
F5CC
  8
0
 10
530.86701881112936
 20
917.63538979118755
 30
0.0
 11
512.86701881112947
 21
917.63538979118755
 31
0.0
  0
LINE
  5
F5CD
  8
0
 10
392.86701881112953
 20
917.63538979118766
 30
0.0
 11
387.86701881112953
 21
917.63538979118766
 31
0.0
  0
ARC
  5
F5CE
  8
0
 10
392.86701881112953
 20
912.63538979118755
 30
0.0
 40
4.9999999999999982
 50
0.0
 51
90.0
  0
ARC
  5
F5CF
  8
0
 10
465.86701881112953
 20
897.63538979118744
 30
0.0
 40
41.999999999999979
 50
180.0
 51
285.35888558081979
  0
ARC
  5
F5D0
  8
0
 10
434.77707445154817
 20
862.38747694917447
 30
0.0
 40
4.9999999999999982
 50
48.586531312752498
 51
105.0002921246418
  0
ARC
  5
F5D1
  8
0
 10
465.86701881112953
 20
897.63538979118744
 30
0.0
 40
41.999999999999979
 50
285.35888558081979
 51
0.0
  0
ARC
  5
F5D2
  8
0
 10
507.40916608350813
 20
883.13538979118744
 30
0.0
 40
1.9999999999999989
 50
160.7588112368733
 51
270.0
  0
LINE
  5
F5D3
  8
0
 10
476.99131654177302
 20
857.13538979118744
 30
0.0
 11
507.36701881112953
 21
857.13538979118744
 31
0.0
  0
ARC
  5
F5D4
  8
0
 10
507.36701881112953
 20
859.13538979118744
 30
0.0
 40
1.9999999999999989
 50
270.0
 51
284.47751218592992
  0
LINE
  5
F5D5
  8
0
 10
507.40916608350818
 20
881.13538979118755
 30
0.0
 11
507.36701881112953
 21
881.13538979118755
 31
0.0
  0
ARC
  5
F5D6
  8
0
 10
507.36701881112953
 20
879.13538979118732
 30
0.0
 40
1.9999999999999989
 50
75.522487814070075
 51
90.0
  0
LINE
  5
F5D7
  8
0
 10
384.25319235789289
 20
896.9897756074306
 30
0.0
 11
394.8647732072472
 21
857.38681672901384
 31
0.0
  0
LINE
  5
F5D8
  8
0
 10
384.60674508866691
 20
897.60215050550471
 30
0.0
 11
384.25319235789289
 21
896.9897756074306
 31
0.0
  0
LINE
  5
F5D9
  8
0
 10
507.36701881112953
 20
918.97815593123835
 30
0.0
 11
424.36701881112958
 21
918.97815593123835
 31
0.0
  0
ARC
  5
F5DA
  8
0
 10
507.36701881112953
 20
925.97815593123846
 30
0.0
 40
6.9999999999999973
 50
270.0
 51
0.0
  0
LINE
  5
F5DB
  8
0
 10
417.36701881112958
 20
947.63538979118744
 30
0.0
 11
417.36701881112958
 21
925.97815593123846
 31
0.0
  0
ARC
  5
F5DC
  8
0
 10
424.36701881112958
 20
925.97815593123846
 30
0.0
 40
6.9999999999999973
 50
180.0
 51
270.0
  0
LINE
  5
F5DD
  8
0
 10
423.86701881112953
 20
918.99603590935408
 30
0.0
 11
423.86701881112953
 21
897.63538979118744
 31
0.0
  0
LINE
  5
F5DF
  8
0
 10
521.86701881112947
 20
961.63538979118732
 30
0.0
 11
521.86701881112947
 21
951.63538979118755
 31
0.0
  0
ARC
  5
F5E0
  8
0
 10
519.86701881112958
 20
951.63538979118755
 30
0.0
 40
1.9999999999999989
 50
270.0
 51
0.0
  0
LINE
  5
F5E1
  8
0
 10
384.60674508866691
 20
897.60215050550471
 30
0.0
 11
395.4773518247855
 21
857.03332122502616
 31
0.0
  0
LINE
  5
F5E2
  8
0
 10
406.86701881112953
 20
959.63538979118755
 30
0.0
 11
387.86701881112941
 21
959.63538979118732
 31
0.0
  0
LINE
  5
F5E3
  8
0
 10
409.8670188111293
 20
985.63538979118744
 30
0.0
 11
409.86701881112958
 21
962.63538979118755
 31
0.0
  0
ARC
  5
F5E4
  8
0
 10
411.86701881112941
 20
985.63538979118744
 30
0.0
 40
2.0
 50
90.0
 51
180.0
  0
ARC
  5
F5E5
  8
0
 10
411.86701881112953
 20
962.63538979118755
 30
0.0
 40
2.0
 50
180.0
 51
209.99999999999719
  0
LINE
  5
F5E6
  8
0
 10
455.86701881112958
 20
996.63538979118755
 30
0.0
 11
475.86701881112958
 21
996.63538979118755
 31
0.0
  0
LINE
  5
F5E7
  8
0
 10
411.86701881112941
 20
987.63538979118755
 30
0.0
 11
451.86701881112958
 21
987.63538979118721
 31
0.0
  0
ARC
  5
F5E8
  8
0
 10
451.86701881112953
 20
989.63538979118744
 30
0.0
 40
2.0
 50
270.0
 51
0.0
  0
ARC
  5
F5E9
  8
0
 10
482.86701881112953
 20
978.63538979118744
 30
0.0
 40
5.0
 50
180.0
 51
270.0
  0
LINE
  5
F5EA
  8
0
 10
521.86701881112947
 20
971.63538979118755
 30
0.0
 11
521.86701881112947
 21
962.63538979118755
 31
0.0
  0
ARC
  5
F5EB
  8
0
 10
519.86701881112958
 20
971.63538979118744
 30
0.0
 40
2.0
 50
0.0
 51
90.0
  0
ARC
  5
F5EC
  8
0
 10
519.86701881112958
 20
962.63538979118744
 30
0.0
 40
2.0
 50
330.0000000000029
 51
0.0
  0
LINE
  5
F5ED
  8
0
 10
477.86701881112958
 20
994.63538979118744
 30
0.0
 11
477.86701881112958
 21
978.63538979118755
 31
0.0
  0
LINE
  5
F5EE
  8
0
 10
475.86701881112958
 20
996.63538979118755
 30
0.0
 11
477.86701881112958
 21
994.63538979118744
 31
0.0
  0
LINE
  5
F5EF
  8
0
 10
453.86701881112958
 20
994.63538979118744
 30
0.0
 11
453.86701881112958
 21
978.63538979118744
 31
0.0
  0
LINE
  5
F5F0
  8
0
 10
455.86701881112958
 20
996.63538979118755
 30
0.0
 11
453.86701881112958
 21
994.63538979118744
 31
0.0
  0
LINE
  5
F5F1
  8
0
 10
409.86701881112953
 20
973.63538979118766
 30
0.0
 11
519.86701881112958
 21
973.63538979118755
 31
0.0
  0
LINE
  5
F5F2
  8
0
 10
521.59906961869842
 20
961.63538979118744
 30
0.0
 11
410.13496800356069
 21
961.63538979118755
 31
0.0
  0
ARC
  5
F5F3
  8
0
 10
448.86701881112958
 20
978.63538979118744
 30
0.0
 40
5.0
 50
270.0
 51
0.0
  0
LINE
  5
F5F4
  8
0
 10
389.49693616844638
 20
868.53720338601397
 30
0.0
 11
382.34715320225479
 21
866.62142481416527
 31
0.0
  0
LINE
  5
F5F5
  8
0
 10
382.34715320225479
 20
866.62142481416527
 30
0.0
 11
383.3679355161392
 21
862.81181335528117
 31
0.0
  0
LINE
  5
F5F6
  8
0
 10
383.3679355161392
 20
862.81181335528117
 30
0.0
 11
390.51771848233091
 21
864.72759192712988
 31
0.0
  0
LINE
  5
F5F7
  8
0
 10
374.14571238335373
 20
892.21066805217549
 30
0.0
 11
374.8181071802224
 21
894.72020710091419
 31
0.0
  0
LINE
  5
F5F8
  8
0
 10
374.8181071802224
 20
894.72020710091419
 30
0.0
 11
381.96789014641428
 21
896.63598567276313
 31
0.0
  0
LINE
  5
F5F9
  8
0
 10
381.96789014641428
 20
896.63598567276313
 30
0.0
 11
383.80497064624439
 21
894.79885850320068
 31
0.0
  0
LINE
  5
F5FA
  8
0
 10
383.80497064624223
 20
894.79885850320295
 30
0.0
 11
393.3811459055151
 21
859.06008589341855
 31
0.0
  0
LINE
  5
F5FB
  8
0
 10
393.3811459055151
 20
859.06008589341855
 30
0.0
 11
392.70875110864642
 21
856.55054684467984
 31
0.0
  0
LINE
  5
F5FC
  8
0
 10
392.70875110864642
 20
856.55054684467984
 30
0.0
 11
385.55896814245449
 21
854.63476827283125
 31
0.0
  0
LINE
  5
F5FD
  8
0
 10
385.55896814245449
 20
854.63476827283125
 30
0.0
 11
383.72188764262438
 21
856.47189544239336
 31
0.0
  0
LINE
  5
F5FE
  8
0
 10
383.72188764262438
 20
856.47189544239336
 30
0.0
 11
374.14571238335373
 21
892.21066805217549
 31
0.0
  0
ARC
  5
F5FF
  8
0
 10
393.07277532879999
 20
861.03015209312616
 30
0.0
 40
9.8670275484803067
 50
169.59720228553411
 51
220.40279771446899
  0
LINE
  5
F600
  8
0
 10
385.17983449613649
 20
884.64884616851577
 30
0.0
 11
378.03005152994479
 21
882.73306759666696
 31
0.0
  0
LINE
  5
F601
  8
0
 10
378.03005152994479
 20
882.73306759666696
 30
0.0
 11
377.00926921606037
 21
886.54267905555105
 31
0.0
  0
LINE
  5
F602
  8
0
 10
377.00926921606037
 20
886.54267905555105
 30
0.0
 11
384.15905218225208
 21
888.45845762739987
 31
0.0
  0
ARC
  5
F603
  8
0
 10
384.52307640240582
 20
892.93806287584641
 30
0.0
 40
9.8670275484803067
 50
169.59720228553411
 51
220.40279771446981
  0
ARC
  5
F604
  8
0
 10
414.94040836909647
 20
883.98896455944214
 30
0.0
 40
36.931716981134642
 50
181.94877133349451
 51
208.051228666507
  0
LINE
  5
F605
  8
0
 10
389.49693616844638
 20
868.53720338601397
 30
0.0
 11
390.51771848233091
 21
864.72759192712988
 31
0.0
  0
ARC
  5
F606
  8
0
 10
383.0039112959854
 20
858.33220810683474
 30
0.0
 40
9.8670275484803067
 50
349.59720228553408
 51
40.402797714469763
  0
LINE
  5
F607
  8
0
 10
385.17983449613649
 20
884.64884616851577
 30
0.0
 11
384.15905218225208
 21
888.45845762739987
 31
0.0
  0
ARC
  5
F608
  8
0
 10
374.45421236959129
 20
890.24011888955499
 30
0.0
 40
9.8670275484803067
 50
349.59720228553408
 51
40.402797714469081
  0
ARC
  5
F609
  8
0
 10
352.58657932929469
 20
867.2813064232389
 30
0.0
 40
36.931716981134642
 50
1.9487713334945591
 51
28.051228666506969
  0
LINE
  5
F60A
  8
0
 10
393.3811459055151
 20
859.06008589341855
 30
0.0
 11
394.34707173180408
 21
859.31890493852086
 31
0.0
  0
LINE
  5
F60B
  8
0
 10
383.80497064624439
 20
894.79885850320068
 30
0.0
 11
384.77089647253371
 21
895.05767754830345
 31
0.0
  0
LINE
  5
F60C
  8
0
 10
374.8181071802224
 20
894.72020710091419
 30
0.0
 11
385.55896814245449
 21
854.63476827283125
 31
0.0
  0
LINE
  5
F60D
  8
0
 10
519.48976642731157
 20
981.63538979118755
 30
0.0
 11
519.48976642731157
 21
973.63538979118755
 31
0.0
  0
LINE
  5
F60E
  8
0
 10
494.086354582968
 20
981.63538979118755
 30
0.0
 11
494.08635458296811
 21
973.63538979118755
 31
0.0
  0
LINE
  5
F60F
  8
0
 10
517.7577156197425
 20
982.63538979118766
 30
0.0
 11
495.8184053905369
 21
982.63538979118755
 31
0.0
  0
LINE
  5
F610
  8
0
 10
513.13891346622574
 20
981.63538979118755
 30
0.0
 11
513.13891346622574
 21
973.63538979118766
 31
0.0
  0
LINE
  5
F611
  8
0
 10
500.43720754405399
 20
981.63538979118755
 30
0.0
 11
500.43720754405399
 21
973.63538979118766
 31
0.0
  0
ARC
  5
F612
  8
0
 10
516.31433994676854
 20
977.09372312452115
 30
0.0
 40
5.5416666666664627
 50
55.039659594481734
 51
124.9603404055182
  0
ARC
  5
F613
  8
0
 10
506.78806050513981
 20
961.96872312452115
 30
0.0
 40
20.66666666666627
 50
72.103448870737694
 51
107.89655112926231
  0
ARC
  5
F614
  8
0
 10
497.26178106351108
 20
977.09372312452126
 30
0.0
 40
5.5416666666664627
 50
55.039659594481734
 51
124.9603404055182
  0
LINE
  5
F615
  8
0
 10
519.48976642731157
 20
981.63538979118755
 30
0.0
 11
517.7577156197425
 21
982.63538979118766
 31
0.0
  0
LINE
  5
F616
  8
0
 10
494.08635458296811
 20
981.63538979118755
 30
0.0
 11
495.81840539053701
 21
982.63538979118766
 31
0.0
  0
LINE
  5
F617
  8
0
 10
437.64768303929088
 20
981.63538979118766
 30
0.0
 11
437.64768303929088
 21
973.63538979118766
 31
0.0
  0
LINE
  5
F618
  8
0
 10
412.24427119494732
 20
981.63538979118766
 30
0.0
 11
412.24427119494732
 21
973.63538979118766
 31
0.0
  0
LINE
  5
F619
  8
0
 10
435.91563223172187
 20
982.63538979118766
 30
0.0
 11
413.97632200251621
 21
982.63538979118766
 31
0.0
  0
LINE
  5
F61A
  8
0
 10
431.29683007820512
 20
981.63538979118766
 30
0.0
 11
431.29683007820512
 21
973.63538979118766
 31
0.0
  0
LINE
  5
F61B
  8
0
 10
418.59512415603331
 20
981.63538979118766
 30
0.0
 11
418.59512415603331
 21
973.63538979118766
 31
0.0
  0
ARC
  5
F61C
  8
0
 10
434.47225655874792
 20
977.09372312452126
 30
0.0
 40
5.5416666666664627
 50
55.039659594481734
 51
124.9603404055182
  0
ARC
  5
F61D
  8
0
 10
424.94597711711913
 20
961.96872312452126
 30
0.0
 40
20.66666666666627
 50
72.103448870737694
 51
107.89655112926231
  0
ARC
  5
F61E
  8
0
 10
415.4196976754904
 20
977.09372312452126
 30
0.0
 40
5.5416666666664627
 50
55.039659594481734
 51
124.9603404055182
  0
LINE
  5
F61F
  8
0
 10
437.64768303929088
 20
981.63538979118766
 30
0.0
 11
435.91563223172187
 21
982.63538979118766
 31
0.0
  0
LINE
  5
F620
  8
0
 10
412.24427119494732
 20
981.63538979118766
 30
0.0
 11
413.97632200251633
 21
982.63538979118766
 31
0.0
  0
LINE
  5
F622
  8
0
 10
385.86701881112958
 20
922.63538979118755
 30
0.0
 11
385.03208232059052
 21
922.63538979118755
 31
0.0
  0
ARC
  5
F623
  8
0
 10
385.86701881112953
 20
920.63538979118755
 30
0.0
 40
2.0
 50
0.0
 51
90.0
  0
LINE
  5
F624
  8
0
 10
385.86701881112941
 20
954.63538979118755
 30
0.0
 11
385.03208232059058
 21
954.63538979118755
 31
0.0
  0
ARC
  5
F625
  8
0
 10
385.86701881112941
 20
956.63538979118755
 30
0.0
 40
2.0
 50
270.0
 51
0.0
  0
LINE
  5
F626
  8
0
 10
533.70195530166836
 20
922.63538979118755
 30
0.0
 11
532.86701881112958
 21
922.63538979118755
 31
0.0
  0
LINE
  5
F627
  8
0
 10
533.70195530166836
 20
954.63538979118755
 30
0.0
 11
532.86701881112958
 21
954.63538979118755
 31
0.0
  0
LINE
  5
F628
  8
0
 10
530.86701881112947
 20
956.63538979118755
 30
0.0
 11
530.86701881112947
 21
961.63538979118755
 31
0.0
  0
ARC
  5
F629
  8
0
 10
532.86701881112958
 20
956.63538979118755
 30
0.0
 40
2.0
 50
180.0
 51
270.0
  0
LINE
  5
F62A
  8
0
 10
530.86701881112947
 20
920.63538979118755
 30
0.0
 11
530.86701881112947
 21
917.63538979118755
 31
0.0
  0
ARC
  5
F62B
  8
0
 10
532.86701881112958
 20
920.63538979118755
 30
0.0
 40
2.0
 50
90.0
 51
180.0
  0
LINE
  5
F62C
  8
0
 10
387.86701881112953
 20
917.63538979118755
 30
0.0
 11
387.86701881112953
 21
920.63538979118755
 31
0.0
  0
LINE
  5
F62D
  8
0
 10
387.86701881112941
 20
956.63538979118755
 30
0.0
 11
387.86701881112953
 21
961.63538979118755
 31
0.0
  0
LINE
  5
F62E
  8
0
 10
334.36701881112953
 20
988.63538979118755
 30
0.0
 11
334.36701881112953
 21
888.63538979118755
 31
0.0
  0
ARC
  5
F62F
  8
0
 10
352.36701881112953
 20
918.63538979118755
 30
0.0
 40
4.0
 50
90.0
 51
180.0
  0
LINE
  5
F630
  8
0
 10
379.20195530166859
 20
922.63538979118755
 30
0.0
 11
352.36701881112953
 21
922.63538979118755
 31
0.0
  0
LINE
  5
F631
  8
0
 10
346.36701881112941
 20
888.63538979118755
 30
0.0
 11
334.36701881112953
 21
888.63538979118755
 31
0.0
  0
LINE
  5
F632
  8
0
 10
348.36701881112941
 20
890.63538979118766
 30
0.0
 11
346.36701881112941
 21
888.63538979118755
 31
0.0
  0
ARC
  5
F633
  8
0
 10
352.36701881112953
 20
958.63538979118766
 30
0.0
 40
4.0
 50
180.0
 51
270.0
  0
LINE
  5
F634
  8
0
 10
379.20195530166859
 20
954.63538979118755
 30
0.0
 11
352.36701881112953
 21
954.63538979118755
 31
0.0
  0
LINE
  5
F635
  8
0
 10
348.36701881112953
 20
986.63538979118755
 30
0.0
 11
348.36701881112953
 21
890.63538979118766
 31
0.0
  0
LINE
  5
F636
  8
0
 10
346.36701881112953
 20
988.63538979118755
 30
0.0
 11
334.36701881112953
 21
988.63538979118755
 31
0.0
  0
LINE
  5
F637
  8
0
 10
348.36701881112953
 20
986.63538979118755
 30
0.0
 11
346.36701881112953
 21
988.63538979118755
 31
0.0
  0
LINE
  5
F638
  8
0
 10
379.20195530166859
 20
954.63538979118755
 30
0.0
 11
379.20195530166859
 21
922.63538979118755
 31
0.0
  0
ARC
  5
F639
  8
0
 10
382.11701881112828
 20
951.07916304099945
 30
0.0
 40
4.598297941949661
 50
50.658291231509317
 51
129.3417087684696
  0
ARC
  5
F63A
  8
0
 10
382.11701881112788
 20
926.19161654137565
 30
0.0
 40
4.598297941949661
 50
230.6582912315304
 51
309.34170876849061
  0
LINE
  5
F63B
  8
0
 10
385.03208232058978
 20
954.63538979118618
 30
0.0
 11
385.0320823205895
 21
922.63538979118903
 31
0.0
  0
LINE
  5
F63C
  8
0
 10
346.36701881112953
 20
988.63538979118755
 30
0.0
 11
346.36701881112941
 21
888.63538979118755
 31
0.0
  0
LINE
  5
F63D
  8
0
 10
584.36701881112947
 20
988.63538979118755
 30
0.0
 11
584.36701881112947
 21
888.63538979118755
 31
0.0
  0
ARC
  5
F63E
  8
0
 10
566.36701881112958
 20
918.63538979118755
 30
0.0
 40
4.0
 50
0.0
 51
90.0
  0
LINE
  5
F63F
  8
0
 10
539.53208232059046
 20
922.63538979118755
 30
0.0
 11
566.36701881112958
 21
922.63538979118755
 31
0.0
  0
LINE
  5
F640
  8
0
 10
572.36701881112947
 20
888.63538979118755
 30
0.0
 11
584.36701881112947
 21
888.63538979118755
 31
0.0
  0
LINE
  5
F641
  8
0
 10
570.36701881112958
 20
890.63538979118766
 30
0.0
 11
572.36701881112947
 21
888.63538979118755
 31
0.0
  0
ARC
  5
F642
  8
0
 10
566.36701881112958
 20
958.63538979118766
 30
0.0
 40
4.0
 50
270.0
 51
0.0
  0
LINE
  5
F643
  8
0
 10
539.53208232059046
 20
954.63538979118755
 30
0.0
 11
566.36701881112958
 21
954.63538979118755
 31
0.0
  0
LINE
  5
F644
  8
0
 10
570.36701881112958
 20
986.63538979118755
 30
0.0
 11
570.36701881112958
 21
890.63538979118766
 31
0.0
  0
LINE
  5
F645
  8
0
 10
572.36701881112947
 20
988.63538979118755
 30
0.0
 11
584.36701881112947
 21
988.63538979118755
 31
0.0
  0
LINE
  5
F646
  8
0
 10
570.36701881112958
 20
986.63538979118755
 30
0.0
 11
572.36701881112947
 21
988.63538979118755
 31
0.0
  0
LINE
  5
F647
  8
0
 10
539.53208232059046
 20
954.63538979118755
 30
0.0
 11
539.53208232059046
 21
922.63538979118755
 31
0.0
  0
ARC
  5
F648
  8
0
 10
536.61701881113072
 20
951.07916304099945
 30
0.0
 40
4.598297941949661
 50
50.658291231533298
 51
129.3417087685001
  0
ARC
  5
F649
  8
0
 10
536.61701881113106
 20
926.19161654137565
 30
0.0
 40
4.598297941949661
 50
230.6582912314997
 51
309.34170876846667
  0
LINE
  5
F64A
  8
0
 10
572.36701881112947
 20
988.63538979118755
 30
0.0
 11
572.36701881112947
 21
888.63538979118755
 31
0.0
  0
LINE
  5
F64B
  8
0
 10
533.70195530166905
 20
954.63538979118596
 30
0.0
 11
533.70195530167121
 21
922.63538979118755
 31
0.0
  0
LINE
  5
F64C
  8
0
 10
400.36701881113032
 20
929.63538979118925
 30
0.0
 11
388.36701881113032
 21
929.63538979118925
 31
0.0
  0
ARC
  5
F64D
  8
0
 10
400.36701881113032
 20
931.13538979118925
 30
0.0
 40
1.4999999999999989
 50
270.0
 51
0.0
  0
LINE
  5
F64E
  8
0
 10
400.36701881113032
 20
947.63538979118914
 30
0.0
 11
388.36701881113032
 21
947.63538979118914
 31
0.0
  0
ARC
  5
F64F
  8
0
 10
400.36701881113032
 20
946.13538979118925
 30
0.0
 40
1.4999999999999989
 50
0.0
 51
90.0
  0
LINE
  5
F650
  8
0
 10
401.86701881113032
 20
946.13538979118925
 30
0.0
 11
401.86701881113032
 21
931.13538979118925
 31
0.0
  0
LINE
  5
F651
  8
0
 10
386.86701881113032
 20
946.13538979118925
 30
0.0
 11
386.86701881113032
 21
931.13538979118925
 31
0.0
  0
ARC
  5
F652
  8
0
 10
388.36701881113032
 20
931.13538979118925
 30
0.0
 40
1.4999999999999989
 50
180.0
 51
270.0
  0
ARC
  5
F653
  8
0
 10
388.36701881113032
 20
946.13538979118925
 30
0.0
 40
1.4999999999999989
 50
90.0
 51
180.0
  0
LINE
  5
F65B
  8
0
 10
520.98405276272524
 20
762.89796285674061
 30
0.0
 11
543.8670188111297
 21
762.89796285674061
 31
0.0
  0
LINE
  5
F65C
  8
0
 10
546.70195530166961
 20
736.38679007698136
 30
0.0
 11
546.70195530166961
 21
723.89796285674186
 31
0.0
  0
CIRCLE
  5
F65D
  8
0
 10
767.23949675961182
 20
513.97581363154711
 30
0.0
 40
7.5
  0
CIRCLE
  5
F65E
  8
0
 10
767.23949675961182
 20
460.94280504255602
 30
0.0
 40
7.5
  0
CIRCLE
  5
F65F
  8
0
 10
740.72299246511625
 20
487.45930933705148
 30
0.0
 40
50.0
  0
CIRCLE
  5
F660
  8
0
 10
714.20648817062067
 20
513.97581363154711
 30
0.0
 40
7.5
  0
CIRCLE
  5
F661
  8
0
 10
714.20648817062067
 20
460.94280504255602
 30
0.0
 40
7.5
  0
POLYLINE
  5
F662
  8
0
 10
723.06886528139898
 20
440.6797006022498
 30
0.0
 66
     1
 70
     8
  0
VERTEX
  8
0
  5
FB84
 10
723.069
 20
440.680
 30
0.000000
  70
    32
  0
VERTEX
  8
0
  5
FB85
 10
723.018
 20
440.603
 30
0.000000
  70
    32
  0
VERTEX
  8
0
  5
FB86
 10
722.968
 20
440.527
 30
0.000000
  70
    32
  0
VERTEX
  8
0
  5
FB87
 10
722.918
 20
440.450
 30
0.000000
  70
    32
  0
VERTEX
  8
0
  5
FB88
 10
722.868
 20
440.373
 30
0.000000
  70
    32
  0
VERTEX
  8
0
  5
FB89
 10
722.819
 20
440.296
 30
0.000000
  70
    32
  0
VERTEX
  8
0
  5
FB8A
 10
722.770
 20
440.218
 30
0.000000
  70
    32
  0
VERTEX
  8
0
  5
FB8B
 10
722.722
 20
440.141
 30
0.000000
  70
    32
  0
VERTEX
  8
0
  5
FB8C
 10
722.673
 20
440.063
 30
0.000000
  70
    32
  0
VERTEX
  8
0
  5
FB8D
 10
722.626
 20
439.985
 30
0.000000
  70
    32
  0
VERTEX
  8
0
  5
FB8E
 10
722.578
 20
439.907
 30
0.000000
  70
    32
  0
VERTEX
  8
0
  5
FB8F
 10
722.531
 20
439.828
 30
0.000000
  70
    32
  0
VERTEX
  8
0
  5
FB90
 10
722.484
 20
439.749
 30
0.000000
  70
    32
  0
VERTEX
  8
0
  5
FB91
 10
722.438
 20
439.671
 30
0.000000
  70
    32
  0
VERTEX
  8
0
  5
FB92
 10
722.392
 20
439.592
 30
0.000000
  70
    32
  0
VERTEX
  8
0
  5
FB93
 10
722.346
 20
439.512
 30
0.000000
  70
    32
  0
VERTEX
  8
0
  5
FB94
 10
722.301
 20
439.433
 30
0.000000
  70
    32
  0
VERTEX
  8
0
  5
FB95
 10
722.256
 20
439.353
 30
0.000000
  70
    32
  0
VERTEX
  8
0
  5
FB96
 10
722.212
 20
439.273
 30
0.000000
  70
    32
  0
VERTEX
  8
0
  5
FB97
 10
722.168
 20
439.193
 30
0.000000
  70
    32
  0
VERTEX
  8
0
  5
FB98
 10
722.124
 20
439.113
 30
0.000000
  70
    32
  0
VERTEX
  8
0
  5
FB99
 10
722.080
 20
439.033
 30
0.000000
  70
    32
  0
VERTEX
  8
0
  5
FB9A
 10
722.037
 20
438.952
 30
0.000000
  70
    32
  0
VERTEX
  8
0
  5
FB9B
 10
721.995
 20
438.871
 30
0.000000
  70
    32
  0
VERTEX
  8
0
  5
FB9C
 10
721.952
 20
438.790
 30
0.000000
  70
    32
  0
VERTEX
  8
0
  5
FB9D
 10
721.911
 20
438.709
 30
0.000000
  70
    32
  0
VERTEX
  8
0
  5
FB9E
 10
721.869
 20
438.628
 30
0.000000
  70
    32
  0
VERTEX
  8
0
  5
FB9F
 10
721.828
 20
438.546
 30
0.000000
  70
    32
  0
VERTEX
  8
0
  5
FBA0
 10
721.787
 20
438.465
 30
0.000000
  70
    32
  0
VERTEX
  8
0
  5
FBA1
 10
721.747
 20
438.383
 30
0.000000
  70
    32
  0
VERTEX
  8
0
  5
FBA2
 10
721.707
 20
438.301
 30
0.000000
  70
    32
  0
VERTEX
  8
0
  5
FBA3
 10
721.667
 20
438.218
 30
0.000000
  70
    32
  0
VERTEX
  8
0
  5
FBA4
 10
721.628
 20
438.136
 30
0.000000
  70
    32
  0
VERTEX
  8
0
  5
FBA5
 10
721.589
 20
438.054
 30
0.000000
  70
    32
  0
VERTEX
  8
0
  5
FBA6
 10
721.550
 20
437.971
 30
0.000000
  70
    32
  0
VERTEX
  8
0
  5
FBA7
 10
721.512
 20
437.888
 30
0.000000
  70
    32
  0
VERTEX
  8
0
  5
FBA8
 10
721.475
 20
437.805
 30
0.000000
  70
    32
  0
VERTEX
  8
0
  5
FBA9
 10
721.437
 20
437.722
 30
0.000000
  70
    32
  0
VERTEX
  8
0
  5
FBAA
 10
721.400
 20
437.638
 30
0.000000
  70
    32
  0
VERTEX
  8
0
  5
FBAB
 10
721.364
 20
437.555
 30
0.000000
  70
    32
  0
VERTEX
  8
0
  5
FBAC
 10
721.327
 20
437.471
 30
0.000000
  70
    32
  0
VERTEX
  8
0
  5
FBAD
 10
721.292
 20
437.387
 30
0.000000
  70
    32
  0
VERTEX
  8
0
  5
FBAE
 10
721.256
 20
437.303
 30
0.000000
  70
    32
  0
VERTEX
  8
0
  5
FBAF
 10
721.221
 20
437.219
 30
0.000000
  70
    32
  0
VERTEX
  8
0
  5
FBB0
 10
721.187
 20
437.135
 30
0.000000
  70
    32
  0
VERTEX
  8
0
  5
FBB1
 10
721.152
 20
437.050
 30
0.000000
  70
    32
  0
VERTEX
  8
0
  5
FBB2
 10
721.119
 20
436.966
 30
0.000000
  70
    32
  0
VERTEX
  8
0
  5
FBB3
 10
721.085
 20
436.881
 30
0.000000
  70
    32
  0
VERTEX
  8
0
  5
FBB4
 10
721.052
 20
436.796
 30
0.000000
  70
    32
  0
VERTEX
  8
0
  5
FBB5
 10
721.019
 20
436.711
 30
0.000000
  70
    32
  0
VERTEX
  8
0
  5
FBB6
 10
720.987
 20
436.626
 30
0.000000
  70
    32
  0
VERTEX
  8
0
  5
FBB7
 10
720.955
 20
436.541
 30
0.000000
  70
    32
  0
VERTEX
  8
0
  5
FBB8
 10
720.924
 20
436.455
 30
0.000000
  70
    32
  0
VERTEX
  8
0
  5
FBB9
 10
720.893
 20
436.370
 30
0.000000
  70
    32
  0
VERTEX
  8
0
  5
FBBA
 10
720.862
 20
436.284
 30
0.000000
  70
    32
  0
VERTEX
  8
0
  5
FBBB
 10
720.832
 20
436.198
 30
0.000000
  70
    32
  0
VERTEX
  8
0
  5
FBBC
 10
720.802
 20
436.112
 30
0.000000
  70
    32
  0
VERTEX
  8
0
  5
FBBD
 10
720.772
 20
436.026
 30
0.000000
  70
    32
  0
VERTEX
  8
0
  5
FBBE
 10
720.743
 20
435.940
 30
0.000000
  70
    32
  0
VERTEX
  8
0
  5
FBBF
 10
720.714
 20
435.854
 30
0.000000
  70
    32
  0
VERTEX
  8
0
  5
FBC0
 10
720.686
 20
435.767
 30
0.000000
  70
    32
  0
VERTEX
  8
0
  5
FBC1
 10
720.658
 20
435.681
 30
0.000000
  70
    32
  0
VERTEX
  8
0
  5
FBC2
 10
720.631
 20
435.594
 30
0.000000
  70
    32
  0
VERTEX
  8
0
  5
FBC3
 10
720.604
 20
435.507
 30
0.000000
  70
    32
  0
VERTEX
  8
0
  5
FBC4
 10
720.577
 20
435.420
 30
0.000000
  70
    32
  0
VERTEX
  8
0
  5
FBC5
 10
720.551
 20
435.333
 30
0.000000
  70
    32
  0
VERTEX
  8
0
  5
FBC6
 10
720.525
 20
435.246
 30
0.000000
  70
    32
  0
VERTEX
  8
0
  5
FBC7
 10
720.499
 20
435.159
 30
0.000000
  70
    32
  0
VERTEX
  8
0
  5
FBC8
 10
720.474
 20
435.071
 30
0.000000
  70
    32
  0
VERTEX
  8
0
  5
FBC9
 10
720.449
 20
434.984
 30
0.000000
  70
    32
  0
VERTEX
  8
0
  5
FBCA
 10
720.425
 20
434.896
 30
0.000000
  70
    32
  0
VERTEX
  8
0
  5
FBCB
 10
720.401
 20
434.808
 30
0.000000
  70
    32
  0
VERTEX
  8
0
  5
FBCC
 10
720.378
 20
434.721
 30
0.000000
  70
    32
  0
VERTEX
  8
0
  5
FBCD
 10
720.355
 20
434.633
 30
0.000000
  70
    32
  0
VERTEX
  8
0
  5
FBCE
 10
720.332
 20
434.545
 30
0.000000
  70
    32
  0
VERTEX
  8
0
  5
FBCF
 10
720.310
 20
434.456
 30
0.000000
  70
    32
  0
VERTEX
  8
0
  5
FBD0
 10
720.288
 20
434.368
 30
0.000000
  70
    32
  0
VERTEX
  8
0
  5
FBD1
 10
720.267
 20
434.280
 30
0.000000
  70
    32
  0
VERTEX
  8
0
  5
FBD2
 10
720.246
 20
434.192
 30
0.000000
  70
    32
  0
VERTEX
  8
0
  5
FBD3
 10
720.225
 20
434.103
 30
0.000000
  70
    32
  0
VERTEX
  8
0
  5
FBD4
 10
720.205
 20
434.015
 30
0.000000
  70
    32
  0
VERTEX
  8
0
  5
FBD5
 10
720.185
 20
433.926
 30
0.000000
  70
    32
  0
VERTEX
  8
0
  5
FBD6
 10
720.166
 20
433.837
 30
0.000000
  70
    32
  0
VERTEX
  8
0
  5
FBD7
 10
720.147
 20
433.748
 30
0.000000
  70
    32
  0
VERTEX
  8
0
  5
FBD8
 10
720.128
 20
433.659
 30
0.000000
  70
    32
  0
VERTEX
  8
0
  5
FBD9
 10
720.110
 20
433.570
 30
0.000000
  70
    32
  0
VERTEX
  8
0
  5
FBDA
 10
720.092
 20
433.481
 30
0.000000
  70
    32
  0
VERTEX
  8
0
  5
FBDB
 10
720.075
 20
433.392
 30
0.000000
  70
    32
  0
VERTEX
  8
0
  5
FBDC
 10
720.058
 20
433.303
 30
0.000000
  70
    32
  0
VERTEX
  8
0
  5
FBDD
 10
720.041
 20
433.214
 30
0.000000
  70
    32
  0
VERTEX
  8
0
  5
FBDE
 10
720.025
 20
433.124
 30
0.000000
  70
    32
  0
VERTEX
  8
0
  5
FBDF
 10
720.010
 20
433.035
 30
0.000000
  70
    32
  0
VERTEX
  8
0
  5
FBE0
 10
719.994
 20
432.946
 30
0.000000
  70
    32
  0
VERTEX
  8
0
  5
FBE1
 10
719.980
 20
432.856
 30
0.000000
  70
    32
  0
VERTEX
  8
0
  5
FBE2
 10
719.965
 20
432.766
 30
0.000000
  70
    32
  0
VERTEX
  8
0
  5
FBE3
 10
719.951
 20
432.677
 30
0.000000
  70
    32
  0
VERTEX
  8
0
  5
FBE4
 10
719.938
 20
432.587
 30
0.000000
  70
    32
  0
VERTEX
  8
0
  5
FBE5
 10
719.924
 20
432.497
 30
0.000000
  70
    32
  0
VERTEX
  8
0
  5
FBE6
 10
719.912
 20
432.407
 30
0.000000
  70
    32
  0
VERTEX
  8
0
  5
FBE7
 10
719.899
 20
432.317
 30
0.000000
  70
    32
  0
VERTEX
  8
0
  5
FBE8
 10
719.887
 20
432.227
 30
0.000000
  70
    32
  0
VERTEX
  8
0
  5
FBE9
 10
719.876
 20
432.137
 30
0.000000
  70
    32
  0
VERTEX
  8
0
  5
FBEA
 10
719.865
 20
432.047
 30
0.000000
  70
    32
  0
VERTEX
  8
0
  5
FBEB
 10
719.854
 20
431.957
 30
0.000000
  70
    32
  0
VERTEX
  8
0
  5
FBEC
 10
719.844
 20
431.867
 30
0.000000
  70
    32
  0
VERTEX
  8
0
  5
FBED
 10
719.834
 20
431.777
 30
0.000000
  70
    32
  0
VERTEX
  8
0
  5
FBEE
 10
719.824
 20
431.687
 30
0.000000
  70
    32
  0
VERTEX
  8
0
  5
FBEF
 10
719.815
 20
431.596
 30
0.000000
  70
    32
  0
VERTEX
  8
0
  5
FBF0
 10
719.807
 20
431.506
 30
0.000000
  70
    32
  0
VERTEX
  8
0
  5
FBF1
 10
719.799
 20
431.416
 30
0.000000
  70
    32
  0
VERTEX
  8
0
  5
FBF2
 10
719.791
 20
431.325
 30
0.000000
  70
    32
  0
VERTEX
  8
0
  5
FBF3
 10
719.784
 20
431.235
 30
0.000000
  70
    32
  0
VERTEX
  8
0
  5
FBF4
 10
719.777
 20
431.145
 30
0.000000
  70
    32
  0
VERTEX
  8
0
  5
FBF5
 10
719.770
 20
431.054
 30
0.000000
  70
    32
  0
VERTEX
  8
0
  5
FBF6
 10
719.764
 20
430.964
 30
0.000000
  70
    32
  0
VERTEX
  8
0
  5
FBF7
 10
719.758
 20
430.873
 30
0.000000
  70
    32
  0
VERTEX
  8
0
  5
FBF8
 10
719.753
 20
430.783
 30
0.000000
  70
    32
  0
VERTEX
  8
0
  5
FBF9
 10
719.748
 20
430.692
 30
0.000000
  70
    32
  0
VERTEX
  8
0
  5
FBFA
 10
719.744
 20
430.601
 30
0.000000
  70
    32
  0
VERTEX
  8
0
  5
FBFB
 10
719.740
 20
430.511
 30
0.000000
  70
    32
  0
VERTEX
  8
0
  5
FBFC
 10
719.736
 20
430.420
 30
0.000000
  70
    32
  0
VERTEX
  8
0
  5
FBFD
 10
719.733
 20
430.330
 30
0.000000
  70
    32
  0
VERTEX
  8
0
  5
FBFE
 10
719.731
 20
430.239
 30
0.000000
  70
    32
  0
VERTEX
  8
0
  5
FBFF
 10
719.728
 20
430.148
 30
0.000000
  70
    32
  0
VERTEX
  8
0
  5
FC00
 10
719.726
 20
430.058
 30
0.000000
  70
    32
  0
VERTEX
  8
0
  5
FC01
 10
719.725
 20
429.967
 30
0.000000
  70
    32
  0
VERTEX
  8
0
  5
FC02
 10
719.724
 20
429.876
 30
0.000000
  70
    32
  0
VERTEX
  8
0
  5
FC03
 10
719.723
 20
429.785
 30
0.000000
  70
    32
  0
VERTEX
  8
0
  5
FC04
 10
719.723
 20
429.695
 30
0.000000
  70
    32
  0
SEQEND
  8
0
  5
FC05
  0
POLYLINE
  5
F663
  8
0
 10
725.29199382922945
 20
439.9000380947453
 30
0.0
 66
     1
 70
     8
  0
VERTEX
  8
0
  5
FC06
 10
725.292
 20
439.900
 30
0.000000
  70
    32
  0
VERTEX
  8
0
  5
FC07
 10
725.161
 20
439.761
 30
0.000000
  70
    32
  0
VERTEX
  8
0
  5
FC08
 10
725.031
 20
439.622
 30
0.000000
  70
    32
  0
VERTEX
  8
0
  5
FC09
 10
724.902
 20
439.481
 30
0.000000
  70
    32
  0
VERTEX
  8
0
  5
FC0A
 10
724.775
 20
439.339
 30
0.000000
  70
    32
  0
VERTEX
  8
0
  5
FC0B
 10
724.649
 20
439.195
 30
0.000000
  70
    32
  0
VERTEX
  8
0
  5
FC0C
 10
724.525
 20
439.051
 30
0.000000
  70
    32
  0
VERTEX
  8
0
  5
FC0D
 10
724.402
 20
438.906
 30
0.000000
  70
    32
  0
VERTEX
  8
0
  5
FC0E
 10
724.280
 20
438.759
 30
0.000000
  70
    32
  0
VERTEX
  8
0
  5
FC0F
 10
724.160
 20
438.611
 30
0.000000
  70
    32
  0
VERTEX
  8
0
  5
FC10
 10
724.041
 20
438.463
 30
0.000000
  70
    32
  0
VERTEX
  8
0
  5
FC11
 10
723.924
 20
438.313
 30
0.000000
  70
    32
  0
VERTEX
  8
0
  5
FC12
 10
723.808
 20
438.162
 30
0.000000
  70
    32
  0
VERTEX
  8
0
  5
FC13
 10
723.693
 20
438.010
 30
0.000000
  70
    32
  0
VERTEX
  8
0
  5
FC14
 10
723.580
 20
437.857
 30
0.000000
  70
    32
  0
VERTEX
  8
0
  5
FC15
 10
723.468
 20
437.704
 30
0.000000
  70
    32
  0
VERTEX
  8
0
  5
FC16
 10
723.358
 20
437.549
 30
0.000000
  70
    32
  0
VERTEX
  8
0
  5
FC17
 10
723.250
 20
437.393
 30
0.000000
  70
    32
  0
VERTEX
  8
0
  5
FC18
 10
723.143
 20
437.236
 30
0.000000
  70
    32
  0
VERTEX
  8
0
  5
FC19
 10
723.037
 20
437.078
 30
0.000000
  70
    32
  0
VERTEX
  8
0
  5
FC1A
 10
722.933
 20
436.920
 30
0.000000
  70
    32
  0
VERTEX
  8
0
  5
FC1B
 10
722.830
 20
436.760
 30
0.000000
  70
    32
  0
VERTEX
  8
0
  5
FC1C
 10
722.729
 20
436.600
 30
0.000000
  70
    32
  0
VERTEX
  8
0
  5
FC1D
 10
722.630
 20
436.438
 30
0.000000
  70
    32
  0
VERTEX
  8
0
  5
FC1E
 10
722.532
 20
436.276
 30
0.000000
  70
    32
  0
VERTEX
  8
0
  5
FC1F
 10
722.435
 20
436.113
 30
0.000000
  70
    32
  0
VERTEX
  8
0
  5
FC20
 10
722.341
 20
435.949
 30
0.000000
  70
    32
  0
VERTEX
  8
0
  5
FC21
 10
722.247
 20
435.784
 30
0.000000
  70
    32
  0
VERTEX
  8
0
  5
FC22
 10
722.156
 20
435.618
 30
0.000000
  70
    32
  0
VERTEX
  8
0
  5
FC23
 10
722.066
 20
435.452
 30
0.000000
  70
    32
  0
VERTEX
  8
0
  5
FC24
 10
721.977
 20
435.284
 30
0.000000
  70
    32
  0
VERTEX
  8
0
  5
FC25
 10
721.890
 20
435.116
 30
0.000000
  70
    32
  0
VERTEX
  8
0
  5
FC26
 10
721.805
 20
434.948
 30
0.000000
  70
    32
  0
VERTEX
  8
0
  5
FC27
 10
721.721
 20
434.778
 30
0.000000
  70
    32
  0
VERTEX
  8
0
  5
FC28
 10
721.639
 20
434.608
 30
0.000000
  70
    32
  0
VERTEX
  8
0
  5
FC29
 10
721.559
 20
434.437
 30
0.000000
  70
    32
  0
VERTEX
  8
0
  5
FC2A
 10
721.480
 20
434.265
 30
0.000000
  70
    32
  0
VERTEX
  8
0
  5
FC2B
 10
721.403
 20
434.092
 30
0.000000
  70
    32
  0
VERTEX
  8
0
  5
FC2C
 10
721.328
 20
433.919
 30
0.000000
  70
    32
  0
VERTEX
  8
0
  5
FC2D
 10
721.254
 20
433.745
 30
0.000000
  70
    32
  0
VERTEX
  8
0
  5
FC2E
 10
721.182
 20
433.571
 30
0.000000
  70
    32
  0
VERTEX
  8
0
  5
FC2F
 10
721.112
 20
433.396
 30
0.000000
  70
    32
  0
VERTEX
  8
0
  5
FC30
 10
721.043
 20
433.220
 30
0.000000
  70
    32
  0
VERTEX
  8
0
  5
FC31
 10
720.976
 20
433.044
 30
0.000000
  70
    32
  0
VERTEX
  8
0
  5
FC32
 10
720.911
 20
432.867
 30
0.000000
  70
    32
  0
VERTEX
  8
0
  5
FC33
 10
720.847
 20
432.689
 30
0.000000
  70
    32
  0
VERTEX
  8
0
  5
FC34
 10
720.785
 20
432.511
 30
0.000000
  70
    32
  0
VERTEX
  8
0
  5
FC35
 10
720.725
 20
432.333
 30
0.000000
  70
    32
  0
VERTEX
  8
0
  5
FC36
 10
720.666
 20
432.153
 30
0.000000
  70
    32
  0
VERTEX
  8
0
  5
FC37
 10
720.610
 20
431.974
 30
0.000000
  70
    32
  0
VERTEX
  8
0
  5
FC38
 10
720.555
 20
431.794
 30
0.000000
  70
    32
  0
VERTEX
  8
0
  5
FC39
 10
720.501
 20
431.613
 30
0.000000
  70
    32
  0
VERTEX
  8
0
  5
FC3A
 10
720.450
 20
431.432
 30
0.000000
  70
    32
  0
VERTEX
  8
0
  5
FC3B
 10
720.400
 20
431.250
 30
0.000000
  70
    32
  0
VERTEX
  8
0
  5
FC3C
 10
720.352
 20
431.068
 30
0.000000
  70
    32
  0
VERTEX
  8
0
  5
FC3D
 10
720.305
 20
430.886
 30
0.000000
  70
    32
  0
VERTEX
  8
0
  5
FC3E
 10
720.261
 20
430.703
 30
0.000000
  70
    32
  0
VERTEX
  8
0
  5
FC3F
 10
720.218
 20
430.520
 30
0.000000
  70
    32
  0
VERTEX
  8
0
  5
FC40
 10
720.177
 20
430.336
 30
0.000000
  70
    32
  0
VERTEX
  8
0
  5
FC41
 10
720.138
 20
430.152
 30
0.000000
  70
    32
  0
VERTEX
  8
0
  5
FC42
 10
720.100
 20
429.968
 30
0.000000
  70
    32
  0
VERTEX
  8
0
  5
FC43
 10
720.064
 20
429.783
 30
0.000000
  70
    32
  0
VERTEX
  8
0
  5
FC44
 10
720.030
 20
429.598
 30
0.000000
  70
    32
  0
VERTEX
  8
0
  5
FC45
 10
719.998
 20
429.413
 30
0.000000
  70
    32
  0
VERTEX
  8
0
  5
FC46
 10
719.967
 20
429.227
 30
0.000000
  70
    32
  0
VERTEX
  8
0
  5
FC47
 10
719.939
 20
429.042
 30
0.000000
  70
    32
  0
VERTEX
  8
0
  5
FC48
 10
719.912
 20
428.856
 30
0.000000
  70
    32
  0
VERTEX
  8
0
  5
FC49
 10
719.887
 20
428.669
 30
0.000000
  70
    32
  0
VERTEX
  8
0
  5
FC4A
 10
719.863
 20
428.483
 30
0.000000
  70
    32
  0
VERTEX
  8
0
  5
FC4B
 10
719.842
 20
428.296
 30
0.000000
  70
    32
  0
VERTEX
  8
0
  5
FC4C
 10
719.822
 20
428.109
 30
0.000000
  70
    32
  0
VERTEX
  8
0
  5
FC4D
 10
719.804
 20
427.922
 30
0.000000
  70
    32
  0
VERTEX
  8
0
  5
FC4E
 10
719.788
 20
427.735
 30
0.000000
  70
    32
  0
VERTEX
  8
0
  5
FC4F
 10
719.774
 20
427.548
 30
0.000000
  70
    32
  0
VERTEX
  8
0
  5
FC50
 10
719.761
 20
427.360
 30
0.000000
  70
    32
  0
VERTEX
  8
0
  5
FC51
 10
719.750
 20
427.173
 30
0.000000
  70
    32
  0
VERTEX
  8
0
  5
FC52
 10
719.741
 20
426.985
 30
0.000000
  70
    32
  0
VERTEX
  8
0
  5
FC53
 10
719.734
 20
426.797
 30
0.000000
  70
    32
  0
VERTEX
  8
0
  5
FC54
 10
719.729
 20
426.609
 30
0.000000
  70
    32
  0
VERTEX
  8
0
  5
FC55
 10
719.725
 20
426.422
 30
0.000000
  70
    32
  0
VERTEX
  8
0
  5
FC56
 10
719.723
 20
426.234
 30
0.000000
  70
    32
  0
VERTEX
  8
0
  5
FC57
 10
719.723
 20
426.046
 30
0.000000
  70
    32
  0
VERTEX
  8
0
  5
FC58
 10
719.725
 20
425.858
 30
0.000000
  70
    32
  0
VERTEX
  8
0
  5
FC59
 10
719.729
 20
425.670
 30
0.000000
  70
    32
  0
VERTEX
  8
0
  5
FC5A
 10
719.734
 20
425.483
 30
0.000000
  70
    32
  0
VERTEX
  8
0
  5
FC5B
 10
719.741
 20
425.295
 30
0.000000
  70
    32
  0
VERTEX
  8
0
  5
FC5C
 10
719.750
 20
425.107
 30
0.000000
  70
    32
  0
VERTEX
  8
0
  5
FC5D
 10
719.761
 20
424.920
 30
0.000000
  70
    32
  0
VERTEX
  8
0
  5
FC5E
 10
719.774
 20
424.732
 30
0.000000
  70
    32
  0
VERTEX
  8
0
  5
FC5F
 10
719.788
 20
424.545
 30
0.000000
  70
    32
  0
VERTEX
  8
0
  5
FC60
 10
719.804
 20
424.358
 30
0.000000
  70
    32
  0
VERTEX
  8
0
  5
FC61
 10
719.822
 20
424.171
 30
0.000000
  70
    32
  0
VERTEX
  8
0
  5
FC62
 10
719.842
 20
423.984
 30
0.000000
  70
    32
  0
VERTEX
  8
0
  5
FC63
 10
719.864
 20
423.797
 30
0.000000
  70
    32
  0
VERTEX
  8
0
  5
FC64
 10
719.887
 20
423.611
 30
0.000000
  70
    32
  0
VERTEX
  8
0
  5
FC65
 10
719.912
 20
423.424
 30
0.000000
  70
    32
  0
VERTEX
  8
0
  5
FC66
 10
719.939
 20
423.238
 30
0.000000
  70
    32
  0
VERTEX
  8
0
  5
FC67
 10
719.968
 20
423.052
 30
0.000000
  70
    32
  0
VERTEX
  8
0
  5
FC68
 10
719.998
 20
422.867
 30
0.000000
  70
    32
  0
VERTEX
  8
0
  5
FC69
 10
720.031
 20
422.682
 30
0.000000
  70
    32
  0
VERTEX
  8
0
  5
FC6A
 10
720.065
 20
422.497
 30
0.000000
  70
    32
  0
VERTEX
  8
0
  5
FC6B
 10
720.101
 20
422.312
 30
0.000000
  70
    32
  0
VERTEX
  8
0
  5
FC6C
 10
720.138
 20
422.128
 30
0.000000
  70
    32
  0
VERTEX
  8
0
  5
FC6D
 10
720.178
 20
421.944
 30
0.000000
  70
    32
  0
VERTEX
  8
0
  5
FC6E
 10
720.219
 20
421.760
 30
0.000000
  70
    32
  0
VERTEX
  8
0
  5
FC6F
 10
720.262
 20
421.577
 30
0.000000
  70
    32
  0
VERTEX
  8
0
  5
FC70
 10
720.306
 20
421.394
 30
0.000000
  70
    32
  0
VERTEX
  8
0
  5
FC71
 10
720.353
 20
421.212
 30
0.000000
  70
    32
  0
VERTEX
  8
0
  5
FC72
 10
720.401
 20
421.030
 30
0.000000
  70
    32
  0
VERTEX
  8
0
  5
FC73
 10
720.451
 20
420.848
 30
0.000000
  70
    32
  0
VERTEX
  8
0
  5
FC74
 10
720.502
 20
420.667
 30
0.000000
  70
    32
  0
VERTEX
  8
0
  5
FC75
 10
720.556
 20
420.486
 30
0.000000
  70
    32
  0
VERTEX
  8
0
  5
FC76
 10
720.611
 20
420.306
 30
0.000000
  70
    32
  0
VERTEX
  8
0
  5
FC77
 10
720.668
 20
420.127
 30
0.000000
  70
    32
  0
VERTEX
  8
0
  5
FC78
 10
720.726
 20
419.947
 30
0.000000
  70
    32
  0
VERTEX
  8
0
  5
FC79
 10
720.786
 20
419.769
 30
0.000000
  70
    32
  0
VERTEX
  8
0
  5
FC7A
 10
720.848
 20
419.591
 30
0.000000
  70
    32
  0
VERTEX
  8
0
  5
FC7B
 10
720.912
 20
419.413
 30
0.000000
  70
    32
  0
VERTEX
  8
0
  5
FC7C
 10
720.977
 20
419.236
 30
0.000000
  70
    32
  0
VERTEX
  8
0
  5
FC7D
 10
721.044
 20
419.060
 30
0.000000
  70
    32
  0
VERTEX
  8
0
  5
FC7E
 10
721.113
 20
418.884
 30
0.000000
  70
    32
  0
VERTEX
  8
0
  5
FC7F
 10
721.183
 20
418.709
 30
0.000000
  70
    32
  0
VERTEX
  8
0
  5
FC80
 10
721.256
 20
418.535
 30
0.000000
  70
    32
  0
VERTEX
  8
0
  5
FC81
 10
721.329
 20
418.361
 30
0.000000
  70
    32
  0
VERTEX
  8
0
  5
FC82
 10
721.405
 20
418.188
 30
0.000000
  70
    32
  0
VERTEX
  8
0
  5
FC83
 10
721.482
 20
418.015
 30
0.000000
  70
    32
  0
VERTEX
  8
0
  5
FC84
 10
721.561
 20
417.844
 30
0.000000
  70
    32
  0
VERTEX
  8
0
  5
FC85
 10
721.641
 20
417.672
 30
0.000000
  70
    32
  0
VERTEX
  8
0
  5
FC86
 10
721.723
 20
417.502
 30
0.000000
  70
    32
  0
SEQEND
  8
0
  5
FC87
  0
LINE
  5
F664
  8
0
 10
785.11893822596267
 20
510.4593093370512
 30
0.0
 11
794.45504327268509
 21
510.45930933705131
 31
0.0
  0
LINE
  5
F665
  8
0
 10
785.11893822596255
 20
510.45930933705148
 30
0.0
 11
794.51428031259411
 21
510.45930933705142
 31
0.0
  0
LINE
  5
F666
  8
0
 10
131.22217584577601
 20
522.45930933705097
 30
0.0
 11
114.92931798849069
 21
522.45930933705097
 31
0.0
  0
LINE
  5
F667
  8
0
 10
122.53337222764441
 20
510.4593093370512
 30
0.0
 11
113.1972671809219
 21
510.45930933705131
 31
0.0
  0
LINE
  5
F668
  8
0
 10
122.53337222764451
 20
510.45930933705148
 30
0.0
 11
113.13803014101291
 21
510.45930933705142
 31
0.0
  0
LINE
  5
F670
  8
0
 10
1170.8370253370881
 20
510.45930933705171
 30
0.0
 11
1313.8370253370881
 21
510.45930933705171
 31
0.0
  0
LINE
  5
F671
  8
0
 10
1171.3370253370881
 20
478.45930933705148
 30
0.0
 11
1183.3370253370881
 21
478.45930933705148
 31
0.0
  0
ARC
  5
F672
  8
0
 10
1171.3370253370881
 20
479.95930933705148
 30
0.0
 40
1.4999999999999989
 50
180.0
 51
270.0
  0
LINE
  5
F673
  8
0
 10
1171.3370253370881
 20
496.45930933705148
 30
0.0
 11
1183.3370253370881
 21
496.45930933705148
 31
0.0
  0
ARC
  5
F674
  8
0
 10
1171.3370253370881
 20
494.95930933705148
 30
0.0
 40
1.4999999999999989
 50
90.0
 51
180.0
  0
LINE
  5
F675
  8
0
 10
1181.8370253370881
 20
498.45930933705148
 30
0.0
 11
1235.8370253370881
 21
498.45930933705131
 31
0.0
  0
ARC
  5
F676
  8
0
 10
1185.3370253370881
 20
496.45930933705148
 30
0.0
 40
1.9999999999999989
 50
0.0
 51
90.0
  0
LINE
  5
F677
  8
0
 10
1235.8370253370881
 20
498.45930933705148
 30
0.0
 11
1289.8370253370881
 21
498.45930933705148
 31
0.0
  0
ARC
  5
F678
  8
0
 10
1286.3370253370881
 20
496.45930933705148
 30
0.0
 40
1.9999999999999989
 50
90.0
 51
180.0
  0
LINE
  5
F679
  8
0
 10
1193.8370253370881
 20
429.89580101015503
 30
0.0
 11
1193.8370253370881
 21
406.02281766394799
 31
0.0
  0
LINE
  5
F67A
  8
0
 10
1187.3370253370881
 20
496.45930933705148
 30
0.0
 11
1187.3370253370881
 21
474.80207547710251
 31
0.0
  0
LINE
  5
F67B
  8
0
 10
1291.837025337089
 20
510.45930933705171
 30
0.0
 11
1291.8370253370881
 21
500.45930933705148
 31
0.0
  0
ARC
  5
F67C
  8
0
 10
1289.8370253370881
 20
500.45930933705148
 30
0.0
 40
1.9999999999999989
 50
270.0
 51
0.0
  0
LINE
  5
F67D
  8
0
 10
1306.0605534273659
 20
449.3834174420121
 30
0.0
 11
1317.097299059551
 21
446.42607005136892
 31
0.0
  0
ARC
  5
F67E
  8
0
 10
1306.8370253370881
 20
452.28119096204642
 30
0.0
 40
2.9999999999999991
 50
180.0
 51
254.99970787535821
  0
LINE
  5
F67F
  8
0
 10
1268.2210895462081
 20
416.04101902842899
 30
0.0
 11
1306.226899165104
 21
405.85718534670099
 31
0.0
  0
LINE
  5
F680
  8
0
 10
1306.8392709409709
 20
406.21073627487812
 30
0.0
 11
1306.226899165104
 21
405.85718534670099
 31
0.0
  0
LINE
  5
F681
  8
0
 10
1303.8370253370881
 20
452.28119096204642
 30
0.0
 11
1303.8370253370881
 21
461.45930933705171
 31
0.0
  0
LINE
  5
F682
  8
0
 10
1193.8370253370881
 20
461.45930933705148
 30
0.0
 11
1193.8370253370881
 21
446.45930933705148
 31
0.0
  0
ARC
  5
F683
  8
0
 10
1188.8370253370881
 20
461.45930933705148
 30
0.0
 40
4.9999999999999982
 50
0.0
 51
90.0
  0
ARC
  5
F684
  8
0
 10
1294.8370253370881
 20
511.45930933705148
 30
0.0
 40
2.9999999999999991
 50
199.4712206344939
 51
270.0
  0
LINE
  5
F685
  8
0
 10
1169.8370253370881
 20
494.95930933705148
 30
0.0
 11
1169.8370253370881
 21
479.95930933705148
 31
0.0
  0
LINE
  5
F686
  8
0
 10
1184.8370253370881
 20
494.95930933705148
 30
0.0
 11
1184.8370253370881
 21
479.95930933705148
 31
0.0
  0
ARC
  5
F687
  8
0
 10
1183.3370253370881
 20
479.95930933705148
 30
0.0
 40
1.4999999999999989
 50
270.0
 51
0.0
  0
ARC
  5
F688
  8
0
 10
1183.3370253370881
 20
494.95930933705148
 30
0.0
 40
1.4999999999999989
 50
0.0
 51
90.0
  0
LINE
  5
F689
  8
0
 10
1170.8370253370881
 20
466.45930933705148
 30
0.0
 11
1188.8370253370881
 21
466.45930933705148
 31
0.0
  0
LINE
  5
F68A
  8
0
 10
1308.8370253370881
 20
466.45930933705171
 30
0.0
 11
1313.8370253370881
 21
466.45930933705171
 31
0.0
  0
ARC
  5
F68B
  8
0
 10
1308.8370253370881
 20
461.45930933705171
 30
0.0
 40
4.9999999999999982
 50
90.0
 51
180.0
  0
ARC
  5
F68C
  8
0
 10
1235.8370253370881
 20
446.45930933705148
 30
0.0
 40
41.999999999999979
 50
254.64111441918021
 51
0.0
  0
ARC
  5
F68D
  8
0
 10
1266.9269696966701
 20
411.21139649503863
 30
0.0
 40
4.9999999999999982
 50
74.999707875358226
 51
131.4134686872473
  0
ARC
  5
F68E
  8
0
 10
1235.8370253370881
 20
446.45930933705148
 30
0.0
 40
41.999999999999979
 50
180.0
 51
254.64111441918021
  0
ARC
  5
F68F
  8
0
 10
1194.29487806471
 20
431.95930933705148
 30
0.0
 40
1.9999999999999989
 50
270.0
 51
19.24118876312928
  0
LINE
  5
F690
  8
0
 10
1224.712727606445
 20
405.95930933705148
 30
0.0
 11
1194.3370253370881
 21
405.95930933705148
 31
0.0
  0
ARC
  5
F691
  8
0
 10
1194.3370253370881
 20
407.95930933705148
 30
0.0
 40
1.9999999999999989
 50
255.5224878140701
 51
270.0
  0
LINE
  5
F692
  8
0
 10
1194.29487806471
 20
429.95930933705148
 30
0.0
 11
1194.3370253370881
 21
429.95930933705148
 31
0.0
  0
ARC
  5
F693
  8
0
 10
1194.3370253370881
 20
427.95930933705148
 30
0.0
 40
1.9999999999999989
 50
90.0
 51
104.4775121859299
  0
LINE
  5
F694
  8
0
 10
1317.450851790325
 20
445.8136951532947
 30
0.0
 11
1306.8392709409709
 21
406.21073627487789
 31
0.0
  0
LINE
  5
F695
  8
0
 10
1317.097299059551
 20
446.42607005136892
 30
0.0
 11
1317.450851790325
 21
445.8136951532947
 31
0.0
  0
LINE
  5
F696
  8
0
 10
1194.3370253370881
 20
467.80207547710251
 30
0.0
 11
1277.3370253370881
 21
467.80207547710251
 31
0.0
  0
ARC
  5
F697
  8
0
 10
1194.3370253370881
 20
474.80207547710251
 30
0.0
 40
6.9999999999999973
 50
180.0
 51
270.0
  0
LINE
  5
F698
  8
0
 10
1284.3370253370881
 20
496.45930933705148
 30
0.0
 11
1284.3370253370881
 21
474.80207547710251
 31
0.0
  0
ARC
  5
F699
  8
0
 10
1277.3370253370881
 20
474.80207547710251
 30
0.0
 40
6.9999999999999973
 50
270.0
 51
0.0
  0
LINE
  5
F69A
  8
0
 10
1277.8370253370881
 20
467.81995545521818
 30
0.0
 11
1277.8370253370881
 21
446.45930933705148
 31
0.0
  0
INSERT
  5
F69B
  8
0
  2
DT-ARROW
 10
1248.3370253370881
 20
460.45930933705148
 30
0.0
 41
0.25
 42
0.2499999999999999
 43
0.2499999999999999
  0
LINE
  5
F69C
  8
0
 10
1179.8370253370881
 20
510.45930933705131
 30
0.0
 11
1179.8370253370881
 21
500.45930933705148
 31
0.0
  0
ARC
  5
F69D
  8
0
 10
1181.8370253370881
 20
500.45930933705148
 30
0.0
 40
1.9999999999999989
 50
180.0
 51
270.0
  0
LINE
  5
F69E
  8
0
 10
1317.097299059551
 20
446.42607005136892
 30
0.0
 11
1306.2266923234331
 21
405.8572407708902
 31
0.0
  0
LINE
  5
F69F
  8
0
 10
1294.8370253370881
 20
508.45930933705148
 30
0.0
 11
1313.837025337089
 21
508.45930933705131
 31
0.0
  0
LINE
  5
F6A0
  8
0
 10
1291.7303397007131
 20
731.89796285674072
 30
0.0
 11
1246.0350643642739
 21
731.89796285674072
 31
0.0
  0
LINE
  5
F6A1
  8
0
 10
1291.7303397007131
 20
747.89796285674072
 30
0.0
 11
1246.0350643642739
 21
747.89796285674072
 31
0.0
  0
LINE
  5
F6A2
  8
0
 10
1276.758067031099
 20
685.89796285674072
 30
0.0
 11
1194.9159836430781
 21
685.89796285674072
 31
0.0
  0
LINE
  5
F6A3
  8
0
 10
1276.758067031099
 20
793.89796285674072
 30
0.0
 11
1194.9159836430781
 21
793.89796285674072
 31
0.0
  0
LINE
  5
F6A4
  8
0
 10
1250.8370253370881
 20
786.89796285674038
 30
0.0
 11
1220.8370253370881
 21
786.89796285674061
 31
0.0
  0
ARC
  5
F6A5
  8
0
 10
1250.8370253370881
 20
784.89796285674049
 30
0.0
 40
2.0
 50
0.0
 51
90.0
  0
LINE
  5
F6A6
  8
0
 10
1250.8370253370881
 20
764.89796285674049
 30
0.0
 11
1220.8370253370881
 21
764.89796285674049
 31
0.0
  0
ARC
  5
F6A7
  8
0
 10
1220.8370253370881
 20
766.89796285674061
 30
0.0
 40
2.0
 50
180.0
 51
270.0
  0
ARC
  5
F6A8
  8
0
 10
991.83702533708856
 20
739.89796285674072
 30
0.0
 40
300.0
 50
351.61446135291681
 51
351.90869271399168
  0
ARC
  5
F6A9
  8
0
 10
991.83702533708856
 20
739.89796285674072
 30
0.0
 40
300.0
 50
352.28583690367481
 51
7.7141630963251204
  0
ARC
  5
F6AA
  8
0
 10
991.83702533708856
 20
739.89796285674072
 30
0.0
 40
300.0
 50
8.0913072860083357
 51
8.3855386470789988
  0
ARC
  5
F6AB
  8
0
 10
1276.758067031099
 20
697.89796285674072
 30
0.0
 40
12.0
 50
270.0
 51
351.61446135291681
  0
ARC
  5
F6AC
  8
0
 10
1276.758067031099
 20
781.89796285674072
 30
0.0
 40
12.0
 50
8.3855386470789988
 51
90.0
  0
ARC
  5
F6AD
  8
0
 10
1479.837025337089
 20
739.89796285674072
 30
0.0
 40
300.0
 50
171.61446135291681
 51
171.9086927139916
  0
ARC
  5
F6AE
  8
0
 10
1479.837025337089
 20
739.89796285674072
 30
0.0
 40
300.0
 50
172.28583690367481
 51
187.71416309632511
  0
ARC
  5
F6AF
  8
0
 10
1479.837025337089
 20
739.89796285674072
 30
0.0
 40
300.0
 50
188.09130728600829
 51
188.38553864707899
  0
ARC
  5
F6B0
  8
0
 10
1194.9159836430781
 20
697.89796285674072
 30
0.0
 40
12.0
 50
188.38553864707899
 51
270.0
  0
ARC
  5
F6B1
  8
0
 10
1194.9159836430781
 20
781.89796285674072
 30
0.0
 40
12.0
 50
90.0
 51
171.61446135292101
  0
INSERT
  5
F6B2
  8
0
  2
DT-ARROW
 10
1245.8370253370881
 20
696.89796285674072
 30
0.0
 41
0.2000000000000455
 42
0.2000000000000455
 43
0.2
  0
CIRCLE
  5
F6B3
  8
0
 10
1235.8370253370881
 20
739.89796285674072
 30
0.0
 40
12.0
  0
ARC
  5
F6B4
  8
0
 10
1246.0350643642739
 20
728.89796285674072
 30
0.0
 40
3.0
 50
90.0
 51
132.83342806606609
  0
ARC
  5
F6B5
  8
0
 10
1246.0350643642739
 20
750.89796285674072
 30
0.0
 40
3.0
 50
227.16657193393391
 51
270.0
  0
LINE
  5
F6B6
  8
0
 10
1291.837025337089
 20
534.45930933705165
 30
0.0
 11
1291.8370253370881
 21
511.45930933705159
 31
0.0
  0
ARC
  5
F6B7
  8
0
 10
1289.837025337089
 20
534.45930933705165
 30
0.0
 40
2.0
 50
0.0
 51
90.0
  0
ARC
  5
F6B8
  8
0
 10
1289.8370253370881
 20
511.45930933705159
 30
0.0
 40
2.0
 50
329.99999999999898
 51
0.0
  0
LINE
  5
F6B9
  8
0
 10
1245.8370253370881
 20
545.45930933705165
 30
0.0
 11
1225.8370253370881
 21
545.45930933705165
 31
0.0
  0
LINE
  5
F6BA
  8
0
 10
1289.837025337089
 20
536.45930933705165
 30
0.0
 11
1249.8370253370881
 21
536.45930933705142
 31
0.0
  0
ARC
  5
F6BB
  8
0
 10
1249.8370253370881
 20
538.45930933705142
 30
0.0
 40
2.0
 50
180.0
 51
270.0
  0
ARC
  5
F6BC
  8
0
 10
1218.8370253370881
 20
527.45930933705154
 30
0.0
 40
5.0
 50
270.0
 51
0.0
  0
LINE
  5
F6BD
  8
0
 10
1179.8370253370881
 20
520.45930933705165
 30
0.0
 11
1179.8370253370881
 21
511.45930933705159
 31
0.0
  0
ARC
  5
F6BE
  8
0
 10
1181.8370253370881
 20
520.45930933705154
 30
0.0
 40
2.0
 50
90.0
 51
180.0
  0
ARC
  5
F6BF
  8
0
 10
1181.8370253370881
 20
511.45930933705148
 30
0.0
 40
2.0
 50
180.0
 51
210.00000000000091
  0
LINE
  5
F6C0
  8
0
 10
1223.8370253370881
 20
543.45930933705165
 30
0.0
 11
1223.8370253370881
 21
527.45930933705165
 31
0.0
  0
LINE
  5
F6C1
  8
0
 10
1225.8370253370881
 20
545.45930933705165
 30
0.0
 11
1223.8370253370881
 21
543.45930933705165
 31
0.0
  0
LINE
  5
F6C2
  8
0
 10
1247.8370253370881
 20
543.45930933705165
 30
0.0
 11
1247.8370253370881
 21
527.45930933705154
 31
0.0
  0
LINE
  5
F6C3
  8
0
 10
1245.8370253370881
 20
545.45930933705165
 30
0.0
 11
1247.8370253370881
 21
543.45930933705165
 31
0.0
  0
LINE
  5
F6C4
  8
0
 10
1291.8370253370881
 20
522.45930933705176
 30
0.0
 11
1181.8370253370881
 21
522.45930933705165
 31
0.0
  0
LINE
  5
F6C5
  8
0
 10
1180.10497452952
 20
510.45930933705148
 30
0.0
 11
1291.5690761446569
 21
510.45930933705171
 31
0.0
  0
ARC
  5
F6C6
  8
0
 10
1252.8370253370881
 20
527.45930933705154
 30
0.0
 40
5.0
 50
180.0
 51
270.0
  0
LINE
  5
F6C7
  8
0
 10
1312.207107979772
 20
417.36112293187813
 30
0.0
 11
1319.356890945963
 21
415.44534436002931
 31
0.0
  0
LINE
  5
F6C8
  8
0
 10
1319.356890945963
 20
415.44534436002931
 30
0.0
 11
1318.336108632079
 21
411.63573290114522
 31
0.0
  0
LINE
  5
F6C9
  8
0
 10
1318.336108632079
 20
411.63573290114522
 30
0.0
 11
1311.1863256658869
 21
413.55151147299398
 31
0.0
  0
LINE
  5
F6CA
  8
0
 10
1327.5583317648641
 20
441.03458759803971
 30
0.0
 11
1326.885936967996
 21
443.5441266467783
 31
0.0
  0
LINE
  5
F6CB
  8
0
 10
1326.885936967996
 20
443.5441266467783
 30
0.0
 11
1319.7361540018039
 21
445.45990521862723
 31
0.0
  0
LINE
  5
F6CC
  8
0
 10
1319.7361540018039
 20
445.45990521862723
 30
0.0
 11
1317.899073501974
 21
443.62277804906478
 31
0.0
  0
LINE
  5
F6CD
  8
0
 10
1317.8990735019761
 20
443.62277804906711
 30
0.0
 11
1308.3228982427031
 21
407.88400543928259
 31
0.0
  0
LINE
  5
F6CE
  8
0
 10
1308.3228982427031
 20
407.88400543928259
 30
0.0
 11
1308.9952930395721
 21
405.374466390544
 31
0.0
  0
LINE
  5
F6CF
  8
0
 10
1308.9952930395721
 20
405.374466390544
 30
0.0
 11
1316.1450760057639
 21
403.45868781869518
 31
0.0
  0
LINE
  5
F6D0
  8
0
 10
1316.1450760057639
 20
403.45868781869518
 30
0.0
 11
1317.982156505594
 21
405.29581498825752
 31
0.0
  0
LINE
  5
F6D1
  8
0
 10
1317.982156505594
 20
405.29581498825752
 30
0.0
 11
1327.5583317648641
 21
441.03458759803971
 31
0.0
  0
ARC
  5
F6D2
  8
0
 10
1308.631268819418
 20
409.85407163899021
 30
0.0
 40
9.8670275484803067
 50
319.59720228553539
 51
10.40279771446685
  0
LINE
  5
F6D3
  8
0
 10
1316.524209652081
 20
433.47276571437988
 30
0.0
 11
1323.6739926182729
 21
431.55698714253111
 31
0.0
  0
LINE
  5
F6D4
  8
0
 10
1323.6739926182729
 20
431.55698714253111
 30
0.0
 11
1324.694774932158
 21
435.36659860141521
 31
0.0
  0
LINE
  5
F6D5
  8
0
 10
1324.694774932158
 20
435.36659860141521
 30
0.0
 11
1317.5449919659659
 21
437.28237717326402
 31
0.0
  0
ARC
  5
F6D6
  8
0
 10
1317.180967745812
 20
441.76198242171051
 30
0.0
 40
9.8670275484803067
 50
319.59720228553448
 51
10.402797714465439
  0
ARC
  5
F6D7
  8
0
 10
1286.7636357791209
 20
432.81288410530618
 30
0.0
 40
36.931716981134642
 50
331.9487713334932
 51
358.05122866650697
  0
LINE
  5
F6D8
  8
0
 10
1312.207107979772
 20
417.36112293187813
 30
0.0
 11
1311.1863256658869
 21
413.55151147299398
 31
0.0
  0
ARC
  5
F6D9
  8
0
 10
1318.7001328522331
 20
407.15612765269879
 30
0.0
 40
9.8670275484803067
 50
139.59720228553451
 51
190.40279771446541
  0
LINE
  5
F6DA
  8
0
 10
1316.524209652081
 20
433.47276571437988
 30
0.0
 11
1317.5449919659659
 21
437.28237717326402
 31
0.0
  0
ARC
  5
F6DB
  8
0
 10
1327.2498317786269
 20
439.06403843541909
 30
0.0
 40
9.8670275484803067
 50
139.59720228553539
 51
190.4027977144668
  0
ARC
  5
F6DC
  8
0
 10
1349.1174648189231
 20
416.105225969103
 30
0.0
 40
36.931716981134642
 50
151.948771333493
 51
178.0512286665068
  0
LINE
  5
F6DD
  8
0
 10
1308.3228982427031
 20
407.88400543928259
 30
0.0
 11
1307.356972416414
 21
408.14282448438502
 31
0.0
  0
LINE
  5
F6DE
  8
0
 10
1317.899073501974
 20
443.62277804906478
 30
0.0
 11
1316.933147675684
 21
443.88159709416738
 31
0.0
  0
LINE
  5
F6EF
  8
0
 10
1531.692998991075
 20
428.5929352343432
 30
0.0
 11
1531.692998991075
 21
426.14165541112948
 31
0.0
  0
LINE
  5
F6F0
  8
0
 10
1489.692998991075
 20
428.5929352343432
 30
0.0
 11
1489.692998991075
 21
426.14165541112948
 31
0.0
  0
LINE
  5
F6F1
  8
0
 10
1326.885936967996
 20
443.5441266467783
 30
0.0
 11
1316.1450760057639
 21
403.45868781869518
 31
0.0
  0
LINE
  5
F6F4
  8
0
 10
1491.692998991075
 20
415.44534436002931
 30
0.0
 11
1493.969998991075
 21
411.63573290114499
 31
0.0
  0
LINE
  5
F6F5
  8
0
 10
1493.969998991075
 20
411.63573290114499
 30
0.0
 11
1499.6076850583399
 21
408.85917244309348
 31
0.0
  0
LINE
  5
F6F6
  8
0
 10
1505.216916704082
 20
406.0966257879947
 30
0.0
 11
1508.415998991075
 21
404.52107772197257
 31
0.0
  0
LINE
  5
F6F9
  8
0
 10
1529.692998991075
 20
415.44534436002931
 30
0.0
 11
1527.415998991075
 21
411.63573290114499
 31
0.0
  0
LINE
  5
F6FA
  8
0
 10
1527.415998991075
 20
411.63573290114499
 30
0.0
 11
1521.7783129238101
 21
408.85917244309348
 31
0.0
  0
LINE
  5
F6FB
  8
0
 10
1516.169081278068
 20
406.0966257879947
 30
0.0
 11
1512.969998991075
 21
404.52107772197257
 31
0.0
  0
LINE
  5
F6FC
  8
0
 10
1529.692998991075
 20
427.91730735525721
 30
0.0
 11
1529.692998991075
 21
415.44534436002942
 31
0.0
  0
LINE
  5
F6FD
  8
0
 10
1491.692998991075
 20
427.91730735525732
 30
0.0
 11
1491.692998991075
 21
415.44534436002942
 31
0.0
  0
POLYLINE
  5
F704
  8
0
 10
1492.7680277301606
 20
427.58489572576502
 30
0.0
 66
     1
 70
     8
  0
VERTEX
  8
0
  5
FC88
 10
1492.77
 20
427.585
 30
0.000000
  70
    32
  0
VERTEX
  8
0
  5
FC89
 10
1492.65
 20
427.091
 30
0.000000
  70
    32
  0
VERTEX
  8
0
  5
FC8A
 10
1492.54
 20
426.593
 30
0.000000
  70
    32
  0
VERTEX
  8
0
  5
FC8B
 10
1492.44
 20
426.093
 30
0.000000
  70
    32
  0
VERTEX
  8
0
  5
FC8C
 10
1492.36
 20
425.590
 30
0.000000
  70
    32
  0
VERTEX
  8
0
  5
FC8D
 10
1492.30
 20
425.086
 30
0.000000
  70
    32
  0
VERTEX
  8
0
  5
FC8E
 10
1492.25
 20
424.580
 30
0.000000
  70
    32
  0
VERTEX
  8
0
  5
FC8F
 10
1492.22
 20
424.072
 30
0.000000
  70
    32
  0
VERTEX
  8
0
  5
FC90
 10
1492.20
 20
423.564
 30
0.000000
  70
    32
  0
VERTEX
  8
0
  5
FC91
 10
1492.19
 20
423.056
 30
0.000000
  70
    32
  0
VERTEX
  8
0
  5
FC92
 10
1492.20
 20
422.548
 30
0.000000
  70
    32
  0
VERTEX
  8
0
  5
FC93
 10
1492.23
 20
422.040
 30
0.000000
  70
    32
  0
VERTEX
  8
0
  5
FC94
 10
1492.27
 20
421.533
 30
0.000000
  70
    32
  0
VERTEX
  8
0
  5
FC95
 10
1492.33
 20
421.028
 30
0.000000
  70
    32
  0
VERTEX
  8
0
  5
FC96
 10
1492.40
 20
420.524
 30
0.000000
  70
    32
  0
VERTEX
  8
0
  5
FC97
 10
1492.48
 20
420.022
 30
0.000000
  70
    32
  0
VERTEX
  8
0
  5
FC98
 10
1492.58
 20
419.523
 30
0.000000
  70
    32
  0
VERTEX
  8
0
  5
FC99
 10
1492.70
 20
419.027
 30
0.000000
  70
    32
  0
VERTEX
  8
0
  5
FC9A
 10
1492.83
 20
418.534
 30
0.000000
  70
    32
  0
VERTEX
  8
0
  5
FC9B
 10
1492.97
 20
418.045
 30
0.000000
  70
    32
  0
VERTEX
  8
0
  5
FC9C
 10
1493.13
 20
417.560
 30
0.000000
  70
    32
  0
VERTEX
  8
0
  5
FC9D
 10
1493.30
 20
417.080
 30
0.000000
  70
    32
  0
VERTEX
  8
0
  5
FC9E
 10
1493.49
 20
416.604
 30
0.000000
  70
    32
  0
VERTEX
  8
0
  5
FC9F
 10
1493.69
 20
416.134
 30
0.000000
  70
    32
  0
VERTEX
  8
0
  5
FCA0
 10
1493.90
 20
415.670
 30
0.000000
  70
    32
  0
VERTEX
  8
0
  5
FCA1
 10
1494.13
 20
415.211
 30
0.000000
  70
    32
  0
VERTEX
  8
0
  5
FCA2
 10
1494.37
 20
414.759
 30
0.000000
  70
    32
  0
VERTEX
  8
0
  5
FCA3
 10
1494.62
 20
414.314
 30
0.000000
  70
    32
  0
VERTEX
  8
0
  5
FCA4
 10
1494.89
 20
413.876
 30
0.000000
  70
    32
  0
VERTEX
  8
0
  5
FCA5
 10
1495.17
 20
413.446
 30
0.000000
  70
    32
  0
VERTEX
  8
0
  5
FCA6
 10
1495.46
 20
413.023
 30
0.000000
  70
    32
  0
VERTEX
  8
0
  5
FCA7
 10
1495.77
 20
412.609
 30
0.000000
  70
    32
  0
VERTEX
  8
0
  5
FCA8
 10
1496.08
 20
412.203
 30
0.000000
  70
    32
  0
VERTEX
  8
0
  5
FCA9
 10
1496.41
 20
411.806
 30
0.000000
  70
    32
  0
VERTEX
  8
0
  5
FCAA
 10
1496.75
 20
411.418
 30
0.000000
  70
    32
  0
VERTEX
  8
0
  5
FCAB
 10
1497.10
 20
411.040
 30
0.000000
  70
    32
  0
VERTEX
  8
0
  5
FCAC
 10
1497.47
 20
410.672
 30
0.000000
  70
    32
  0
VERTEX
  8
0
  5
FCAD
 10
1497.84
 20
410.313
 30
0.000000
  70
    32
  0
VERTEX
  8
0
  5
FCAE
 10
1498.22
 20
409.965
 30
0.000000
  70
    32
  0
VERTEX
  8
0
  5
FCAF
 10
1498.62
 20
409.628
 30
0.000000
  70
    32
  0
VERTEX
  8
0
  5
FCB0
 10
1499.02
 20
409.302
 30
0.000000
  70
    32
  0
VERTEX
  8
0
  5
FCB1
 10
1499.43
 20
408.987
 30
0.000000
  70
    32
  0
VERTEX
  8
0
  5
FCB2
 10
1499.86
 20
408.683
 30
0.000000
  70
    32
  0
VERTEX
  8
0
  5
FCB3
 10
1500.29
 20
408.391
 30
0.000000
  70
    32
  0
VERTEX
  8
0
  5
FCB4
 10
1500.73
 20
408.111
 30
0.000000
  70
    32
  0
VERTEX
  8
0
  5
FCB5
 10
1501.17
 20
407.843
 30
0.000000
  70
    32
  0
VERTEX
  8
0
  5
FCB6
 10
1501.63
 20
407.588
 30
0.000000
  70
    32
  0
VERTEX
  8
0
  5
FCB7
 10
1502.09
 20
407.345
 30
0.000000
  70
    32
  0
VERTEX
  8
0
  5
FCB8
 10
1502.56
 20
407.115
 30
0.000000
  70
    32
  0
VERTEX
  8
0
  5
FCB9
 10
1503.04
 20
406.898
 30
0.000000
  70
    32
  0
VERTEX
  8
0
  5
FCBA
 10
1503.52
 20
406.694
 30
0.000000
  70
    32
  0
VERTEX
  8
0
  5
FCBB
 10
1504.01
 20
406.504
 30
0.000000
  70
    32
  0
VERTEX
  8
0
  5
FCBC
 10
1504.50
 20
406.327
 30
0.000000
  70
    32
  0
VERTEX
  8
0
  5
FCBD
 10
1505.00
 20
406.164
 30
0.000000
  70
    32
  0
VERTEX
  8
0
  5
FCBE
 10
1505.50
 20
406.014
 30
0.000000
  70
    32
  0
VERTEX
  8
0
  5
FCBF
 10
1506.01
 20
405.878
 30
0.000000
  70
    32
  0
VERTEX
  8
0
  5
FCC0
 10
1506.52
 20
405.757
 30
0.000000
  70
    32
  0
VERTEX
  8
0
  5
FCC1
 10
1507.03
 20
405.649
 30
0.000000
  70
    32
  0
VERTEX
  8
0
  5
FCC2
 10
1507.55
 20
405.556
 30
0.000000
  70
    32
  0
VERTEX
  8
0
  5
FCC3
 10
1508.07
 20
405.476
 30
0.000000
  70
    32
  0
VERTEX
  8
0
  5
FCC4
 10
1508.59
 20
405.411
 30
0.000000
  70
    32
  0
VERTEX
  8
0
  5
FCC5
 10
1509.12
 20
405.361
 30
0.000000
  70
    32
  0
VERTEX
  8
0
  5
FCC6
 10
1509.64
 20
405.325
 30
0.000000
  70
    32
  0
VERTEX
  8
0
  5
FCC7
 10
1510.17
 20
405.303
 30
0.000000
  70
    32
  0
VERTEX
  8
0
  5
FCC8
 10
1510.69
 20
405.296
 30
0.000000
  70
    32
  0
VERTEX
  8
0
  5
FCC9
 10
1511.22
 20
405.303
 30
0.000000
  70
    32
  0
VERTEX
  8
0
  5
FCCA
 10
1511.75
 20
405.325
 30
0.000000
  70
    32
  0
VERTEX
  8
0
  5
FCCB
 10
1512.27
 20
405.361
 30
0.000000
  70
    32
  0
VERTEX
  8
0
  5
FCCC
 10
1512.79
 20
405.411
 30
0.000000
  70
    32
  0
VERTEX
  8
0
  5
FCCD
 10
1513.32
 20
405.476
 30
0.000000
  70
    32
  0
VERTEX
  8
0
  5
FCCE
 10
1513.84
 20
405.556
 30
0.000000
  70
    32
  0
VERTEX
  8
0
  5
FCCF
 10
1514.35
 20
405.649
 30
0.000000
  70
    32
  0
VERTEX
  8
0
  5
FCD0
 10
1514.87
 20
405.757
 30
0.000000
  70
    32
  0
VERTEX
  8
0
  5
FCD1
 10
1515.38
 20
405.878
 30
0.000000
  70
    32
  0
VERTEX
  8
0
  5
FCD2
 10
1515.89
 20
406.014
 30
0.000000
  70
    32
  0
VERTEX
  8
0
  5
FCD3
 10
1516.39
 20
406.164
 30
0.000000
  70
    32
  0
VERTEX
  8
0
  5
FCD4
 10
1516.89
 20
406.327
 30
0.000000
  70
    32
  0
VERTEX
  8
0
  5
FCD5
 10
1517.38
 20
406.504
 30
0.000000
  70
    32
  0
VERTEX
  8
0
  5
FCD6
 10
1517.87
 20
406.694
 30
0.000000
  70
    32
  0
VERTEX
  8
0
  5
FCD7
 10
1518.35
 20
406.898
 30
0.000000
  70
    32
  0
VERTEX
  8
0
  5
FCD8
 10
1518.83
 20
407.115
 30
0.000000
  70
    32
  0
VERTEX
  8
0
  5
FCD9
 10
1519.30
 20
407.345
 30
0.000000
  70
    32
  0
VERTEX
  8
0
  5
FCDA
 10
1519.76
 20
407.588
 30
0.000000
  70
    32
  0
VERTEX
  8
0
  5
FCDB
 10
1520.21
 20
407.843
 30
0.000000
  70
    32
  0
VERTEX
  8
0
  5
FCDC
 10
1520.66
 20
408.111
 30
0.000000
  70
    32
  0
VERTEX
  8
0
  5
FCDD
 10
1521.10
 20
408.391
 30
0.000000
  70
    32
  0
VERTEX
  8
0
  5
FCDE
 10
1521.53
 20
408.683
 30
0.000000
  70
    32
  0
VERTEX
  8
0
  5
FCDF
 10
1521.95
 20
408.987
 30
0.000000
  70
    32
  0
VERTEX
  8
0
  5
FCE0
 10
1522.37
 20
409.302
 30
0.000000
  70
    32
  0
VERTEX
  8
0
  5
FCE1
 10
1522.77
 20
409.628
 30
0.000000
  70
    32
  0
VERTEX
  8
0
  5
FCE2
 10
1523.16
 20
409.965
 30
0.000000
  70
    32
  0
VERTEX
  8
0
  5
FCE3
 10
1523.55
 20
410.313
 30
0.000000
  70
    32
  0
VERTEX
  8
0
  5
FCE4
 10
1523.92
 20
410.672
 30
0.000000
  70
    32
  0
VERTEX
  8
0
  5
FCE5
 10
1524.28
 20
411.040
 30
0.000000
  70
    32
  0
VERTEX
  8
0
  5
FCE6
 10
1524.63
 20
411.418
 30
0.000000
  70
    32
  0
VERTEX
  8
0
  5
FCE7
 10
1524.97
 20
411.806
 30
0.000000
  70
    32
  0
VERTEX
  8
0
  5
FCE8
 10
1525.30
 20
412.203
 30
0.000000
  70
    32
  0
VERTEX
  8
0
  5
FCE9
 10
1525.62
 20
412.609
 30
0.000000
  70
    32
  0
VERTEX
  8
0
  5
FCEA
 10
1525.92
 20
413.023
 30
0.000000
  70
    32
  0
VERTEX
  8
0
  5
FCEB
 10
1526.22
 20
413.446
 30
0.000000
  70
    32
  0
VERTEX
  8
0
  5
FCEC
 10
1526.50
 20
413.876
 30
0.000000
  70
    32
  0
VERTEX
  8
0
  5
FCED
 10
1526.76
 20
414.314
 30
0.000000
  70
    32
  0
VERTEX
  8
0
  5
FCEE
 10
1527.02
 20
414.759
 30
0.000000
  70
    32
  0
VERTEX
  8
0
  5
FCEF
 10
1527.26
 20
415.211
 30
0.000000
  70
    32
  0
VERTEX
  8
0
  5
FCF0
 10
1527.49
 20
415.670
 30
0.000000
  70
    32
  0
VERTEX
  8
0
  5
FCF1
 10
1527.70
 20
416.134
 30
0.000000
  70
    32
  0
VERTEX
  8
0
  5
FCF2
 10
1527.90
 20
416.604
 30
0.000000
  70
    32
  0
VERTEX
  8
0
  5
FCF3
 10
1528.09
 20
417.080
 30
0.000000
  70
    32
  0
VERTEX
  8
0
  5
FCF4
 10
1528.26
 20
417.560
 30
0.000000
  70
    32
  0
VERTEX
  8
0
  5
FCF5
 10
1528.42
 20
418.045
 30
0.000000
  70
    32
  0
VERTEX
  8
0
  5
FCF6
 10
1528.56
 20
418.534
 30
0.000000
  70
    32
  0
VERTEX
  8
0
  5
FCF7
 10
1528.69
 20
419.027
 30
0.000000
  70
    32
  0
VERTEX
  8
0
  5
FCF8
 10
1528.80
 20
419.523
 30
0.000000
  70
    32
  0
VERTEX
  8
0
  5
FCF9
 10
1528.90
 20
420.022
 30
0.000000
  70
    32
  0
VERTEX
  8
0
  5
FCFA
 10
1528.99
 20
420.524
 30
0.000000
  70
    32
  0
VERTEX
  8
0
  5
FCFB
 10
1529.06
 20
421.028
 30
0.000000
  70
    32
  0
VERTEX
  8
0
  5
FCFC
 10
1529.12
 20
421.533
 30
0.000000
  70
    32
  0
VERTEX
  8
0
  5
FCFD
 10
1529.16
 20
422.040
 30
0.000000
  70
    32
  0
VERTEX
  8
0
  5
FCFE
 10
1529.18
 20
422.548
 30
0.000000
  70
    32
  0
VERTEX
  8
0
  5
FCFF
 10
1529.19
 20
423.056
 30
0.000000
  70
    32
  0
VERTEX
  8
0
  5
FD00
 10
1529.19
 20
423.564
 30
0.000000
  70
    32
  0
VERTEX
  8
0
  5
FD01
 10
1529.17
 20
424.072
 30
0.000000
  70
    32
  0
VERTEX
  8
0
  5
FD02
 10
1529.13
 20
424.580
 30
0.000000
  70
    32
  0
VERTEX
  8
0
  5
FD03
 10
1529.09
 20
425.086
 30
0.000000
  70
    32
  0
VERTEX
  8
0
  5
FD04
 10
1529.02
 20
425.590
 30
0.000000
  70
    32
  0
VERTEX
  8
0
  5
FD05
 10
1528.94
 20
426.093
 30
0.000000
  70
    32
  0
VERTEX
  8
0
  5
FD06
 10
1528.85
 20
426.593
 30
0.000000
  70
    32
  0
VERTEX
  8
0
  5
FD07
 10
1528.74
 20
427.091
 30
0.000000
  70
    32
  0
VERTEX
  8
0
  5
FD08
 10
1528.62
 20
427.585
 30
0.000000
  70
    32
  0
SEQEND
  8
0
  5
FD09
  0
POLYLINE
  5
F705
  8
0
 10
1529.6929989910752
 20
417.50216397886959
 30
0.0
 66
     1
 70
     8
  0
VERTEX
  8
0
  5
FD0A
 10
1529.69
 20
417.502
 30
0.000000
  70
    32
  0
VERTEX
  8
0
  5
FD0B
 10
1529.73
 20
417.582
 30
0.000000
  70
    32
  0
VERTEX
  8
0
  5
FD0C
 10
1529.77
 20
417.663
 30
0.000000
  70
    32
  0
VERTEX
  8
0
  5
FD0D
 10
1529.81
 20
417.743
 30
0.000000
  70
    32
  0
VERTEX
  8
0
  5
FD0E
 10
1529.85
 20
417.824
 30
0.000000
  70
    32
  0
VERTEX
  8
0
  5
FD0F
 10
1529.88
 20
417.905
 30
0.000000
  70
    32
  0
VERTEX
  8
0
  5
FD10
 10
1529.92
 20
417.986
 30
0.000000
  70
    32
  0
VERTEX
  8
0
  5
FD11
 10
1529.96
 20
418.067
 30
0.000000
  70
    32
  0
VERTEX
  8
0
  5
FD12
 10
1529.99
 20
418.148
 30
0.000000
  70
    32
  0
VERTEX
  8
0
  5
FD13
 10
1530.03
 20
418.229
 30
0.000000
  70
    32
  0
VERTEX
  8
0
  5
FD14
 10
1530.07
 20
418.311
 30
0.000000
  70
    32
  0
VERTEX
  8
0
  5
FD15
 10
1530.10
 20
418.393
 30
0.000000
  70
    32
  0
VERTEX
  8
0
  5
FD16
 10
1530.14
 20
418.475
 30
0.000000
  70
    32
  0
VERTEX
  8
0
  5
FD17
 10
1530.17
 20
418.557
 30
0.000000
  70
    32
  0
VERTEX
  8
0
  5
FD18
 10
1530.20
 20
418.639
 30
0.000000
  70
    32
  0
VERTEX
  8
0
  5
FD19
 10
1530.24
 20
418.721
 30
0.000000
  70
    32
  0
VERTEX
  8
0
  5
FD1A
 10
1530.27
 20
418.803
 30
0.000000
  70
    32
  0
VERTEX
  8
0
  5
FD1B
 10
1530.30
 20
418.886
 30
0.000000
  70
    32
  0
VERTEX
  8
0
  5
FD1C
 10
1530.34
 20
418.969
 30
0.000000
  70
    32
  0
VERTEX
  8
0
  5
FD1D
 10
1530.37
 20
419.052
 30
0.000000
  70
    32
  0
VERTEX
  8
0
  5
FD1E
 10
1530.40
 20
419.135
 30
0.000000
  70
    32
  0
VERTEX
  8
0
  5
FD1F
 10
1530.43
 20
419.218
 30
0.000000
  70
    32
  0
VERTEX
  8
0
  5
FD20
 10
1530.46
 20
419.301
 30
0.000000
  70
    32
  0
VERTEX
  8
0
  5
FD21
 10
1530.49
 20
419.384
 30
0.000000
  70
    32
  0
VERTEX
  8
0
  5
FD22
 10
1530.52
 20
419.468
 30
0.000000
  70
    32
  0
VERTEX
  8
0
  5
FD23
 10
1530.55
 20
419.552
 30
0.000000
  70
    32
  0
VERTEX
  8
0
  5
FD24
 10
1530.58
 20
419.635
 30
0.000000
  70
    32
  0
VERTEX
  8
0
  5
FD25
 10
1530.61
 20
419.719
 30
0.000000
  70
    32
  0
VERTEX
  8
0
  5
FD26
 10
1530.64
 20
419.803
 30
0.000000
  70
    32
  0
VERTEX
  8
0
  5
FD27
 10
1530.67
 20
419.887
 30
0.000000
  70
    32
  0
VERTEX
  8
0
  5
FD28
 10
1530.70
 20
419.972
 30
0.000000
  70
    32
  0
VERTEX
  8
0
  5
FD29
 10
1530.73
 20
420.056
 30
0.000000
  70
    32
  0
VERTEX
  8
0
  5
FD2A
 10
1530.75
 20
420.140
 30
0.000000
  70
    32
  0
VERTEX
  8
0
  5
FD2B
 10
1530.78
 20
420.225
 30
0.000000
  70
    32
  0
VERTEX
  8
0
  5
FD2C
 10
1530.81
 20
420.310
 30
0.000000
  70
    32
  0
VERTEX
  8
0
  5
FD2D
 10
1530.83
 20
420.395
 30
0.000000
  70
    32
  0
VERTEX
  8
0
  5
FD2E
 10
1530.86
 20
420.480
 30
0.000000
  70
    32
  0
VERTEX
  8
0
  5
FD2F
 10
1530.88
 20
420.565
 30
0.000000
  70
    32
  0
VERTEX
  8
0
  5
FD30
 10
1530.91
 20
420.650
 30
0.000000
  70
    32
  0
VERTEX
  8
0
  5
FD31
 10
1530.93
 20
420.735
 30
0.000000
  70
    32
  0
VERTEX
  8
0
  5
FD32
 10
1530.96
 20
420.820
 30
0.000000
  70
    32
  0
VERTEX
  8
0
  5
FD33
 10
1530.98
 20
420.906
 30
0.000000
  70
    32
  0
VERTEX
  8
0
  5
FD34
 10
1531.00
 20
420.991
 30
0.000000
  70
    32
  0
VERTEX
  8
0
  5
FD35
 10
1531.03
 20
421.077
 30
0.000000
  70
    32
  0
VERTEX
  8
0
  5
FD36
 10
1531.05
 20
421.163
 30
0.000000
  70
    32
  0
VERTEX
  8
0
  5
FD37
 10
1531.07
 20
421.249
 30
0.000000
  70
    32
  0
VERTEX
  8
0
  5
FD38
 10
1531.09
 20
421.335
 30
0.000000
  70
    32
  0
VERTEX
  8
0
  5
FD39
 10
1531.12
 20
421.421
 30
0.000000
  70
    32
  0
VERTEX
  8
0
  5
FD3A
 10
1531.14
 20
421.507
 30
0.000000
  70
    32
  0
VERTEX
  8
0
  5
FD3B
 10
1531.16
 20
421.593
 30
0.000000
  70
    32
  0
VERTEX
  8
0
  5
FD3C
 10
1531.18
 20
421.679
 30
0.000000
  70
    32
  0
VERTEX
  8
0
  5
FD3D
 10
1531.20
 20
421.766
 30
0.000000
  70
    32
  0
VERTEX
  8
0
  5
FD3E
 10
1531.22
 20
421.852
 30
0.000000
  70
    32
  0
VERTEX
  8
0
  5
FD3F
 10
1531.24
 20
421.939
 30
0.000000
  70
    32
  0
VERTEX
  8
0
  5
FD40
 10
1531.26
 20
422.025
 30
0.000000
  70
    32
  0
VERTEX
  8
0
  5
FD41
 10
1531.27
 20
422.112
 30
0.000000
  70
    32
  0
VERTEX
  8
0
  5
FD42
 10
1531.29
 20
422.199
 30
0.000000
  70
    32
  0
VERTEX
  8
0
  5
FD43
 10
1531.31
 20
422.286
 30
0.000000
  70
    32
  0
VERTEX
  8
0
  5
FD44
 10
1531.33
 20
422.373
 30
0.000000
  70
    32
  0
VERTEX
  8
0
  5
FD45
 10
1531.34
 20
422.460
 30
0.000000
  70
    32
  0
VERTEX
  8
0
  5
FD46
 10
1531.36
 20
422.547
 30
0.000000
  70
    32
  0
VERTEX
  8
0
  5
FD47
 10
1531.38
 20
422.634
 30
0.000000
  70
    32
  0
VERTEX
  8
0
  5
FD48
 10
1531.39
 20
422.721
 30
0.000000
  70
    32
  0
VERTEX
  8
0
  5
FD49
 10
1531.41
 20
422.808
 30
0.000000
  70
    32
  0
VERTEX
  8
0
  5
FD4A
 10
1531.42
 20
422.896
 30
0.000000
  70
    32
  0
VERTEX
  8
0
  5
FD4B
 10
1531.44
 20
422.983
 30
0.000000
  70
    32
  0
VERTEX
  8
0
  5
FD4C
 10
1531.45
 20
423.070
 30
0.000000
  70
    32
  0
VERTEX
  8
0
  5
FD4D
 10
1531.46
 20
423.158
 30
0.000000
  70
    32
  0
VERTEX
  8
0
  5
FD4E
 10
1531.48
 20
423.246
 30
0.000000
  70
    32
  0
VERTEX
  8
0
  5
FD4F
 10
1531.49
 20
423.333
 30
0.000000
  70
    32
  0
VERTEX
  8
0
  5
FD50
 10
1531.50
 20
423.421
 30
0.000000
  70
    32
  0
VERTEX
  8
0
  5
FD51
 10
1531.52
 20
423.509
 30
0.000000
  70
    32
  0
VERTEX
  8
0
  5
FD52
 10
1531.53
 20
423.596
 30
0.000000
  70
    32
  0
VERTEX
  8
0
  5
FD53
 10
1531.54
 20
423.684
 30
0.000000
  70
    32
  0
VERTEX
  8
0
  5
FD54
 10
1531.55
 20
423.772
 30
0.000000
  70
    32
  0
VERTEX
  8
0
  5
FD55
 10
1531.56
 20
423.860
 30
0.000000
  70
    32
  0
VERTEX
  8
0
  5
FD56
 10
1531.57
 20
423.948
 30
0.000000
  70
    32
  0
VERTEX
  8
0
  5
FD57
 10
1531.58
 20
424.036
 30
0.000000
  70
    32
  0
VERTEX
  8
0
  5
FD58
 10
1531.59
 20
424.124
 30
0.000000
  70
    32
  0
VERTEX
  8
0
  5
FD59
 10
1531.60
 20
424.212
 30
0.000000
  70
    32
  0
VERTEX
  8
0
  5
FD5A
 10
1531.61
 20
424.300
 30
0.000000
  70
    32
  0
VERTEX
  8
0
  5
FD5B
 10
1531.61
 20
424.388
 30
0.000000
  70
    32
  0
VERTEX
  8
0
  5
FD5C
 10
1531.62
 20
424.477
 30
0.000000
  70
    32
  0
VERTEX
  8
0
  5
FD5D
 10
1531.63
 20
424.565
 30
0.000000
  70
    32
  0
VERTEX
  8
0
  5
FD5E
 10
1531.64
 20
424.653
 30
0.000000
  70
    32
  0
VERTEX
  8
0
  5
FD5F
 10
1531.64
 20
424.741
 30
0.000000
  70
    32
  0
VERTEX
  8
0
  5
FD60
 10
1531.65
 20
424.830
 30
0.000000
  70
    32
  0
VERTEX
  8
0
  5
FD61
 10
1531.65
 20
424.918
 30
0.000000
  70
    32
  0
VERTEX
  8
0
  5
FD62
 10
1531.66
 20
425.006
 30
0.000000
  70
    32
  0
VERTEX
  8
0
  5
FD63
 10
1531.67
 20
425.095
 30
0.000000
  70
    32
  0
VERTEX
  8
0
  5
FD64
 10
1531.67
 20
425.183
 30
0.000000
  70
    32
  0
VERTEX
  8
0
  5
FD65
 10
1531.67
 20
425.272
 30
0.000000
  70
    32
  0
VERTEX
  8
0
  5
FD66
 10
1531.68
 20
425.360
 30
0.000000
  70
    32
  0
VERTEX
  8
0
  5
FD67
 10
1531.68
 20
425.449
 30
0.000000
  70
    32
  0
VERTEX
  8
0
  5
FD68
 10
1531.68
 20
425.537
 30
0.000000
  70
    32
  0
VERTEX
  8
0
  5
FD69
 10
1531.69
 20
425.625
 30
0.000000
  70
    32
  0
VERTEX
  8
0
  5
FD6A
 10
1531.69
 20
425.714
 30
0.000000
  70
    32
  0
VERTEX
  8
0
  5
FD6B
 10
1531.69
 20
425.802
 30
0.000000
  70
    32
  0
VERTEX
  8
0
  5
FD6C
 10
1531.69
 20
425.891
 30
0.000000
  70
    32
  0
VERTEX
  8
0
  5
FD6D
 10
1531.69
 20
425.979
 30
0.000000
  70
    32
  0
VERTEX
  8
0
  5
FD6E
 10
1531.69
 20
426.068
 30
0.000000
  70
    32
  0
VERTEX
  8
0
  5
FD6F
 10
1531.69
 20
426.156
 30
0.000000
  70
    32
  0
VERTEX
  8
0
  5
FD70
 10
1531.69
 20
426.245
 30
0.000000
  70
    32
  0
VERTEX
  8
0
  5
FD71
 10
1531.69
 20
426.333
 30
0.000000
  70
    32
  0
VERTEX
  8
0
  5
FD72
 10
1531.69
 20
426.422
 30
0.000000
  70
    32
  0
VERTEX
  8
0
  5
FD73
 10
1531.69
 20
426.510
 30
0.000000
  70
    32
  0
VERTEX
  8
0
  5
FD74
 10
1531.69
 20
426.599
 30
0.000000
  70
    32
  0
VERTEX
  8
0
  5
FD75
 10
1531.69
 20
426.687
 30
0.000000
  70
    32
  0
VERTEX
  8
0
  5
FD76
 10
1531.68
 20
426.776
 30
0.000000
  70
    32
  0
VERTEX
  8
0
  5
FD77
 10
1531.68
 20
426.864
 30
0.000000
  70
    32
  0
VERTEX
  8
0
  5
FD78
 10
1531.68
 20
426.953
 30
0.000000
  70
    32
  0
VERTEX
  8
0
  5
FD79
 10
1531.67
 20
427.041
 30
0.000000
  70
    32
  0
VERTEX
  8
0
  5
FD7A
 10
1531.67
 20
427.130
 30
0.000000
  70
    32
  0
VERTEX
  8
0
  5
FD7B
 10
1531.66
 20
427.218
 30
0.000000
  70
    32
  0
VERTEX
  8
0
  5
FD7C
 10
1531.66
 20
427.306
 30
0.000000
  70
    32
  0
VERTEX
  8
0
  5
FD7D
 10
1531.65
 20
427.395
 30
0.000000
  70
    32
  0
VERTEX
  8
0
  5
FD7E
 10
1531.65
 20
427.483
 30
0.000000
  70
    32
  0
VERTEX
  8
0
  5
FD7F
 10
1531.64
 20
427.571
 30
0.000000
  70
    32
  0
VERTEX
  8
0
  5
FD80
 10
1531.63
 20
427.660
 30
0.000000
  70
    32
  0
VERTEX
  8
0
  5
FD81
 10
1531.63
 20
427.748
 30
0.000000
  70
    32
  0
VERTEX
  8
0
  5
FD82
 10
1531.62
 20
427.836
 30
0.000000
  70
    32
  0
VERTEX
  8
0
  5
FD83
 10
1531.61
 20
427.924
 30
0.000000
  70
    32
  0
VERTEX
  8
0
  5
FD84
 10
1531.60
 20
428.012
 30
0.000000
  70
    32
  0
VERTEX
  8
0
  5
FD85
 10
1531.59
 20
428.101
 30
0.000000
  70
    32
  0
VERTEX
  8
0
  5
FD86
 10
1531.59
 20
428.189
 30
0.000000
  70
    32
  0
VERTEX
  8
0
  5
FD87
 10
1531.58
 20
428.277
 30
0.000000
  70
    32
  0
VERTEX
  8
0
  5
FD88
 10
1531.57
 20
428.365
 30
0.000000
  70
    32
  0
VERTEX
  8
0
  5
FD89
 10
1531.56
 20
428.453
 30
0.000000
  70
    32
  0
VERTEX
  8
0
  5
FD8A
 10
1531.55
 20
428.541
 30
0.000000
  70
    32
  0
SEQEND
  8
0
  5
FD8B
  0
POLYLINE
  5
F706
  8
0
 10
1489.8403727221628
 20
428.54056887453771
 30
0.0
 66
     1
 70
     8
  0
VERTEX
  8
0
  5
FD8C
 10
1489.84
 20
428.541
 30
0.000000
  70
    32
  0
VERTEX
  8
0
  5
FD8D
 10
1489.83
 20
428.453
 30
0.000000
  70
    32
  0
VERTEX
  8
0
  5
FD8E
 10
1489.82
 20
428.365
 30
0.000000
  70
    32
  0
VERTEX
  8
0
  5
FD8F
 10
1489.81
 20
428.277
 30
0.000000
  70
    32
  0
VERTEX
  8
0
  5
FD90
 10
1489.80
 20
428.189
 30
0.000000
  70
    32
  0
VERTEX
  8
0
  5
FD91
 10
1489.79
 20
428.101
 30
0.000000
  70
    32
  0
VERTEX
  8
0
  5
FD92
 10
1489.78
 20
428.012
 30
0.000000
  70
    32
  0
VERTEX
  8
0
  5
FD93
 10
1489.77
 20
427.924
 30
0.000000
  70
    32
  0
VERTEX
  8
0
  5
FD94
 10
1489.77
 20
427.836
 30
0.000000
  70
    32
  0
VERTEX
  8
0
  5
FD95
 10
1489.76
 20
427.748
 30
0.000000
  70
    32
  0
VERTEX
  8
0
  5
FD96
 10
1489.75
 20
427.660
 30
0.000000
  70
    32
  0
VERTEX
  8
0
  5
FD97
 10
1489.75
 20
427.571
 30
0.000000
  70
    32
  0
VERTEX
  8
0
  5
FD98
 10
1489.74
 20
427.483
 30
0.000000
  70
    32
  0
VERTEX
  8
0
  5
FD99
 10
1489.73
 20
427.395
 30
0.000000
  70
    32
  0
VERTEX
  8
0
  5
FD9A
 10
1489.73
 20
427.306
 30
0.000000
  70
    32
  0
VERTEX
  8
0
  5
FD9B
 10
1489.72
 20
427.218
 30
0.000000
  70
    32
  0
VERTEX
  8
0
  5
FD9C
 10
1489.72
 20
427.130
 30
0.000000
  70
    32
  0
VERTEX
  8
0
  5
FD9D
 10
1489.71
 20
427.041
 30
0.000000
  70
    32
  0
VERTEX
  8
0
  5
FD9E
 10
1489.71
 20
426.953
 30
0.000000
  70
    32
  0
VERTEX
  8
0
  5
FD9F
 10
1489.71
 20
426.864
 30
0.000000
  70
    32
  0
VERTEX
  8
0
  5
FDA0
 10
1489.70
 20
426.776
 30
0.000000
  70
    32
  0
VERTEX
  8
0
  5
FDA1
 10
1489.70
 20
426.687
 30
0.000000
  70
    32
  0
VERTEX
  8
0
  5
FDA2
 10
1489.70
 20
426.599
 30
0.000000
  70
    32
  0
VERTEX
  8
0
  5
FDA3
 10
1489.70
 20
426.510
 30
0.000000
  70
    32
  0
VERTEX
  8
0
  5
FDA4
 10
1489.70
 20
426.422
 30
0.000000
  70
    32
  0
VERTEX
  8
0
  5
FDA5
 10
1489.69
 20
426.333
 30
0.000000
  70
    32
  0
VERTEX
  8
0
  5
FDA6
 10
1489.69
 20
426.245
 30
0.000000
  70
    32
  0
VERTEX
  8
0
  5
FDA7
 10
1489.69
 20
426.156
 30
0.000000
  70
    32
  0
VERTEX
  8
0
  5
FDA8
 10
1489.69
 20
426.068
 30
0.000000
  70
    32
  0
VERTEX
  8
0
  5
FDA9
 10
1489.69
 20
425.979
 30
0.000000
  70
    32
  0
VERTEX
  8
0
  5
FDAA
 10
1489.69
 20
425.891
 30
0.000000
  70
    32
  0
VERTEX
  8
0
  5
FDAB
 10
1489.70
 20
425.802
 30
0.000000
  70
    32
  0
VERTEX
  8
0
  5
FDAC
 10
1489.70
 20
425.714
 30
0.000000
  70
    32
  0
VERTEX
  8
0
  5
FDAD
 10
1489.70
 20
425.625
 30
0.000000
  70
    32
  0
VERTEX
  8
0
  5
FDAE
 10
1489.70
 20
425.537
 30
0.000000
  70
    32
  0
VERTEX
  8
0
  5
FDAF
 10
1489.71
 20
425.449
 30
0.000000
  70
    32
  0
VERTEX
  8
0
  5
FDB0
 10
1489.71
 20
425.360
 30
0.000000
  70
    32
  0
VERTEX
  8
0
  5
FDB1
 10
1489.71
 20
425.272
 30
0.000000
  70
    32
  0
VERTEX
  8
0
  5
FDB2
 10
1489.72
 20
425.183
 30
0.000000
  70
    32
  0
VERTEX
  8
0
  5
FDB3
 10
1489.72
 20
425.095
 30
0.000000
  70
    32
  0
VERTEX
  8
0
  5
FDB4
 10
1489.73
 20
425.006
 30
0.000000
  70
    32
  0
VERTEX
  8
0
  5
FDB5
 10
1489.73
 20
424.918
 30
0.000000
  70
    32
  0
VERTEX
  8
0
  5
FDB6
 10
1489.74
 20
424.830
 30
0.000000
  70
    32
  0
VERTEX
  8
0
  5
FDB7
 10
1489.74
 20
424.741
 30
0.000000
  70
    32
  0
VERTEX
  8
0
  5
FDB8
 10
1489.75
 20
424.653
 30
0.000000
  70
    32
  0
VERTEX
  8
0
  5
FDB9
 10
1489.76
 20
424.565
 30
0.000000
  70
    32
  0
VERTEX
  8
0
  5
FDBA
 10
1489.76
 20
424.477
 30
0.000000
  70
    32
  0
VERTEX
  8
0
  5
FDBB
 10
1489.77
 20
424.388
 30
0.000000
  70
    32
  0
VERTEX
  8
0
  5
FDBC
 10
1489.78
 20
424.300
 30
0.000000
  70
    32
  0
VERTEX
  8
0
  5
FDBD
 10
1489.79
 20
424.212
 30
0.000000
  70
    32
  0
VERTEX
  8
0
  5
FDBE
 10
1489.80
 20
424.124
 30
0.000000
  70
    32
  0
VERTEX
  8
0
  5
FDBF
 10
1489.81
 20
424.036
 30
0.000000
  70
    32
  0
VERTEX
  8
0
  5
FDC0
 10
1489.82
 20
423.948
 30
0.000000
  70
    32
  0
VERTEX
  8
0
  5
FDC1
 10
1489.83
 20
423.860
 30
0.000000
  70
    32
  0
VERTEX
  8
0
  5
FDC2
 10
1489.84
 20
423.772
 30
0.000000
  70
    32
  0
VERTEX
  8
0
  5
FDC3
 10
1489.85
 20
423.684
 30
0.000000
  70
    32
  0
VERTEX
  8
0
  5
FDC4
 10
1489.86
 20
423.596
 30
0.000000
  70
    32
  0
VERTEX
  8
0
  5
FDC5
 10
1489.87
 20
423.509
 30
0.000000
  70
    32
  0
VERTEX
  8
0
  5
FDC6
 10
1489.88
 20
423.421
 30
0.000000
  70
    32
  0
VERTEX
  8
0
  5
FDC7
 10
1489.90
 20
423.333
 30
0.000000
  70
    32
  0
VERTEX
  8
0
  5
FDC8
 10
1489.91
 20
423.246
 30
0.000000
  70
    32
  0
VERTEX
  8
0
  5
FDC9
 10
1489.92
 20
423.158
 30
0.000000
  70
    32
  0
VERTEX
  8
0
  5
FDCA
 10
1489.94
 20
423.070
 30
0.000000
  70
    32
  0
VERTEX
  8
0
  5
FDCB
 10
1489.95
 20
422.983
 30
0.000000
  70
    32
  0
VERTEX
  8
0
  5
FDCC
 10
1489.96
 20
422.896
 30
0.000000
  70
    32
  0
VERTEX
  8
0
  5
FDCD
 10
1489.98
 20
422.808
 30
0.000000
  70
    32
  0
VERTEX
  8
0
  5
FDCE
 10
1489.99
 20
422.721
 30
0.000000
  70
    32
  0
VERTEX
  8
0
  5
FDCF
 10
1490.01
 20
422.634
 30
0.000000
  70
    32
  0
VERTEX
  8
0
  5
FDD0
 10
1490.03
 20
422.547
 30
0.000000
  70
    32
  0
VERTEX
  8
0
  5
FDD1
 10
1490.04
 20
422.460
 30
0.000000
  70
    32
  0
VERTEX
  8
0
  5
FDD2
 10
1490.06
 20
422.373
 30
0.000000
  70
    32
  0
VERTEX
  8
0
  5
FDD3
 10
1490.08
 20
422.286
 30
0.000000
  70
    32
  0
VERTEX
  8
0
  5
FDD4
 10
1490.09
 20
422.199
 30
0.000000
  70
    32
  0
VERTEX
  8
0
  5
FDD5
 10
1490.11
 20
422.112
 30
0.000000
  70
    32
  0
VERTEX
  8
0
  5
FDD6
 10
1490.13
 20
422.025
 30
0.000000
  70
    32
  0
VERTEX
  8
0
  5
FDD7
 10
1490.15
 20
421.939
 30
0.000000
  70
    32
  0
VERTEX
  8
0
  5
FDD8
 10
1490.17
 20
421.852
 30
0.000000
  70
    32
  0
VERTEX
  8
0
  5
FDD9
 10
1490.19
 20
421.766
 30
0.000000
  70
    32
  0
VERTEX
  8
0
  5
FDDA
 10
1490.21
 20
421.679
 30
0.000000
  70
    32
  0
VERTEX
  8
0
  5
FDDB
 10
1490.23
 20
421.593
 30
0.000000
  70
    32
  0
VERTEX
  8
0
  5
FDDC
 10
1490.25
 20
421.507
 30
0.000000
  70
    32
  0
VERTEX
  8
0
  5
FDDD
 10
1490.27
 20
421.421
 30
0.000000
  70
    32
  0
VERTEX
  8
0
  5
FDDE
 10
1490.29
 20
421.335
 30
0.000000
  70
    32
  0
VERTEX
  8
0
  5
FDDF
 10
1490.31
 20
421.249
 30
0.000000
  70
    32
  0
VERTEX
  8
0
  5
FDE0
 10
1490.34
 20
421.163
 30
0.000000
  70
    32
  0
VERTEX
  8
0
  5
FDE1
 10
1490.36
 20
421.077
 30
0.000000
  70
    32
  0
VERTEX
  8
0
  5
FDE2
 10
1490.38
 20
420.991
 30
0.000000
  70
    32
  0
VERTEX
  8
0
  5
FDE3
 10
1490.40
 20
420.906
 30
0.000000
  70
    32
  0
VERTEX
  8
0
  5
FDE4
 10
1490.43
 20
420.820
 30
0.000000
  70
    32
  0
VERTEX
  8
0
  5
FDE5
 10
1490.45
 20
420.735
 30
0.000000
  70
    32
  0
VERTEX
  8
0
  5
FDE6
 10
1490.48
 20
420.650
 30
0.000000
  70
    32
  0
VERTEX
  8
0
  5
FDE7
 10
1490.50
 20
420.565
 30
0.000000
  70
    32
  0
VERTEX
  8
0
  5
FDE8
 10
1490.53
 20
420.480
 30
0.000000
  70
    32
  0
VERTEX
  8
0
  5
FDE9
 10
1490.55
 20
420.395
 30
0.000000
  70
    32
  0
VERTEX
  8
0
  5
FDEA
 10
1490.58
 20
420.310
 30
0.000000
  70
    32
  0
VERTEX
  8
0
  5
FDEB
 10
1490.61
 20
420.225
 30
0.000000
  70
    32
  0
VERTEX
  8
0
  5
FDEC
 10
1490.63
 20
420.140
 30
0.000000
  70
    32
  0
VERTEX
  8
0
  5
FDED
 10
1490.66
 20
420.056
 30
0.000000
  70
    32
  0
VERTEX
  8
0
  5
FDEE
 10
1490.69
 20
419.972
 30
0.000000
  70
    32
  0
VERTEX
  8
0
  5
FDEF
 10
1490.72
 20
419.887
 30
0.000000
  70
    32
  0
VERTEX
  8
0
  5
FDF0
 10
1490.74
 20
419.803
 30
0.000000
  70
    32
  0
VERTEX
  8
0
  5
FDF1
 10
1490.77
 20
419.719
 30
0.000000
  70
    32
  0
VERTEX
  8
0
  5
FDF2
 10
1490.80
 20
419.635
 30
0.000000
  70
    32
  0
VERTEX
  8
0
  5
FDF3
 10
1490.83
 20
419.552
 30
0.000000
  70
    32
  0
VERTEX
  8
0
  5
FDF4
 10
1490.86
 20
419.468
 30
0.000000
  70
    32
  0
VERTEX
  8
0
  5
FDF5
 10
1490.89
 20
419.384
 30
0.000000
  70
    32
  0
VERTEX
  8
0
  5
FDF6
 10
1490.92
 20
419.301
 30
0.000000
  70
    32
  0
VERTEX
  8
0
  5
FDF7
 10
1490.95
 20
419.218
 30
0.000000
  70
    32
  0
VERTEX
  8
0
  5
FDF8
 10
1490.99
 20
419.135
 30
0.000000
  70
    32
  0
VERTEX
  8
0
  5
FDF9
 10
1491.02
 20
419.052
 30
0.000000
  70
    32
  0
VERTEX
  8
0
  5
FDFA
 10
1491.05
 20
418.969
 30
0.000000
  70
    32
  0
VERTEX
  8
0
  5
FDFB
 10
1491.08
 20
418.886
 30
0.000000
  70
    32
  0
VERTEX
  8
0
  5
FDFC
 10
1491.12
 20
418.803
 30
0.000000
  70
    32
  0
VERTEX
  8
0
  5
FDFD
 10
1491.15
 20
418.721
 30
0.000000
  70
    32
  0
VERTEX
  8
0
  5
FDFE
 10
1491.18
 20
418.639
 30
0.000000
  70
    32
  0
VERTEX
  8
0
  5
FDFF
 10
1491.22
 20
418.557
 30
0.000000
  70
    32
  0
VERTEX
  8
0
  5
FE00
 10
1491.25
 20
418.475
 30
0.000000
  70
    32
  0
VERTEX
  8
0
  5
FE01
 10
1491.29
 20
418.393
 30
0.000000
  70
    32
  0
VERTEX
  8
0
  5
FE02
 10
1491.32
 20
418.311
 30
0.000000
  70
    32
  0
VERTEX
  8
0
  5
FE03
 10
1491.36
 20
418.229
 30
0.000000
  70
    32
  0
VERTEX
  8
0
  5
FE04
 10
1491.39
 20
418.148
 30
0.000000
  70
    32
  0
VERTEX
  8
0
  5
FE05
 10
1491.43
 20
418.067
 30
0.000000
  70
    32
  0
VERTEX
  8
0
  5
FE06
 10
1491.47
 20
417.986
 30
0.000000
  70
    32
  0
VERTEX
  8
0
  5
FE07
 10
1491.50
 20
417.905
 30
0.000000
  70
    32
  0
VERTEX
  8
0
  5
FE08
 10
1491.54
 20
417.824
 30
0.000000
  70
    32
  0
VERTEX
  8
0
  5
FE09
 10
1491.58
 20
417.743
 30
0.000000
  70
    32
  0
VERTEX
  8
0
  5
FE0A
 10
1491.62
 20
417.663
 30
0.000000
  70
    32
  0
VERTEX
  8
0
  5
FE0B
 10
1491.65
 20
417.582
 30
0.000000
  70
    32
  0
VERTEX
  8
0
  5
FE0C
 10
1491.69
 20
417.502
 30
0.000000
  70
    32
  0
SEQEND
  8
0
  5
FE0D
  0
LINE
  5
F709
  8
0
 10
1508.415998991075
 20
404.52107772197257
 30
0.0
 11
1512.969998991075
 21
404.52107772197257
 31
0.0
  0
ARC
  5
F70A
  8
0
 10
1510.692998991075
 20
446.45930933705148
 30
0.0
 40
42.000000000000007
 50
187.69666893900839
 51
352.30333106099152
  0
LINE
  5
F70F
  8
0
 10
1456.692998991075
 20
520.45930933705154
 30
0.0
 11
1456.692998991075
 21
518.92754729216995
 31
0.0
  0
ARC
  5
F710
  8
0
 10
1458.692998991075
 20
520.45930933705131
 30
0.0
 40
2.0
 50
90.0
 51
180.0
  0
LINE
  5
F711
  8
0
 10
1564.692998991075
 20
520.45930933705131
 30
0.0
 11
1564.692998991075
 21
518.92754729217063
 31
0.0
  0
ARC
  5
F712
  8
0
 10
1562.692998991075
 20
520.4593093370512
 30
0.0
 40
2.0
 50
0.0
 51
90.0
  0
LINE
  5
F715
  8
0
 10
1458.692998991075
 20
522.45930933705154
 30
0.0
 11
1458.912211048055
 21
522.45930933705154
 31
0.0
  0
LINE
  5
F718
  8
0
 10
1562.473786934095
 20
522.45930933705108
 30
0.0
 11
1562.692998991075
 21
522.45930933705131
 31
0.0
  0
CIRCLE
  5
F71A
  8
0
 10
1276.849218645908
 20
698.88576954792086
 30
0.0
 40
11.0
  0
POLYLINE
  5
F71B
  8
0
 66
     1
 10
0.0
 20
0.0
 30
0.0
 70
     1
  0
VERTEX
  5
F9E2
  8
0
 10
1270.4983656848219
 20
709.88576954792086
 30
0.0
  0
VERTEX
  5
F9E3
  8
0
 10
1264.1475127237361
 20
698.88576954792075
 30
0.0
  0
VERTEX
  5
F9E4
  8
0
 10
1270.4983656848219
 20
687.88576954792075
 30
0.0
  0
VERTEX
  5
F9E5
  8
0
 10
1283.200071606994
 20
687.88576954792075
 30
0.0
  0
VERTEX
  5
F9E6
  8
0
 10
1289.5509245680801
 20
698.88576954792075
 30
0.0
  0
VERTEX
  5
F9E7
  8
0
 10
1283.200071606994
 20
709.88576954792086
 30
0.0
  0
SEQEND
  5
F9E8
  8
0
  0
CIRCLE
  5
F71C
  8
0
 10
1276.849218645908
 20
780.91015616556035
 30
0.0
 40
11.0
  0
POLYLINE
  5
F71D
  8
0
 66
     1
 10
0.0
 20
0.0
 30
0.0
 70
     1
  0
VERTEX
  5
F9E9
  8
0
 10
1270.4983656848219
 20
791.91015616556024
 30
0.0
  0
VERTEX
  5
F9EA
  8
0
 10
1264.1475127237361
 20
780.91015616556024
 30
0.0
  0
VERTEX
  5
F9EB
  8
0
 10
1270.4983656848219
 20
769.91015616556024
 30
0.0
  0
VERTEX
  5
F9EC
  8
0
 10
1283.200071606994
 20
769.91015616556024
 30
0.0
  0
VERTEX
  5
F9ED
  8
0
 10
1289.5509245680801
 20
780.91015616556024
 30
0.0
  0
VERTEX
  5
F9EE
  8
0
 10
1283.200071606994
 20
791.91015616556024
 30
0.0
  0
SEQEND
  5
F9EF
  8
0
  0
CIRCLE
  5
F71E
  8
0
 10
1194.8248320282689
 20
780.91015616556035
 30
0.0
 40
11.0
  0
POLYLINE
  5
F71F
  8
0
 66
     1
 10
0.0
 20
0.0
 30
0.0
 70
     1
  0
VERTEX
  5
F9F0
  8
0
 10
1188.4739790671831
 20
791.91015616556024
 30
0.0
  0
VERTEX
  5
F9F1
  8
0
 10
1182.1231261060971
 20
780.91015616556024
 30
0.0
  0
VERTEX
  5
F9F2
  8
0
 10
1188.473979067182
 20
769.91015616556024
 30
0.0
  0
VERTEX
  5
F9F3
  8
0
 10
1201.175684989355
 20
769.91015616556024
 30
0.0
  0
VERTEX
  5
F9F4
  8
0
 10
1207.5265379504399
 20
780.91015616556024
 30
0.0
  0
VERTEX
  5
F9F5
  8
0
 10
1201.175684989355
 20
791.91015616556024
 30
0.0
  0
SEQEND
  5
F9F6
  8
0
  0
CIRCLE
  5
F720
  8
0
 10
1194.8248320282689
 20
698.88576954792086
 30
0.0
 40
11.0
  0
POLYLINE
  5
F721
  8
0
 66
     1
 10
0.0
 20
0.0
 30
0.0
 70
     1
  0
VERTEX
  5
F9F7
  8
0
 10
1188.4739790671831
 20
709.88576954792086
 30
0.0
  0
VERTEX
  5
F9F8
  8
0
 10
1182.1231261060971
 20
698.88576954792075
 30
0.0
  0
VERTEX
  5
F9F9
  8
0
 10
1188.473979067182
 20
687.88576954792075
 30
0.0
  0
VERTEX
  5
F9FA
  8
0
 10
1201.175684989355
 20
687.88576954792075
 30
0.0
  0
VERTEX
  5
F9FB
  8
0
 10
1207.5265379504399
 20
698.88576954792075
 30
0.0
  0
VERTEX
  5
F9FC
  8
0
 10
1201.175684989355
 20
709.88576954792086
 30
0.0
  0
SEQEND
  5
F9FD
  8
0
  0
LINE
  5
F722
  8
0
 10
1182.214277720906
 20
530.45930933705165
 30
0.0
 11
1182.214277720906
 21
522.45930933705165
 31
0.0
  0
LINE
  5
F723
  8
0
 10
1207.61768956525
 20
530.45930933705165
 30
0.0
 11
1207.61768956525
 21
522.45930933705165
 31
0.0
  0
LINE
  5
F724
  8
0
 10
1183.9463285284751
 20
531.45930933705165
 30
0.0
 11
1205.8856387576809
 21
531.45930933705165
 31
0.0
  0
LINE
  5
F725
  8
0
 10
1188.5651306819921
 20
530.45930933705165
 30
0.0
 11
1188.5651306819921
 21
522.45930933705176
 31
0.0
  0
LINE
  5
F726
  8
0
 10
1201.2668366041639
 20
530.45930933705165
 30
0.0
 11
1201.2668366041639
 21
522.45930933705176
 31
0.0
  0
ARC
  5
F727
  8
0
 10
1185.3897042014489
 20
525.91764267038525
 30
0.0
 40
5.5416666666664627
 50
55.039659594480987
 51
124.96034040551901
  0
ARC
  5
F728
  8
0
 10
1194.9159836430781
 20
510.79264267038531
 30
0.0
 40
20.66666666666627
 50
72.103448870744572
 51
107.8965511292554
  0
ARC
  5
F729
  8
0
 10
1204.4422630847071
 20
525.91764267038525
 30
0.0
 40
5.5416666666664627
 50
55.039659594480987
 51
124.96034040551901
  0
LINE
  5
F72A
  8
0
 10
1182.214277720906
 20
530.45930933705165
 30
0.0
 11
1183.9463285284751
 21
531.45930933705165
 31
0.0
  0
LINE
  5
F72B
  8
0
 10
1207.61768956525
 20
530.45930933705165
 30
0.0
 11
1205.8856387576809
 21
531.45930933705165
 31
0.0
  0
LINE
  5
F72C
  8
0
 10
1264.0563611089269
 20
530.45930933705176
 30
0.0
 11
1264.0563611089269
 21
522.45930933705176
 31
0.0
  0
LINE
  5
F72D
  8
0
 10
1289.4597729532711
 20
530.45930933705176
 30
0.0
 11
1289.4597729532711
 21
522.45930933705176
 31
0.0
  0
LINE
  5
F72E
  8
0
 10
1265.788411916496
 20
531.45930933705176
 30
0.0
 11
1287.727722145702
 21
531.45930933705165
 31
0.0
  0
LINE
  5
F72F
  8
0
 10
1270.407214070013
 20
530.45930933705176
 30
0.0
 11
1270.407214070013
 21
522.45930933705176
 31
0.0
  0
LINE
  5
F730
  8
0
 10
1283.1089199921851
 20
530.45930933705176
 30
0.0
 11
1283.1089199921851
 21
522.45930933705176
 31
0.0
  0
ARC
  5
F731
  8
0
 10
1267.2317875894701
 20
525.91764267038525
 30
0.0
 40
5.5416666666664627
 50
55.039659594480987
 51
124.96034040551901
  0
ARC
  5
F732
  8
0
 10
1276.758067031099
 20
510.79264267038542
 30
0.0
 40
20.66666666666627
 50
72.103448870744572
 51
107.8965511292554
  0
ARC
  5
F733
  8
0
 10
1286.284346472728
 20
525.91764267038536
 30
0.0
 40
5.5416666666664627
 50
55.039659594480987
 51
124.96034040551901
  0
LINE
  5
F734
  8
0
 10
1264.0563611089269
 20
530.45930933705176
 30
0.0
 11
1265.788411916496
 21
531.45930933705176
 31
0.0
  0
LINE
  5
F735
  8
0
 10
1289.4597729532711
 20
530.45930933705176
 30
0.0
 11
1287.727722145702
 21
531.45930933705176
 31
0.0
  0
LINE
  5
F736
  8
0
 10
1458.6808056822549
 20
531.45930933705142
 30
0.0
 11
1458.6808056822549
 21
522.45930933705142
 31
0.0
  0
LINE
  5
F739
  8
0
 10
1458.6808056822549
 20
531.45930933705142
 30
0.0
 11
1466.305500751143
 21
531.45930933705142
 31
0.0
  0
ARC
  5
F73A
  8
0
 10
1464.1808056822549
 20
515.83430933705142
 30
0.0
 40
15.625
 50
82.653652594121027
 51
110.6096929375304
  0
LINE
  5
F73D
  8
0
 10
1562.7051922998951
 20
531.45930933705142
 30
0.0
 11
1562.7051922998951
 21
522.45930933705108
 31
0.0
  0
LINE
  5
F73F
  8
0
 10
1555.080497231007
 20
531.45930933705131
 30
0.0
 11
1562.7051922998951
 21
531.45930933705142
 31
0.0
  0
ARC
  5
F741
  8
0
 10
1557.2051922998951
 20
515.83430933705131
 30
0.0
 40
15.625
 50
69.390307062469546
 51
97.346347405878092
  0
LINE
  5
F742
  8
0
 10
1291.1011227493909
 20
718.89796285674117
 30
0.0
 11
1313.837025337089
 21
718.89796285674083
 31
0.0
  0
LINE
  5
F743
  8
0
 10
1170.8370253370881
 20
718.89796285674083
 30
0.0
 11
1180.572927924786
 21
718.89796285674072
 31
0.0
  0
ARC
  5
F744
  8
0
 10
1176.8370253370881
 20
739.89796285674072
 30
0.0
 40
6.0
 50
90.0
 51
270.0
  0
LINE
  5
F745
  8
0
 10
1176.8370253370881
 20
745.89796285674072
 30
0.0
 11
1179.897031338289
 21
745.89796285674072
 31
0.0
  0
LINE
  5
F746
  8
0
 10
1176.8370253370881
 20
733.89796285674072
 30
0.0
 11
1179.897031338289
 21
733.89796285674061
 31
0.0
  0
LINE
  5
F747
  8
0
 10
1297.469157155718
 20
730.89796285674061
 30
0.0
 11
1309.837025337089
 21
730.89796285674061
 31
0.0
  0
LINE
  5
F748
  8
0
 10
1316.837025337089
 20
739.89796285674049
 30
0.0
 11
1316.8370253370881
 21
737.89796285674049
 31
0.0
  0
ARC
  5
F749
  8
0
 10
1309.837025337089
 20
737.89796285674061
 30
0.0
 40
7.0
 50
270.0
 51
0.0
  0
ARC
  5
F74A
  8
0
 10
1297.469157155718
 20
724.89796285674061
 30
0.0
 40
6.0
 50
90.0
 51
177.1902573247493
  0
LINE
  5
F74B
  8
0
 10
1297.469157155718
 20
748.89796285674083
 30
0.0
 11
1309.837025337089
 21
748.89796285674072
 31
0.0
  0
LINE
  5
F74C
  8
0
 10
1316.837025337089
 20
739.89796285674072
 30
0.0
 11
1316.8370253370881
 21
741.89796285674083
 31
0.0
  0
ARC
  5
F74D
  8
0
 10
1309.837025337089
 20
741.89796285674072
 30
0.0
 40
7.0
 50
359.9999999999992
 51
90.0
  0
ARC
  5
F74E
  8
0
 10
1297.469157155718
 20
754.89796285674083
 30
0.0
 40
6.0
 50
182.80974267524979
 51
270.0
  0
ARC
  5
F75E
  8
0
 10
936.89932451444975
 20
446.45930933705148
 30
0.0
 40
42.000000000000007
 50
187.69666893900839
 51
352.30333106099152
  0
LINE
  5
F763
  8
0
 10
990.89932451444986
 20
520.45930933705154
 30
0.0
 11
990.89932451444986
 21
518.92754729217029
 31
0.0
  0
ARC
  5
F764
  8
0
 10
988.89932451444975
 20
520.45930933705131
 30
0.0
 40
2.0
 50
0.000000000000007
 51
90.0
  0
LINE
  5
F765
  8
0
 10
882.89932451444975
 20
520.45930933705131
 30
0.0
 11
882.89932451444975
 21
518.92754729217063
 31
0.0
  0
ARC
  5
F766
  8
0
 10
884.89932451444963
 20
520.4593093370512
 30
0.0
 40
2.0
 50
90.0
 51
180.0
  0
LINE
  5
F769
  8
0
 10
988.89932451444986
 20
522.45930933705154
 30
0.0
 11
988.6801124574697
 21
522.45930933705154
 31
0.0
  0
LINE
  5
F76A
  8
0
 10
885.11853657142944
 20
522.45930933705097
 30
0.0
 11
884.89932451444963
 21
522.45930933705097
 31
0.0
  0
LINE
  5
F76E
  8
0
 10
988.91151782326961
 20
531.45930933705142
 30
0.0
 11
988.91151782326961
 21
522.45930933705142
 31
0.0
  0
LINE
  5
F771
  8
0
 10
988.91151782326961
 20
531.45930933705142
 30
0.0
 11
981.28682275438211
 21
531.45930933705154
 31
0.0
  0
ARC
  5
F772
  8
0
 10
983.41151782326961
 20
515.83430933705142
 30
0.0
 40
15.625
 50
69.39030706246956
 51
97.346347405878959
  0
LINE
  5
F775
  8
0
 10
884.88713120563011
 20
531.45930933705142
 30
0.0
 11
884.88713120563011
 21
522.45930933705108
 31
0.0
  0
LINE
  5
F777
  8
0
 10
892.51182627451703
 20
531.45930933705131
 30
0.0
 11
884.88713120563011
 21
531.45930933705142
 31
0.0
  0
ARC
  5
F779
  8
0
 10
890.38713120563011
 20
515.83430933705131
 30
0.0
 40
15.625
 50
82.653652594121894
 51
110.6096929375304
  0
ARC
  5
F77A
  8
0
 10
936.89932451444975
 20
417.95930933705148
 30
0.0
 40
12.01041214946431
 50
140.21694629989241
 51
39.783053700107608
  0
LINE
  5
F77B
  8
0
 10
1252.8370253370881
 20
766.89796285674061
 30
0.0
 11
1252.8370253370881
 21
784.89796285674049
 31
0.0
  0
ARC
  5
F77C
  8
0
 10
1250.8370253370881
 20
766.89796285674061
 30
0.0
 40
2.0
 50
270.0
 51
0.0
  0
LINE
  5
F77D
  8
0
 10
1218.8370253370881
 20
766.89796285674061
 30
0.0
 11
1218.8370253370881
 21
784.89796285674061
 31
0.0
  0
ARC
  5
F77E
  8
0
 10
1220.8370253370881
 20
784.89796285674061
 30
0.0
 40
2.0
 50
90.0
 51
180.0
  0
LINE
  5
F77F
  8
0
 10
1096.1148221093449
 20
485.07058994265429
 30
0.0
 11
1056.1148221093449
 21
485.07058994265429
 31
0.0
  0
LINE
  5
F780
  8
0
 10
1076.2108221093449
 20
489.07058994265429
 30
0.0
 11
1088.1148221093449
 21
489.07058994265429
 31
0.0
  0
LINE
  5
F781
  8
0
 10
1048.1148221093449
 20
493.07058994265429
 30
0.0
 11
1056.1148221093449
 21
485.07058994265429
 31
0.0
  0
LINE
  5
F782
  8
0
 10
1088.1148221093449
 20
489.07058994265429
 30
0.0
 11
1088.1148221093449
 21
493.07058994265458
 31
0.0
  0
LINE
  5
F783
  8
0
 10
1088.1148221093449
 20
493.07058994265429
 30
0.0
 11
1096.1148221093449
 21
485.07058994265429
 31
0.0
  0
LINE
  5
F784
  8
0
 10
1076.2108221093449
 20
489.07058994265429
 30
0.0
 11
1072.1148221093449
 21
493.07058994265429
 31
0.0
  0
LINE
  5
F785
  8
0
 10
1072.1148221093449
 20
493.07058994265429
 30
0.0
 11
1048.1148221093449
 21
493.07058994265429
 31
0.0
  0
LINE
  5
F786
  8
0
 10
1098.5059541649309
 20
733.60979525571508
 30
0.0
 11
1058.5059541649309
 21
733.60979525571508
 31
0.0
  0
LINE
  5
F787
  8
0
 10
1078.6019541649309
 20
737.60979525571508
 30
0.0
 11
1090.5059541649309
 21
737.60979525571508
 31
0.0
  0
LINE
  5
F788
  8
0
 10
1050.5059541649309
 20
741.60979525571508
 30
0.0
 11
1058.5059541649309
 21
733.60979525571508
 31
0.0
  0
LINE
  5
F789
  8
0
 10
1090.5059541649309
 20
737.60979525571508
 30
0.0
 11
1090.5059541649309
 21
741.60979525571543
 31
0.0
  0
LINE
  5
F78A
  8
0
 10
1090.5059541649309
 20
741.60979525571508
 30
0.0
 11
1098.5059541649309
 21
733.60979525571508
 31
0.0
  0
LINE
  5
F78B
  8
0
 10
1078.6019541649309
 20
737.60979525571508
 30
0.0
 11
1074.5059541649309
 21
741.60979525571508
 31
0.0
  0
LINE
  5
F78C
  8
0
 10
1074.5059541649309
 20
741.60979525571508
 30
0.0
 11
1050.5059541649309
 21
741.60979525571508
 31
0.0
  0
LINE
  5
F78D
  8
0
 10
1376.1621909784019
 20
938.27846499085126
 30
0.0
 11
1416.1621909784019
 21
938.27846499085126
 31
0.0
  0
LINE
  5
F78E
  8
0
 10
1396.0661909784019
 20
942.27846499085115
 30
0.0
 11
1384.1621909784019
 21
942.27846499085115
 31
0.0
  0
LINE
  5
F78F
  8
0
 10
1424.1621909784019
 20
946.27846499085115
 30
0.0
 11
1416.1621909784019
 21
938.27846499085126
 31
0.0
  0
LINE
  5
F790
  8
0
 10
1384.1621909784019
 20
942.27846499085115
 30
0.0
 11
1384.1621909784019
 21
946.27846499085149
 31
0.0
  0
LINE
  5
F791
  8
0
 10
1384.1621909784019
 20
946.27846499085115
 30
0.0
 11
1376.1621909784019
 21
938.27846499085126
 31
0.0
  0
LINE
  5
F792
  8
0
 10
1396.0661909784019
 20
942.27846499085115
 30
0.0
 11
1400.1621909784019
 21
946.27846499085115
 31
0.0
  0
LINE
  5
F793
  8
0
 10
1400.1621909784019
 20
946.27846499085115
 30
0.0
 11
1424.1621909784019
 21
946.27846499085115
 31
0.0
  0
LINE
  5
F794
  8
0
 10
1315.837025337089
 20
471.45930933705171
 30
0.0
 11
1316.671961827627
 21
471.45930933705171
 31
0.0
  0
ARC
  5
F795
  8
0
 10
1315.837025337089
 20
469.45930933705171
 30
0.0
 40
2.0
 50
90.0
 51
180.0
  0
LINE
  5
F796
  8
0
 10
1315.837025337089
 20
503.45930933705159
 30
0.0
 11
1316.671961827627
 21
503.45930933705159
 31
0.0
  0
ARC
  5
F797
  8
0
 10
1315.837025337089
 20
505.45930933705159
 30
0.0
 40
2.0
 50
180.0
 51
270.0
  0
LINE
  5
F798
  8
0
 10
1168.0020888465499
 20
471.45930933705159
 30
0.0
 11
1168.8370253370881
 21
471.45930933705159
 31
0.0
  0
LINE
  5
F799
  8
0
 10
1168.0020888465499
 20
503.45930933705159
 30
0.0
 11
1168.8370253370881
 21
503.45930933705159
 31
0.0
  0
LINE
  5
F79A
  8
0
 10
1170.8370253370881
 20
505.45930933705159
 30
0.0
 11
1170.8370253370881
 21
510.45930933705171
 31
0.0
  0
ARC
  5
F79B
  8
0
 10
1168.8370253370881
 20
505.45930933705159
 30
0.0
 40
2.0
 50
269.99999999999352
 51
0.0
  0
LINE
  5
F79C
  8
0
 10
1170.8370253370881
 20
469.45930933705159
 30
0.0
 11
1170.8370253370881
 21
466.45930933705159
 31
0.0
  0
ARC
  5
F79D
  8
0
 10
1168.8370253370881
 20
469.45930933705159
 30
0.0
 40
2.0
 50
0.0
 51
90.0
  0
LINE
  5
F79E
  8
0
 10
1313.8370253370881
 20
466.45930933705159
 30
0.0
 11
1313.8370253370881
 21
469.45930933705171
 31
0.0
  0
LINE
  5
F79F
  8
0
 10
1313.837025337089
 20
505.45930933705159
 30
0.0
 11
1313.8370253370881
 21
510.45930933705171
 31
0.0
  0
LINE
  5
F7AF
  8
0
 10
1322.502088846549
 20
503.45930933705159
 30
0.0
 11
1322.502088846549
 21
471.45930933705171
 31
0.0
  0
ARC
  5
F7B0
  8
0
 10
1319.5870253370899
 20
499.90308258686349
 30
0.0
 40
4.598297941949661
 50
50.658291231536978
 51
129.3417087684947
  0
ARC
  5
F7B1
  8
0
 10
1319.5870253370899
 20
475.01553608723981
 30
0.0
 40
4.598297941949661
 50
230.6582912315053
 51
309.34170876846349
  0
LINE
  5
F7B2
  8
0
 10
1316.6719618276279
 20
503.45930933705017
 30
0.0
 11
1316.671961827629
 21
471.45930933705301
 31
0.0
  0
LINE
  5
F7BE
  8
0
 10
1162.1719618276279
 20
503.45930933705159
 30
0.0
 11
1162.1719618276279
 21
471.45930933705171
 31
0.0
  0
ARC
  5
F7BF
  8
0
 10
1165.087025337087
 20
499.90308258686349
 30
0.0
 40
4.598297941949661
 50
50.658291231504712
 51
129.3417087684623
  0
ARC
  5
F7C0
  8
0
 10
1165.087025337087
 20
475.01553608723981
 30
0.0
 40
4.598297941949661
 50
230.65829123153739
 51
309.34170876849532
  0
LINE
  5
F7C2
  8
0
 10
1168.002088846549
 20
503.45930933705017
 30
0.0
 11
1168.0020888465469
 21
471.45930933705159
 31
0.0
  0
LINE
  5
F7C3
  8
0
 10
1301.3370253370881
 20
478.4593093370533
 30
0.0
 11
1313.3370253370881
 21
478.4593093370533
 31
0.0
  0
ARC
  5
F7C4
  8
0
 10
1301.3370253370881
 20
479.9593093370533
 30
0.0
 40
1.4999999999999989
 50
180.0
 51
270.0
  0
LINE
  5
F7C5
  8
0
 10
1301.3370253370881
 20
496.4593093370533
 30
0.0
 11
1313.3370253370881
 21
496.4593093370533
 31
0.0
  0
ARC
  5
F7C6
  8
0
 10
1301.3370253370881
 20
494.9593093370533
 30
0.0
 40
1.4999999999999989
 50
90.0
 51
180.0
  0
LINE
  5
F7C7
  8
0
 10
1299.8370253370881
 20
494.9593093370533
 30
0.0
 11
1299.8370253370881
 21
479.9593093370533
 31
0.0
  0
LINE
  5
F7C8
  8
0
 10
1314.8370253370881
 20
494.9593093370533
 30
0.0
 11
1314.8370253370881
 21
479.9593093370533
 31
0.0
  0
ARC
  5
F7C9
  8
0
 10
1313.3370253370881
 20
479.9593093370533
 30
0.0
 40
1.4999999999999989
 50
270.0
 51
0.0
  0
ARC
  5
F7CA
  8
0
 10
1313.3370253370881
 20
494.9593093370533
 30
0.0
 40
1.4999999999999989
 50
0.0
 51
90.0
  0
LINE
  5
F7CB
  8
0
 10
1170.8370253370881
 20
762.89796285674061
 30
0.0
 11
1180.7199913854929
 21
762.89796285674061
 31
0.0
  0
LINE
  5
F7CC
  8
0
 10
1290.954059288684
 20
762.89796285674061
 30
0.0
 11
1313.8370253370881
 21
762.89796285674061
 31
0.0
  0
LINE
  5
F7CD
  8
0
 10
1308.8370253370881
 20
718.89796285674049
 30
0.0
 11
1313.8370253370881
 21
718.89796285674049
 31
0.0
  0
LINE
  5
F7CE
  8
0
 10
1315.837025337089
 20
723.89796285674061
 30
0.0
 11
1316.671961827627
 21
723.89796285674061
 31
0.0
  0
ARC
  5
F7CF
  8
0
 10
1315.837025337089
 20
721.89796285674061
 30
0.0
 40
2.0
 50
90.0
 51
180.0
  0
ARC
  5
F7D0
  8
0
 10
1315.837025337089
 20
757.89796285674061
 30
0.0
 40
2.0
 50
180.0
 51
270.0
  0
LINE
  5
F7D1
  8
0
 10
1168.0020888465499
 20
723.89796285674061
 30
0.0
 11
1168.8370253370881
 21
723.89796285674061
 31
0.0
  0
LINE
  5
F7D2
  8
0
 10
1170.8370253370881
 20
757.89796285674061
 30
0.0
 11
1170.8370253370881
 21
762.89796285674061
 31
0.0
  0
ARC
  5
F7D3
  8
0
 10
1168.8370253370881
 20
757.89796285674061
 30
0.0
 40
2.0
 50
269.99999999999352
 51
0.0
  0
LINE
  5
F7D4
  8
0
 10
1170.8370253370881
 20
721.89796285674061
 30
0.0
 11
1170.8370253370881
 21
718.89796285674049
 31
0.0
  0
ARC
  5
F7D5
  8
0
 10
1168.8370253370881
 20
721.89796285674061
 30
0.0
 40
2.0
 50
0.0
 51
90.0
  0
LINE
  5
F7D6
  8
0
 10
1313.8370253370881
 20
718.89796285674049
 30
0.0
 11
1313.8370253370881
 21
721.89796285674061
 31
0.0
  0
LINE
  5
F7D7
  8
0
 10
1313.837025337089
 20
757.89796285674061
 30
0.0
 11
1313.8370253370881
 21
762.89796285674061
 31
0.0
  0
LINE
  5
F7D8
  8
0
 10
1316.6719618276279
 20
755.89796285673924
 30
0.0
 11
1316.6719618276279
 21
743.40913563650065
 31
0.0
  0
LINE
  5
F7D9
  8
0
 10
1316.6719618276279
 20
736.38679007698136
 30
0.0
 11
1316.671961827629
 21
723.89796285674186
 31
0.0
  0
LINE
  5
F7DA
  8
0
 10
1168.002088846549
 20
755.89796285673913
 30
0.0
 11
1168.0020888465469
 21
723.89796285674061
 31
0.0
  0
LINE
  5
F7DB
  8
0
 10
1168.8370253370881
 20
755.89796285674061
 30
0.0
 11
1168.002088846549
 21
755.89796285673913
 31
0.0
  0
LINE
  5
F7DC
  8
0
 10
1315.837025337089
 20
755.89796285674061
 30
0.0
 11
1316.6719618276279
 21
755.89796285674061
 31
0.0
  0
LINE
  5
F7E7
  8
0
 10
1322.502088846549
 20
755.89796285674049
 30
0.0
 11
1322.502088846549
 21
723.89796285674061
 31
0.0
  0
ARC
  5
F7E8
  8
0
 10
1319.5870253370899
 20
752.34173610655239
 30
0.0
 40
4.598297941949661
 50
50.6582912315369
 51
129.3417087684947
  0
ARC
  5
F7E9
  8
0
 10
1319.5870253370899
 20
727.45418960692859
 30
0.0
 40
4.598297941949661
 50
230.6582912315053
 51
309.34170876846338
  0
LINE
  5
F7F5
  8
0
 10
1162.1719618276279
 20
755.89796285674049
 30
0.0
 11
1162.1719618276279
 21
723.89796285674061
 31
0.0
  0
ARC
  5
F7F6
  8
0
 10
1165.087025337087
 20
752.34173610655239
 30
0.0
 40
4.598297941949661
 50
50.658291231504528
 51
129.3417087684623
  0
ARC
  5
F7F7
  8
0
 10
1165.087025337087
 20
727.45418960692859
 30
0.0
 40
4.598297941949661
 50
230.65829123153759
 51
309.34170876849549
  0
LINE
  5
F7F9
  8
0
 10
1300.8370253370881
 20
961.63538979118755
 30
0.0
 11
1157.8370253370881
 21
961.63538979118755
 31
0.0
  0
LINE
  5
F7FA
  8
0
 10
1300.3370253370881
 20
929.63538979118744
 30
0.0
 11
1288.3370253370881
 21
929.63538979118744
 31
0.0
  0
ARC
  5
F7FB
  8
0
 10
1300.3370253370881
 20
931.13538979118755
 30
0.0
 40
1.4999999999999989
 50
270.0
 51
0.0
  0
LINE
  5
F7FC
  8
0
 10
1300.3370253370881
 20
947.63538979118744
 30
0.0
 11
1288.3370253370881
 21
947.63538979118744
 31
0.0
  0
ARC
  5
F7FD
  8
0
 10
1300.3370253370881
 20
946.13538979118755
 30
0.0
 40
1.4999999999999989
 50
0.0
 51
90.0
  0
LINE
  5
F7FE
  8
0
 10
1289.8370253370881
 20
949.63538979118732
 30
0.0
 11
1235.8370253370881
 21
949.63538979118721
 31
0.0
  0
ARC
  5
F7FF
  8
0
 10
1286.3370253370881
 20
947.63538979118744
 30
0.0
 40
1.9999999999999989
 50
90.0
 51
180.0
  0
LINE
  5
F800
  8
0
 10
1235.8370253370881
 20
949.63538979118732
 30
0.0
 11
1181.8370253370881
 21
949.63538979118732
 31
0.0
  0
ARC
  5
F801
  8
0
 10
1185.3370253370881
 20
947.63538979118744
 30
0.0
 40
1.9999999999999989
 50
0.0
 51
90.0
  0
LINE
  5
F802
  8
0
 10
1277.8370253370881
 20
881.07188146429087
 30
0.0
 11
1277.8370253370881
 21
857.19889811808378
 31
0.0
  0
LINE
  5
F803
  8
0
 10
1284.3370253370881
 20
947.63538979118744
 30
0.0
 11
1284.3370253370881
 21
925.97815593123846
 31
0.0
  0
LINE
  5
F804
  8
0
 10
1179.8370253370881
 20
961.63538979118755
 30
0.0
 11
1179.8370253370881
 21
951.63538979118755
 31
0.0
  0
ARC
  5
F805
  8
0
 10
1181.8370253370881
 20
951.63538979118755
 30
0.0
 40
1.9999999999999989
 50
180.0
 51
270.0
  0
LINE
  5
F806
  8
0
 10
1165.613497246811
 20
900.55949789614806
 30
0.0
 11
1154.5767516146259
 21
897.60215050550471
 31
0.0
  0
ARC
  5
F807
  8
0
 10
1164.8370253370881
 20
903.45727141618227
 30
0.0
 40
2.9999999999999991
 50
285.00029212464182
 51
0.0
  0
LINE
  5
F808
  8
0
 10
1203.452961127969
 20
867.21709948256478
 30
0.0
 11
1165.4471515090729
 21
857.03326580083694
 31
0.0
  0
LINE
  5
F809
  8
0
 10
1164.834779733206
 20
857.38681672901407
 30
0.0
 11
1165.4471515090729
 21
857.03326580083694
 31
0.0
  0
LINE
  5
F80A
  8
0
 10
1167.8370253370881
 20
903.45727141618227
 30
0.0
 11
1167.8370253370881
 21
912.63538979118755
 31
0.0
  0
LINE
  5
F80B
  8
0
 10
1277.8370253370881
 20
912.63538979118744
 30
0.0
 11
1277.8370253370881
 21
897.63538979118744
 31
0.0
  0
ARC
  5
F80C
  8
0
 10
1282.8370253370881
 20
912.63538979118744
 30
0.0
 40
4.9999999999999982
 50
90.0
 51
180.0
  0
ARC
  5
F80D
  8
0
 10
1176.8370253370881
 20
962.63538979118744
 30
0.0
 40
2.9999999999999991
 50
270.0
 51
340.52877936550522
  0
LINE
  5
F80E
  8
0
 10
1301.837025337089
 20
946.13538979118755
 30
0.0
 11
1301.837025337089
 21
931.13538979118755
 31
0.0
  0
LINE
  5
F80F
  8
0
 10
1286.8370253370881
 20
946.13538979118755
 30
0.0
 11
1286.8370253370881
 21
931.13538979118755
 31
0.0
  0
ARC
  5
F810
  8
0
 10
1288.3370253370881
 20
931.13538979118755
 30
0.0
 40
1.4999999999999989
 50
180.0
 51
270.0
  0
ARC
  5
F811
  8
0
 10
1288.3370253370881
 20
946.13538979118755
 30
0.0
 40
1.4999999999999989
 50
90.0
 51
180.0
  0
LINE
  5
F812
  8
0
 10
1300.8370253370881
 20
917.63538979118755
 30
0.0
 11
1282.8370253370881
 21
917.63538979118755
 31
0.0
  0
LINE
  5
F813
  8
0
 10
1162.8370253370881
 20
917.63538979118766
 30
0.0
 11
1157.8370253370881
 21
917.63538979118766
 31
0.0
  0
ARC
  5
F814
  8
0
 10
1162.8370253370881
 20
912.63538979118755
 30
0.0
 40
4.9999999999999982
 50
0.0
 51
90.0
  0
ARC
  5
F815
  8
0
 10
1235.8370253370881
 20
897.63538979118744
 30
0.0
 40
41.999999999999979
 50
180.0
 51
285.35888558081979
  0
ARC
  5
F816
  8
0
 10
1204.747080977507
 20
862.38747694917447
 30
0.0
 40
4.9999999999999982
 50
48.586531312752463
 51
105.0002921246418
  0
ARC
  5
F817
  8
0
 10
1235.8370253370881
 20
897.63538979118744
 30
0.0
 40
41.999999999999979
 50
285.35888558081979
 51
0.0
  0
ARC
  5
F818
  8
0
 10
1277.3791726094671
 20
883.13538979118744
 30
0.0
 40
1.9999999999999989
 50
160.7588112368727
 51
270.0
  0
LINE
  5
F819
  8
0
 10
1246.9613230677321
 20
857.13538979118744
 30
0.0
 11
1277.3370253370881
 21
857.13538979118744
 31
0.0
  0
ARC
  5
F81A
  8
0
 10
1277.3370253370881
 20
859.13538979118744
 30
0.0
 40
1.9999999999999989
 50
270.0
 51
284.47751218592992
  0
LINE
  5
F81B
  8
0
 10
1277.3791726094671
 20
881.13538979118755
 30
0.0
 11
1277.3370253370881
 21
881.13538979118755
 31
0.0
  0
ARC
  5
F81C
  8
0
 10
1277.3370253370881
 20
879.13538979118732
 30
0.0
 40
1.9999999999999989
 50
75.522487814070075
 51
90.0
  0
LINE
  5
F81D
  8
0
 10
1154.2231988838521
 20
896.9897756074306
 30
0.0
 11
1164.834779733206
 21
857.38681672901384
 31
0.0
  0
LINE
  5
F81E
  8
0
 10
1154.5767516146259
 20
897.60215050550471
 30
0.0
 11
1154.2231988838521
 21
896.9897756074306
 31
0.0
  0
LINE
  5
F81F
  8
0
 10
1277.3370253370881
 20
918.97815593123835
 30
0.0
 11
1194.3370253370881
 21
918.97815593123835
 31
0.0
  0
ARC
  5
F820
  8
0
 10
1277.3370253370881
 20
925.97815593123846
 30
0.0
 40
6.9999999999999973
 50
270.0
 51
0.0
  0
LINE
  5
F821
  8
0
 10
1187.3370253370881
 20
947.63538979118744
 30
0.0
 11
1187.3370253370881
 21
925.97815593123846
 31
0.0
  0
ARC
  5
F822
  8
0
 10
1194.3370253370881
 20
925.97815593123846
 30
0.0
 40
6.9999999999999973
 50
180.0
 51
270.0
  0
LINE
  5
F823
  8
0
 10
1193.8370253370881
 20
918.99603590935408
 30
0.0
 11
1193.8370253370881
 21
897.63538979118744
 31
0.0
  0
LINE
  5
F824
  8
0
 10
1291.8370253370881
 20
961.63538979118732
 30
0.0
 11
1291.8370253370881
 21
951.63538979118755
 31
0.0
  0
ARC
  5
F825
  8
0
 10
1289.8370253370881
 20
951.63538979118755
 30
0.0
 40
1.9999999999999989
 50
270.0
 51
0.0
  0
LINE
  5
F826
  8
0
 10
1154.5767516146259
 20
897.60215050550471
 30
0.0
 11
1165.447358350744
 21
857.03332122502616
 31
0.0
  0
LINE
  5
F827
  8
0
 10
1176.8370253370881
 20
959.63538979118755
 30
0.0
 11
1157.8370253370881
 21
959.63538979118732
 31
0.0
  0
LINE
  5
F828
  8
0
 10
1179.8370253370881
 20
985.63538979118744
 30
0.0
 11
1179.8370253370881
 21
962.63538979118755
 31
0.0
  0
ARC
  5
F829
  8
0
 10
1181.8370253370881
 20
985.63538979118744
 30
0.0
 40
2.0
 50
90.0
 51
180.0
  0
ARC
  5
F82A
  8
0
 10
1181.8370253370881
 20
962.63538979118755
 30
0.0
 40
2.0
 50
180.0
 51
209.99999999999841
  0
LINE
  5
F82B
  8
0
 10
1225.8370253370881
 20
996.63538979118755
 30
0.0
 11
1245.8370253370881
 21
996.63538979118755
 31
0.0
  0
LINE
  5
F82C
  8
0
 10
1181.8370253370881
 20
987.63538979118755
 30
0.0
 11
1221.8370253370881
 21
987.63538979118721
 31
0.0
  0
ARC
  5
F82D
  8
0
 10
1221.8370253370881
 20
989.63538979118744
 30
0.0
 40
2.0
 50
270.0
 51
0.0
  0
ARC
  5
F82E
  8
0
 10
1252.8370253370881
 20
978.63538979118744
 30
0.0
 40
5.0
 50
180.0
 51
270.0
  0
LINE
  5
F82F
  8
0
 10
1291.8370253370881
 20
971.63538979118755
 30
0.0
 11
1291.8370253370881
 21
962.63538979118755
 31
0.0
  0
ARC
  5
F830
  8
0
 10
1289.8370253370881
 20
971.63538979118744
 30
0.0
 40
2.0
 50
0.0
 51
90.0
  0
ARC
  5
F831
  8
0
 10
1289.8370253370881
 20
962.63538979118744
 30
0.0
 40
2.0
 50
330.00000000000148
 51
0.0
  0
LINE
  5
F832
  8
0
 10
1247.8370253370881
 20
994.63538979118744
 30
0.0
 11
1247.8370253370881
 21
978.63538979118755
 31
0.0
  0
LINE
  5
F833
  8
0
 10
1245.8370253370881
 20
996.63538979118755
 30
0.0
 11
1247.8370253370881
 21
994.63538979118744
 31
0.0
  0
LINE
  5
F834
  8
0
 10
1223.8370253370881
 20
994.63538979118744
 30
0.0
 11
1223.8370253370881
 21
978.63538979118744
 31
0.0
  0
LINE
  5
F835
  8
0
 10
1225.8370253370881
 20
996.63538979118755
 30
0.0
 11
1223.8370253370881
 21
994.63538979118744
 31
0.0
  0
LINE
  5
F836
  8
0
 10
1179.8370253370881
 20
973.63538979118766
 30
0.0
 11
1289.8370253370881
 21
973.63538979118755
 31
0.0
  0
LINE
  5
F837
  8
0
 10
1291.5690761446569
 20
961.63538979118744
 30
0.0
 11
1180.10497452952
 21
961.63538979118755
 31
0.0
  0
ARC
  5
F838
  8
0
 10
1218.8370253370881
 20
978.63538979118744
 30
0.0
 40
5.0
 50
270.0
 51
0.0
  0
LINE
  5
F839
  8
0
 10
1159.4669426944049
 20
868.53720338601397
 30
0.0
 11
1152.3171597282139
 21
866.62142481416527
 31
0.0
  0
LINE
  5
F83A
  8
0
 10
1152.3171597282139
 20
866.62142481416527
 30
0.0
 11
1153.3379420420979
 21
862.81181335528117
 31
0.0
  0
LINE
  5
F83B
  8
0
 10
1153.3379420420979
 20
862.81181335528117
 30
0.0
 11
1160.48772500829
 21
864.72759192712988
 31
0.0
  0
LINE
  5
F83C
  8
0
 10
1144.1157189093119
 20
892.21066805217549
 30
0.0
 11
1144.7881137061811
 21
894.72020710091419
 31
0.0
  0
LINE
  5
F83D
  8
0
 10
1144.7881137061811
 20
894.72020710091419
 30
0.0
 11
1151.937896672373
 21
896.63598567276313
 31
0.0
  0
LINE
  5
F83E
  8
0
 10
1151.937896672373
 20
896.63598567276313
 30
0.0
 11
1153.7749771722031
 21
894.79885850320068
 31
0.0
  0
LINE
  5
F83F
  8
0
 10
1153.774977172201
 20
894.79885850320295
 30
0.0
 11
1163.351152431474
 21
859.06008589341855
 31
0.0
  0
LINE
  5
F840
  8
0
 10
1163.351152431474
 20
859.06008589341855
 30
0.0
 11
1162.6787576346051
 21
856.55054684467984
 31
0.0
  0
LINE
  5
F841
  8
0
 10
1162.6787576346051
 20
856.55054684467984
 30
0.0
 11
1155.528974668413
 21
854.63476827283125
 31
0.0
  0
LINE
  5
F842
  8
0
 10
1155.528974668413
 20
854.63476827283125
 30
0.0
 11
1153.6918941685831
 21
856.47189544239336
 31
0.0
  0
LINE
  5
F843
  8
0
 10
1153.6918941685831
 20
856.47189544239336
 30
0.0
 11
1144.1157189093119
 21
892.21066805217549
 31
0.0
  0
ARC
  5
F844
  8
0
 10
1163.0427818547589
 20
861.03015209312616
 30
0.0
 40
9.8670275484803067
 50
169.5972022855338
 51
220.40279771446691
  0
LINE
  5
F845
  8
0
 10
1155.149841022095
 20
884.64884616851577
 30
0.0
 11
1148.0000580559031
 21
882.73306759666696
 31
0.0
  0
LINE
  5
F846
  8
0
 10
1148.0000580559031
 20
882.73306759666696
 30
0.0
 11
1146.9792757420189
 21
886.54267905555105
 31
0.0
  0
LINE
  5
F847
  8
0
 10
1146.9792757420189
 20
886.54267905555105
 30
0.0
 11
1154.129058708211
 21
888.45845762739987
 31
0.0
  0
ARC
  5
F848
  8
0
 10
1154.4930829283651
 20
892.93806287584641
 30
0.0
 40
9.8670275484803067
 50
169.5972022855338
 51
220.40279771447149
  0
ARC
  5
F849
  8
0
 10
1184.9104148950551
 20
883.98896455944214
 30
0.0
 40
36.931716981134642
 50
181.94877133349451
 51
208.051228666507
  0
LINE
  5
F84A
  8
0
 10
1159.4669426944049
 20
868.53720338601397
 30
0.0
 11
1160.48772500829
 21
864.72759192712988
 31
0.0
  0
ARC
  5
F84B
  8
0
 10
1152.973917821944
 20
858.33220810683474
 30
0.0
 40
9.8670275484803067
 50
349.5972022855338
 51
40.402797714471554
  0
LINE
  5
F84C
  8
0
 10
1155.149841022095
 20
884.64884616851577
 30
0.0
 11
1154.129058708211
 21
888.45845762739987
 31
0.0
  0
ARC
  5
F84D
  8
0
 10
1144.42421889555
 20
890.24011888955499
 30
0.0
 40
9.8670275484803067
 50
349.5972022855338
 51
40.402797714471149
  0
ARC
  5
F84E
  8
0
 10
1122.5565858552529
 20
867.2813064232389
 30
0.0
 40
36.931716981134642
 50
1.94877133349458
 51
28.051228666506962
  0
LINE
  5
F84F
  8
0
 10
1163.351152431474
 20
859.06008589341855
 30
0.0
 11
1164.3170782577629
 21
859.31890493852086
 31
0.0
  0
LINE
  5
F850
  8
0
 10
1153.7749771722031
 20
894.79885850320068
 30
0.0
 11
1154.7409029984919
 21
895.05767754830345
 31
0.0
  0
LINE
  5
F851
  8
0
 10
1144.7881137061811
 20
894.72020710091419
 30
0.0
 11
1155.528974668413
 21
854.63476827283125
 31
0.0
  0
LINE
  5
F852
  8
0
 10
1289.4597729532711
 20
981.63538979118755
 30
0.0
 11
1289.4597729532711
 21
973.63538979118755
 31
0.0
  0
LINE
  5
F853
  8
0
 10
1264.0563611089269
 20
981.63538979118755
 30
0.0
 11
1264.0563611089269
 21
973.63538979118755
 31
0.0
  0
LINE
  5
F854
  8
0
 10
1287.7277221457009
 20
982.63538979118766
 30
0.0
 11
1265.788411916496
 21
982.63538979118755
 31
0.0
  0
LINE
  5
F855
  8
0
 10
1283.1089199921851
 20
981.63538979118755
 30
0.0
 11
1283.1089199921851
 21
973.63538979118766
 31
0.0
  0
LINE
  5
F856
  8
0
 10
1270.407214070013
 20
981.63538979118755
 30
0.0
 11
1270.407214070013
 21
973.63538979118766
 31
0.0
  0
ARC
  5
F857
  8
0
 10
1286.2843464727271
 20
977.09372312452115
 30
0.0
 40
5.5416666666664627
 50
55.03965959448194
 51
124.960340405518
  0
ARC
  5
F858
  8
0
 10
1276.758067031099
 20
961.96872312452115
 30
0.0
 40
20.66666666666627
 50
72.103448870737637
 51
107.89655112926231
  0
ARC
  5
F859
  8
0
 10
1267.2317875894701
 20
977.09372312452126
 30
0.0
 40
5.5416666666664627
 50
55.03965959448194
 51
124.960340405518
  0
LINE
  5
F85A
  8
0
 10
1289.4597729532711
 20
981.63538979118755
 30
0.0
 11
1287.7277221457009
 21
982.63538979118766
 31
0.0
  0
LINE
  5
F85B
  8
0
 10
1264.0563611089269
 20
981.63538979118755
 30
0.0
 11
1265.788411916496
 21
982.63538979118766
 31
0.0
  0
LINE
  5
F85C
  8
0
 10
1207.61768956525
 20
981.63538979118766
 30
0.0
 11
1207.61768956525
 21
973.63538979118766
 31
0.0
  0
LINE
  5
F85D
  8
0
 10
1182.214277720906
 20
981.63538979118766
 30
0.0
 11
1182.214277720906
 21
973.63538979118766
 31
0.0
  0
LINE
  5
F85E
  8
0
 10
1205.8856387576809
 20
982.63538979118766
 30
0.0
 11
1183.9463285284751
 21
982.63538979118766
 31
0.0
  0
LINE
  5
F85F
  8
0
 10
1201.2668366041639
 20
981.63538979118766
 30
0.0
 11
1201.2668366041639
 21
973.63538979118766
 31
0.0
  0
LINE
  5
F860
  8
0
 10
1188.5651306819921
 20
981.63538979118766
 30
0.0
 11
1188.5651306819921
 21
973.63538979118766
 31
0.0
  0
ARC
  5
F861
  8
0
 10
1204.4422630847071
 20
977.09372312452126
 30
0.0
 40
5.5416666666664627
 50
55.03965959448194
 51
124.960340405518
  0
ARC
  5
F862
  8
0
 10
1194.9159836430781
 20
961.96872312452126
 30
0.0
 40
20.66666666666627
 50
72.103448870737637
 51
107.89655112926231
  0
ARC
  5
F863
  8
0
 10
1185.3897042014489
 20
977.09372312452126
 30
0.0
 40
5.5416666666664627
 50
55.03965959448194
 51
124.960340405518
  0
LINE
  5
F864
  8
0
 10
1207.61768956525
 20
981.63538979118766
 30
0.0
 11
1205.8856387576809
 21
982.63538979118766
 31
0.0
  0
LINE
  5
F865
  8
0
 10
1182.214277720906
 20
981.63538979118766
 30
0.0
 11
1183.9463285284751
 21
982.63538979118766
 31
0.0
  0
LINE
  5
F866
  8
0
 10
1155.8370253370881
 20
922.63538979118755
 30
0.0
 11
1155.002088846549
 21
922.63538979118755
 31
0.0
  0
ARC
  5
F867
  8
0
 10
1155.8370253370881
 20
920.63538979118755
 30
0.0
 40
2.0
 50
0.0
 51
90.0
  0
LINE
  5
F868
  8
0
 10
1155.8370253370881
 20
954.63538979118755
 30
0.0
 11
1155.002088846549
 21
954.63538979118755
 31
0.0
  0
ARC
  5
F869
  8
0
 10
1155.8370253370881
 20
956.63538979118755
 30
0.0
 40
2.0
 50
270.0
 51
0.0
  0
LINE
  5
F86A
  8
0
 10
1303.671961827627
 20
922.63538979118755
 30
0.0
 11
1302.8370253370881
 21
922.63538979118755
 31
0.0
  0
LINE
  5
F86B
  8
0
 10
1303.671961827627
 20
954.63538979118755
 30
0.0
 11
1302.8370253370881
 21
954.63538979118755
 31
0.0
  0
LINE
  5
F86C
  8
0
 10
1300.8370253370881
 20
956.63538979118755
 30
0.0
 11
1300.8370253370881
 21
961.63538979118755
 31
0.0
  0
ARC
  5
F86D
  8
0
 10
1302.8370253370881
 20
956.63538979118755
 30
0.0
 40
2.0
 50
180.0
 51
270.0
  0
LINE
  5
F86E
  8
0
 10
1300.8370253370881
 20
920.63538979118755
 30
0.0
 11
1300.8370253370881
 21
917.63538979118755
 31
0.0
  0
ARC
  5
F86F
  8
0
 10
1302.8370253370881
 20
920.63538979118755
 30
0.0
 40
2.0
 50
90.0
 51
180.0
  0
LINE
  5
F870
  8
0
 10
1157.8370253370881
 20
917.63538979118755
 30
0.0
 11
1157.8370253370881
 21
920.63538979118755
 31
0.0
  0
LINE
  5
F871
  8
0
 10
1157.8370253370881
 20
956.63538979118755
 30
0.0
 11
1157.8370253370881
 21
961.63538979118755
 31
0.0
  0
LINE
  5
F87C
  8
0
 10
1149.171961827627
 20
954.63538979118755
 30
0.0
 11
1149.171961827627
 21
922.63538979118755
 31
0.0
  0
ARC
  5
F87D
  8
0
 10
1152.087025337087
 20
951.07916304099945
 30
0.0
 40
4.598297941949661
 50
50.658291231511392
 51
129.34170876847
  0
ARC
  5
F87E
  8
0
 10
1152.087025337087
 20
926.19161654137565
 30
0.0
 40
4.598297941949661
 50
230.65829123152989
 51
309.34170876848862
  0
LINE
  5
F87F
  8
0
 10
1155.002088846549
 20
954.63538979118618
 30
0.0
 11
1155.0020888465481
 21
922.63538979118903
 31
0.0
  0
LINE
  5
F88B
  8
0
 10
1309.502088846549
 20
954.63538979118755
 30
0.0
 11
1309.502088846549
 21
922.63538979118755
 31
0.0
  0
ARC
  5
F88C
  8
0
 10
1306.5870253370899
 20
951.07916304099945
 30
0.0
 40
4.598297941949661
 50
50.658291231531123
 51
129.34170876850251
  0
ARC
  5
F88D
  8
0
 10
1306.5870253370899
 20
926.19161654137565
 30
0.0
 40
4.598297941949661
 50
230.65829123149749
 51
309.34170876846878
  0
LINE
  5
F88F
  8
0
 10
1303.6719618276279
 20
954.63538979118596
 30
0.0
 11
1303.67196182763
 21
922.63538979118755
 31
0.0
  0
LINE
  5
F890
  8
0
 10
1170.337025337089
 20
929.63538979118925
 30
0.0
 11
1158.337025337089
 21
929.63538979118925
 31
0.0
  0
ARC
  5
F891
  8
0
 10
1170.337025337089
 20
931.13538979118925
 30
0.0
 40
1.4999999999999989
 50
270.0
 51
0.0
  0
LINE
  5
F892
  8
0
 10
1170.337025337089
 20
947.63538979118914
 30
0.0
 11
1158.337025337089
 21
947.63538979118914
 31
0.0
  0
ARC
  5
F893
  8
0
 10
1170.337025337089
 20
946.13538979118925
 30
0.0
 40
1.4999999999999989
 50
0.0
 51
90.0
  0
LINE
  5
F894
  8
0
 10
1171.837025337089
 20
946.13538979118925
 30
0.0
 11
1171.837025337089
 21
931.13538979118925
 31
0.0
  0
LINE
  5
F895
  8
0
 10
1156.837025337089
 20
946.13538979118925
 30
0.0
 11
1156.837025337089
 21
931.13538979118925
 31
0.0
  0
ARC
  5
F896
  8
0
 10
1158.337025337089
 20
931.13538979118925
 30
0.0
 40
1.4999999999999989
 50
180.0
 51
270.0
  0
ARC
  5
F897
  8
0
 10
1158.337025337089
 20
946.13538979118925
 30
0.0
 40
1.4999999999999989
 50
90.0
 51
180.0
  0
LINE
  5
F8FD
  8
0
 10
1377.3370253370881
 20
549.95930933705165
 30
0.0
 11
1377.3370253370881
 21
424.95930933705171
 31
0.0
  0
ARC
  5
F8FE
  8
0
 10
1359.3370253370881
 20
467.45930933705171
 30
0.0
 40
4.0
 50
0.0
 51
90.0
  0
LINE
  5
F8FF
  8
0
 10
1322.502088846549
 20
471.45930933705171
 30
0.0
 11
1359.3370253370881
 21
471.45930933705171
 31
0.0
  0
LINE
  5
F900
  8
0
 10
1365.3370253370881
 20
424.95930933705171
 30
0.0
 11
1377.3370253370881
 21
424.95930933705171
 31
0.0
  0
LINE
  5
F901
  8
0
 10
1363.3370253370881
 20
426.95930933705171
 30
0.0
 11
1365.3370253370881
 21
424.95930933705171
 31
0.0
  0
ARC
  5
F902
  8
0
 10
1359.3370253370881
 20
507.45930933705171
 30
0.0
 40
4.0
 50
270.0
 51
0.0
  0
LINE
  5
F903
  8
0
 10
1322.502088846549
 20
503.45930933705171
 30
0.0
 11
1359.3370253370881
 21
503.45930933705171
 31
0.0
  0
LINE
  5
F904
  8
0
 10
1363.3370253370881
 20
547.95930933705165
 30
0.0
 11
1363.3370253370881
 21
426.95930933705159
 31
0.0
  0
LINE
  5
F905
  8
0
 10
1365.3370253370881
 20
549.95930933705165
 30
0.0
 11
1377.3370253370881
 21
549.95930933705165
 31
0.0
  0
LINE
  5
F906
  8
0
 10
1363.3370253370881
 20
547.95930933705165
 30
0.0
 11
1365.3370253370881
 21
549.95930933705165
 31
0.0
  0
LINE
  5
F90F
  8
0
 10
1365.3370253370881
 20
549.95930933705165
 30
0.0
 11
1365.3370253370881
 21
424.95930933705171
 31
0.0
  0
LINE
  5
F910
  8
0
 10
1322.502088846549
 20
503.45930933705171
 30
0.0
 11
1322.502088846549
 21
471.45930933705171
 31
0.0
  0
LINE
  5
F912
  8
0
 10
1107.3370253370881
 20
549.95930933705165
 30
0.0
 11
1107.3370253370881
 21
424.95930933705171
 31
0.0
  0
ARC
  5
F913
  8
0
 10
1125.3370253370881
 20
467.45930933705171
 30
0.0
 40
4.0
 50
90.0
 51
180.0
  0
LINE
  5
F914
  8
0
 10
1162.171961827627
 20
471.45930933705171
 30
0.0
 11
1125.3370253370881
 21
471.45930933705171
 31
0.0
  0
LINE
  5
F915
  8
0
 10
1119.3370253370881
 20
424.95930933705171
 30
0.0
 11
1107.3370253370881
 21
424.95930933705171
 31
0.0
  0
LINE
  5
F916
  8
0
 10
1121.3370253370881
 20
426.95930933705171
 30
0.0
 11
1119.3370253370881
 21
424.95930933705171
 31
0.0
  0
ARC
  5
F917
  8
0
 10
1125.3370253370881
 20
507.45930933705171
 30
0.0
 40
4.0
 50
180.0
 51
270.0
  0
LINE
  5
F918
  8
0
 10
1162.171961827627
 20
503.45930933705171
 30
0.0
 11
1125.3370253370881
 21
503.45930933705171
 31
0.0
  0
LINE
  5
F919
  8
0
 10
1121.3370253370881
 20
547.95930933705165
 30
0.0
 11
1121.3370253370881
 21
426.95930933705159
 31
0.0
  0
LINE
  5
F91A
  8
0
 10
1119.3370253370881
 20
549.95930933705165
 30
0.0
 11
1107.3370253370881
 21
549.95930933705165
 31
0.0
  0
LINE
  5
F91B
  8
0
 10
1121.3370253370881
 20
547.95930933705165
 30
0.0
 11
1119.3370253370881
 21
549.95930933705165
 31
0.0
  0
LINE
  5
F91C
  8
0
 10
1119.3370253370881
 20
549.95930933705165
 30
0.0
 11
1119.3370253370881
 21
424.95930933705171
 31
0.0
  0
LINE
  5
F91E
  8
0
 10
1377.3370253370881
 20
802.39796285674061
 30
0.0
 11
1377.3370253370881
 21
677.39796285674049
 31
0.0
  0
ARC
  5
F91F
  8
0
 10
1359.3370253370881
 20
719.89796285674061
 30
0.0
 40
4.0
 50
0.0
 51
90.0
  0
LINE
  5
F920
  8
0
 10
1322.502088846549
 20
723.89796285674061
 30
0.0
 11
1359.3370253370881
 21
723.89796285674061
 31
0.0
  0
LINE
  5
F921
  8
0
 10
1365.3370253370881
 20
677.39796285674049
 30
0.0
 11
1377.3370253370881
 21
677.39796285674049
 31
0.0
  0
LINE
  5
F922
  8
0
 10
1363.3370253370881
 20
679.39796285674061
 30
0.0
 11
1365.3370253370881
 21
677.39796285674049
 31
0.0
  0
ARC
  5
F923
  8
0
 10
1359.3370253370881
 20
759.89796285674061
 30
0.0
 40
4.0
 50
270.0
 51
0.0
  0
LINE
  5
F924
  8
0
 10
1322.502088846549
 20
755.89796285674061
 30
0.0
 11
1359.3370253370881
 21
755.89796285674061
 31
0.0
  0
LINE
  5
F925
  8
0
 10
1363.3370253370881
 20
800.39796285674049
 30
0.0
 11
1363.3370253370881
 21
679.39796285674049
 31
0.0
  0
LINE
  5
F926
  8
0
 10
1365.3370253370881
 20
802.39796285674061
 30
0.0
 11
1377.3370253370881
 21
802.39796285674061
 31
0.0
  0
LINE
  5
F927
  8
0
 10
1363.3370253370881
 20
800.39796285674049
 30
0.0
 11
1365.3370253370881
 21
802.39796285674061
 31
0.0
  0
LINE
  5
F928
  8
0
 10
1365.3370253370881
 20
802.39796285674061
 30
0.0
 11
1365.3370253370881
 21
677.39796285674049
 31
0.0
  0
LINE
  5
F929
  8
0
 10
1107.3370253370881
 20
802.39796285674061
 30
0.0
 11
1107.3370253370881
 21
677.39796285674049
 31
0.0
  0
ARC
  5
F92A
  8
0
 10
1125.3370253370881
 20
719.89796285674061
 30
0.0
 40
4.0
 50
90.0
 51
180.0
  0
LINE
  5
F92B
  8
0
 10
1162.171961827627
 20
723.89796285674061
 30
0.0
 11
1125.3370253370881
 21
723.89796285674061
 31
0.0
  0
LINE
  5
F92C
  8
0
 10
1119.3370253370881
 20
677.39796285674049
 30
0.0
 11
1107.3370253370881
 21
677.39796285674049
 31
0.0
  0
LINE
  5
F92D
  8
0
 10
1121.3370253370881
 20
679.39796285674061
 30
0.0
 11
1119.3370253370881
 21
677.39796285674049
 31
0.0
  0
ARC
  5
F92E
  8
0
 10
1125.3370253370881
 20
759.89796285674061
 30
0.0
 40
4.0
 50
180.0
 51
270.0
  0
LINE
  5
F92F
  8
0
 10
1162.171961827627
 20
755.89796285674061
 30
0.0
 11
1125.3370253370881
 21
755.89796285674061
 31
0.0
  0
LINE
  5
F930
  8
0
 10
1121.3370253370881
 20
800.39796285674049
 30
0.0
 11
1121.3370253370881
 21
679.39796285674049
 31
0.0
  0
LINE
  5
F931
  8
0
 10
1119.3370253370881
 20
802.39796285674061
 30
0.0
 11
1107.3370253370881
 21
802.39796285674061
 31
0.0
  0
LINE
  5
F932
  8
0
 10
1121.3370253370881
 20
800.39796285674049
 30
0.0
 11
1119.3370253370881
 21
802.39796285674061
 31
0.0
  0
LINE
  5
F933
  8
0
 10
1119.3370253370881
 20
802.39796285674061
 30
0.0
 11
1119.3370253370881
 21
677.39796285674049
 31
0.0
  0
LINE
  5
F94E
  8
0
 10
1364.337025337089
 20
1001.135389791187
 30
0.0
 11
1364.337025337089
 21
876.13538979118755
 31
0.0
  0
ARC
  5
F94F
  8
0
 10
1346.3370253370881
 20
918.63538979118755
 30
0.0
 40
4.0
 50
0.0
 51
90.0
  0
LINE
  5
F950
  8
0
 10
1309.5020888465499
 20
922.63538979118755
 30
0.0
 11
1346.3370253370881
 21
922.63538979118755
 31
0.0
  0
LINE
  5
F951
  8
0
 10
1352.3370253370881
 20
876.13538979118755
 30
0.0
 11
1364.337025337089
 21
876.13538979118755
 31
0.0
  0
LINE
  5
F952
  8
0
 10
1350.3370253370881
 20
878.13538979118766
 30
0.0
 11
1352.3370253370881
 21
876.13538979118755
 31
0.0
  0
ARC
  5
F953
  8
0
 10
1346.3370253370881
 20
958.63538979118766
 30
0.0
 40
4.0
 50
270.0
 51
0.0
  0
LINE
  5
F954
  8
0
 10
1309.5020888465499
 20
954.63538979118755
 30
0.0
 11
1346.3370253370881
 21
954.63538979118755
 31
0.0
  0
LINE
  5
F955
  8
0
 10
1350.3370253370881
 20
999.13538979118755
 30
0.0
 11
1350.3370253370881
 21
878.13538979118755
 31
0.0
  0
LINE
  5
F956
  8
0
 10
1352.3370253370881
 20
1001.135389791187
 30
0.0
 11
1364.337025337089
 21
1001.135389791187
 31
0.0
  0
LINE
  5
F957
  8
0
 10
1350.3370253370881
 20
999.13538979118755
 30
0.0
 11
1352.3370253370881
 21
1001.135389791187
 31
0.0
  0
LINE
  5
F958
  8
0
 10
1352.3370253370881
 20
1001.135389791187
 30
0.0
 11
1352.3370253370881
 21
876.13538979118755
 31
0.0
  0
LINE
  5
F959
  8
0
 10
1094.3370253370881
 20
1001.135389791187
 30
0.0
 11
1094.3370253370881
 21
876.13538979118755
 31
0.0
  0
ARC
  5
F95A
  8
0
 10
1112.337025337089
 20
918.63538979118755
 30
0.0
 40
4.0
 50
90.0
 51
180.0
  0
LINE
  5
F95B
  8
0
 10
1149.171961827627
 20
922.63538979118755
 30
0.0
 11
1112.337025337089
 21
922.63538979118755
 31
0.0
  0
LINE
  5
F95C
  8
0
 10
1106.3370253370881
 20
876.13538979118755
 30
0.0
 11
1094.3370253370881
 21
876.13538979118755
 31
0.0
  0
LINE
  5
F95D
  8
0
 10
1108.3370253370881
 20
878.13538979118766
 30
0.0
 11
1106.3370253370881
 21
876.13538979118755
 31
0.0
  0
ARC
  5
F95E
  8
0
 10
1112.337025337089
 20
958.63538979118766
 30
0.0
 40
4.0
 50
180.0
 51
270.0
  0
LINE
  5
F95F
  8
0
 10
1149.171961827627
 20
954.63538979118755
 30
0.0
 11
1112.337025337089
 21
954.63538979118755
 31
0.0
  0
LINE
  5
F960
  8
0
 10
1108.3370253370881
 20
999.13538979118755
 30
0.0
 11
1108.3370253370881
 21
878.13538979118755
 31
0.0
  0
LINE
  5
F961
  8
0
 10
1106.3370253370881
 20
1001.135389791187
 30
0.0
 11
1094.3370253370881
 21
1001.135389791187
 31
0.0
  0
LINE
  5
F962
  8
0
 10
1108.3370253370881
 20
999.13538979118755
 30
0.0
 11
1106.3370253370881
 21
1001.135389791187
 31
0.0
  0
LINE
  5
F963
  8
0
 10
1106.3370253370881
 20
1001.135389791187
 30
0.0
 11
1106.3370253370881
 21
876.13538979118755
 31
0.0
  0
CIRCLE
  5
F96C
  8
0
 10
968.7191296678443
 20
519.2791144904462
 30
0.0
 40
9.5
  0
CIRCLE
  5
F96D
  8
0
 10
968.7191296678443
 20
455.63950418365692
 30
0.0
 40
9.5
  0
CIRCLE
  5
F96F
  8
0
 10
936.89932451444975
 20
487.45930933705148
 30
0.0
 40
62.5
  0
CIRCLE
  5
F970
  8
0
 10
905.07951936105519
 20
519.2791144904462
 30
0.0
 40
9.5
  0
CIRCLE
  5
F971
  8
0
 10
905.07951936105519
 20
455.63950418365692
 30
0.0
 40
9.5
  0
CIRCLE
  5
F972
  8
0
 10
1542.51280414447
 20
519.2791144904462
 30
0.0
 40
9.5
  0
CIRCLE
  5
F973
  8
0
 10
1542.51280414447
 20
455.63950418365692
 30
0.0
 40
9.5
  0
CIRCLE
  5
F975
  8
0
 10
1510.692998991075
 20
487.45930933705148
 30
0.0
 40
62.5
  0
CIRCLE
  5
F976
  8
0
 10
1478.8731938376809
 20
519.2791144904462
 30
0.0
 40
9.5
  0
CIRCLE
  5
F977
  8
0
 10
1478.8731938376809
 20
455.63950418365692
 30
0.0
 40
9.5
  0
VIEWPORT
  5
41
 67
     1
  8
0
 10
117.358407079646
 20
73.5
 30
0.0
 40
234.716814159292
 41
147.0
 68
     1
 69
     1
1001
ACAD
1000
MVIEW
1002
{
1070
    16
1010
0.0
1020
0.0
1030
0.0
1010
0.0
1020
0.0
1030
1.0
1040
0.0
1040
147.0
1040
117.358407079646
1040
73.5
1040
50.0
1040
0.0
1040
0.0
1070
     0
1070
   100
1070
     1
1070
     1
1070
     0
1070
     0
1070
     0
1070
     0
1040
0.0
1040
0.0
1040
0.0
1040
1.0
1040
1.0
1040
0.0
1040
0.0
1070
     0
1002
{
1002
}
1002
}
  0
ENDSEC
  0
EOF
