  0
SECTION
  2
HEADER
  9
$ACADVER
  1
AC1009
  9
$INSBASE
 10
0.0
 20
0.0
 30
0.0
  9
$EXTMIN
 10
65.982760682158187
 20
29.985570043903859
 30
-0.0015258207003583
  9
$EXTMAX
 10
1716.0932972647411
 20
1146.0764315897759
 30
0.0000000349246037
  9
$LIMMIN
 10
0.0
 20
0.0
  9
$LIMMAX
 10
1782.0
 20
1260.0
  9
$ORTHOMODE
 70
     0
  9
$REGENMODE
 70
     1
  9
$FILLMODE
 70
     1
  9
$QTEXTMODE
 70
     0
  9
$MIRRTEXT
 70
     1
  9
$DRAGMODE
 70
     2
  9
$LTSCALE
 40
24.0
  9
$OSMODE
 70
   163
  9
$ATTMODE
 70
     1
  9
$TEXTSIZE
 40
24.0
  9
$TRACEWID
 40
0.05
  9
$TEXTSTYLE
  7
STANDARD
  9
$CLAYER
  8
0
  9
$CELTYPE
  6
BYLAYER
  9
$CECOLOR
 62
   256
  9
$DIMSCALE
 40
6.0
  9
$DIMASZ
 40
2.7999999999999989
  9
$DIMEXO
 40
1.0
  9
$DIMDLI
 40
5.0
  9
$DIMRND
 40
0.1
  9
$DIMDLE
 40
0.0
  9
$DIMEXE
 40
1.0
  9
$DIMTP
 40
0.0
  9
$DIMTM
 40
0.0
  9
$DIMTXT
 40
2.5
  9
$DIMCEN
 40
0.0
  9
$DIMTSZ
 40
0.0
  9
$DIMTOL
 70
     0
  9
$DIMLIM
 70
     0
  9
$DIMTIH
 70
     0
  9
$DIMTOH
 70
     0
  9
$DIMSE1
 70
     0
  9
$DIMSE2
 70
     0
  9
$DIMTAD
 70
     3
  9
$DIMZIN
 70
     8
  9
$DIMBLK
  1

  9
$DIMASO
 70
     1
  9
$DIMSHO
 70
     1
  9
$DIMPOST
  1

  9
$DIMAPOST
  1

  9
$DIMALT
 70
     0
  9
$DIMALTD
 70
     2
  9
$DIMALTF
 40
1.0
  9
$DIMLFAC
 40
1.0
  9
$DIMTOFL
 70
     1
  9
$DIMTVP
 40
0.0
  9
$DIMTIX
 70
     0
  9
$DIMSOXD
 70
     0
  9
$DIMSAH
 70
     1
  9
$DIMBLK1
  1
OPEN
  9
$DIMBLK2
  1
OPEN
  9
$DIMSTYLE
  2
DIM1
  9
$DIMCLRD
 70
     2
  9
$DIMCLRE
 70
     2
  9
$DIMCLRT
 70
     2
  9
$DIMTFAC
 40
0.7
  9
$DIMGAP
 40
0.85
  9
$LUNITS
 70
     2
  9
$LUPREC
 70
     4
  9
$SKETCHINC
 40
0.1
  9
$FILLETRAD
 40
0.0
  9
$AUNITS
 70
     0
  9
$AUPREC
 70
     0
  9
$MENU
  1
C:\ACADR13\WIN\SUPPORT\ACAD.mnc
  9
$ELEVATION
 40
0.0
  9
$PELEVATION
 40
0.0
  9
$THICKNESS
 40
0.0
  9
$LIMCHECK
 70
     0
  9
$BLIPMODE
 70
     0
  9
$CHAMFERA
 40
0.0
  9
$CHAMFERB
 40
0.0
  9
$SKPOLY
 70
     0
  9
$TDCREATE
 40
2451589.540470243
  9
$TDUPDATE
 40
2455985.5925575579
  9
$TDINDWG
 40
0.1504089005
  9
$TDUSRTIMER
 40
0.1504089005
  9
$USRTIMER
 70
     1
  9
$ANGBASE
 50
0.0
  9
$ANGDIR
 70
     0
  9
$PDMODE
 70
     0
  9
$PDSIZE
 40
0.0
  9
$PLINEWID
 40
0.0
  9
$COORDS
 70
     1
  9
$SPLFRAME
 70
     0
  9
$SPLINETYPE
 70
     6
  9
$SPLINESEGS
 70
     8
  9
$ATTDIA
 70
     0
  9
$ATTREQ
 70
     1
  9
$HANDLING
 70
     1
  9
$HANDSEED
  5
11A07
  9
$SURFTAB1
 70
     6
  9
$SURFTAB2
 70
     6
  9
$SURFTYPE
 70
     6
  9
$SURFU
 70
     6
  9
$SURFV
 70
     6
  9
$UCSNAME
  2

  9
$UCSORG
 10
0.0
 20
0.0
 30
0.0
  9
$UCSXDIR
 10
1.0
 20
0.0
 30
0.0
  9
$UCSYDIR
 10
0.0
 20
1.0
 30
0.0
  9
$PUCSNAME
  2

  9
$PUCSORG
 10
0.0
 20
0.0
 30
0.0
  9
$PUCSXDIR
 10
1.0
 20
0.0
 30
0.0
  9
$PUCSYDIR
 10
0.0
 20
1.0
 30
0.0
  9
$USERI1
 70
     0
  9
$USERI2
 70
     0
  9
$USERI3
 70
     0
  9
$USERI4
 70
     0
  9
$USERI5
 70
     0
  9
$USERR1
 40
0.0
  9
$USERR2
 40
0.0
  9
$USERR3
 40
0.0
  9
$USERR4
 40
0.0
  9
$USERR5
 40
0.0
  9
$WORLDVIEW
 70
     1
  9
$SHADEDGE
 70
     3
  9
$SHADEDIF
 70
    70
  9
$TILEMODE
 70
     1
  9
$MAXACTVP
 70
    16
  9
$PLIMCHECK
 70
     0
  9
$PEXTMIN
 10
1.0000000000000000E+020
 20
1.0000000000000000E+020
 30
1.0000000000000000E+020
  9
$PEXTMAX
 10
-1.0000000000000000E+020
 20
-1.0000000000000000E+020
 30
-1.0000000000000000E+020
  9
$PLIMMIN
 10
0.0
 20
0.0
  9
$PLIMMAX
 10
20.0
 20
147.0
  9
$UNITMODE
 70
     0
  9
$VISRETAIN
 70
     0
  9
$PLINEGEN
 70
     0
  9
$PSLTSCALE
 70
     1
  0
ENDSEC
  0
SECTION
  2
TABLES
  0
TABLE
  2
VPORT
 70
     1
  0
VPORT
  2
*ACTIVE
 70
     0
 10
0.0
 20
0.0
 11
1.0
 21
1.0
 12
891.0
 22
629.99999999999977
 13
0.0
 23
0.0
 14
1.0
 24
1.0
 15
0.0
 25
0.0
 16
0.0
 26
0.0
 36
1.0
 17
0.0
 27
0.0
 37
0.0
 40
1268.298572996707
 41
1.7967032967032961
 42
50.0
 43
0.0
 44
0.0
 50
0.0
 51
0.0
 71
     0
 72
   100
 73
     1
 74
     1
 75
     0
 76
     0
 77
     0
 78
     0
  0
ENDTAB
  0
TABLE
  2
LTYPE
 70
     4
  0
LTYPE
  2
CONTINUOUS
 70
     0
  3
Solid line
 72
    65
 73
     0
 40
0.0
  0
ENDTAB
  0
TABLE
  2
LAYER
 70
     8
  0
LAYER
  2
0
 70
     0
 62
     7
  6
CONTINUOUS
  0
ENDTAB
  0
TABLE
  2
STYLE
 70
     6
  0
STYLE
  2
STANDARD
 70
     0
 40
0.0
 41
0.8
 50
0.0
 71
     0
 42
24.0
  3
simplex
  4
extfont
  0
STYLE
  2
PTSH
 70
     0
 40
0.0
 41
0.9
 50
0.0
 71
     0
 42
4.0
  3
SIMPLEX
  4
EXTFONT
  0
STYLE
  2
DIM
 70
     0
 40
0.0
 41
0.8
 50
0.0
 71
     0
 42
4.0
  3
simplex
  4
extfont
  0
ENDTAB
  0
TABLE
  2
VIEW
 70
     2
  0
ENDTAB
  0
TABLE
  2
UCS
 70
     0
  0
ENDTAB
  0
TABLE
  2
APPID
 70
     5
  0
APPID
  2
ACAD
 70
     0
  0
APPID
  2
ACAD_MLEADERVER
 70
     0
  0
APPID
  2
ACAD_PSEXT
 70
     0
  0
APPID
  2
ACAD_NAV_VCDISPLAY
 70
     0
  0
APPID
  2
ACAD_EXEMPT_FROM_CAD_STANDARDS
 70
     0
  0
ENDTAB
  0
TABLE
  2
DIMSTYLE
 70
     3
  0
DIMSTYLE
  2
DIM1
 70
     0
  3

  4

  5

  6
OPEN
  7
OPEN
 40
6.0
 41
2.7999999999999989
 42
1.0
 43
5.0
 44
1.0
 45
0.1
 46
0.0
 47
0.0
 48
0.0
140
2.5
141
0.0
142
0.0
143
1.0
144
1.0
145
0.0
146
0.7
147
0.85
 71
     0
 72
     0
 73
     0
 74
     0
 75
     0
 76
     0
 77
     3
 78
     8
170
     0
171
     2
172
     1
173
     1
174
     0
175
     0
176
     2
177
     2
178
     2
  0
ENDTAB
  0
ENDSEC
  0
SECTION
  2
BLOCKS
  0
BLOCK
  8
0
  2
$MODEL_SPACE
 70
     0
 10
0.0
 20
0.0
 30
0.0
  3
$MODEL_SPACE
  1

  0
ENDBLK
  5
3D
  8
0
  0
BLOCK
 67
     1
  8
0
  2
$PAPER_SPACE
 70
     0
 10
0.0
 20
0.0
 30
0.0
  3
$PAPER_SPACE
  1

  0
ENDBLK
  5
3B
 67
     1
  8
0
  0
BLOCK
  8
0
  2
_OPEN
 70
     0
 10
0.0
 20
0.0
 30
0.0
  3
_OPEN
  1
H1111.DWG
  0
LINE
  5
244A
  8
0
  6
BYBLOCK
 62
     0
 10
-1.0
 20
0.1666666666666666
 30
0.0
 11
0.0
 21
0.0
 31
0.0
  0
LINE
  5
244B
  8
0
  6
BYBLOCK
 62
     0
 10
0.0
 20
0.0
 30
0.0
 11
-1.0
 21
-0.1666666666666666
 31
0.0
  0
LINE
  5
244C
  8
0
  6
BYBLOCK
 62
     0
 10
0.0
 20
0.0
 30
0.0
 11
-1.0
 21
0.0
 31
0.0
  0
ENDBLK
  5
244D
  8
0
  0
BLOCK
  8
0
  2
DT-TLV
 70
     0
 10
0.0
 20
0.0
 30
0.0
  3
DT-TLV
  1

  0
ARC
  5
10344
  8
0
 10
10.7136
 20
-9.3245000000000005
 30
0.0
 40
3.1744999999999939
 50
270.0
 51
90.0
  0
LINE
  5
10345
  8
0
 10
19.693000000000001
 20
-8.9420000000000073
 30
0.0
 11
11.4337
 21
7.929000000000002
 31
0.0
  0
ARC
  5
10346
  8
0
 10
14.28563505775695
 20
9.3232945321125822
 30
0.0
 40
3.1745221397782308
 50
26.122287540464971
 51
206.05374129488399
  0
LINE
  5
10347
  8
0
 10
-17.856000000000002
 20
6.1500000000000048
 30
0.0
 11
-24.006399999999999
 21
6.1500000000000048
 31
0.0
  0
LINE
  5
10348
  8
0
 10
-36.487499999999997
 20
12.49900000000002
 30
0.0
 11
-17.856000000000002
 21
12.49900000000002
 31
0.0
  0
LINE
  5
10349
  8
0
 10
-30.3552
 20
-9.3249999999999886
 30
0.0
 11
-30.3552
 21
6.1500000000000048
 31
0.0
  0
LINE
  5
1034A
  8
0
 10
-24.006399999999999
 20
6.1500000000000048
 30
0.0
 11
-24.006399999999999
 21
-9.3249999999999886
 31
0.0
  0
ARC
  5
1034B
  8
0
 10
-27.180800000000001
 20
-9.3249999999999886
 30
0.0
 40
3.1744000000000052
 50
180.0
 51
0.0
  0
ARC
  5
1034C
  8
0
 10
-36.505442350616278
 20
9.3244883111140098
 30
0.0
 40
3.1745623935937348
 50
89.676167512027973
 51
180.09905529680799
  0
ARC
  5
1034D
  8
0
 10
-36.505582781302707
 20
9.3243702573969927
 30
0.0
 40
3.174421761207268
 50
180.09692890663499
 51
270.32638153709382
  0
LINE
  5
1034E
  8
0
 10
-30.3552
 20
6.1500000000000048
 30
0.0
 11
-36.487499999999997
 21
6.1500000000000048
 31
0.0
  0
LINE
  5
1034F
  8
0
 10
-8.7296000000000031
 20
-6.1500000000000048
 30
0.0
 11
-8.7296000000000031
 21
9.3249999999999886
 31
0.0
  0
LINE
  5
10350
  8
0
 10
-2.3807999999999931
 20
9.3249999999999886
 30
0.0
 11
-2.3807999999999931
 21
-5.4359999999999777
 31
0.0
  0
LINE
  5
10351
  8
0
 10
-4.2460999999999984
 20
-12.219000000000021
 30
0.0
 11
-5.182299999999997
 21
-11.847999999999979
 31
0.0
  0
LINE
  5
10352
  8
0
 10
-8.4493999999999971
 20
-8.0159999999999911
 30
0.0
 11
-8.7296000000000031
 21
-6.1500000000000048
 31
0.0
  0
LINE
  5
10353
  8
0
 10
-8.0781000000000063
 20
-8.9519999999999982
 30
0.0
 11
-8.4493999999999971
 21
-8.0159999999999911
 31
0.0
  0
LINE
  5
10354
  8
0
 10
-7.5476000000000019
 20
-9.8400000000000034
 30
0.0
 11
-8.0781000000000063
 21
-8.9519999999999982
 31
0.0
  0
LINE
  5
10355
  8
0
 10
-6.8700999999999928
 20
-10.639999999999979
 30
0.0
 11
-7.5476000000000019
 21
-9.8400000000000034
 31
0.0
  0
LINE
  5
10356
  8
0
 10
-6.0700999999999956
 20
-11.317000000000011
 30
0.0
 11
-6.8700999999999928
 21
-10.639999999999979
 31
0.0
  0
LINE
  5
10357
  8
0
 10
-5.182299999999997
 20
-11.847999999999979
 30
0.0
 11
-6.0700999999999956
 21
-11.317000000000011
 31
0.0
  0
LINE
  5
10358
  8
0
 10
10.7136
 20
-12.49900000000002
 30
0.0
 11
-2.3807999999999931
 21
-12.49900000000002
 31
0.0
  0
LINE
  5
10359
  8
0
 10
-1.6666000000000021
 20
-6.1500000000000048
 30
0.0
 11
10.7136
 21
-6.1500000000000048
 31
0.0
  0
LINE
  5
1035A
  8
0
 10
-3.3008999999999982
 20
-12.432000000000009
 30
0.0
 11
-4.2460999999999984
 21
-12.219000000000021
 31
0.0
  0
LINE
  5
1035B
  8
0
 10
-2.3807999999999931
 20
-12.49900000000002
 30
0.0
 11
-3.3008999999999982
 21
-12.432000000000009
 31
0.0
  0
LINE
  5
1035C
  8
0
 10
-2.3807999999999931
 20
-12.49900000000002
 30
0.0
 11
-2.3807999999999931
 21
-12.49900000000002
 31
0.0
  0
LINE
  5
1035D
  8
0
 10
-1.876400000000003
 20
-6.1190000000000282
 30
0.0
 11
-1.6666000000000021
 21
-6.1500000000000048
 31
0.0
  0
LINE
  5
1035E
  8
0
 10
-1.9817000000000029
 20
-6.0769999999999982
 30
0.0
 11
-1.876400000000003
 21
-6.1190000000000282
 31
0.0
  0
LINE
  5
1035F
  8
0
 10
-2.0815999999999941
 20
-6.016999999999995
 30
0.0
 11
-1.9817000000000029
 21
-6.0769999999999982
 31
0.0
  0
LINE
  5
10360
  8
0
 10
-2.1715999999999971
 20
-5.9409999999999741
 30
0.0
 11
-2.0815999999999941
 21
-6.016999999999995
 31
0.0
  0
LINE
  5
10361
  8
0
 10
-2.247799999999998
 20
-5.8509999999999991
 30
0.0
 11
-2.1715999999999971
 21
-5.9409999999999741
 31
0.0
  0
LINE
  5
10362
  8
0
 10
-2.3075000000000041
 20
-5.7509999999999764
 30
0.0
 11
-2.247799999999998
 21
-5.8509999999999991
 31
0.0
  0
LINE
  5
10363
  8
0
 10
-2.3492999999999991
 20
-5.6459999999999857
 30
0.0
 11
-2.3075000000000041
 21
-5.7509999999999764
 31
0.0
  0
LINE
  5
10364
  8
0
 10
-2.3733
 20
-5.539999999999992
 30
0.0
 11
-2.3492999999999991
 21
-5.6459999999999857
 31
0.0
  0
LINE
  5
10365
  8
0
 10
-2.3807999999999931
 20
-5.4359999999999777
 30
0.0
 11
-2.3733
 21
-5.539999999999992
 31
0.0
  0
LINE
  5
10366
  8
0
 10
-2.3807999999999931
 20
-5.4359999999999777
 30
0.0
 11
-2.3807999999999931
 21
-5.4359999999999777
 31
0.0
  0
ARC
  5
10367
  8
0
 10
-5.5551999999999992
 20
9.3249999999999886
 30
0.0
 40
3.1744000000000052
 50
0.0
 51
180.0
  0
ARC
  5
10368
  8
0
 10
-17.869864748260611
 20
9.3245000000000005
 30
0.0
 40
3.174530277260633
 50
270.25023988290872
 51
89.74976011709127
  0
LINE
  5
10369
  8
0
 10
39.34899999999999
 20
7.9140000000000148
 30
0.0
 11
31.097000000000008
 21
-8.9420000000000073
 31
0.0
  0
LINE
  5
1036A
  8
0
 10
26.030000000000001
 20
-4.8540000000000134
 30
0.0
 11
33.654000000000003
 21
10.72099999999997
 31
0.0
  0
LINE
  5
1036B
  8
0
 10
17.13590000000001
 20
10.72099999999997
 30
0.0
 11
24.760000000000009
 21
-4.8540000000000134
 31
0.0
  0
ARC
  5
1036C
  8
0
 10
25.39500000000001
 20
-6.1505468276182276
 30
0.0
 40
6.348623064381778
 50
206.0843758760374
 51
333.91562412396252
  0
LINE
  5
1036D
  8
0
 10
25.859000000000002
 20
-5.0759999999999934
 30
0.0
 11
26.030000000000001
 21
-4.8540000000000134
 31
0.0
  0
LINE
  5
1036E
  8
0
 10
25.727000000000011
 20
-5.1670000000000007
 30
0.0
 11
25.859000000000002
 21
-5.0759999999999934
 31
0.0
  0
LINE
  5
1036F
  8
0
 10
25.56900000000001
 20
-5.2279999999999802
 30
0.0
 11
25.727000000000011
 21
-5.1670000000000007
 31
0.0
  0
LINE
  5
10370
  8
0
 10
25.395
 20
-5.25
 30
0.0
 11
25.56900000000001
 21
-5.2279999999999802
 31
0.0
  0
LINE
  5
10371
  8
0
 10
25.222000000000008
 20
-5.2279999999999802
 30
0.0
 11
25.395
 21
-5.25
 31
0.0
  0
LINE
  5
10372
  8
0
 10
25.062999999999992
 20
-5.1670000000000007
 30
0.0
 11
25.222000000000008
 21
-5.2279999999999802
 31
0.0
  0
LINE
  5
10373
  8
0
 10
24.931000000000001
 20
-5.0759999999999934
 30
0.0
 11
25.062999999999992
 21
-5.1670000000000007
 31
0.0
  0
LINE
  5
10374
  8
0
 10
24.829999999999998
 20
-4.9679999999999893
 30
0.0
 11
24.931000000000001
 21
-5.0759999999999934
 31
0.0
  0
LINE
  5
10375
  8
0
 10
24.760000000000009
 20
-4.8540000000000134
 30
0.0
 11
24.829999999999998
 21
-4.9679999999999893
 31
0.0
  0
LINE
  5
10376
  8
0
 10
24.760000000000009
 20
-4.8540000000000134
 30
0.0
 11
24.760000000000009
 21
-4.8540000000000134
 31
0.0
  0
ARC
  5
10377
  8
0
 10
36.505100304335123
 20
9.3251129113257605
 30
0.0
 40
3.1747448917216881
 50
333.60987950778508
 51
63.9360666899439
  0
ARC
  5
10378
  8
0
 10
36.505394243129317
 20
9.3248503047204832
 30
0.0
 40
3.1748516660436339
 50
63.942914152404981
 51
153.9118944378472
  0
ENDBLK
  5
10379
  8
0
  0
BLOCK
  8
0
  2
*U11
 70
     1
 10
0.0
 20
0.0
 30
0.0
  3
*U11
  1

  0
TEXT
  5
1173C
  8
0
 62
     0
 10
746.53694700946903
 20
-202.34334367977931
 30
0.0
 40
10.800000000000001
  1
H1
 50
90.0
 41
0.8
  7
DIM
  0
ENDBLK
  5
1173E
  8
0
  0
BLOCK
  8
0
  2
*U12
 70
     1
 10
0.0
 20
0.0
 30
0.0
  3
*U12
  1

  0
TEXT
  5
11740
  8
0
 62
     0
 10
769.98704358465989
 20
-172.66905796549341
 30
0.0
 40
10.800000000000001
  1
H
 50
90.0
 41
0.8
  7
DIM
  0
ENDBLK
  5
11742
  8
0
  0
BLOCK
  8
0
  2
*U13
 70
     1
 10
0.0
 20
0.0
 30
0.0
  3
*U13
  1

  0
TEXT
  5
11744
  8
0
 62
     0
 10
968.55471380945289
 20
-680.98725517743355
 30
0.0
 40
36.0
  1
H1
 50
90.0
 41
0.8
  7
DIM
  0
ENDBLK
  5
11746
  8
0
  0
BLOCK
  8
0
  2
*U14
 70
     1
 10
0.0
 20
0.0
 30
0.0
  3
*U14
  1

  0
TEXT
  5
11748
  8
0
 62
     0
 10
992.00481038464375
 20
-645.07296946314761
 30
0.0
 40
36.0
  1
H
 50
90.0
 41
0.8
  7
DIM
  0
ENDBLK
  5
1174A
  8
0
  0
BLOCK
  8
0
  2
*U15
 70
     1
 10
0.0
 20
0.0
 30
0.0
  3
*U15
  1

  0
TEXT
  5
1174C
  8
0
 62
     2
 10
329.54102140997873
 20
473.2058575430674
 30
0.0
 40
4.5
  1
–ñ170
 41
0.8
  7
DIM
  0
ENDBLK
  5
1174E
  8
0
  0
BLOCK
  8
0
  2
*U16
 70
     1
 10
0.0
 20
0.0
 30
0.0
  3
*U16
  1

  0
TEXT
  5
11750
  8
0
 62
     2
 10
815.48386888235325
 20
-145.15841599372499
 30
0.0
 40
15.0
  1
–ñ170
 41
0.8
  7
DIM
  0
ENDBLK
  5
11752
  8
0
  0
ENDSEC
  0
SECTION
  2
ENTITIES
  0
TEXT
  5
2529
  8
0
  6
CONTINUOUS
 10
1611.942857142858
 20
42.000000000000007
 30
0.0
 40
18.0
  1
J6S-X
 41
0.9
  7
PTSH
 72
     2
 11
1686.0000000000009
 21
51.000000000000021
 31
0.0
 73
     2
  0
POLYLINE
  5
2563
  8
0
 66
     1
 10
0.0
 20
0.0
 30
0.0
 70
     1
  0
VERTEX
  5
F0DF
  8
0
 10
66.000000000000028
 20
30.000000000000011
 30
0.0
  0
VERTEX
  5
F0E0
  8
0
 10
1716.0000000000009
 20
30.000000000000011
 30
0.0
  0
VERTEX
  5
F0E1
  8
0
 10
1716.0000000000009
 20
1146.0
 30
0.0
  0
VERTEX
  5
F0E2
  8
0
 10
66.000000000000028
 20
1146.0
 30
0.0
  0
SEQEND
  5
F0E3
  8
0
  0
TEXT
  5
47D9
  8
0
 10
745.87962909609666
 20
69.005640449457744
 30
0.0
 40
21.000000000000011
  1
TLV  J6S-X (Screw)
 72
     4
 11
899.27962909609687
 21
78.005640449457758
 31
0.0
  0
TEXT
  5
10730
  8
0
 10
833.7604126032918
 20
186.24000371112129
 30
0.0
 40
15.0
  1
15,20,25
 72
     4
 11
880.18898403186336
 21
192.3114322825499
 31
0.0
  0
TEXT
  5
10731
  8
0
 10
826.59236084680663
 20
158.7293248408869
 30
0.0
 40
15.0
  1
1/2,3/4,1
 72
     4
 11
878.37807513252085
 21
165.1578962694584
 31
0.0
  0
LINE
  5
110C8
  8
0
 10
780.87891355069132
 20
1027.5949024170041
 30
0.0
 11
780.87891355069132
 21
983.59490241700428
 31
0.0
  0
LINE
  5
110C9
  8
0
 10
1000.878913550691
 20
1027.5949024170041
 30
0.0
 11
1000.878913550691
 21
983.59490241700371
 31
0.0
  0
LINE
  5
110CA
  8
0
 10
951.37891355069132
 20
964.55928151824617
 30
0.0
 11
951.37891355069132
 21
924.00016939771501
 31
0.0
  0
ARC
  5
110CB
  8
0
 10
956.37891355069144
 20
964.55928151824617
 30
0.0
 40
5.0
 50
156.5962492618126
 51
180.0
  0
LINE
  5
110CC
  8
0
 10
835.87886764689893
 20
882.99250360873975
 30
0.0
 11
835.87886764689893
 21
870.59490241700405
 31
0.0
  0
LINE
  5
110CD
  8
0
 10
781.87891355069132
 20
1028.5949024170041
 30
0.0
 11
780.87891355069132
 21
1027.5949024170041
 31
0.0
  0
LINE
  5
110CE
  8
0
 10
842.91979346551204
 20
891.39531479660673
 30
0.0
 11
829.74284094309223
 21
887.864487949411
 31
0.0
  0
LINE
  5
110CF
  8
0
 10
829.58474743716761
 20
887.82212604561448
 30
0.0
 11
802.86667500324393
 21
880.66289197426886
 31
0.0
  0
ARC
  5
110D0
  8
0
 10
830.87886764689893
 20
882.99250360873975
 30
0.0
 40
5.0
 50
0.0
 51
105.0002963977702
  0
LINE
  5
110D1
  8
0
 10
995.87891355069132
 20
1030.5949024170041
 30
0.0
 11
947.62929013623216
 21
1030.5949024170041
 31
0.0
  0
LINE
  5
110D2
  8
0
 10
947.62929013623216
 20
1030.5949024170041
 30
0.0
 11
805.87891355069132
 21
1030.5949024170041
 31
0.0
  0
LINE
  5
110D3
  8
0
 10
999.87891355069121
 20
982.59490241700405
 30
0.0
 11
962.02094361547267
 21
982.59490241700405
 31
0.0
  0
LINE
  5
110D4
  8
0
 10
1000.878913550691
 20
983.59490241700371
 30
0.0
 11
999.87891355069121
 21
982.59490241700405
 31
0.0
  0
LINE
  5
110D5
  8
0
 10
999.87891355069121
 20
1028.5949024170041
 30
0.0
 11
997.87891355069132
 21
1028.5949024170041
 31
0.0
  0
LINE
  5
110D6
  8
0
 10
1000.878913550691
 20
1027.5949024170041
 30
0.0
 11
999.87891355069121
 21
1028.5949024170041
 31
0.0
  0
LINE
  5
110D8
  8
0
 10
781.87891355069132
 20
1028.5949024170041
 30
0.0
 11
803.87891355069132
 21
1028.5949024170041
 31
0.0
  0
LINE
  5
110D9
  8
0
 10
789.59327601358564
 20
982.59490241700405
 30
0.0
 11
820.01431782897725
 21
982.59490241700405
 31
0.0
  0
ARC
  5
110DA
  8
0
 10
789.59327601358564
 20
977.59490241700405
 30
0.0
 40
5.0
 50
0.0
 51
90.0
  0
LINE
  5
110DB
  8
0
 10
780.87891355069132
 20
983.59490241700405
 30
0.0
 11
781.87891355069132
 21
982.59490241700405
 31
0.0
  0
ARC
  5
110DC
  8
0
 10
803.87891355069132
 20
1030.5949024170041
 30
0.0
 40
2.0
 50
270.0
 51
0.0
  0
LINE
  5
110DE
  8
0
 10
890.87886764689938
 20
867.59490241700405
 30
0.0
 11
943.87805671494516
 21
867.59490241700405
 31
0.0
  0
ARC
  5
110DF
  8
0
 10
943.87805671494516
 20
869.59490241700405
 30
0.0
 40
2.0
 50
270.0
 51
321.31781254650451
  0
ARC
  5
110E0
  8
0
 10
947.00055571414396
 20
867.09490241700382
 30
0.0
 40
2.0
 50
90.0
 51
141.3178125465044
  0
LINE
  5
110E1
  8
0
 10
947.00055571414396
 20
869.09490241700405
 30
0.0
 11
948.87805671494505
 21
869.09490241700405
 31
0.0
  0
ARC
  5
110E2
  8
0
 10
948.87805671494505
 20
891.09490241700405
 30
0.0
 40
2.0
 50
0.0
 51
76.447179890283934
  0
ARC
  5
110E3
  8
0
 10
950.75279013578211
 20
898.87213679696174
 30
0.0
 40
6.0
 50
153.9319908490466
 51
256.44717989028391
  0
ARC
  5
110E4
  8
0
 10
948.87805671494505
 20
871.09490241700405
 30
0.0
 40
2.0
 50
270.0
 51
0.0
  0
LINE
  5
110E5
  8
0
 10
950.87805671494516
 20
891.09490241700405
 30
0.0
 11
950.87805671494516
 21
871.09490241700405
 31
0.0
  0
LINE
  5
110E6
  8
0
 10
794.59327601358564
 20
977.59490241700405
 30
0.0
 11
794.59327601358518
 21
928.37073447058879
 31
0.0
  0
LINE
  5
110E7
  8
0
 10
890.87886764689881
 20
867.59490241700405
 30
0.0
 11
838.87886764689893
 21
867.59490241700405
 31
0.0
  0
ARC
  5
110E8
  8
0
 10
838.87886764689893
 20
870.59490241700405
 30
0.0
 40
3.0
 50
180.0
 51
270.0
  0
ARC
  5
110E9
  8
0
 10
891.01763072222514
 20
928.09474328298415
 30
0.0
 40
60.5
 50
333.98134564788751
 51
355.91119262840022
  0
ARC
  5
110EA
  8
0
 10
891.01763072222514
 20
928.09474328298415
 30
0.0
 40
60.5
 50
270.26855951498339
 51
333.93199084904518
  0
ARC
  5
110EB
  8
0
 10
891.01763072222514
 20
928.09474328298415
 30
0.0
 40
60.5
 50
180.0
 51
270.26855951498339
  0
LINE
  5
110EC
  8
0
 10
957.43230048881185
 20
979.58094225954324
 30
0.0
 11
951.79027042403038
 21
966.54532136078535
 31
0.0
  0
ARC
  5
110ED
  8
0
 10
962.02094361547267
 20
977.59490241700405
 30
0.0
 40
5.0
 50
90.0
 51
156.5962492618126
  0
ARC
  5
110EF
  8
0
 10
997.87891355069132
 20
1030.5949024170041
 30
0.0
 40
2.0
 50
180.0
 51
270.0
  0
LINE
  5
110F1
  8
0
 10
802.25429912269385
 20
881.01644822789194
 30
0.0
 11
802.86666735634299
 21
880.66289638922012
 31
0.0
  0
LINE
  5
110F2
  8
0
 10
792.36974813942379
 20
925.47296100846393
 30
0.0
 11
790.9613118595671
 21
925.0955638355573
 31
0.0
  0
ARC
  5
110F3
  8
0
 10
791.59327601358507
 20
928.37073447058879
 30
0.0
 40
3.0
 50
285.00029639777023
 51
0.0
  0
LINE
  5
110F4
  8
0
 10
802.25429912269385
 20
881.01644822789194
 30
0.0
 11
790.60776002092268
 21
924.48319560195625
 31
0.0
  0
LINE
  5
110F5
  8
0
 10
790.96131627457362
 20
925.09557148255431
 30
0.0
 11
790.60776002092268
 21
924.48319560195625
 31
0.0
  0
LINE
  5
110F6
  8
0
 10
973.87891355069121
 20
1044.5949024170041
 30
0.0
 11
805.87891355069132
 21
1044.5949024170041
 31
0.0
  0
ARC
  5
110F7
  8
0
 10
973.87891355069121
 20
1042.5949024170041
 30
0.0
 40
2.0
 50
0.0
 51
90.0
  0
LINE
  5
110F9
  8
0
 10
975.87891355069144
 20
1030.5949024170041
 30
0.0
 11
975.87891355069144
 21
1042.5949024170041
 31
0.0
  0
LINE
  5
110FA
  8
0
 10
805.87891355069132
 20
1048.4513935848761
 30
0.0
 11
805.87891355069132
 21
1052.0949024170041
 31
0.0
  0
ARC
  5
110FB
  8
0
 10
807.87891355069121
 20
1052.0949024170041
 30
0.0
 40
2.0
 50
90.0
 51
180.0
  0
LINE
  5
110FC
  8
0
 10
903.87891355069132
 20
1059.5949024170041
 30
0.0
 11
877.87891355069132
 21
1059.5949024170041
 31
0.0
  0
ARC
  5
110FD
  8
0
 10
890.87777758679567
 20
908.04170860450631
 30
0.0
 40
139.00100959519921
 50
79.231445381620532
 51
82.717152501347869
  0
ARC
  5
110FE
  8
0
 10
908.87891355069121
 20
1048.8971161331669
 30
0.0
 40
3.0
 50
180.0
 51
262.71715250134793
  0
ARC
  5
110FF
  8
0
 10
903.87891355069132
 20
1057.5949024170041
 30
0.0
 40
2.0
 50
0.0
 51
90.0
  0
LINE
  5
11100
  8
0
 10
905.87891355069132
 20
1048.8971161331669
 30
0.0
 11
905.87891355069132
 21
1057.5949024170041
 31
0.0
  0
ARC
  5
11101
  8
0
 10
877.87891355069132
 20
1057.5949024170041
 30
0.0
 40
2.0
 50
90.0
 51
180.0
  0
LINE
  5
11102
  8
0
 10
875.87891355069144
 20
1056.0949024170041
 30
0.0
 11
875.87891355069144
 21
1057.5949024170041
 31
0.0
  0
LINE
  5
11103
  8
0
 10
807.87891355069121
 20
1054.0949024170041
 30
0.0
 11
873.87891355069121
 21
1054.0949024170041
 31
0.0
  0
ARC
  5
11104
  8
0
 10
873.87891355069121
 20
1056.0949024170041
 30
0.0
 40
2.0
 50
270.0
 51
0.0
  0
LINE
  5
11105
  8
0
 10
975.87891355069144
 20
1030.5949024170041
 30
0.0
 11
947.62929013623216
 21
1030.5949024170041
 31
0.0
  0
LINE
  5
11106
  8
0
 10
805.87891355069132
 20
1030.5949024170041
 30
0.0
 11
947.62929013623216
 21
1030.5949024170041
 31
0.0
  0
LINE
  5
11107
  8
0
 10
805.87891355069132
 20
1030.5949024170041
 30
0.0
 11
805.87891355069132
 21
1052.0938911587391
 31
0.0
  0
ARC
  5
11108
  8
0
 10
806.8659135506914
 20
1045.0949024170041
 30
0.0
 40
3.4986000000000002
 50
106.3863464653115
 51
253.61365353468841
  0
LINE
  5
11109
  8
0
 10
972.00061947286315
 20
1052.5949024170041
 30
0.0
 11
972.00061947286315
 21
1044.5949024170041
 31
0.0
  0
LINE
  5
1110A
  8
0
 10
946.5972076285193
 20
1052.5949024170041
 30
0.0
 11
946.59720762851975
 21
1044.5949024170041
 31
0.0
  0
LINE
  5
1110B
  8
0
 10
970.26856866529386
 20
1053.5949024170041
 30
0.0
 11
948.32925843608803
 21
1053.5949024170041
 31
0.0
  0
LINE
  5
1110C
  8
0
 10
965.64976651177665
 20
1052.5949024170041
 30
0.0
 11
965.64976651177665
 21
1044.5949024170041
 31
0.0
  0
LINE
  5
1110D
  8
0
 10
952.94806058960512
 20
1052.5949024170041
 30
0.0
 11
952.94806058960512
 21
1044.5949024170041
 31
0.0
  0
ARC
  5
1110E
  8
0
 10
968.8251929923199
 20
1048.053235750338
 30
0.0
 40
5.5416666666664627
 50
55.039659594482622
 51
124.9603404055173
  0
ARC
  5
1110F
  8
0
 10
959.29891355069128
 20
1032.928235750338
 30
0.0
 40
20.66666666666627
 50
72.103448870737679
 51
107.89655112926231
  0
ARC
  5
11110
  8
0
 10
949.77263410906198
 20
1048.053235750338
 30
0.0
 40
5.5416666666664627
 50
55.039659594482622
 51
124.9603404055173
  0
LINE
  5
11111
  8
0
 10
972.00061947286315
 20
1052.5949024170041
 30
0.0
 11
970.26856866529386
 21
1053.5949024170041
 31
0.0
  0
LINE
  5
11112
  8
0
 10
946.59720762851975
 20
1052.5949024170041
 30
0.0
 11
948.32925843608803
 21
1053.5949024170041
 31
0.0
  0
LINE
  5
11113
  8
0
 10
784.87185488859132
 20
908.18367387177364
 30
0.0
 11
784.91185488859117
 21
907.35477387177366
 31
0.0
  0
LINE
  5
11114
  8
0
 10
781.01685488859118
 20
917.77327387177365
 30
0.0
 11
785.80585488859106
 21
899.90337387177385
 31
0.0
  0
LINE
  5
11115
  8
0
 10
792.87685488859086
 20
908.64477387177351
 30
0.0
 11
793.22385488859163
 21
907.88967387177365
 31
0.0
  0
LINE
  5
11116
  8
0
 10
790.67685488859115
 20
920.36127387177351
 30
0.0
 11
800.25285488859117
 21
884.62187387177357
 31
0.0
  0
LINE
  5
11117
  8
0
 10
790.16485488859144
 20
888.42907387177354
 30
0.0
 11
790.09585488859102
 21
887.99147387177368
 31
0.0
  0
LINE
  5
11118
  8
0
 10
785.80585488859106
 20
899.90337387177385
 30
0.0
 11
790.59385488859152
 21
882.03367387177354
 31
0.0
  0
LINE
  5
11119
  8
0
 10
798.66385488859123
 20
888.52577387177359
 30
0.0
 11
798.85985488859114
 21
888.12337387177354
 31
0.0
  0
LINE
  5
1111A
  8
0
 10
791.44585488859138
 20
881.55157387177348
 30
0.0
 11
791.68885488859132
 21
881.17287387177362
 31
0.0
  0
LINE
  5
1111B
  8
0
 10
799.69385488859098
 20
882.88167387177373
 30
0.0
 11
799.5508548885914
 21
882.00017387177354
 31
0.0
  0
LINE
  5
1111C
  8
0
 10
799.73485488859114
 20
883.32877387177359
 30
0.0
 11
799.69385488859098
 21
882.88167387177373
 31
0.0
  0
LINE
  5
1111D
  8
0
 10
799.75585488859133
 20
883.77827387177342
 30
0.0
 11
799.73485488859114
 21
883.32877387177359
 31
0.0
  0
LINE
  5
1111E
  8
0
 10
799.75685488859108
 20
884.22867387177371
 30
0.0
 11
799.75585488859133
 21
883.77827387177342
 31
0.0
  0
LINE
  5
1111F
  8
0
 10
799.73585488859135
 20
884.67857387177355
 30
0.0
 11
799.75685488859108
 21
884.22867387177371
 31
0.0
  0
LINE
  5
11120
  8
0
 10
799.69585488859127
 20
885.12667387177362
 30
0.0
 11
799.73585488859135
 21
884.67857387177355
 31
0.0
  0
LINE
  5
11121
  8
0
 10
799.63485488859124
 20
885.57157387177347
 30
0.0
 11
799.69585488859127
 21
885.12667387177362
 31
0.0
  0
LINE
  5
11122
  8
0
 10
799.55385488859156
 20
886.01177387177358
 30
0.0
 11
799.63485488859124
 21
885.57157387177347
 31
0.0
  0
LINE
  5
11123
  8
0
 10
799.4538548885912
 20
886.44607387177359
 30
0.0
 11
799.55385488859156
 21
886.01177387177358
 31
0.0
  0
LINE
  5
11125
  8
0
 10
799.19585488859127
 20
887.29557387177363
 30
0.0
 11
799.4538548885912
 21
886.44607387177359
 31
0.0
  0
LINE
  5
11126
  8
0
 10
799.03685488859117
 20
887.71287387177358
 30
0.0
 11
799.19585488859127
 21
887.29557387177363
 31
0.0
  0
LINE
  5
11127
  8
0
 10
798.85985488859114
 20
888.12337387177354
 30
0.0
 11
799.03685488859117
 21
887.71287387177358
 31
0.0
  0
LINE
  5
11128
  8
0
 10
800.25285488859117
 20
884.62187387177357
 30
0.0
 11
801.21885488859141
 21
884.88067387177375
 31
0.0
  0
LINE
  5
11129
  8
0
 10
799.5508548885914
 20
882.00017387177354
 30
0.0
 11
800.25285488859117
 21
884.62187387177357
 31
0.0
  0
LINE
  5
1112A
  8
0
 10
791.68885488859132
 20
881.17287387177362
 30
0.0
 11
791.94785488859134
 21
880.80637387177342
 31
0.0
  0
LINE
  5
1112B
  8
0
 10
791.21985488859116
 20
881.94137387177375
 30
0.0
 11
791.44585488859138
 21
881.55157387177348
 31
0.0
  0
LINE
  5
1112C
  8
0
 10
791.01285488859128
 20
882.34107387177357
 30
0.0
 11
791.21985488859116
 21
881.94137387177375
 31
0.0
  0
LINE
  5
1112D
  8
0
 10
790.82385488859097
 20
882.74947387177372
 30
0.0
 11
791.01285488859128
 21
882.34107387177357
 31
0.0
  0
LINE
  5
1112E
  8
0
 10
790.65385488859101
 20
883.16517387177362
 30
0.0
 11
790.82385488859097
 21
882.74947387177372
 31
0.0
  0
LINE
  5
1112F
  8
0
 10
790.50385488859126
 20
883.58687387177349
 30
0.0
 11
790.65385488859101
 21
883.16517387177362
 31
0.0
  0
LINE
  5
11130
  8
0
 10
790.37385488859115
 20
884.01317387177369
 30
0.0
 11
790.50385488859126
 21
883.58687387177349
 31
0.0
  0
LINE
  5
11132
  8
0
 10
790.17285488859125
 20
884.87787387177355
 30
0.0
 11
790.37385488859115
 21
884.01317387177369
 31
0.0
  0
LINE
  5
11133
  8
0
 10
790.10085488859113
 20
885.3183738717737
 30
0.0
 11
790.17285488859125
 21
884.87787387177355
 31
0.0
  0
LINE
  5
11134
  8
0
 10
790.04985488859165
 20
885.76267387177347
 30
0.0
 11
790.10085488859113
 21
885.3183738717737
 31
0.0
  0
LINE
  5
11135
  8
0
 10
790.01785488859139
 20
886.20927387177358
 30
0.0
 11
790.04985488859165
 21
885.76267387177347
 31
0.0
  0
LINE
  5
11136
  8
0
 10
790.00685488859108
 20
886.65677387177345
 30
0.0
 11
790.01785488859139
 21
886.20927387177358
 31
0.0
  0
LINE
  5
11137
  8
0
 10
790.0168548885913
 20
887.10397387177375
 30
0.0
 11
790.00685488859108
 21
886.65677387177345
 31
0.0
  0
LINE
  5
11138
  8
0
 10
790.04585488859129
 20
887.54927387177372
 30
0.0
 11
790.0168548885913
 21
887.10397387177375
 31
0.0
  0
LINE
  5
11139
  8
0
 10
790.09585488859102
 20
887.99147387177368
 30
0.0
 11
790.04585488859129
 21
887.54927387177372
 31
0.0
  0
LINE
  5
1113A
  8
0
 10
790.16485488859144
 20
888.42907387177354
 30
0.0
 11
797.4258548885914
 21
890.37477387177364
 31
0.0
  0
LINE
  5
1113B
  8
0
 10
789.18885488859132
 20
892.07127387177366
 30
0.0
 11
796.44985488859129
 21
894.01677387177358
 31
0.0
  0
LINE
  5
1113C
  8
0
 10
796.05185488859115
 20
898.25167387177362
 30
0.0
 11
796.16985488859154
 21
897.40787387177375
 31
0.0
  0
LINE
  5
1113D
  8
0
 10
798.21785488859121
 20
889.30137387177365
 30
0.0
 11
798.44885488859097
 21
888.9188738717736
 31
0.0
  0
LINE
  5
1113E
  8
0
 10
798.44885488859097
 20
888.9188738717736
 30
0.0
 11
798.66385488859123
 21
888.52577387177359
 31
0.0
  0
LINE
  5
1113F
  8
0
 10
796.44985488859129
 20
894.01677387177358
 30
0.0
 11
797.4258548885914
 21
890.37477387177364
 31
0.0
  0
LINE
  5
11141
  8
0
 10
796.34885488859163
 20
895.71417387177371
 30
0.0
 11
796.44985488859129
 21
894.01677387177358
 31
0.0
  0
LINE
  5
11142
  8
0
 10
796.26885488859125
 20
896.56187387177363
 30
0.0
 11
796.34885488859163
 21
895.71417387177371
 31
0.0
  0
LINE
  5
11143
  8
0
 10
796.16985488859154
 20
897.40787387177375
 30
0.0
 11
796.26885488859125
 21
896.56187387177363
 31
0.0
  0
LINE
  5
11144
  8
0
 10
797.96885488859152
 20
889.67217387177345
 30
0.0
 11
798.21785488859121
 21
889.30137387177365
 31
0.0
  0
LINE
  5
11145
  8
0
 10
797.7048548885914
 20
890.03027387177372
 30
0.0
 11
797.96885488859152
 21
889.67217387177345
 31
0.0
  0
LINE
  5
11146
  8
0
 10
797.4258548885914
 20
890.37477387177364
 30
0.0
 11
797.7048548885914
 21
890.03027387177372
 31
0.0
  0
LINE
  5
11147
  8
0
 10
795.38785488859139
 20
901.59107387177369
 30
0.0
 11
795.58185488859135
 21
900.76287387177365
 31
0.0
  0
LINE
  5
11148
  8
0
 10
795.17485488859165
 20
902.4138738717736
 30
0.0
 11
795.38785488859139
 21
901.59107387177369
 31
0.0
  0
LINE
  5
1114A
  8
0
 10
794.7058548885916
 20
904.00637387177346
 30
0.0
 11
795.17485488859165
 21
902.4138738717736
 31
0.0
  0
LINE
  5
1114B
  8
0
 10
794.44385488859086
 20
904.79547387177342
 30
0.0
 11
794.7058548885916
 21
904.00637387177346
 31
0.0
  0
LINE
  5
1114C
  8
0
 10
794.16485488859144
 20
905.57887387177345
 30
0.0
 11
794.44385488859086
 21
904.79547387177342
 31
0.0
  0
LINE
  5
1114D
  8
0
 10
793.86885488859104
 20
906.35607387177356
 30
0.0
 11
794.16485488859144
 21
905.57887387177345
 31
0.0
  0
LINE
  5
1114E
  8
0
 10
793.55485488859131
 20
907.12657387177364
 30
0.0
 11
793.86885488859104
 21
906.35607387177356
 31
0.0
  0
LINE
  5
1114F
  8
0
 10
793.22385488859163
 20
907.88967387177365
 30
0.0
 11
793.55485488859131
 21
907.12657387177364
 31
0.0
  0
LINE
  5
11150
  8
0
 10
795.91385488859123
 20
899.09247387177345
 30
0.0
 11
796.05185488859115
 21
898.25167387177362
 31
0.0
  0
LINE
  5
11151
  8
0
 10
795.75785488859128
 20
899.9297738717737
 30
0.0
 11
795.91385488859123
 21
899.09247387177345
 31
0.0
  0
LINE
  5
11152
  8
0
 10
795.58185488859135
 20
900.76287387177365
 30
0.0
 11
795.75785488859128
 21
899.9297738717737
 31
0.0
  0
LINE
  5
11153
  8
0
 10
786.56785488859123
 20
898.34767387177374
 30
0.0
 11
786.83285488859099
 21
897.53837387177362
 31
0.0
  0
LINE
  5
11154
  8
0
 10
788.42885488859156
 20
893.59197387177369
 30
0.0
 11
789.18885488859132
 21
892.07127387177366
 31
0.0
  0
LINE
  5
11155
  8
0
 10
788.07385488859097
 20
894.3658738717736
 30
0.0
 11
788.42885488859156
 21
893.59197387177369
 31
0.0
  0
LINE
  5
11156
  8
0
 10
787.73685488859155
 20
895.1480738717737
 30
0.0
 11
788.07385488859097
 21
894.3658738717736
 31
0.0
  0
LINE
  5
11157
  8
0
 10
787.41685488859127
 20
895.93797387177369
 30
0.0
 11
787.73685488859155
 21
895.1480738717737
 31
0.0
  0
LINE
  5
11158
  8
0
 10
787.11585488859134
 20
896.73497387177383
 30
0.0
 11
787.41685488859127
 21
895.93797387177369
 31
0.0
  0
LINE
  5
11159
  8
0
 10
786.83285488859099
 20
897.53837387177362
 30
0.0
 11
787.11585488859134
 21
896.73497387177383
 31
0.0
  0
LINE
  5
1115B
  8
0
 10
789.18885488859132
 20
892.07127387177366
 30
0.0
 11
790.16485488859144
 21
888.42907387177354
 31
0.0
  0
LINE
  5
1115C
  8
0
 10
785.53785488859103
 20
902.4089738717737
 30
0.0
 11
785.7058548885916
 21
901.59487387177364
 31
0.0
  0
LINE
  5
1115D
  8
0
 10
785.38785488859139
 20
903.22697387177368
 30
0.0
 11
785.53785488859103
 21
902.4089738717737
 31
0.0
  0
LINE
  5
1115E
  8
0
 10
785.25585488859133
 20
904.04827387177374
 30
0.0
 11
785.38785488859139
 21
903.22697387177368
 31
0.0
  0
LINE
  5
1115F
  8
0
 10
785.1418548885913
 20
904.87237387177356
 30
0.0
 11
785.25585488859133
 21
904.04827387177374
 31
0.0
  0
LINE
  5
11160
  8
0
 10
785.04685488859104
 20
905.69857387177353
 30
0.0
 11
785.1418548885913
 21
904.87237387177356
 31
0.0
  0
LINE
  5
11161
  8
0
 10
784.96985488859116
 20
906.52627387177358
 30
0.0
 11
785.04685488859104
 21
905.69857387177353
 31
0.0
  0
LINE
  5
11162
  8
0
 10
784.91185488859117
 20
907.35477387177366
 30
0.0
 11
784.96985488859116
 21
906.52627387177358
 31
0.0
  0
LINE
  5
11163
  8
0
 10
786.32185488859159
 20
899.1620738717736
 30
0.0
 11
786.56785488859123
 21
898.34767387177374
 31
0.0
  0
LINE
  5
11164
  8
0
 10
786.09485488859127
 20
899.98097387177359
 30
0.0
 11
786.32185488859159
 21
899.1620738717736
 31
0.0
  0
LINE
  5
11166
  8
0
 10
785.7058548885916
 20
901.59487387177364
 30
0.0
 11
786.09485488859127
 21
899.98097387177359
 31
0.0
  0
LINE
  5
11167
  8
0
 10
791.6428548885915
 20
920.62027387177363
 30
0.0
 11
790.67685488859115
 21
920.36127387177351
 31
0.0
  0
LINE
  5
11168
  8
0
 10
791.06685488859137
 20
914.10887387177354
 30
0.0
 11
792.13285488859117
 21
910.12927387177365
 31
0.0
  0
LINE
  5
11169
  8
0
 10
784.87185488859132
 20
908.18367387177364
 30
0.0
 11
792.13285488859117
 21
910.12927387177365
 31
0.0
  0
LINE
  5
1116B
  8
0
 10
792.13285488859117
 20
910.12927387177365
 30
0.0
 11
792.51285488859139
 21
909.39157387177374
 31
0.0
  0
LINE
  5
1116C
  8
0
 10
792.51285488859139
 20
909.39157387177374
 30
0.0
 11
792.87685488859086
 21
908.64477387177351
 31
0.0
  0
LINE
  5
1116D
  8
0
 10
781.50385488859126
 20
918.03827387177353
 30
0.0
 11
781.52985488859122
 21
917.60827387177358
 31
0.0
  0
LINE
  5
1116E
  8
0
 10
791.00385488859126
 20
917.94227387177341
 30
0.0
 11
791.08685488859089
 21
917.52327387177365
 31
0.0
  0
LINE
  5
1116F
  8
0
 10
781.65985488859133
 20
920.17127387177356
 30
0.0
 11
781.01685488859118
 21
917.77327387177365
 31
0.0
  0
LINE
  5
11170
  8
0
 10
783.80585488859106
 20
912.16327387177375
 30
0.0
 11
791.06685488859137
 21
914.10887387177354
 31
0.0
  0
LINE
  5
11171
  8
0
 10
783.80585488859106
 20
912.16327387177375
 30
0.0
 11
784.87185488859132
 21
908.18367387177364
 31
0.0
  0
LINE
  5
11172
  8
0
 10
791.18585488859105
 20
914.95397387177343
 30
0.0
 11
791.06685488859137
 21
914.10887387177354
 31
0.0
  0
LINE
  5
11173
  8
0
 10
791.21785488859132
 20
915.38227387177346
 30
0.0
 11
791.18585488859105
 21
914.95397387177343
 31
0.0
  0
LINE
  5
11174
  8
0
 10
791.22985488859103
 20
915.81127387177355
 30
0.0
 11
791.21785488859132
 21
915.38227387177346
 31
0.0
  0
LINE
  5
11175
  8
0
 10
791.22285488859143
 20
916.2422738717737
 30
0.0
 11
791.22985488859103
 21
915.81127387177355
 31
0.0
  0
LINE
  5
11176
  8
0
 10
791.19685488859159
 20
916.67127387177356
 30
0.0
 11
791.22285488859143
 21
916.2422738717737
 31
0.0
  0
LINE
  5
11177
  8
0
 10
791.15185488859152
 20
917.09927387177368
 30
0.0
 11
791.19685488859159
 21
916.67127387177356
 31
0.0
  0
LINE
  5
11178
  8
0
 10
791.08685488859089
 20
917.52327387177365
 30
0.0
 11
791.15185488859152
 21
917.09927387177368
 31
0.0
  0
LINE
  5
1117A
  8
0
 10
781.63985488859134
 20
916.75727387177346
 30
0.0
 11
781.82385488859097
 21
915.92327387177352
 31
0.0
  0
LINE
  5
1117B
  8
0
 10
783.27985488859122
 20
912.83547387177373
 30
0.0
 11
783.80585488859106
 21
912.16327387177375
 31
0.0
  0
LINE
  5
1117C
  8
0
 10
783.03885488859123
 20
913.19027387177357
 30
0.0
 11
783.27985488859122
 21
912.83547387177373
 31
0.0
  0
LINE
  5
1117D
  8
0
 10
782.81285488859146
 20
913.55617387177358
 30
0.0
 11
783.03885488859123
 21
913.19027387177357
 31
0.0
  0
LINE
  5
1117E
  8
0
 10
782.60385488859129
 20
913.93227387177353
 30
0.0
 11
782.81285488859146
 21
913.55617387177358
 31
0.0
  0
LINE
  5
1117F
  8
0
 10
782.41185488859128
 20
914.31727387177352
 30
0.0
 11
782.60385488859129
 21
913.93227387177353
 31
0.0
  0
LINE
  5
11180
  8
0
 10
782.23685488859155
 20
914.71017387177346
 30
0.0
 11
782.41185488859128
 21
914.31727387177352
 31
0.0
  0
LINE
  5
11181
  8
0
 10
782.08085488859149
 20
915.10967387177357
 30
0.0
 11
782.23685488859155
 21
914.71017387177346
 31
0.0
  0
LINE
  5
11182
  8
0
 10
781.94285488859123
 20
915.51427387177375
 30
0.0
 11
782.08085488859149
 21
915.10967387177357
 31
0.0
  0
LINE
  5
11183
  8
0
 10
781.82385488859097
 20
915.92327387177352
 30
0.0
 11
781.94285488859123
 21
915.51427387177375
 31
0.0
  0
LINE
  5
11185
  8
0
 10
781.57485488859118
 20
917.18127387177356
 30
0.0
 11
781.63985488859134
 21
916.75727387177346
 31
0.0
  0
LINE
  5
11186
  8
0
 10
781.52985488859122
 20
917.60827387177358
 30
0.0
 11
781.57485488859118
 21
917.18127387177356
 31
0.0
  0
LINE
  5
11187
  8
0
 10
788.92085488859118
 20
922.1162738717735
 30
0.0
 11
781.65985488859133
 21
920.17127387177356
 31
0.0
  0
LINE
  5
11188
  8
0
 10
790.12285488859095
 20
920.3472738717735
 30
0.0
 11
790.31485488859096
 21
919.9622738717735
 31
0.0
  0
LINE
  5
11189
  8
0
 10
790.67685488859115
 20
920.36127387177351
 30
0.0
 11
788.92085488859118
 21
922.1162738717735
 31
0.0
  0
LINE
  5
1118A
  8
0
 10
789.91385488859123
 20
920.7232738717737
 30
0.0
 11
790.12285488859095
 21
920.3472738717735
 31
0.0
  0
LINE
  5
1118B
  8
0
 10
789.68785488859157
 20
921.08927387177368
 30
0.0
 11
789.91385488859123
 21
920.7232738717737
 31
0.0
  0
LINE
  5
1118C
  8
0
 10
789.44685488859159
 20
921.4442738717737
 30
0.0
 11
789.68785488859157
 21
921.08927387177368
 31
0.0
  0
LINE
  5
1118D
  8
0
 10
789.19085488859116
 20
921.78727387177355
 30
0.0
 11
789.44685488859159
 21
921.4442738717737
 31
0.0
  0
LINE
  5
1118E
  8
0
 10
788.92085488859118
 20
922.1162738717735
 30
0.0
 11
789.19085488859116
 21
921.78727387177355
 31
0.0
  0
LINE
  5
1118F
  8
0
 10
790.90285488859115
 20
918.35627387177362
 30
0.0
 11
791.00385488859126
 21
917.94227387177341
 31
0.0
  0
LINE
  5
11191
  8
0
 10
790.6458548885912
 20
919.17027387177347
 30
0.0
 11
790.90285488859115
 21
918.35627387177362
 31
0.0
  0
LINE
  5
11192
  8
0
 10
790.48985488859125
 20
919.56927387177359
 30
0.0
 11
790.6458548885912
 21
919.17027387177347
 31
0.0
  0
LINE
  5
11193
  8
0
 10
790.31485488859096
 20
919.9622738717735
 30
0.0
 11
790.48985488859125
 21
919.56927387177359
 31
0.0
  0
LINE
  5
11194
  8
0
 10
781.49685488859132
 20
918.46827387177359
 30
0.0
 11
781.50385488859126
 21
918.03827387177353
 31
0.0
  0
LINE
  5
11195
  8
0
 10
781.50885488859137
 20
918.89827387177365
 30
0.0
 11
781.49685488859132
 21
918.46827387177359
 31
0.0
  0
LINE
  5
11196
  8
0
 10
781.54085488859164
 20
919.32627387177342
 30
0.0
 11
781.50885488859137
 21
918.89827387177365
 31
0.0
  0
LINE
  5
11197
  8
0
 10
781.59085488859125
 20
919.75027387177352
 30
0.0
 11
781.54085488859164
 21
919.32627387177342
 31
0.0
  0
LINE
  5
11198
  8
0
 10
781.65985488859133
 20
920.17127387177356
 30
0.0
 11
781.59085488859125
 21
919.75027387177352
 31
0.0
  0
LINE
  5
11199
  8
0
 10
790.59385488859152
 20
882.03367387177354
 30
0.0
 11
792.51285488859139
 21
880.11447387177361
 31
0.0
  0
LINE
  5
1119A
  8
0
 10
792.51285488859139
 20
880.11447387177361
 30
0.0
 11
799.5508548885914
 21
882.00017387177354
 31
0.0
  0
LINE
  5
1119B
  8
0
 10
791.94785488859134
 20
880.80637387177342
 30
0.0
 11
792.51285488859139
 21
880.11447387177361
 31
0.0
  0
ARC
  5
1119C
  8
0
 10
977.87891355069132
 20
1030.5949024170041
 30
0.0
 40
2.0
 50
180.0
 51
270.0
  0
LINE
  5
1119D
  8
0
 10
997.87891355069132
 20
1028.5949024170041
 30
0.0
 11
977.87891355069132
 21
1028.5949024170041
 31
0.0
  0
LINE
  5
1119E
  8
0
 10
830.65634789375872
 20
964.55928151824617
 30
0.0
 11
830.65634789375872
 21
924.00016939771501
 31
0.0
  0
ARC
  5
1119F
  8
0
 10
825.65634789375883
 20
964.55928151824617
 30
0.0
 40
5.0
 50
0.0
 51
23.403750738187391
  0
LINE
  5
111A0
  8
0
 10
824.60296095563797
 20
979.58094225954324
 30
0.0
 11
830.24499102041955
 21
966.54532136078535
 31
0.0
  0
ARC
  5
111A1
  8
0
 10
820.01431782897725
 20
977.59490241700405
 30
0.0
 40
5.0
 50
23.403750738187391
 51
90.0
  0
LINE
  5
111A2
  8
0
 10
810.03464197158701
 20
1052.5949024170041
 30
0.0
 11
810.03464197158701
 21
1044.5949024170041
 31
0.0
  0
LINE
  5
111A3
  8
0
 10
835.43805381593074
 20
1052.5949024170041
 30
0.0
 11
835.43805381593018
 21
1044.5949024170041
 31
0.0
  0
LINE
  5
111A4
  8
0
 10
811.76669277915596
 20
1053.5949024170041
 30
0.0
 11
833.70600300836213
 21
1053.5949024170041
 31
0.0
  0
LINE
  5
111A5
  8
0
 10
816.38549493267328
 20
1052.5949024170041
 30
0.0
 11
816.38549493267328
 21
1044.5949024170041
 31
0.0
  0
LINE
  5
111A6
  8
0
 10
829.08720085484492
 20
1052.5949024170041
 30
0.0
 11
829.08720085484492
 21
1044.5949024170041
 31
0.0
  0
ARC
  5
111A7
  8
0
 10
813.21006845213014
 20
1048.053235750338
 30
0.0
 40
5.5416666666664627
 50
55.039659594482622
 51
124.9603404055173
  0
ARC
  5
111A8
  8
0
 10
822.73634789375865
 20
1032.928235750338
 30
0.0
 40
20.66666666666627
 50
72.103448870737679
 51
107.89655112926231
  0
ARC
  5
111A9
  8
0
 10
832.26262733538806
 20
1048.053235750338
 30
0.0
 40
5.5416666666664627
 50
55.039659594482622
 51
124.9603404055173
  0
LINE
  5
111AA
  8
0
 10
810.03464197158701
 20
1052.5949024170041
 30
0.0
 11
811.76669277915596
 21
1053.5949024170041
 31
0.0
  0
LINE
  5
111AB
  8
0
 10
835.43805381593018
 20
1052.5949024170041
 30
0.0
 11
833.70600300836213
 21
1053.5949024170041
 31
0.0
  0
LINE
  5
111AC
  8
0
 10
951.48283268773048
 20
965.57337825098375
 30
0.0
 11
830.65634789375872
 21
965.57337825098375
 31
0.0
  0
ARC
  5
111AD
  8
0
 10
890.88004951458606
 20
908.04170860450631
 30
0.0
 40
139.00100959519921
 50
97.282847498652117
 51
100.7685546183794
  0
ARC
  5
111AE
  8
0
 10
872.87891355069132
 20
1048.8971161331669
 30
0.0
 40
3.0
 50
277.28284749867828
 51
0.0
  0
LINE
  5
111AF
  8
0
 10
875.87891355069144
 20
1048.8971161331669
 30
0.0
 11
875.87891355069144
 21
1057.5949024170041
 31
0.0
  0
LINE
  5
111BE
  8
0
 10
812.52218526564047
 20
1014.573378250985
 30
0.0
 11
808.87891355069121
 21
1014.574888648084
 31
0.0
  0
LINE
  5
111BF
  8
0
 10
972.87891355069132
 20
1014.574888648084
 30
0.0
 11
812.52218528268895
 21
1014.573378250985
 31
0.0
  0
LINE
  5
111C0
  8
0
 10
975.87891355069144
 20
1030.5949024170041
 30
0.0
 11
975.87891355069144
 21
1017.574888648084
 31
0.0
  0
LINE
  5
111C1
  8
0
 10
805.87891355069132
 20
1030.5949024170041
 30
0.0
 11
805.87891355069132
 21
1017.574888648084
 31
0.0
  0
ARC
  5
111C2
  8
0
 10
812.52218526564047
 20
1009.573378250985
 30
0.0
 40
5.0
 50
19.29004621918634
 51
90.0
  0
LINE
  5
111C3
  8
0
 10
959.0695902907446
 20
994.57337825098455
 30
0.0
 11
959.0695902907446
 21
984.09913015069992
 31
0.0
  0
LINE
  5
111C4
  8
0
 10
957.54398166206101
 20
983.54274113930614
 30
0.0
 11
825.22863391170165
 21
983.54274113930569
 31
0.0
  0
LINE
  5
111C5
  8
0
 10
964.89770353401855
 20
1011.225130374625
 30
0.0
 11
959.0695902907446
 21
994.57337825098489
 31
0.0
  0
ARC
  5
111C6
  8
0
 10
969.61699531584861
 20
1009.573378250985
 30
0.0
 40
5.0
 50
90.0
 51
160.70995378081361
  0
LINE
  5
111C7
  8
0
 10
823.06959029074449
 20
994.57337825098489
 30
0.0
 11
959.0695902907446
 21
994.57337825098489
 31
0.0
  0
LINE
  5
111C8
  8
0
 10
823.06959029074449
 20
994.57337825098455
 30
0.0
 11
823.06959029074449
 21
984.09913015070015
 31
0.0
  0
LINE
  5
111C9
  8
0
 10
817.24147704747065
 20
1011.225130374625
 30
0.0
 11
823.06959029074449
 21
994.57337825098489
 31
0.0
  0
ARC
  5
111CA
  8
0
 10
954.0695902907446
 20
984.09913015069992
 30
0.0
 40
5.0
 50
336.81321074725258
 51
0.0
  0
ARC
  5
111CB
  8
0
 10
828.0695902907446
 20
984.09913015070015
 30
0.0
 40
5.0
 50
180.0
 51
203.18678925274739
  0
LINE
  5
111CC
  8
0
 10
950.26765034152049
 20
965.57337825098375
 30
0.0
 11
914.06959029074449
 21
965.57337825098375
 31
0.0
  0
LINE
  5
111CD
  8
0
 10
868.0695902907446
 20
965.57337825098375
 30
0.0
 11
832.83595238015459
 21
965.57337825098375
 31
0.0
  0
ARC
  5
111CE
  8
0
 10
808.87891355069121
 20
1017.574888648084
 30
0.0
 40
3.0
 50
180.0
 51
270.0
  0
ARC
  5
111CF
  8
0
 10
972.87891355069132
 20
1017.574888648084
 30
0.0
 40
3.0
 50
270.0
 51
0.0
  0
LINE
  5
111D0
  8
0
 10
789.59327601358564
 20
982.59490241700405
 30
0.0
 11
781.87891355069132
 21
982.59490241700405
 31
0.0
  0
LINE
  5
111D1
  8
0
 10
784.33885488859141
 20
910.17347387177358
 30
0.0
 11
783.13967009802127
 21
909.85210128647429
 31
0.0
  0
LINE
  5
111D2
  8
0
 10
789.67685488859115
 20
890.25017387177343
 30
0.0
 11
788.47837043148866
 21
889.9290524438477
 31
0.0
  0
LINE
  5
111D3
  8
0
 10
791.59985488859093
 20
912.11907387177382
 30
0.0
 11
792.79916604307982
 21
912.44041680465398
 31
0.0
  0
LINE
  5
111D4
  8
0
 10
796.93785488859157
 20
892.19577387177344
 30
0.0
 11
798.13739064972276
 21
892.51717698566461
 31
0.0
  0
LINE
  5
111D6
  8
0
 10
790.22227221431149
 20
1018.574888648084
 30
0.0
 11
802.491769297254
 21
1018.574888648084
 31
0.0
  0
LINE
  5
111D7
  8
0
 10
790.22227221431149
 20
992.5748886480842
 30
0.0
 11
802.491769297254
 21
992.5748886480842
 31
0.0
  0
LINE
  5
111D8
  8
0
 10
802.37891355069041
 20
1018.594902417003
 30
0.0
 11
790.37891355069041
 21
1018.594902417003
 31
0.0
  0
ARC
  5
111D9
  8
0
 10
790.37891355069041
 20
1016.594902417003
 30
0.0
 40
2.0
 50
90.0
 51
180.0
  0
ARC
  5
111DA
  8
0
 10
802.37891355069041
 20
1016.594902417003
 30
0.0
 40
2.0
 50
0.0
 51
90.0
  0
ARC
  5
111DB
  8
0
 10
802.37891355069041
 20
1026.5949024170029
 30
0.0
 40
2.0
 50
0.0
 51
90.0
  0
LINE
  5
111DC
  8
0
 10
788.37891355069041
 20
1026.5949024170029
 30
0.0
 11
788.37891355069041
 21
1025.7068510209269
 31
0.0
  0
ARC
  5
111DD
  8
0
 10
790.37891355069041
 20
1026.5949024170029
 30
0.0
 40
2.0
 50
90.0
 51
180.0
  0
LINE
  5
111DE
  8
0
 10
804.3789135506903
 20
1026.5949024170029
 30
0.0
 11
804.3789135506903
 21
1025.7068510209269
 31
0.0
  0
LINE
  5
111DF
  8
0
 10
789.22227221431046
 20
1025.7068510209269
 30
0.0
 11
803.49176929725309
 21
1025.7068510209269
 31
0.0
  0
LINE
  5
111E0
  8
0
 10
788.37891355069041
 20
1005.5949024170041
 30
0.0
 11
788.37891355069041
 21
1016.594902417003
 31
0.0
  0
LINE
  5
111E1
  8
0
 10
804.3789135506903
 20
1016.594902417003
 30
0.0
 11
804.3789135506903
 21
1005.5949024170041
 31
0.0
  0
LINE
  5
111E2
  8
0
 10
802.37891355069041
 20
992.59490241700439
 30
0.0
 11
790.37891355069041
 21
992.59490241700439
 31
0.0
  0
ARC
  5
111E3
  8
0
 10
790.37891355069041
 20
994.59490241700462
 30
0.0
 40
2.0
 50
180.0
 51
270.0
  0
ARC
  5
111E4
  8
0
 10
802.37891355069041
 20
994.59490241700462
 30
0.0
 40
2.0
 50
270.0
 51
0.0
  0
ARC
  5
111E5
  8
0
 10
802.37891355069041
 20
984.59490241700485
 30
0.0
 40
2.0
 50
270.0
 51
0.0
  0
LINE
  5
111E6
  8
0
 10
788.37891355069041
 20
984.59490241700439
 30
0.0
 11
788.37891355069041
 21
985.48295381308105
 31
0.0
  0
ARC
  5
111E7
  8
0
 10
790.37891355069041
 20
984.59490241700439
 30
0.0
 40
2.0
 50
180.0
 51
270.0
  0
LINE
  5
111E8
  8
0
 10
804.3789135506903
 20
984.59490241700485
 30
0.0
 11
804.3789135506903
 21
985.48295381308094
 31
0.0
  0
LINE
  5
111E9
  8
0
 10
789.22227221431046
 20
985.48295381308105
 30
0.0
 11
803.49176929725309
 21
985.48295381308105
 31
0.0
  0
LINE
  5
111EA
  8
0
 10
788.37891355069041
 20
1005.5949024170041
 30
0.0
 11
788.37891355069041
 21
994.59490241700462
 31
0.0
  0
LINE
  5
111EB
  8
0
 10
804.3789135506903
 20
994.59490241700462
 30
0.0
 11
804.3789135506903
 21
1005.5949024170041
 31
0.0
  0
LINE
  5
111EC
  8
0
 10
991.42269914050758
 20
1018.594902417003
 30
0.0
 11
979.42269914050746
 21
1018.5949024170041
 31
0.0
  0
ARC
  5
111ED
  8
0
 10
979.42269914050746
 20
1016.5949024170041
 30
0.0
 40
2.0
 50
90.0
 51
180.0
  0
ARC
  5
111EE
  8
0
 10
991.42269914050758
 20
1016.594902417003
 30
0.0
 40
2.0
 50
0.0
 51
90.0
  0
LINE
  5
111EF
  8
0
 10
977.42269914050746
 20
1005.5949024170041
 30
0.0
 11
977.42269914050746
 21
1016.5949024170041
 31
0.0
  0
LINE
  5
111F0
  8
0
 10
993.42269914050758
 20
1016.594902417003
 30
0.0
 11
993.42269914050758
 21
1005.5949024170041
 31
0.0
  0
LINE
  5
111F1
  8
0
 10
991.42269914050758
 20
992.59490241700496
 30
0.0
 11
979.42269914050746
 21
992.59490241700496
 31
0.0
  0
ARC
  5
111F2
  8
0
 10
979.42269914050746
 20
994.59490241700485
 30
0.0
 40
2.0
 50
180.0
 51
270.0
  0
ARC
  5
111F3
  8
0
 10
991.42269914050758
 20
994.59490241700485
 30
0.0
 40
2.0
 50
270.0
 51
0.0
  0
ARC
  5
111F4
  8
0
 10
991.42269914050758
 20
984.59490241700496
 30
0.0
 40
2.0
 50
270.0
 51
0.0
  0
LINE
  5
111F5
  8
0
 10
977.42269914050746
 20
984.59490241700496
 30
0.0
 11
977.42269914050746
 21
985.48295381308128
 31
0.0
  0
ARC
  5
111F6
  8
0
 10
979.42269914050746
 20
984.59490241700496
 30
0.0
 40
2.0
 50
180.0
 51
270.0
  0
LINE
  5
111F7
  8
0
 10
993.42269914050758
 20
984.59490241700496
 30
0.0
 11
993.42269914050758
 21
985.48295381308128
 31
0.0
  0
LINE
  5
111F8
  8
0
 10
978.26605780412763
 20
985.48295381308128
 30
0.0
 11
992.53555488707025
 21
985.48295381308128
 31
0.0
  0
LINE
  5
111F9
  8
0
 10
977.42269914050746
 20
1005.5949024170041
 30
0.0
 11
977.42269914050746
 21
994.59490241700485
 31
0.0
  0
LINE
  5
111FA
  8
0
 10
993.42269914050758
 20
994.59490241700485
 30
0.0
 11
993.42269914050758
 21
1005.5949024170041
 31
0.0
  0
LINE
  5
111FB
  8
0
 10
1001.42229462348
 20
419.35914842886262
 30
0.0
 11
1001.42229462348
 21
375.35914842886319
 31
0.0
  0
LINE
  5
111FC
  8
0
 10
781.42229462348041
 20
419.35914842886342
 30
0.0
 11
781.42229462348041
 21
375.35914842886268
 31
0.0
  0
LINE
  5
111FD
  8
0
 10
830.92229462348041
 20
356.32352753010508
 30
0.0
 11
830.92229462348041
 21
315.76441540957399
 31
0.0
  0
ARC
  5
111FE
  8
0
 10
825.9222946234803
 20
356.32352753010508
 30
0.0
 40
5.0
 50
0.0
 51
23.403750738188101
  0
LINE
  5
111FF
  8
0
 10
946.42234052727235
 20
274.75674962059873
 30
0.0
 11
946.42234052727235
 21
262.3591484288628
 31
0.0
  0
LINE
  5
11200
  8
0
 10
1000.42229462348
 20
420.3591484288628
 30
0.0
 11
1001.42229462348
 21
419.35914842886262
 31
0.0
  0
LINE
  5
11201
  8
0
 10
939.38141470865958
 20
283.15956080846553
 30
0.0
 11
952.55836723107905
 21
279.62873396126997
 31
0.0
  0
LINE
  5
11202
  8
0
 10
952.71646073700413
 20
279.5863720574734
 30
0.0
 11
979.43453317092735
 21
272.4271379861276
 31
0.0
  0
ARC
  5
11203
  8
0
 10
951.42234052727235
 20
274.75674962059873
 30
0.0
 40
5.0
 50
74.999703602229914
 51
180.0
  0
LINE
  5
11204
  8
0
 10
786.42229462348041
 20
422.35914842886331
 30
0.0
 11
834.67191803793912
 21
422.35914842886331
 31
0.0
  0
LINE
  5
11205
  8
0
 10
834.67191803793912
 20
422.35914842886331
 30
0.0
 11
976.42229462348041
 21
422.35914842886331
 31
0.0
  0
LINE
  5
11206
  8
0
 10
782.42229462348041
 20
374.35914842886291
 30
0.0
 11
820.28026455869895
 21
374.35914842886291
 31
0.0
  0
LINE
  5
11207
  8
0
 10
781.42229462348041
 20
375.35914842886268
 30
0.0
 11
782.42229462348041
 21
374.35914842886291
 31
0.0
  0
LINE
  5
11208
  8
0
 10
782.42229462348041
 20
420.35914842886308
 30
0.0
 11
784.42229462348041
 21
420.35914842886308
 31
0.0
  0
LINE
  5
11209
  8
0
 10
781.42229462348041
 20
419.35914842886342
 30
0.0
 11
782.42229462348041
 21
420.35914842886308
 31
0.0
  0
LINE
  5
1120B
  8
0
 10
1000.42229462348
 20
420.3591484288628
 30
0.0
 11
978.42229462348041
 21
420.3591484288628
 31
0.0
  0
LINE
  5
1120C
  8
0
 10
992.7079321605861
 20
374.35914842886291
 30
0.0
 11
962.28689034519414
 21
374.35914842886291
 31
0.0
  0
ARC
  5
1120D
  8
0
 10
992.7079321605861
 20
369.3591484288628
 30
0.0
 40
5.0
 50
90.0
 51
180.0
  0
LINE
  5
1120E
  8
0
 10
1001.42229462348
 20
375.35914842886302
 30
0.0
 11
1000.42229462348
 21
374.35914842886291
 31
0.0
  0
ARC
  5
1120F
  8
0
 10
978.42229462348041
 20
422.3591484288628
 30
0.0
 40
2.0
 50
180.0
 51
270.0
  0
LINE
  5
11211
  8
0
 10
891.42234052727235
 20
259.35914842886291
 30
0.0
 11
838.42315145922646
 21
259.35914842886291
 31
0.0
  0
ARC
  5
11212
  8
0
 10
838.42315145922646
 20
261.35914842886291
 30
0.0
 40
2.0
 50
218.68218745349529
 51
270.0
  0
ARC
  5
11213
  8
0
 10
835.30065246002732
 20
258.85914842886268
 30
0.0
 40
2.0
 50
38.682187453495239
 51
90.0
  0
LINE
  5
11214
  8
0
 10
835.30065246002732
 20
260.8591484288628
 30
0.0
 11
833.42315145922657
 21
260.8591484288628
 31
0.0
  0
ARC
  5
11215
  8
0
 10
833.42315145922657
 20
282.85914842886291
 30
0.0
 40
2.0
 50
103.5528201097429
 51
180.0
  0
ARC
  5
11216
  8
0
 10
831.54841803838917
 20
290.63638280882049
 30
0.0
 40
6.0
 50
283.55282010974298
 51
26.068009150953479
  0
ARC
  5
11217
  8
0
 10
833.42315145922657
 20
262.8591484288628
 30
0.0
 40
2.0
 50
180.0
 51
270.0
  0
LINE
  5
11218
  8
0
 10
831.42315145922646
 20
282.85914842886291
 30
0.0
 11
831.42315145922646
 21
262.8591484288628
 31
0.0
  0
LINE
  5
11219
  8
0
 10
987.70793216058598
 20
369.3591484288628
 30
0.0
 11
987.70793216058598
 21
320.1349804824477
 31
0.0
  0
LINE
  5
1121A
  8
0
 10
891.42234052727235
 20
259.35914842886291
 30
0.0
 11
943.42234052727235
 21
259.35914842886291
 31
0.0
  0
ARC
  5
1121B
  8
0
 10
943.42234052727235
 20
262.3591484288628
 30
0.0
 40
3.0
 50
270.0
 51
0.0
  0
ARC
  5
1121C
  8
0
 10
891.28357745194626
 20
319.85898929484313
 30
0.0
 40
60.5
 50
184.08880737158731
 51
206.01865435211229
  0
ARC
  5
1121D
  8
0
 10
891.28357745194626
 20
319.85898929484313
 30
0.0
 40
60.5
 50
206.06800915095349
 51
269.73144048501672
  0
ARC
  5
1121E
  8
0
 10
891.28357745194626
 20
319.85898929484313
 30
0.0
 40
60.5
 50
269.73144048501672
 51
0.0
  0
LINE
  5
1121F
  8
0
 10
824.8689076853592
 20
371.34518827140209
 30
0.0
 11
830.51093775014067
 21
358.30956737264432
 31
0.0
  0
ARC
  5
11220
  8
0
 10
820.28026455869895
 20
369.35914842886302
 30
0.0
 40
5.0
 50
23.403750738188101
 51
90.0
  0
ARC
  5
11222
  8
0
 10
784.42229462348041
 20
422.35914842886319
 30
0.0
 40
2.0
 50
270.0
 51
0.0
  0
LINE
  5
11224
  8
0
 10
980.04690905147788
 20
272.78069423975091
 30
0.0
 11
979.43454081782875
 21
272.42714240107898
 31
0.0
  0
LINE
  5
11225
  8
0
 10
989.93146003474749
 20
317.23720702032273
 30
0.0
 11
991.33989631460474
 21
316.85980984741627
 31
0.0
  0
ARC
  5
11226
  8
0
 10
990.7079321605861
 20
320.1349804824477
 30
0.0
 40
3.0
 50
180.0
 51
254.99970360222991
  0
LINE
  5
11227
  8
0
 10
980.04690905147788
 20
272.78069423975091
 30
0.0
 11
991.69344815324894
 21
316.24744161381523
 31
0.0
  0
LINE
  5
11228
  8
0
 10
991.339891899598
 20
316.85981749441311
 30
0.0
 11
991.69344815324894
 21
316.24744161381523
 31
0.0
  0
LINE
  5
11229
  8
0
 10
808.42229462348041
 20
436.35914842886319
 30
0.0
 11
976.42229462348041
 21
436.35914842886319
 31
0.0
  0
ARC
  5
1122A
  8
0
 10
808.42229462348041
 20
434.35914842886331
 30
0.0
 40
2.0
 50
90.0
 51
180.0
  0
LINE
  5
1122C
  8
0
 10
806.4222946234803
 20
422.35914842886331
 30
0.0
 11
806.4222946234803
 21
434.35914842886331
 31
0.0
  0
LINE
  5
1122D
  8
0
 10
976.42229462348041
 20
440.215639596735
 30
0.0
 11
976.42229462348041
 21
443.85914842886319
 31
0.0
  0
ARC
  5
1122E
  8
0
 10
974.42229462348041
 20
443.85914842886319
 30
0.0
 40
2.0
 50
0.0
 51
90.0
  0
LINE
  5
1122F
  8
0
 10
878.42229462348041
 20
451.35914842886331
 30
0.0
 11
904.4222946234803
 21
451.35914842886331
 31
0.0
  0
ARC
  5
11230
  8
0
 10
891.42343058737561
 20
299.80595461636523
 30
0.0
 40
139.00100959519921
 50
97.282847498678393
 51
100.7685546183795
  0
ARC
  5
11231
  8
0
 10
873.42229462348052
 20
440.66136214502637
 30
0.0
 40
3.0
 50
277.28284749867839
 51
0.0
  0
ARC
  5
11232
  8
0
 10
878.42229462348041
 20
449.35914842886331
 30
0.0
 40
2.0
 50
90.0
 51
180.0
  0
LINE
  5
11233
  8
0
 10
876.42229462348041
 20
440.66136214502637
 30
0.0
 11
876.42229462348041
 21
449.35914842886331
 31
0.0
  0
ARC
  5
11234
  8
0
 10
904.4222946234803
 20
449.35914842886331
 30
0.0
 40
2.0
 50
0.0
 51
90.0
  0
LINE
  5
11235
  8
0
 10
906.42229462348052
 20
447.85914842886319
 30
0.0
 11
906.42229462348052
 21
449.35914842886331
 31
0.0
  0
LINE
  5
11236
  8
0
 10
974.42229462348041
 20
445.85914842886331
 30
0.0
 11
908.42229462348041
 21
445.85914842886331
 31
0.0
  0
ARC
  5
11237
  8
0
 10
908.42229462348041
 20
447.85914842886319
 30
0.0
 40
2.0
 50
180.0
 51
270.0
  0
LINE
  5
11238
  8
0
 10
806.4222946234803
 20
422.35914842886331
 30
0.0
 11
834.67191803793912
 21
422.35914842886331
 31
0.0
  0
LINE
  5
11239
  8
0
 10
976.42229462348041
 20
422.35914842886331
 30
0.0
 11
834.67191803793912
 21
422.35914842886331
 31
0.0
  0
LINE
  5
1123A
  8
0
 10
976.42229462348041
 20
422.35914842886331
 30
0.0
 11
976.42229462348041
 21
443.8581371705979
 31
0.0
  0
ARC
  5
1123B
  8
0
 10
975.43529462348033
 20
436.85914842886342
 30
0.0
 40
3.4986000000000002
 50
286.38634646531148
 51
73.613653534688453
  0
LINE
  5
1123C
  8
0
 10
810.30058870130858
 20
444.35914842886319
 30
0.0
 11
810.30058870130858
 21
436.35914842886319
 31
0.0
  0
LINE
  5
1123D
  8
0
 10
835.70400054565198
 20
444.35914842886319
 30
0.0
 11
835.70400054565198
 21
436.35914842886319
 31
0.0
  0
LINE
  5
1123E
  8
0
 10
812.03263950887776
 20
445.35914842886342
 30
0.0
 11
833.97194973808325
 21
445.35914842886331
 31
0.0
  0
LINE
  5
1123F
  8
0
 10
816.65144166239452
 20
444.35914842886319
 30
0.0
 11
816.65144166239452
 21
436.35914842886342
 31
0.0
  0
LINE
  5
11240
  8
0
 10
829.35314758456605
 20
444.35914842886319
 30
0.0
 11
829.35314758456605
 21
436.35914842886342
 31
0.0
  0
ARC
  5
11241
  8
0
 10
813.47601518185184
 20
439.81748176219691
 30
0.0
 40
5.5416666666664627
 50
55.03965959448233
 51
124.9603404055176
  0
ARC
  5
11242
  8
0
 10
823.00229462348045
 20
424.69248176219702
 30
0.0
 40
20.66666666666627
 50
72.103448870737694
 51
107.89655112926231
  0
ARC
  5
11243
  8
0
 10
832.5285740651093
 20
439.81748176219702
 30
0.0
 40
5.5416666666664627
 50
55.03965959448233
 51
124.9603404055176
  0
LINE
  5
11244
  8
0
 10
810.30058870130858
 20
444.35914842886319
 30
0.0
 11
812.03263950887776
 21
445.35914842886342
 31
0.0
  0
LINE
  5
11245
  8
0
 10
835.70400054565198
 20
444.35914842886319
 30
0.0
 11
833.97194973808325
 21
445.35914842886342
 31
0.0
  0
LINE
  5
11246
  8
0
 10
997.42935328557985
 20
299.94791988363238
 30
0.0
 11
997.38935328558
 21
299.11901988363252
 31
0.0
  0
LINE
  5
11247
  8
0
 10
1001.28435328558
 20
309.5375198836324
 30
0.0
 11
996.49535328558011
 21
291.66761988363248
 31
0.0
  0
LINE
  5
11248
  8
0
 10
989.42435328558031
 20
300.40901988363242
 30
0.0
 11
989.0773532855801
 21
299.65391988363251
 31
0.0
  0
LINE
  5
11249
  8
0
 10
991.62435328558013
 20
312.12551988363242
 30
0.0
 11
982.04835328558011
 21
276.38611988363249
 31
0.0
  0
LINE
  5
1124A
  8
0
 10
992.1363532855803
 20
280.19331988363251
 30
0.0
 11
992.20535328558014
 21
279.75571988363248
 31
0.0
  0
LINE
  5
1124B
  8
0
 10
996.49535328558011
 20
291.66761988363248
 30
0.0
 11
991.70735328558021
 21
273.7979198836324
 31
0.0
  0
LINE
  5
1124C
  8
0
 10
983.6373532855805
 20
280.29001988363251
 30
0.0
 11
983.44135328558013
 21
279.88761988363251
 31
0.0
  0
LINE
  5
1124D
  8
0
 10
990.85535328558035
 20
273.3158198836324
 30
0.0
 11
990.61235328557996
 21
272.93711988363242
 31
0.0
  0
LINE
  5
1124E
  8
0
 10
982.6073532855803
 20
274.64591988363247
 30
0.0
 11
982.75035328557976
 21
273.76441988363251
 31
0.0
  0
LINE
  5
1124F
  8
0
 10
982.56635328558002
 20
275.09301988363251
 30
0.0
 11
982.6073532855803
 21
274.64591988363247
 31
0.0
  0
LINE
  5
11250
  8
0
 10
982.54535328557995
 20
275.54251988363239
 30
0.0
 11
982.56635328558002
 21
275.09301988363251
 31
0.0
  0
LINE
  5
11251
  8
0
 10
982.5443532855802
 20
275.99291988363251
 30
0.0
 11
982.54535328557995
 21
275.54251988363239
 31
0.0
  0
LINE
  5
11252
  8
0
 10
982.56535328558039
 20
276.44281988363252
 30
0.0
 11
982.5443532855802
 21
275.99291988363251
 31
0.0
  0
LINE
  5
11253
  8
0
 10
982.60535328558035
 20
276.89091988363242
 30
0.0
 11
982.56535328558039
 21
276.44281988363252
 31
0.0
  0
LINE
  5
11254
  8
0
 10
982.66635328558004
 20
277.3358198836325
 30
0.0
 11
982.60535328558035
 21
276.89091988363242
 31
0.0
  0
LINE
  5
11255
  8
0
 10
982.74735328558006
 20
277.7760198836325
 30
0.0
 11
982.66635328558004
 21
277.3358198836325
 31
0.0
  0
LINE
  5
11256
  8
0
 10
982.84735328558065
 20
278.21031988363251
 30
0.0
 11
982.74735328558006
 21
277.7760198836325
 31
0.0
  0
LINE
  5
11258
  8
0
 10
983.10535328558024
 20
279.05981988363249
 30
0.0
 11
982.84735328558065
 21
278.21031988363251
 31
0.0
  0
LINE
  5
11259
  8
0
 10
983.26435328557989
 20
279.4771198836325
 30
0.0
 11
983.10535328558024
 21
279.05981988363249
 31
0.0
  0
LINE
  5
1125A
  8
0
 10
983.44135328558013
 20
279.88761988363251
 30
0.0
 11
983.26435328557989
 21
279.4771198836325
 31
0.0
  0
LINE
  5
1125B
  8
0
 10
982.04835328558011
 20
276.38611988363249
 30
0.0
 11
981.08235328558033
 21
276.64491988363261
 31
0.0
  0
LINE
  5
1125C
  8
0
 10
982.75035328557976
 20
273.76441988363251
 30
0.0
 11
982.04835328558011
 21
276.38611988363249
 31
0.0
  0
LINE
  5
1125D
  8
0
 10
990.61235328557996
 20
272.93711988363242
 30
0.0
 11
990.35335328557994
 21
272.57061988363239
 31
0.0
  0
LINE
  5
1125E
  8
0
 10
991.08135328557989
 20
273.70561988363261
 30
0.0
 11
990.85535328558035
 21
273.3158198836324
 31
0.0
  0
LINE
  5
1125F
  8
0
 10
991.28835328558023
 20
274.10531988363249
 30
0.0
 11
991.08135328557989
 21
273.70561988363261
 31
0.0
  0
LINE
  5
11260
  8
0
 10
991.47735328558019
 20
274.51371988363252
 30
0.0
 11
991.28835328558023
 21
274.10531988363249
 31
0.0
  0
LINE
  5
11261
  8
0
 10
991.64735328558015
 20
274.92941988363248
 30
0.0
 11
991.47735328558019
 21
274.51371988363252
 31
0.0
  0
LINE
  5
11262
  8
0
 10
991.79735328558024
 20
275.35111988363241
 30
0.0
 11
991.64735328558015
 21
274.92941988363248
 31
0.0
  0
LINE
  5
11263
  8
0
 10
991.92735328558035
 20
275.77741988363249
 30
0.0
 11
991.79735328558024
 21
275.35111988363241
 31
0.0
  0
LINE
  5
11265
  8
0
 10
992.12835328558037
 20
276.6421198836324
 30
0.0
 11
991.92735328558035
 21
275.77741988363249
 31
0.0
  0
LINE
  5
11266
  8
0
 10
992.20035328558015
 20
277.0826198836325
 30
0.0
 11
992.12835328558037
 21
276.6421198836324
 31
0.0
  0
LINE
  5
11267
  8
0
 10
992.25135328557997
 20
277.5269198836325
 30
0.0
 11
992.20035328558015
 21
277.0826198836325
 31
0.0
  0
LINE
  5
11268
  8
0
 10
992.28335328558023
 20
277.97351988363249
 30
0.0
 11
992.25135328557997
 21
277.5269198836325
 31
0.0
  0
LINE
  5
11269
  8
0
 10
992.2943532855802
 20
278.42101988363248
 30
0.0
 11
992.28335328558023
 21
277.97351988363249
 31
0.0
  0
LINE
  5
1126A
  8
0
 10
992.28435328558044
 20
278.86821988363238
 30
0.0
 11
992.2943532855802
 21
278.42101988363248
 31
0.0
  0
LINE
  5
1126B
  8
0
 10
992.25535328557987
 20
279.31351988363252
 30
0.0
 11
992.28435328558044
 21
278.86821988363238
 31
0.0
  0
LINE
  5
1126C
  8
0
 10
992.20535328558014
 20
279.75571988363248
 30
0.0
 11
992.25535328557987
 21
279.31351988363252
 31
0.0
  0
LINE
  5
1126D
  8
0
 10
992.1363532855803
 20
280.19331988363251
 30
0.0
 11
984.87535328557976
 21
282.13901988363239
 31
0.0
  0
LINE
  5
1126E
  8
0
 10
993.11235328557996
 20
283.83551988363251
 30
0.0
 11
985.85135328558044
 21
285.7810198836325
 31
0.0
  0
LINE
  5
1126F
  8
0
 10
986.24935328558001
 20
290.01591988363242
 30
0.0
 11
986.13135328558008
 21
289.17211988363249
 31
0.0
  0
LINE
  5
11270
  8
0
 10
984.0833532855803
 20
281.06561988363251
 30
0.0
 11
983.85235328558019
 21
280.68311988363251
 31
0.0
  0
LINE
  5
11271
  8
0
 10
983.85235328558019
 20
280.68311988363251
 30
0.0
 11
983.6373532855805
 21
280.29001988363251
 31
0.0
  0
LINE
  5
11272
  8
0
 10
985.85135328558044
 20
285.7810198836325
 30
0.0
 11
984.87535328557976
 21
282.13901988363239
 31
0.0
  0
LINE
  5
11274
  8
0
 10
985.9523532855801
 20
287.47841988363251
 30
0.0
 11
985.85135328558044
 21
285.7810198836325
 31
0.0
  0
LINE
  5
11275
  8
0
 10
986.03235328557992
 20
288.3261198836326
 30
0.0
 11
985.9523532855801
 21
287.47841988363251
 31
0.0
  0
LINE
  5
11276
  8
0
 10
986.13135328558008
 20
289.17211988363249
 30
0.0
 11
986.03235328557992
 21
288.3261198836326
 31
0.0
  0
LINE
  5
11277
  8
0
 10
984.3323532855801
 20
281.43641988363248
 30
0.0
 11
984.0833532855803
 21
281.06561988363251
 31
0.0
  0
LINE
  5
11278
  8
0
 10
984.59635328558034
 20
281.79451988363252
 30
0.0
 11
984.3323532855801
 21
281.43641988363248
 31
0.0
  0
LINE
  5
11279
  8
0
 10
984.87535328557976
 20
282.13901988363239
 30
0.0
 11
984.59635328558034
 21
281.79451988363252
 31
0.0
  0
LINE
  5
1127A
  8
0
 10
986.91335328558034
 20
293.35531988363249
 30
0.0
 11
986.71935328557981
 21
292.52711988363251
 31
0.0
  0
LINE
  5
1127B
  8
0
 10
987.12635328558008
 20
294.17811988363241
 30
0.0
 11
986.91335328558034
 21
293.35531988363249
 31
0.0
  0
LINE
  5
1127D
  8
0
 10
987.59535328558013
 20
295.77061988363249
 30
0.0
 11
987.12635328558008
 21
294.17811988363241
 31
0.0
  0
LINE
  5
1127E
  8
0
 10
987.8573532855803
 20
296.5597198836324
 30
0.0
 11
987.59535328558013
 21
295.77061988363249
 31
0.0
  0
LINE
  5
1127F
  8
0
 10
988.13635328558019
 20
297.34311988363248
 30
0.0
 11
987.8573532855803
 21
296.5597198836324
 31
0.0
  0
LINE
  5
11280
  8
0
 10
988.43235328558001
 20
298.12031988363248
 30
0.0
 11
988.13635328558019
 21
297.34311988363248
 31
0.0
  0
LINE
  5
11281
  8
0
 10
988.74635328557997
 20
298.8908198836325
 30
0.0
 11
988.43235328558001
 21
298.12031988363248
 31
0.0
  0
LINE
  5
11282
  8
0
 10
989.0773532855801
 20
299.65391988363251
 30
0.0
 11
988.74635328557997
 21
298.8908198836325
 31
0.0
  0
LINE
  5
11283
  8
0
 10
986.3873532855805
 20
290.85671988363248
 30
0.0
 11
986.24935328558001
 21
290.01591988363242
 31
0.0
  0
LINE
  5
11284
  8
0
 10
986.54335328558045
 20
291.69401988363251
 30
0.0
 11
986.3873532855805
 21
290.85671988363248
 31
0.0
  0
LINE
  5
11285
  8
0
 10
986.71935328557981
 20
292.52711988363251
 30
0.0
 11
986.54335328558045
 21
291.69401988363251
 31
0.0
  0
LINE
  5
11286
  8
0
 10
995.73335328558005
 20
290.11191988363242
 30
0.0
 11
995.46835328558006
 21
289.30261988363247
 31
0.0
  0
LINE
  5
11287
  8
0
 10
993.87235328558006
 20
285.35621988363249
 30
0.0
 11
993.11235328557996
 21
283.83551988363251
 31
0.0
  0
LINE
  5
11288
  8
0
 10
994.22735328558019
 20
286.1301198836324
 30
0.0
 11
993.87235328558006
 21
285.35621988363249
 31
0.0
  0
LINE
  5
11289
  8
0
 10
994.56435328558018
 20
286.91231988363251
 30
0.0
 11
994.22735328558019
 21
286.1301198836324
 31
0.0
  0
LINE
  5
1128A
  8
0
 10
994.88435328557978
 20
287.70221988363249
 30
0.0
 11
994.56435328558018
 21
286.91231988363251
 31
0.0
  0
LINE
  5
1128B
  8
0
 10
995.18535328558028
 20
288.49921988363252
 30
0.0
 11
994.88435328557978
 21
287.70221988363249
 31
0.0
  0
LINE
  5
1128C
  8
0
 10
995.46835328558006
 20
289.30261988363247
 30
0.0
 11
995.18535328558028
 21
288.49921988363252
 31
0.0
  0
LINE
  5
1128E
  8
0
 10
993.11235328557996
 20
283.83551988363251
 30
0.0
 11
992.1363532855803
 21
280.19331988363251
 31
0.0
  0
LINE
  5
1128F
  8
0
 10
996.76335328558025
 20
294.1732198836325
 30
0.0
 11
996.59535328558013
 21
293.3591198836325
 31
0.0
  0
LINE
  5
11290
  8
0
 10
996.91335328558034
 20
294.99121988363248
 30
0.0
 11
996.76335328558025
 21
294.1732198836325
 31
0.0
  0
LINE
  5
11291
  8
0
 10
997.04535328557995
 20
295.81251988363249
 30
0.0
 11
996.91335328558034
 21
294.99121988363248
 31
0.0
  0
LINE
  5
11292
  8
0
 10
997.15935328558044
 20
296.63661988363248
 30
0.0
 11
997.04535328557995
 21
295.81251988363249
 31
0.0
  0
LINE
  5
11293
  8
0
 10
997.25435328558024
 20
297.46281988363239
 30
0.0
 11
997.15935328558044
 21
296.63661988363248
 31
0.0
  0
LINE
  5
11294
  8
0
 10
997.33135328557989
 20
298.2905198836325
 30
0.0
 11
997.25435328558024
 21
297.46281988363239
 31
0.0
  0
LINE
  5
11295
  8
0
 10
997.38935328558
 20
299.11901988363252
 30
0.0
 11
997.33135328557989
 21
298.2905198836325
 31
0.0
  0
LINE
  5
11296
  8
0
 10
995.97935328558015
 20
290.9263198836324
 30
0.0
 11
995.73335328558005
 21
290.11191988363242
 31
0.0
  0
LINE
  5
11297
  8
0
 10
996.20635328558001
 20
291.7452198836325
 30
0.0
 11
995.97935328558015
 21
290.9263198836324
 31
0.0
  0
LINE
  5
11299
  8
0
 10
996.59535328558013
 20
293.3591198836325
 30
0.0
 11
996.20635328558001
 21
291.7452198836325
 31
0.0
  0
LINE
  5
1129A
  8
0
 10
990.65835328558035
 20
312.38451988363238
 30
0.0
 11
991.62435328558013
 21
312.12551988363242
 31
0.0
  0
LINE
  5
1129B
  8
0
 10
991.23435328558026
 20
305.87311988363251
 30
0.0
 11
990.16835328558045
 21
301.89351988363251
 31
0.0
  0
LINE
  5
1129C
  8
0
 10
997.42935328557985
 20
299.94791988363238
 30
0.0
 11
990.16835328558045
 21
301.89351988363251
 31
0.0
  0
LINE
  5
1129E
  8
0
 10
990.16835328558045
 20
301.89351988363251
 30
0.0
 11
989.78835328558046
 21
301.1558198836326
 31
0.0
  0
LINE
  5
1129F
  8
0
 10
989.78835328558046
 20
301.1558198836326
 30
0.0
 11
989.42435328558031
 21
300.40901988363242
 31
0.0
  0
LINE
  5
112A0
  8
0
 10
1000.79735328558
 20
309.80251988363239
 30
0.0
 11
1000.7713532855799
 21
309.37251988363249
 31
0.0
  0
LINE
  5
112A1
  8
0
 10
991.29735328558024
 20
309.70651988363238
 30
0.0
 11
991.21435328558016
 21
309.28751988363251
 31
0.0
  0
LINE
  5
112A2
  8
0
 10
1000.64135328558
 20
311.93551988363248
 30
0.0
 11
1001.28435328558
 21
309.5375198836324
 31
0.0
  0
LINE
  5
112A3
  8
0
 10
998.49535328558034
 20
303.92751988363261
 30
0.0
 11
991.23435328558026
 21
305.87311988363251
 31
0.0
  0
LINE
  5
112A4
  8
0
 10
998.49535328558034
 20
303.92751988363261
 30
0.0
 11
997.42935328557985
 21
299.94791988363238
 31
0.0
  0
LINE
  5
112A5
  8
0
 10
991.11535328558
 20
306.71821988363251
 30
0.0
 11
991.23435328558026
 21
305.87311988363251
 31
0.0
  0
LINE
  5
112A6
  8
0
 10
991.08335328558042
 20
307.14651988363249
 30
0.0
 11
991.11535328558
 21
306.71821988363251
 31
0.0
  0
LINE
  5
112A7
  8
0
 10
991.07135328558024
 20
307.57551988363252
 30
0.0
 11
991.08335328558042
 21
307.14651988363249
 31
0.0
  0
LINE
  5
112A8
  8
0
 10
991.07835328558019
 20
308.00651988363251
 30
0.0
 11
991.07135328558024
 21
307.57551988363252
 31
0.0
  0
LINE
  5
112A9
  8
0
 10
991.10435328558015
 20
308.43551988363248
 30
0.0
 11
991.07835328558019
 21
308.00651988363251
 31
0.0
  0
LINE
  5
112AA
  8
0
 10
991.14935328558022
 20
308.86351988363248
 30
0.0
 11
991.10435328558015
 21
308.43551988363248
 31
0.0
  0
LINE
  5
112AB
  8
0
 10
991.21435328558016
 20
309.28751988363251
 30
0.0
 11
991.14935328558022
 21
308.86351988363248
 31
0.0
  0
LINE
  5
112AD
  8
0
 10
1000.66135328558
 20
308.52151988363249
 30
0.0
 11
1000.47735328558
 21
307.68751988363238
 31
0.0
  0
LINE
  5
112AE
  8
0
 10
999.0213532855804
 20
304.59971988363247
 30
0.0
 11
998.49535328558034
 21
303.92751988363261
 31
0.0
  0
LINE
  5
112AF
  8
0
 10
999.2623532855805
 20
304.95451988363249
 30
0.0
 11
999.0213532855804
 21
304.59971988363247
 31
0.0
  0
LINE
  5
112B0
  8
0
 10
999.48835328558005
 20
305.3204198836325
 30
0.0
 11
999.2623532855805
 21
304.95451988363249
 31
0.0
  0
LINE
  5
112B1
  8
0
 10
999.69735328557999
 20
305.6965198836325
 30
0.0
 11
999.48835328558005
 21
305.3204198836325
 31
0.0
  0
LINE
  5
112B2
  8
0
 10
999.88935328558011
 20
306.0815198836325
 30
0.0
 11
999.69735328557999
 21
305.6965198836325
 31
0.0
  0
LINE
  5
112B3
  8
0
 10
1000.06435328558
 20
306.47441988363249
 30
0.0
 11
999.88935328558011
 21
306.0815198836325
 31
0.0
  0
LINE
  5
112B4
  8
0
 10
1000.22035328558
 20
306.87391988363248
 30
0.0
 11
1000.06435328558
 21
306.47441988363249
 31
0.0
  0
LINE
  5
112B5
  8
0
 10
1000.3583532855801
 20
307.27851988363238
 30
0.0
 11
1000.22035328558
 21
306.87391988363248
 31
0.0
  0
LINE
  5
112B6
  8
0
 10
1000.47735328558
 20
307.68751988363238
 30
0.0
 11
1000.3583532855801
 21
307.27851988363238
 31
0.0
  0
LINE
  5
112B8
  8
0
 10
1000.72635328558
 20
308.94551988363253
 30
0.0
 11
1000.66135328558
 21
308.52151988363249
 31
0.0
  0
LINE
  5
112B9
  8
0
 10
1000.7713532855799
 20
309.37251988363249
 30
0.0
 11
1000.72635328558
 21
308.94551988363253
 31
0.0
  0
LINE
  5
112BA
  8
0
 10
993.38035328557987
 20
313.88051988363242
 30
0.0
 11
1000.64135328558
 21
311.93551988363248
 31
0.0
  0
LINE
  5
112BB
  8
0
 10
992.1783532855801
 20
312.11151988363241
 30
0.0
 11
991.98635328558009
 21
311.72651988363242
 31
0.0
  0
LINE
  5
112BC
  8
0
 10
991.62435328558013
 20
312.12551988363242
 30
0.0
 11
993.38035328557987
 21
313.88051988363242
 31
0.0
  0
LINE
  5
112BD
  8
0
 10
992.38735328558062
 20
312.4875198836325
 30
0.0
 11
992.1783532855801
 21
312.11151988363241
 31
0.0
  0
LINE
  5
112BE
  8
0
 10
992.61335328558016
 20
312.85351988363249
 30
0.0
 11
992.38735328558062
 21
312.4875198836325
 31
0.0
  0
LINE
  5
112BF
  8
0
 10
992.85435328558015
 20
313.2085198836325
 30
0.0
 11
992.61335328558016
 21
312.85351988363249
 31
0.0
  0
LINE
  5
112C0
  8
0
 10
993.11035328558035
 20
313.55151988363252
 30
0.0
 11
992.85435328558015
 21
313.2085198836325
 31
0.0
  0
LINE
  5
112C1
  8
0
 10
993.38035328557987
 20
313.88051988363242
 30
0.0
 11
993.11035328558035
 21
313.55151988363252
 31
0.0
  0
LINE
  5
112C2
  8
0
 10
991.39835328558001
 20
310.12051988363243
 30
0.0
 11
991.29735328558024
 21
309.70651988363238
 31
0.0
  0
LINE
  5
112C4
  8
0
 10
991.65535328558065
 20
310.9345198836325
 30
0.0
 11
991.39835328558001
 21
310.12051988363243
 31
0.0
  0
LINE
  5
112C5
  8
0
 10
991.81135328558048
 20
311.3335198836325
 30
0.0
 11
991.65535328558065
 21
310.9345198836325
 31
0.0
  0
LINE
  5
112C6
  8
0
 10
991.98635328558009
 20
311.72651988363242
 30
0.0
 11
991.81135328558048
 21
311.3335198836325
 31
0.0
  0
LINE
  5
112C7
  8
0
 10
1000.80435328558
 20
310.23251988363251
 30
0.0
 11
1000.79735328558
 21
309.80251988363239
 31
0.0
  0
LINE
  5
112C8
  8
0
 10
1000.79235328558
 20
310.6625198836324
 30
0.0
 11
1000.80435328558
 21
310.23251988363251
 31
0.0
  0
LINE
  5
112C9
  8
0
 10
1000.76035328558
 20
311.0905198836324
 30
0.0
 11
1000.79235328558
 21
310.6625198836324
 31
0.0
  0
LINE
  5
112CA
  8
0
 10
1000.71035328558
 20
311.51451988363237
 30
0.0
 11
1000.76035328558
 21
311.0905198836324
 31
0.0
  0
LINE
  5
112CB
  8
0
 10
1000.64135328558
 20
311.93551988363248
 30
0.0
 11
1000.71035328558
 21
311.51451988363237
 31
0.0
  0
LINE
  5
112CC
  8
0
 10
991.70735328558021
 20
273.7979198836324
 30
0.0
 11
989.78835328558046
 21
271.87871988363253
 31
0.0
  0
LINE
  5
112CD
  8
0
 10
989.78835328558046
 20
271.87871988363253
 30
0.0
 11
982.75035328557976
 21
273.76441988363251
 31
0.0
  0
LINE
  5
112CE
  8
0
 10
990.35335328557994
 20
272.57061988363239
 30
0.0
 11
989.78835328558046
 21
271.87871988363253
 31
0.0
  0
ARC
  5
112CF
  8
0
 10
804.4222946234803
 20
422.35914842886319
 30
0.0
 40
2.0
 50
270.0
 51
0.0
  0
LINE
  5
112D0
  8
0
 10
784.42229462348041
 20
420.35914842886308
 30
0.0
 11
804.4222946234803
 21
420.35914842886308
 31
0.0
  0
LINE
  5
112D1
  8
0
 10
951.64486028041244
 20
356.32352753010508
 30
0.0
 11
951.64486028041244
 21
315.76441540957399
 31
0.0
  0
ARC
  5
112D2
  8
0
 10
956.64486028041256
 20
356.32352753010508
 30
0.0
 40
5.0
 50
156.59624926181189
 51
180.0
  0
LINE
  5
112D3
  8
0
 10
957.69824721853365
 20
371.34518827140209
 30
0.0
 11
952.05621715375207
 21
358.30956737264432
 31
0.0
  0
ARC
  5
112D4
  8
0
 10
962.28689034519414
 20
369.35914842886302
 30
0.0
 40
5.0
 50
90.0
 51
156.59624926181189
  0
LINE
  5
112D5
  8
0
 10
972.26656620258427
 20
444.35914842886319
 30
0.0
 11
972.26656620258427
 21
436.35914842886319
 31
0.0
  0
LINE
  5
112D6
  8
0
 10
946.86315435824054
 20
444.35914842886319
 30
0.0
 11
946.86315435824088
 21
436.35914842886319
 31
0.0
  0
LINE
  5
112D7
  8
0
 10
970.53451539501555
 20
445.35914842886342
 30
0.0
 11
948.59520516580949
 21
445.35914842886331
 31
0.0
  0
LINE
  5
112D8
  8
0
 10
965.91571324149845
 20
444.35914842886319
 30
0.0
 11
965.91571324149845
 21
436.35914842886342
 31
0.0
  0
LINE
  5
112D9
  8
0
 10
953.21400731932681
 20
444.35914842886319
 30
0.0
 11
953.21400731932681
 21
436.35914842886342
 31
0.0
  0
ARC
  5
112DA
  8
0
 10
969.09113972204159
 20
439.81748176219691
 30
0.0
 40
5.5416666666664627
 50
55.03965959448233
 51
124.9603404055176
  0
ARC
  5
112DB
  8
0
 10
959.56486028041274
 20
424.69248176219702
 30
0.0
 40
20.66666666666627
 50
72.103448870737637
 51
107.89655112926231
  0
ARC
  5
112DC
  8
0
 10
950.03858083878356
 20
439.81748176219702
 30
0.0
 40
5.5416666666664627
 50
55.03965959448233
 51
124.9603404055176
  0
LINE
  5
112DD
  8
0
 10
972.26656620258427
 20
444.35914842886319
 30
0.0
 11
970.53451539501555
 21
445.35914842886342
 31
0.0
  0
LINE
  5
112DE
  8
0
 10
946.86315435824088
 20
444.35914842886319
 30
0.0
 11
948.59520516580949
 21
445.35914842886342
 31
0.0
  0
LINE
  5
112DF
  8
0
 10
830.81837548644125
 20
357.33762426284272
 30
0.0
 11
951.64486028041244
 21
357.33762426284272
 31
0.0
  0
ARC
  5
112E0
  8
0
 10
891.42115865958522
 20
299.80595461636523
 30
0.0
 40
139.00100959519921
 50
79.231445381620475
 51
82.717152501321607
  0
ARC
  5
112E1
  8
0
 10
909.42229462348041
 20
440.66136214502637
 30
0.0
 40
3.0
 50
180.0
 51
262.71715250132161
  0
LINE
  5
112E2
  8
0
 10
906.42229462348052
 20
440.66136214502637
 30
0.0
 11
906.42229462348052
 21
449.35914842886331
 31
0.0
  0
LINE
  5
112E3
  8
0
 10
1167.8288363539791
 20
444.35914842886342
 30
0.0
 11
1167.828836353978
 21
436.3391346599438
 31
0.0
  0
LINE
  5
112E4
  8
0
 10
1178.828836353978
 20
444.35914842886342
 30
0.0
 11
1178.828836353978
 21
436.3391346599438
 31
0.0
  0
LINE
  5
112E5
  8
0
 10
1156.828836353978
 20
444.35914842886342
 30
0.0
 11
1156.828836353978
 21
436.3391346599438
 31
0.0
  0
ARC
  5
112E6
  8
0
 10
1157.828836353978
 20
444.35914842886342
 30
0.0
 40
1.0
 50
90.0
 51
180.0
  0
LINE
  5
112E7
  8
0
 10
1259.828836353978
 20
418.33913465994311
 30
0.0
 11
1259.828836353978
 21
416.31280062095328
 31
0.0
  0
ARC
  5
112E8
  8
0
 10
1257.828836353978
 20
418.33913465994311
 30
0.0
 40
2.0
 50
0.0
 51
90.0
  0
LINE
  5
112E9
  8
0
 10
1233.828836353978
 20
418.33913465994311
 30
0.0
 11
1233.828836353978
 21
416.31280062095328
 31
0.0
  0
LINE
  5
112EA
  8
0
 10
1223.828836353978
 20
408.33913465994311
 30
0.0
 11
1223.828836353978
 21
386.33913465994311
 31
0.0
  0
LINE
  5
112EB
  8
0
 10
1191.828836353978
 20
294.38178843545597
 30
0.0
 11
1191.828836353978
 21
262.3591484288628
 31
0.0
  0
LINE
  5
112EC
  8
0
 10
1342.5038363539779
 20
422.33913465994362
 30
0.0
 11
1342.5038363539779
 21
409.33913465994351
 31
0.0
  0
ARC
  5
112ED
  8
0
 10
1339.5038363539779
 20
409.33913465994351
 30
0.0
 40
3.0
 50
270.0
 51
0.0
  0
LINE
  5
112EE
  8
0
 10
1151.153836353978
 20
422.33913465994362
 30
0.0
 11
1151.153836353978
 21
409.33913465994351
 31
0.0
  0
LINE
  5
112EF
  8
0
 10
1168.2814313288741
 20
406.33913465994351
 30
0.0
 11
1223.828836353978
 21
406.33913465994351
 31
0.0
  0
LINE
  5
112F0
  8
0
 10
1178.828836353978
 20
386.33913465994362
 30
0.0
 11
1223.828836353978
 21
386.33913465994362
 31
0.0
  0
ARC
  5
112F1
  8
0
 10
1154.153836353978
 20
409.33913465994351
 30
0.0
 40
3.0
 50
180.0
 51
270.0
  0
LINE
  5
112F2
  8
0
 10
1225.828836353978
 20
384.33913465994311
 30
0.0
 11
1227.8551703929679
 21
384.33913465994311
 31
0.0
  0
ARC
  5
112F3
  8
0
 10
1225.828836353978
 20
386.33913465994311
 30
0.0
 40
2.0
 50
180.0
 51
270.0
  0
LINE
  5
112F4
  8
0
 10
1225.828836353978
 20
410.33913465994311
 30
0.0
 11
1227.8551703929679
 21
410.33913465994311
 31
0.0
  0
ARC
  5
112F5
  8
0
 10
1225.828836353978
 20
408.33913465994311
 30
0.0
 40
2.0
 50
90.0
 51
180.0
  0
LINE
  5
112F6
  8
0
 10
1325.3762413790821
 20
406.33913465994351
 30
0.0
 11
1269.828836353978
 21
406.33913465994362
 31
0.0
  0
ARC
  5
112F7
  8
0
 10
1325.3762413790821
 20
401.33913465994351
 30
0.0
 40
5.0
 50
90.0
 51
160.70995378081381
  0
LINE
  5
112F8
  8
0
 10
1178.828836353978
 20
386.33913465994362
 30
0.0
 11
1178.828836353978
 21
375.86488655965871
 31
0.0
  0
CIRCLE
  5
112F9
  8
0
 10
1246.828836353978
 20
397.33913465994311
 30
0.0
 40
23.0
  0
LINE
  5
112FA
  8
0
 10
1194.828836353978
 20
259.35914842886268
 30
0.0
 11
1247.106270697021
 21
259.35914842886302
 31
0.0
  0
ARC
  5
112FB
  8
0
 10
1194.828836353978
 20
262.3591484288628
 30
0.0
 40
3.0
 50
180.0
 51
270.0
  0
LINE
  5
112FC
  8
0
 10
1301.828836353978
 20
294.38178843545597
 30
0.0
 11
1301.828836353978
 21
262.3591484288628
 31
0.0
  0
LINE
  5
112FD
  8
0
 10
1298.828836353978
 20
259.35914842886268
 30
0.0
 11
1246.551402010936
 21
259.35914842886302
 31
0.0
  0
ARC
  5
112FE
  8
0
 10
1298.828836353978
 20
262.3591484288628
 30
0.0
 40
3.0
 50
270.0
 51
0.0
  0
LINE
  5
112FF
  8
0
 10
1180.3544449826611
 20
375.30849754826482
 30
0.0
 11
1223.828836353978
 21
375.30849754826471
 31
0.0
  0
LINE
  5
11300
  8
0
 10
1269.828836353978
 20
375.30849754826482
 30
0.0
 11
1312.6697927330199
 21
375.3084975482646
 31
0.0
  0
LINE
  5
11301
  8
0
 10
1173.000723110704
 20
402.99088678358407
 30
0.0
 11
1178.828836353978
 21
386.33913465994362
 31
0.0
  0
ARC
  5
11302
  8
0
 10
1168.2814313288741
 20
401.33913465994351
 30
0.0
 40
5.0
 50
19.290046219186191
 51
90.0
  0
LINE
  5
11303
  8
0
 10
1314.828836353978
 20
386.33913465994362
 30
0.0
 11
1269.828836353978
 21
386.33913465994362
 31
0.0
  0
LINE
  5
11304
  8
0
 10
1314.828836353978
 20
386.33913465994362
 30
0.0
 11
1314.828836353978
 21
375.86488655965883
 31
0.0
  0
LINE
  5
11305
  8
0
 10
1320.6569495972531
 20
402.99088678358407
 30
0.0
 11
1314.828836353978
 21
386.33913465994362
 31
0.0
  0
LINE
  5
11306
  8
0
 10
1186.328836353978
 20
356.3035137611854
 30
0.0
 11
1186.328836353978
 21
315.74440164065442
 31
0.0
  0
ARC
  5
11307
  8
0
 10
1246.6901191824441
 20
319.83897552592339
 30
0.0
 40
60.5
 50
183.88068213316919
 51
268.52035949833709
  0
ARC
  5
11308
  8
0
 10
1181.328836353978
 20
356.3035137611854
 30
0.0
 40
5.0
 50
0.0
 51
23.403750738188101
  0
LINE
  5
11309
  8
0
 10
1179.2327056218951
 20
373.89623669398929
 30
0.0
 11
1185.9174794806379
 21
358.28955360372458
 31
0.0
  0
ARC
  5
1130A
  8
0
 10
1183.828836353978
 20
375.86488655965883
 30
0.0
 40
5.0
 50
180.0
 51
203.18678925275759
  0
LINE
  5
1130B
  8
0
 10
1307.328836353978
 20
356.3034227151494
 30
0.0
 11
1307.328836353978
 21
315.74440164065442
 31
0.0
  0
ARC
  5
1130C
  8
0
 10
1312.328836353978
 20
356.3034227151494
 30
0.0
 40
5.0
 50
156.81321074724241
 51
180.0
  0
LINE
  5
1130D
  8
0
 10
1314.4249670860611
 20
373.89623669398929
 30
0.0
 11
1307.7327056218951
 21
358.2720725808191
 31
0.0
  0
ARC
  5
1130E
  8
0
 10
1309.828836353978
 20
375.86488655965883
 30
0.0
 40
5.0
 50
336.81321074724229
 51
0.0
  0
ARC
  5
1130F
  8
0
 10
1246.9675535255119
 20
319.83897552592339
 30
0.0
 40
60.5
 50
271.47964050166291
 51
356.11931786683078
  0
LINE
  5
11310
  8
0
 10
1187.6307763032021
 20
357.3391346599426
 30
0.0
 11
1223.828836353978
 21
357.3391346599426
 31
0.0
  0
LINE
  5
11311
  8
0
 10
1269.828836353978
 20
357.3391346599426
 30
0.0
 11
1305.062474264568
 21
357.3391346599426
 31
0.0
  0
LINE
  5
11312
  8
0
 10
1269.828836353978
 20
397.33913465994311
 30
0.0
 11
1269.828836353978
 21
294.71570224562419
 31
0.0
  0
POLYLINE
  5
11313
  8
0
 10
1246.828836353978
 20
318.28868858267242
 30
0.0
 66
     1
 70
     8
  0
VERTEX
  8
0
  5
1177D
 10
1246.83
 20
318.289
 30
0.000000
  70
    32
  0
VERTEX
  8
0
  5
1177E
 10
1246.54
 20
318.287
 30
0.000000
  70
    32
  0
VERTEX
  8
0
  5
1177F
 10
1246.26
 20
318.282
 30
0.000000
  70
    32
  0
VERTEX
  8
0
  5
11780
 10
1245.97
 20
318.273
 30
0.000000
  70
    32
  0
VERTEX
  8
0
  5
11781
 10
1245.68
 20
318.261
 30
0.000000
  70
    32
  0
VERTEX
  8
0
  5
11782
 10
1245.40
 20
318.246
 30
0.000000
  70
    32
  0
VERTEX
  8
0
  5
11783
 10
1245.11
 20
318.227
 30
0.000000
  70
    32
  0
VERTEX
  8
0
  5
11784
 10
1244.82
 20
318.204
 30
0.000000
  70
    32
  0
VERTEX
  8
0
  5
11785
 10
1244.54
 20
318.178
 30
0.000000
  70
    32
  0
VERTEX
  8
0
  5
11786
 10
1244.25
 20
318.149
 30
0.000000
  70
    32
  0
VERTEX
  8
0
  5
11787
 10
1243.97
 20
318.116
 30
0.000000
  70
    32
  0
VERTEX
  8
0
  5
11788
 10
1243.69
 20
318.080
 30
0.000000
  70
    32
  0
VERTEX
  8
0
  5
11789
 10
1243.40
 20
318.041
 30
0.000000
  70
    32
  0
VERTEX
  8
0
  5
1178A
 10
1243.12
 20
317.998
 30
0.000000
  70
    32
  0
VERTEX
  8
0
  5
1178B
 10
1242.84
 20
317.951
 30
0.000000
  70
    32
  0
VERTEX
  8
0
  5
1178C
 10
1242.55
 20
317.902
 30
0.000000
  70
    32
  0
VERTEX
  8
0
  5
1178D
 10
1242.27
 20
317.848
 30
0.000000
  70
    32
  0
VERTEX
  8
0
  5
1178E
 10
1241.99
 20
317.792
 30
0.000000
  70
    32
  0
VERTEX
  8
0
  5
1178F
 10
1241.71
 20
317.732
 30
0.000000
  70
    32
  0
VERTEX
  8
0
  5
11790
 10
1241.43
 20
317.669
 30
0.000000
  70
    32
  0
VERTEX
  8
0
  5
11791
 10
1241.15
 20
317.602
 30
0.000000
  70
    32
  0
VERTEX
  8
0
  5
11792
 10
1240.88
 20
317.532
 30
0.000000
  70
    32
  0
VERTEX
  8
0
  5
11793
 10
1240.60
 20
317.459
 30
0.000000
  70
    32
  0
VERTEX
  8
0
  5
11794
 10
1240.33
 20
317.382
 30
0.000000
  70
    32
  0
VERTEX
  8
0
  5
11795
 10
1240.05
 20
317.302
 30
0.000000
  70
    32
  0
VERTEX
  8
0
  5
11796
 10
1239.78
 20
317.219
 30
0.000000
  70
    32
  0
VERTEX
  8
0
  5
11797
 10
1239.50
 20
317.132
 30
0.000000
  70
    32
  0
VERTEX
  8
0
  5
11798
 10
1239.23
 20
317.042
 30
0.000000
  70
    32
  0
VERTEX
  8
0
  5
11799
 10
1238.96
 20
316.949
 30
0.000000
  70
    32
  0
VERTEX
  8
0
  5
1179A
 10
1238.69
 20
316.853
 30
0.000000
  70
    32
  0
VERTEX
  8
0
  5
1179B
 10
1238.43
 20
316.753
 30
0.000000
  70
    32
  0
VERTEX
  8
0
  5
1179C
 10
1238.16
 20
316.651
 30
0.000000
  70
    32
  0
VERTEX
  8
0
  5
1179D
 10
1237.90
 20
316.545
 30
0.000000
  70
    32
  0
VERTEX
  8
0
  5
1179E
 10
1237.63
 20
316.436
 30
0.000000
  70
    32
  0
VERTEX
  8
0
  5
1179F
 10
1237.37
 20
316.323
 30
0.000000
  70
    32
  0
VERTEX
  8
0
  5
117A0
 10
1237.11
 20
316.208
 30
0.000000
  70
    32
  0
VERTEX
  8
0
  5
117A1
 10
1236.85
 20
316.089
 30
0.000000
  70
    32
  0
VERTEX
  8
0
  5
117A2
 10
1236.59
 20
315.968
 30
0.000000
  70
    32
  0
VERTEX
  8
0
  5
117A3
 10
1236.34
 20
315.843
 30
0.000000
  70
    32
  0
VERTEX
  8
0
  5
117A4
 10
1236.08
 20
315.715
 30
0.000000
  70
    32
  0
VERTEX
  8
0
  5
117A5
 10
1235.83
 20
315.584
 30
0.000000
  70
    32
  0
VERTEX
  8
0
  5
117A6
 10
1235.58
 20
315.450
 30
0.000000
  70
    32
  0
VERTEX
  8
0
  5
117A7
 10
1235.33
 20
315.313
 30
0.000000
  70
    32
  0
VERTEX
  8
0
  5
117A8
 10
1235.08
 20
315.173
 30
0.000000
  70
    32
  0
VERTEX
  8
0
  5
117A9
 10
1234.84
 20
315.030
 30
0.000000
  70
    32
  0
VERTEX
  8
0
  5
117AA
 10
1234.59
 20
314.885
 30
0.000000
  70
    32
  0
VERTEX
  8
0
  5
117AB
 10
1234.35
 20
314.736
 30
0.000000
  70
    32
  0
VERTEX
  8
0
  5
117AC
 10
1234.11
 20
314.584
 30
0.000000
  70
    32
  0
VERTEX
  8
0
  5
117AD
 10
1233.87
 20
314.430
 30
0.000000
  70
    32
  0
VERTEX
  8
0
  5
117AE
 10
1233.64
 20
314.272
 30
0.000000
  70
    32
  0
VERTEX
  8
0
  5
117AF
 10
1233.40
 20
314.112
 30
0.000000
  70
    32
  0
VERTEX
  8
0
  5
117B0
 10
1233.17
 20
313.949
 30
0.000000
  70
    32
  0
VERTEX
  8
0
  5
117B1
 10
1232.94
 20
313.783
 30
0.000000
  70
    32
  0
VERTEX
  8
0
  5
117B2
 10
1232.72
 20
313.615
 30
0.000000
  70
    32
  0
VERTEX
  8
0
  5
117B3
 10
1232.49
 20
313.443
 30
0.000000
  70
    32
  0
VERTEX
  8
0
  5
117B4
 10
1232.27
 20
313.269
 30
0.000000
  70
    32
  0
VERTEX
  8
0
  5
117B5
 10
1232.05
 20
313.093
 30
0.000000
  70
    32
  0
VERTEX
  8
0
  5
117B6
 10
1231.83
 20
312.914
 30
0.000000
  70
    32
  0
VERTEX
  8
0
  5
117B7
 10
1231.61
 20
312.732
 30
0.000000
  70
    32
  0
VERTEX
  8
0
  5
117B8
 10
1231.40
 20
312.547
 30
0.000000
  70
    32
  0
VERTEX
  8
0
  5
117B9
 10
1231.19
 20
312.360
 30
0.000000
  70
    32
  0
VERTEX
  8
0
  5
117BA
 10
1230.98
 20
312.170
 30
0.000000
  70
    32
  0
VERTEX
  8
0
  5
117BB
 10
1230.77
 20
311.978
 30
0.000000
  70
    32
  0
VERTEX
  8
0
  5
117BC
 10
1230.57
 20
311.784
 30
0.000000
  70
    32
  0
VERTEX
  8
0
  5
117BD
 10
1230.37
 20
311.587
 30
0.000000
  70
    32
  0
VERTEX
  8
0
  5
117BE
 10
1230.17
 20
311.387
 30
0.000000
  70
    32
  0
VERTEX
  8
0
  5
117BF
 10
1229.97
 20
311.186
 30
0.000000
  70
    32
  0
VERTEX
  8
0
  5
117C0
 10
1229.78
 20
310.982
 30
0.000000
  70
    32
  0
VERTEX
  8
0
  5
117C1
 10
1229.59
 20
310.775
 30
0.000000
  70
    32
  0
VERTEX
  8
0
  5
117C2
 10
1229.40
 20
310.566
 30
0.000000
  70
    32
  0
VERTEX
  8
0
  5
117C3
 10
1229.21
 20
310.355
 30
0.000000
  70
    32
  0
VERTEX
  8
0
  5
117C4
 10
1229.03
 20
310.142
 30
0.000000
  70
    32
  0
VERTEX
  8
0
  5
117C5
 10
1228.85
 20
309.927
 30
0.000000
  70
    32
  0
VERTEX
  8
0
  5
117C6
 10
1228.67
 20
309.709
 30
0.000000
  70
    32
  0
VERTEX
  8
0
  5
117C7
 10
1228.50
 20
309.490
 30
0.000000
  70
    32
  0
VERTEX
  8
0
  5
117C8
 10
1228.33
 20
309.268
 30
0.000000
  70
    32
  0
VERTEX
  8
0
  5
117C9
 10
1228.16
 20
309.044
 30
0.000000
  70
    32
  0
VERTEX
  8
0
  5
117CA
 10
1227.99
 20
308.818
 30
0.000000
  70
    32
  0
VERTEX
  8
0
  5
117CB
 10
1227.83
 20
308.590
 30
0.000000
  70
    32
  0
VERTEX
  8
0
  5
117CC
 10
1227.67
 20
308.361
 30
0.000000
  70
    32
  0
VERTEX
  8
0
  5
117CD
 10
1227.51
 20
308.129
 30
0.000000
  70
    32
  0
VERTEX
  8
0
  5
117CE
 10
1227.36
 20
307.895
 30
0.000000
  70
    32
  0
VERTEX
  8
0
  5
117CF
 10
1227.21
 20
307.660
 30
0.000000
  70
    32
  0
VERTEX
  8
0
  5
117D0
 10
1227.06
 20
307.423
 30
0.000000
  70
    32
  0
VERTEX
  8
0
  5
117D1
 10
1226.91
 20
307.184
 30
0.000000
  70
    32
  0
VERTEX
  8
0
  5
117D2
 10
1226.77
 20
306.943
 30
0.000000
  70
    32
  0
VERTEX
  8
0
  5
117D3
 10
1226.63
 20
306.701
 30
0.000000
  70
    32
  0
VERTEX
  8
0
  5
117D4
 10
1226.50
 20
306.457
 30
0.000000
  70
    32
  0
VERTEX
  8
0
  5
117D5
 10
1226.36
 20
306.211
 30
0.000000
  70
    32
  0
VERTEX
  8
0
  5
117D6
 10
1226.23
 20
305.964
 30
0.000000
  70
    32
  0
VERTEX
  8
0
  5
117D7
 10
1226.11
 20
305.716
 30
0.000000
  70
    32
  0
VERTEX
  8
0
  5
117D8
 10
1225.99
 20
305.465
 30
0.000000
  70
    32
  0
VERTEX
  8
0
  5
117D9
 10
1225.87
 20
305.214
 30
0.000000
  70
    32
  0
VERTEX
  8
0
  5
117DA
 10
1225.75
 20
304.961
 30
0.000000
  70
    32
  0
VERTEX
  8
0
  5
117DB
 10
1225.64
 20
304.706
 30
0.000000
  70
    32
  0
VERTEX
  8
0
  5
117DC
 10
1225.53
 20
304.450
 30
0.000000
  70
    32
  0
VERTEX
  8
0
  5
117DD
 10
1225.42
 20
304.193
 30
0.000000
  70
    32
  0
VERTEX
  8
0
  5
117DE
 10
1225.32
 20
303.935
 30
0.000000
  70
    32
  0
VERTEX
  8
0
  5
117DF
 10
1225.22
 20
303.675
 30
0.000000
  70
    32
  0
VERTEX
  8
0
  5
117E0
 10
1225.12
 20
303.414
 30
0.000000
  70
    32
  0
VERTEX
  8
0
  5
117E1
 10
1225.03
 20
303.153
 30
0.000000
  70
    32
  0
VERTEX
  8
0
  5
117E2
 10
1224.94
 20
302.890
 30
0.000000
  70
    32
  0
VERTEX
  8
0
  5
117E3
 10
1224.85
 20
302.625
 30
0.000000
  70
    32
  0
VERTEX
  8
0
  5
117E4
 10
1224.77
 20
302.360
 30
0.000000
  70
    32
  0
VERTEX
  8
0
  5
117E5
 10
1224.69
 20
302.094
 30
0.000000
  70
    32
  0
VERTEX
  8
0
  5
117E6
 10
1224.61
 20
301.827
 30
0.000000
  70
    32
  0
VERTEX
  8
0
  5
117E7
 10
1224.54
 20
301.559
 30
0.000000
  70
    32
  0
VERTEX
  8
0
  5
117E8
 10
1224.47
 20
301.291
 30
0.000000
  70
    32
  0
VERTEX
  8
0
  5
117E9
 10
1224.41
 20
301.021
 30
0.000000
  70
    32
  0
VERTEX
  8
0
  5
117EA
 10
1224.34
 20
300.751
 30
0.000000
  70
    32
  0
VERTEX
  8
0
  5
117EB
 10
1224.29
 20
300.480
 30
0.000000
  70
    32
  0
VERTEX
  8
0
  5
117EC
 10
1224.23
 20
300.208
 30
0.000000
  70
    32
  0
VERTEX
  8
0
  5
117ED
 10
1224.18
 20
299.936
 30
0.000000
  70
    32
  0
VERTEX
  8
0
  5
117EE
 10
1224.13
 20
299.663
 30
0.000000
  70
    32
  0
VERTEX
  8
0
  5
117EF
 10
1224.09
 20
299.389
 30
0.000000
  70
    32
  0
VERTEX
  8
0
  5
117F0
 10
1224.05
 20
299.115
 30
0.000000
  70
    32
  0
VERTEX
  8
0
  5
117F1
 10
1224.01
 20
298.840
 30
0.000000
  70
    32
  0
VERTEX
  8
0
  5
117F2
 10
1223.97
 20
298.565
 30
0.000000
  70
    32
  0
VERTEX
  8
0
  5
117F3
 10
1223.94
 20
298.290
 30
0.000000
  70
    32
  0
VERTEX
  8
0
  5
117F4
 10
1223.92
 20
298.014
 30
0.000000
  70
    32
  0
VERTEX
  8
0
  5
117F5
 10
1223.89
 20
297.738
 30
0.000000
  70
    32
  0
VERTEX
  8
0
  5
117F6
 10
1223.87
 20
297.462
 30
0.000000
  70
    32
  0
VERTEX
  8
0
  5
117F7
 10
1223.86
 20
297.186
 30
0.000000
  70
    32
  0
VERTEX
  8
0
  5
117F8
 10
1223.85
 20
296.909
 30
0.000000
  70
    32
  0
VERTEX
  8
0
  5
117F9
 10
1223.84
 20
296.632
 30
0.000000
  70
    32
  0
VERTEX
  8
0
  5
117FA
 10
1223.83
 20
296.355
 30
0.000000
  70
    32
  0
VERTEX
  8
0
  5
117FB
 10
1223.83
 20
296.078
 30
0.000000
  70
    32
  0
VERTEX
  8
0
  5
117FC
 10
1223.83
 20
295.802
 30
0.000000
  70
    32
  0
VERTEX
  8
0
  5
117FD
 10
1223.84
 20
295.525
 30
0.000000
  70
    32
  0
SEQEND
  8
0
  5
117FE
  0
INSERT
  5
11314
  8
0
  2
DT-TLV
 10
891.12357745194652
 20
326.39393265195793
 30
0.0
 41
0.5
 42
0.5
 43
0.5
  0
LINE
  5
11315
  8
0
 10
891.2835774519466
 20
342.64383272019182
 30
0.0
 11
900.35537422167181
 21
342.64383272019182
 31
0.0
  0
LINE
  5
11316
  8
0
 10
891.2835774519466
 20
346.64383272019182
 30
0.0
 11
900.35537422167181
 21
346.64383272019182
 31
0.0
  0
LINE
  5
11317
  8
0
 10
891.2835774519466
 20
346.64383272019182
 30
0.0
 11
900.35537422167181
 21
346.64383272019182
 31
0.0
  0
LINE
  5
11318
  8
0
 10
875.2835774519466
 20
340.64383272019182
 30
0.0
 11
890.12887691356707
 21
340.64383272019182
 31
0.0
  0
LINE
  5
11319
  8
0
 10
875.2835774519466
 20
348.64383272019182
 30
0.0
 11
877.5929785287052
 21
344.64383272019182
 31
0.0
  0
LINE
  5
1131A
  8
0
 10
875.28357745194614
 20
340.64383272019182
 30
0.0
 11
877.5929785287052
 21
344.64383272019182
 31
0.0
  0
LINE
  5
1131B
  8
0
 10
890.12887691356707
 20
348.64383272019182
 30
0.0
 11
891.2835774519466
 21
346.64383272019182
 31
0.0
  0
LINE
  5
1131C
  8
0
 10
890.12887691356707
 20
340.64383272019182
 30
0.0
 11
891.2835774519466
 21
342.64383272019182
 31
0.0
  0
LINE
  5
1131D
  8
0
 10
900.35537422167181
 20
348.64383272019182
 30
0.0
 11
907.2835774519466
 21
344.64383272019182
 31
0.0
  0
LINE
  5
1131E
  8
0
 10
900.35537422167135
 20
340.64383272019182
 30
0.0
 11
907.2835774519466
 21
344.64383272019182
 31
0.0
  0
LINE
  5
1131F
  8
0
 10
900.35537422167181
 20
348.64383272019182
 30
0.0
 11
900.35537422167181
 21
346.64383272019182
 31
0.0
  0
LINE
  5
11320
  8
0
 10
900.35537422167181
 20
342.64383272019182
 30
0.0
 11
900.35537422167181
 21
340.64383272019182
 31
0.0
  0
LINE
  5
11321
  8
0
 10
890.12887691356707
 20
348.64383272019182
 30
0.0
 11
875.2835774519466
 21
348.64383272019182
 31
0.0
  0
LINE
  5
11322
  8
0
 10
1269.828836353978
 20
408.33913465994311
 30
0.0
 11
1269.828836353978
 21
386.33913465994311
 31
0.0
  0
LINE
  5
11323
  8
0
 10
1267.828836353978
 20
384.33913465994311
 30
0.0
 11
1265.802502314988
 21
384.33913465994311
 31
0.0
  0
ARC
  5
11324
  8
0
 10
1267.828836353978
 20
386.33913465994311
 30
0.0
 40
2.0
 50
270.0
 51
0.0
  0
LINE
  5
11325
  8
0
 10
1267.828836353978
 20
410.33913465994311
 30
0.0
 11
1265.802502314988
 21
410.33913465994311
 31
0.0
  0
ARC
  5
11326
  8
0
 10
1267.828836353978
 20
408.33913465994311
 30
0.0
 40
2.0
 50
0.0
 51
90.0
  0
LINE
  5
11327
  8
0
 10
1223.8288363539791
 20
397.33913465994311
 30
0.0
 11
1223.8288363539791
 21
294.71570224562419
 31
0.0
  0
LINE
  5
11328
  8
0
 10
1257.828836353978
 20
420.339134659943
 30
0.0
 11
1235.828836353978
 21
420.339134659943
 31
0.0
  0
ARC
  5
11329
  8
0
 10
1235.828836353978
 20
418.33913465994311
 30
0.0
 40
2.0
 50
90.0
 51
180.0
  0
LINE
  5
1132A
  8
0
 10
1259.828836353978
 20
376.33913465994328
 30
0.0
 11
1259.828836353978
 21
378.36546869893311
 31
0.0
  0
ARC
  5
1132B
  8
0
 10
1257.828836353978
 20
376.33913465994328
 30
0.0
 40
2.0
 50
270.0
 51
0.0
  0
LINE
  5
1132C
  8
0
 10
1233.828836353978
 20
376.33913465994328
 30
0.0
 11
1233.828836353978
 21
378.36546869893311
 31
0.0
  0
LINE
  5
1132D
  8
0
 10
1257.828836353978
 20
374.33913465994328
 30
0.0
 11
1235.828836353978
 21
374.33913465994328
 31
0.0
  0
ARC
  5
1132E
  8
0
 10
1235.828836353978
 20
376.33913465994328
 30
0.0
 40
2.0
 50
180.0
 51
270.0
  0
LINE
  5
1132F
  8
0
 10
1151.153836353978
 20
422.33913465994351
 30
0.0
 11
1342.5038363539779
 21
422.33913465994351
 31
0.0
  0
CIRCLE
  5
11330
  8
0
 10
1246.828836353978
 20
397.33913465994311
 30
0.0
 40
21.999999999999719
  0
CIRCLE
  5
11331
  8
0
 10
1246.828836353978
 20
397.33913465994311
 30
0.0
 40
15.14592092430007
  0
CIRCLE
  5
11332
  8
0
 10
1246.828836353978
 20
397.33913465994311
 30
0.0
 40
16.624500000000069
  0
POLYLINE
  5
11333
  8
0
 10
1246.828836353978
 20
318.28868858267242
 30
0.0
 66
     1
 70
     8
  0
VERTEX
  8
0
  5
117FF
 10
1246.83
 20
318.289
 30
0.000000
  70
    32
  0
VERTEX
  8
0
  5
11800
 10
1247.12
 20
318.287
 30
0.000000
  70
    32
  0
VERTEX
  8
0
  5
11801
 10
1247.40
 20
318.282
 30
0.000000
  70
    32
  0
VERTEX
  8
0
  5
11802
 10
1247.69
 20
318.273
 30
0.000000
  70
    32
  0
VERTEX
  8
0
  5
11803
 10
1247.98
 20
318.261
 30
0.000000
  70
    32
  0
VERTEX
  8
0
  5
11804
 10
1248.26
 20
318.246
 30
0.000000
  70
    32
  0
VERTEX
  8
0
  5
11805
 10
1248.55
 20
318.227
 30
0.000000
  70
    32
  0
VERTEX
  8
0
  5
11806
 10
1248.83
 20
318.204
 30
0.000000
  70
    32
  0
VERTEX
  8
0
  5
11807
 10
1249.12
 20
318.178
 30
0.000000
  70
    32
  0
VERTEX
  8
0
  5
11808
 10
1249.40
 20
318.149
 30
0.000000
  70
    32
  0
VERTEX
  8
0
  5
11809
 10
1249.69
 20
318.116
 30
0.000000
  70
    32
  0
VERTEX
  8
0
  5
1180A
 10
1249.97
 20
318.080
 30
0.000000
  70
    32
  0
VERTEX
  8
0
  5
1180B
 10
1250.26
 20
318.041
 30
0.000000
  70
    32
  0
VERTEX
  8
0
  5
1180C
 10
1250.54
 20
317.998
 30
0.000000
  70
    32
  0
VERTEX
  8
0
  5
1180D
 10
1250.82
 20
317.951
 30
0.000000
  70
    32
  0
VERTEX
  8
0
  5
1180E
 10
1251.10
 20
317.902
 30
0.000000
  70
    32
  0
VERTEX
  8
0
  5
1180F
 10
1251.39
 20
317.848
 30
0.000000
  70
    32
  0
VERTEX
  8
0
  5
11810
 10
1251.67
 20
317.792
 30
0.000000
  70
    32
  0
VERTEX
  8
0
  5
11811
 10
1251.95
 20
317.732
 30
0.000000
  70
    32
  0
VERTEX
  8
0
  5
11812
 10
1252.23
 20
317.669
 30
0.000000
  70
    32
  0
VERTEX
  8
0
  5
11813
 10
1252.50
 20
317.602
 30
0.000000
  70
    32
  0
VERTEX
  8
0
  5
11814
 10
1252.78
 20
317.532
 30
0.000000
  70
    32
  0
VERTEX
  8
0
  5
11815
 10
1253.06
 20
317.459
 30
0.000000
  70
    32
  0
VERTEX
  8
0
  5
11816
 10
1253.33
 20
317.382
 30
0.000000
  70
    32
  0
VERTEX
  8
0
  5
11817
 10
1253.61
 20
317.302
 30
0.000000
  70
    32
  0
VERTEX
  8
0
  5
11818
 10
1253.88
 20
317.219
 30
0.000000
  70
    32
  0
VERTEX
  8
0
  5
11819
 10
1254.15
 20
317.132
 30
0.000000
  70
    32
  0
VERTEX
  8
0
  5
1181A
 10
1254.42
 20
317.042
 30
0.000000
  70
    32
  0
VERTEX
  8
0
  5
1181B
 10
1254.69
 20
316.949
 30
0.000000
  70
    32
  0
VERTEX
  8
0
  5
1181C
 10
1254.96
 20
316.853
 30
0.000000
  70
    32
  0
VERTEX
  8
0
  5
1181D
 10
1255.23
 20
316.753
 30
0.000000
  70
    32
  0
VERTEX
  8
0
  5
1181E
 10
1255.50
 20
316.651
 30
0.000000
  70
    32
  0
VERTEX
  8
0
  5
1181F
 10
1255.76
 20
316.545
 30
0.000000
  70
    32
  0
VERTEX
  8
0
  5
11820
 10
1256.02
 20
316.436
 30
0.000000
  70
    32
  0
VERTEX
  8
0
  5
11821
 10
1256.29
 20
316.323
 30
0.000000
  70
    32
  0
VERTEX
  8
0
  5
11822
 10
1256.55
 20
316.208
 30
0.000000
  70
    32
  0
VERTEX
  8
0
  5
11823
 10
1256.81
 20
316.089
 30
0.000000
  70
    32
  0
VERTEX
  8
0
  5
11824
 10
1257.06
 20
315.968
 30
0.000000
  70
    32
  0
VERTEX
  8
0
  5
11825
 10
1257.32
 20
315.843
 30
0.000000
  70
    32
  0
VERTEX
  8
0
  5
11826
 10
1257.57
 20
315.715
 30
0.000000
  70
    32
  0
VERTEX
  8
0
  5
11827
 10
1257.83
 20
315.584
 30
0.000000
  70
    32
  0
VERTEX
  8
0
  5
11828
 10
1258.08
 20
315.450
 30
0.000000
  70
    32
  0
VERTEX
  8
0
  5
11829
 10
1258.33
 20
315.313
 30
0.000000
  70
    32
  0
VERTEX
  8
0
  5
1182A
 10
1258.57
 20
315.173
 30
0.000000
  70
    32
  0
VERTEX
  8
0
  5
1182B
 10
1258.82
 20
315.030
 30
0.000000
  70
    32
  0
VERTEX
  8
0
  5
1182C
 10
1259.06
 20
314.885
 30
0.000000
  70
    32
  0
VERTEX
  8
0
  5
1182D
 10
1259.31
 20
314.736
 30
0.000000
  70
    32
  0
VERTEX
  8
0
  5
1182E
 10
1259.55
 20
314.584
 30
0.000000
  70
    32
  0
VERTEX
  8
0
  5
1182F
 10
1259.78
 20
314.430
 30
0.000000
  70
    32
  0
VERTEX
  8
0
  5
11830
 10
1260.02
 20
314.272
 30
0.000000
  70
    32
  0
VERTEX
  8
0
  5
11831
 10
1260.25
 20
314.112
 30
0.000000
  70
    32
  0
VERTEX
  8
0
  5
11832
 10
1260.48
 20
313.949
 30
0.000000
  70
    32
  0
VERTEX
  8
0
  5
11833
 10
1260.71
 20
313.783
 30
0.000000
  70
    32
  0
VERTEX
  8
0
  5
11834
 10
1260.94
 20
313.615
 30
0.000000
  70
    32
  0
VERTEX
  8
0
  5
11835
 10
1261.17
 20
313.443
 30
0.000000
  70
    32
  0
VERTEX
  8
0
  5
11836
 10
1261.39
 20
313.269
 30
0.000000
  70
    32
  0
VERTEX
  8
0
  5
11837
 10
1261.61
 20
313.093
 30
0.000000
  70
    32
  0
VERTEX
  8
0
  5
11838
 10
1261.83
 20
312.914
 30
0.000000
  70
    32
  0
VERTEX
  8
0
  5
11839
 10
1262.05
 20
312.732
 30
0.000000
  70
    32
  0
VERTEX
  8
0
  5
1183A
 10
1262.26
 20
312.547
 30
0.000000
  70
    32
  0
VERTEX
  8
0
  5
1183B
 10
1262.47
 20
312.360
 30
0.000000
  70
    32
  0
VERTEX
  8
0
  5
1183C
 10
1262.68
 20
312.170
 30
0.000000
  70
    32
  0
VERTEX
  8
0
  5
1183D
 10
1262.89
 20
311.978
 30
0.000000
  70
    32
  0
VERTEX
  8
0
  5
1183E
 10
1263.09
 20
311.784
 30
0.000000
  70
    32
  0
VERTEX
  8
0
  5
1183F
 10
1263.29
 20
311.587
 30
0.000000
  70
    32
  0
VERTEX
  8
0
  5
11840
 10
1263.49
 20
311.387
 30
0.000000
  70
    32
  0
VERTEX
  8
0
  5
11841
 10
1263.69
 20
311.186
 30
0.000000
  70
    32
  0
VERTEX
  8
0
  5
11842
 10
1263.88
 20
310.982
 30
0.000000
  70
    32
  0
VERTEX
  8
0
  5
11843
 10
1264.07
 20
310.775
 30
0.000000
  70
    32
  0
VERTEX
  8
0
  5
11844
 10
1264.26
 20
310.566
 30
0.000000
  70
    32
  0
VERTEX
  8
0
  5
11845
 10
1264.45
 20
310.355
 30
0.000000
  70
    32
  0
VERTEX
  8
0
  5
11846
 10
1264.63
 20
310.142
 30
0.000000
  70
    32
  0
VERTEX
  8
0
  5
11847
 10
1264.81
 20
309.927
 30
0.000000
  70
    32
  0
VERTEX
  8
0
  5
11848
 10
1264.99
 20
309.709
 30
0.000000
  70
    32
  0
VERTEX
  8
0
  5
11849
 10
1265.16
 20
309.490
 30
0.000000
  70
    32
  0
VERTEX
  8
0
  5
1184A
 10
1265.33
 20
309.268
 30
0.000000
  70
    32
  0
VERTEX
  8
0
  5
1184B
 10
1265.50
 20
309.044
 30
0.000000
  70
    32
  0
VERTEX
  8
0
  5
1184C
 10
1265.67
 20
308.818
 30
0.000000
  70
    32
  0
VERTEX
  8
0
  5
1184D
 10
1265.83
 20
308.590
 30
0.000000
  70
    32
  0
VERTEX
  8
0
  5
1184E
 10
1265.99
 20
308.361
 30
0.000000
  70
    32
  0
VERTEX
  8
0
  5
1184F
 10
1266.15
 20
308.129
 30
0.000000
  70
    32
  0
VERTEX
  8
0
  5
11850
 10
1266.30
 20
307.895
 30
0.000000
  70
    32
  0
VERTEX
  8
0
  5
11851
 10
1266.45
 20
307.660
 30
0.000000
  70
    32
  0
VERTEX
  8
0
  5
11852
 10
1266.60
 20
307.423
 30
0.000000
  70
    32
  0
VERTEX
  8
0
  5
11853
 10
1266.75
 20
307.184
 30
0.000000
  70
    32
  0
VERTEX
  8
0
  5
11854
 10
1266.89
 20
306.943
 30
0.000000
  70
    32
  0
VERTEX
  8
0
  5
11855
 10
1267.03
 20
306.701
 30
0.000000
  70
    32
  0
VERTEX
  8
0
  5
11856
 10
1267.16
 20
306.457
 30
0.000000
  70
    32
  0
VERTEX
  8
0
  5
11857
 10
1267.29
 20
306.211
 30
0.000000
  70
    32
  0
VERTEX
  8
0
  5
11858
 10
1267.42
 20
305.964
 30
0.000000
  70
    32
  0
VERTEX
  8
0
  5
11859
 10
1267.55
 20
305.716
 30
0.000000
  70
    32
  0
VERTEX
  8
0
  5
1185A
 10
1267.67
 20
305.465
 30
0.000000
  70
    32
  0
VERTEX
  8
0
  5
1185B
 10
1267.79
 20
305.214
 30
0.000000
  70
    32
  0
VERTEX
  8
0
  5
1185C
 10
1267.91
 20
304.961
 30
0.000000
  70
    32
  0
VERTEX
  8
0
  5
1185D
 10
1268.02
 20
304.706
 30
0.000000
  70
    32
  0
VERTEX
  8
0
  5
1185E
 10
1268.13
 20
304.450
 30
0.000000
  70
    32
  0
VERTEX
  8
0
  5
1185F
 10
1268.24
 20
304.193
 30
0.000000
  70
    32
  0
VERTEX
  8
0
  5
11860
 10
1268.34
 20
303.935
 30
0.000000
  70
    32
  0
VERTEX
  8
0
  5
11861
 10
1268.44
 20
303.675
 30
0.000000
  70
    32
  0
VERTEX
  8
0
  5
11862
 10
1268.54
 20
303.414
 30
0.000000
  70
    32
  0
VERTEX
  8
0
  5
11863
 10
1268.63
 20
303.153
 30
0.000000
  70
    32
  0
VERTEX
  8
0
  5
11864
 10
1268.72
 20
302.890
 30
0.000000
  70
    32
  0
VERTEX
  8
0
  5
11865
 10
1268.81
 20
302.625
 30
0.000000
  70
    32
  0
VERTEX
  8
0
  5
11866
 10
1268.89
 20
302.360
 30
0.000000
  70
    32
  0
VERTEX
  8
0
  5
11867
 10
1268.97
 20
302.094
 30
0.000000
  70
    32
  0
VERTEX
  8
0
  5
11868
 10
1269.04
 20
301.827
 30
0.000000
  70
    32
  0
VERTEX
  8
0
  5
11869
 10
1269.12
 20
301.559
 30
0.000000
  70
    32
  0
VERTEX
  8
0
  5
1186A
 10
1269.19
 20
301.291
 30
0.000000
  70
    32
  0
VERTEX
  8
0
  5
1186B
 10
1269.25
 20
301.021
 30
0.000000
  70
    32
  0
VERTEX
  8
0
  5
1186C
 10
1269.31
 20
300.751
 30
0.000000
  70
    32
  0
VERTEX
  8
0
  5
1186D
 10
1269.37
 20
300.480
 30
0.000000
  70
    32
  0
VERTEX
  8
0
  5
1186E
 10
1269.43
 20
300.208
 30
0.000000
  70
    32
  0
VERTEX
  8
0
  5
1186F
 10
1269.48
 20
299.936
 30
0.000000
  70
    32
  0
VERTEX
  8
0
  5
11870
 10
1269.53
 20
299.663
 30
0.000000
  70
    32
  0
VERTEX
  8
0
  5
11871
 10
1269.57
 20
299.389
 30
0.000000
  70
    32
  0
VERTEX
  8
0
  5
11872
 10
1269.61
 20
299.115
 30
0.000000
  70
    32
  0
VERTEX
  8
0
  5
11873
 10
1269.65
 20
298.840
 30
0.000000
  70
    32
  0
VERTEX
  8
0
  5
11874
 10
1269.68
 20
298.565
 30
0.000000
  70
    32
  0
VERTEX
  8
0
  5
11875
 10
1269.71
 20
298.290
 30
0.000000
  70
    32
  0
VERTEX
  8
0
  5
11876
 10
1269.74
 20
298.014
 30
0.000000
  70
    32
  0
VERTEX
  8
0
  5
11877
 10
1269.76
 20
297.738
 30
0.000000
  70
    32
  0
VERTEX
  8
0
  5
11878
 10
1269.78
 20
297.462
 30
0.000000
  70
    32
  0
VERTEX
  8
0
  5
11879
 10
1269.80
 20
297.186
 30
0.000000
  70
    32
  0
VERTEX
  8
0
  5
1187A
 10
1269.81
 20
296.909
 30
0.000000
  70
    32
  0
VERTEX
  8
0
  5
1187B
 10
1269.82
 20
296.632
 30
0.000000
  70
    32
  0
VERTEX
  8
0
  5
1187C
 10
1269.83
 20
296.355
 30
0.000000
  70
    32
  0
VERTEX
  8
0
  5
1187D
 10
1269.83
 20
296.078
 30
0.000000
  70
    32
  0
VERTEX
  8
0
  5
1187E
 10
1269.83
 20
295.802
 30
0.000000
  70
    32
  0
VERTEX
  8
0
  5
1187F
 10
1269.82
 20
295.525
 30
0.000000
  70
    32
  0
SEQEND
  8
0
  5
11880
  0
POLYLINE
  5
11334
  8
0
 10
1246.828836353978
 20
317.19335556416524
 30
0.0
 66
     1
 70
     8
  0
VERTEX
  8
0
  5
11881
 10
1246.83
 20
317.193
 30
0.000000
  70
    32
  0
VERTEX
  8
0
  5
11882
 10
1246.26
 20
317.187
 30
0.000000
  70
    32
  0
VERTEX
  8
0
  5
11883
 10
1245.70
 20
317.167
 30
0.000000
  70
    32
  0
VERTEX
  8
0
  5
11884
 10
1245.14
 20
317.133
 30
0.000000
  70
    32
  0
VERTEX
  8
0
  5
11885
 10
1244.57
 20
317.086
 30
0.000000
  70
    32
  0
VERTEX
  8
0
  5
11886
 10
1244.01
 20
317.026
 30
0.000000
  70
    32
  0
VERTEX
  8
0
  5
11887
 10
1243.45
 20
316.953
 30
0.000000
  70
    32
  0
VERTEX
  8
0
  5
11888
 10
1242.90
 20
316.866
 30
0.000000
  70
    32
  0
VERTEX
  8
0
  5
11889
 10
1242.34
 20
316.766
 30
0.000000
  70
    32
  0
VERTEX
  8
0
  5
1188A
 10
1241.79
 20
316.654
 30
0.000000
  70
    32
  0
VERTEX
  8
0
  5
1188B
 10
1241.24
 20
316.528
 30
0.000000
  70
    32
  0
VERTEX
  8
0
  5
1188C
 10
1240.69
 20
316.389
 30
0.000000
  70
    32
  0
VERTEX
  8
0
  5
1188D
 10
1240.15
 20
316.237
 30
0.000000
  70
    32
  0
VERTEX
  8
0
  5
1188E
 10
1239.61
 20
316.072
 30
0.000000
  70
    32
  0
VERTEX
  8
0
  5
1188F
 10
1239.08
 20
315.895
 30
0.000000
  70
    32
  0
VERTEX
  8
0
  5
11890
 10
1238.55
 20
315.705
 30
0.000000
  70
    32
  0
VERTEX
  8
0
  5
11891
 10
1238.03
 20
315.502
 30
0.000000
  70
    32
  0
VERTEX
  8
0
  5
11892
 10
1237.51
 20
315.287
 30
0.000000
  70
    32
  0
VERTEX
  8
0
  5
11893
 10
1237.00
 20
315.060
 30
0.000000
  70
    32
  0
VERTEX
  8
0
  5
11894
 10
1236.49
 20
314.821
 30
0.000000
  70
    32
  0
VERTEX
  8
0
  5
11895
 10
1235.99
 20
314.570
 30
0.000000
  70
    32
  0
VERTEX
  8
0
  5
11896
 10
1235.49
 20
314.307
 30
0.000000
  70
    32
  0
VERTEX
  8
0
  5
11897
 10
1235.00
 20
314.033
 30
0.000000
  70
    32
  0
VERTEX
  8
0
  5
11898
 10
1234.52
 20
313.747
 30
0.000000
  70
    32
  0
VERTEX
  8
0
  5
11899
 10
1234.05
 20
313.449
 30
0.000000
  70
    32
  0
VERTEX
  8
0
  5
1189A
 10
1233.59
 20
313.141
 30
0.000000
  70
    32
  0
VERTEX
  8
0
  5
1189B
 10
1233.13
 20
312.821
 30
0.000000
  70
    32
  0
VERTEX
  8
0
  5
1189C
 10
1232.68
 20
312.491
 30
0.000000
  70
    32
  0
VERTEX
  8
0
  5
1189D
 10
1232.24
 20
312.150
 30
0.000000
  70
    32
  0
VERTEX
  8
0
  5
1189E
 10
1231.81
 20
311.799
 30
0.000000
  70
    32
  0
VERTEX
  8
0
  5
1189F
 10
1231.38
 20
311.438
 30
0.000000
  70
    32
  0
VERTEX
  8
0
  5
118A0
 10
1230.97
 20
311.067
 30
0.000000
  70
    32
  0
VERTEX
  8
0
  5
118A1
 10
1230.57
 20
310.686
 30
0.000000
  70
    32
  0
VERTEX
  8
0
  5
118A2
 10
1230.17
 20
310.296
 30
0.000000
  70
    32
  0
VERTEX
  8
0
  5
118A3
 10
1229.79
 20
309.897
 30
0.000000
  70
    32
  0
VERTEX
  8
0
  5
118A4
 10
1229.41
 20
309.488
 30
0.000000
  70
    32
  0
VERTEX
  8
0
  5
118A5
 10
1229.05
 20
309.071
 30
0.000000
  70
    32
  0
VERTEX
  8
0
  5
118A6
 10
1228.70
 20
308.645
 30
0.000000
  70
    32
  0
VERTEX
  8
0
  5
118A7
 10
1228.36
 20
308.211
 30
0.000000
  70
    32
  0
VERTEX
  8
0
  5
118A8
 10
1228.02
 20
307.769
 30
0.000000
  70
    32
  0
VERTEX
  8
0
  5
118A9
 10
1227.71
 20
307.320
 30
0.000000
  70
    32
  0
VERTEX
  8
0
  5
118AA
 10
1227.40
 20
306.863
 30
0.000000
  70
    32
  0
VERTEX
  8
0
  5
118AB
 10
1227.10
 20
306.398
 30
0.000000
  70
    32
  0
VERTEX
  8
0
  5
118AC
 10
1226.82
 20
305.927
 30
0.000000
  70
    32
  0
VERTEX
  8
0
  5
118AD
 10
1226.54
 20
305.450
 30
0.000000
  70
    32
  0
VERTEX
  8
0
  5
118AE
 10
1226.28
 20
304.966
 30
0.000000
  70
    32
  0
VERTEX
  8
0
  5
118AF
 10
1226.04
 20
304.476
 30
0.000000
  70
    32
  0
VERTEX
  8
0
  5
118B0
 10
1225.80
 20
303.980
 30
0.000000
  70
    32
  0
VERTEX
  8
0
  5
118B1
 10
1225.58
 20
303.479
 30
0.000000
  70
    32
  0
VERTEX
  8
0
  5
118B2
 10
1225.37
 20
302.973
 30
0.000000
  70
    32
  0
VERTEX
  8
0
  5
118B3
 10
1225.17
 20
302.461
 30
0.000000
  70
    32
  0
VERTEX
  8
0
  5
118B4
 10
1224.99
 20
301.946
 30
0.000000
  70
    32
  0
VERTEX
  8
0
  5
118B5
 10
1224.82
 20
301.426
 30
0.000000
  70
    32
  0
VERTEX
  8
0
  5
118B6
 10
1224.66
 20
300.902
 30
0.000000
  70
    32
  0
VERTEX
  8
0
  5
118B7
 10
1224.52
 20
300.375
 30
0.000000
  70
    32
  0
VERTEX
  8
0
  5
118B8
 10
1224.39
 20
299.845
 30
0.000000
  70
    32
  0
VERTEX
  8
0
  5
118B9
 10
1224.27
 20
299.311
 30
0.000000
  70
    32
  0
VERTEX
  8
0
  5
118BA
 10
1224.17
 20
298.775
 30
0.000000
  70
    32
  0
VERTEX
  8
0
  5
118BB
 10
1224.08
 20
298.237
 30
0.000000
  70
    32
  0
VERTEX
  8
0
  5
118BC
 10
1224.00
 20
297.697
 30
0.000000
  70
    32
  0
VERTEX
  8
0
  5
118BD
 10
1223.94
 20
297.155
 30
0.000000
  70
    32
  0
VERTEX
  8
0
  5
118BE
 10
1223.89
 20
296.611
 30
0.000000
  70
    32
  0
VERTEX
  8
0
  5
118BF
 10
1223.86
 20
296.067
 30
0.000000
  70
    32
  0
VERTEX
  8
0
  5
118C0
 10
1223.84
 20
295.522
 30
0.000000
  70
    32
  0
VERTEX
  8
0
  5
118C1
 10
1223.83
 20
294.977
 30
0.000000
  70
    32
  0
VERTEX
  8
0
  5
118C2
 10
1223.84
 20
294.432
 30
0.000000
  70
    32
  0
VERTEX
  8
0
  5
118C3
 10
1223.86
 20
293.887
 30
0.000000
  70
    32
  0
VERTEX
  8
0
  5
118C4
 10
1223.89
 20
293.343
 30
0.000000
  70
    32
  0
VERTEX
  8
0
  5
118C5
 10
1223.94
 20
292.799
 30
0.000000
  70
    32
  0
VERTEX
  8
0
  5
118C6
 10
1224.00
 20
292.258
 30
0.000000
  70
    32
  0
VERTEX
  8
0
  5
118C7
 10
1224.08
 20
291.717
 30
0.000000
  70
    32
  0
VERTEX
  8
0
  5
118C8
 10
1224.17
 20
291.179
 30
0.000000
  70
    32
  0
VERTEX
  8
0
  5
118C9
 10
1224.27
 20
290.643
 30
0.000000
  70
    32
  0
VERTEX
  8
0
  5
118CA
 10
1224.39
 20
290.109
 30
0.000000
  70
    32
  0
VERTEX
  8
0
  5
118CB
 10
1224.52
 20
289.579
 30
0.000000
  70
    32
  0
VERTEX
  8
0
  5
118CC
 10
1224.66
 20
289.052
 30
0.000000
  70
    32
  0
VERTEX
  8
0
  5
118CD
 10
1224.82
 20
288.528
 30
0.000000
  70
    32
  0
VERTEX
  8
0
  5
118CE
 10
1224.99
 20
288.008
 30
0.000000
  70
    32
  0
VERTEX
  8
0
  5
118CF
 10
1225.17
 20
287.493
 30
0.000000
  70
    32
  0
VERTEX
  8
0
  5
118D0
 10
1225.37
 20
286.981
 30
0.000000
  70
    32
  0
VERTEX
  8
0
  5
118D1
 10
1225.58
 20
286.475
 30
0.000000
  70
    32
  0
VERTEX
  8
0
  5
118D2
 10
1225.80
 20
285.974
 30
0.000000
  70
    32
  0
VERTEX
  8
0
  5
118D3
 10
1226.04
 20
285.478
 30
0.000000
  70
    32
  0
VERTEX
  8
0
  5
118D4
 10
1226.28
 20
284.988
 30
0.000000
  70
    32
  0
VERTEX
  8
0
  5
118D5
 10
1226.54
 20
284.504
 30
0.000000
  70
    32
  0
VERTEX
  8
0
  5
118D6
 10
1226.82
 20
284.027
 30
0.000000
  70
    32
  0
VERTEX
  8
0
  5
118D7
 10
1227.10
 20
283.556
 30
0.000000
  70
    32
  0
VERTEX
  8
0
  5
118D8
 10
1227.40
 20
283.091
 30
0.000000
  70
    32
  0
VERTEX
  8
0
  5
118D9
 10
1227.71
 20
282.634
 30
0.000000
  70
    32
  0
VERTEX
  8
0
  5
118DA
 10
1228.02
 20
282.185
 30
0.000000
  70
    32
  0
VERTEX
  8
0
  5
118DB
 10
1228.36
 20
281.743
 30
0.000000
  70
    32
  0
VERTEX
  8
0
  5
118DC
 10
1228.70
 20
281.309
 30
0.000000
  70
    32
  0
VERTEX
  8
0
  5
118DD
 10
1229.05
 20
280.883
 30
0.000000
  70
    32
  0
VERTEX
  8
0
  5
118DE
 10
1229.41
 20
280.466
 30
0.000000
  70
    32
  0
VERTEX
  8
0
  5
118DF
 10
1229.79
 20
280.057
 30
0.000000
  70
    32
  0
VERTEX
  8
0
  5
118E0
 10
1230.17
 20
279.658
 30
0.000000
  70
    32
  0
VERTEX
  8
0
  5
118E1
 10
1230.57
 20
279.268
 30
0.000000
  70
    32
  0
VERTEX
  8
0
  5
118E2
 10
1230.97
 20
278.887
 30
0.000000
  70
    32
  0
VERTEX
  8
0
  5
118E3
 10
1231.38
 20
278.516
 30
0.000000
  70
    32
  0
VERTEX
  8
0
  5
118E4
 10
1231.81
 20
278.155
 30
0.000000
  70
    32
  0
VERTEX
  8
0
  5
118E5
 10
1232.24
 20
277.804
 30
0.000000
  70
    32
  0
VERTEX
  8
0
  5
118E6
 10
1232.68
 20
277.463
 30
0.000000
  70
    32
  0
VERTEX
  8
0
  5
118E7
 10
1233.13
 20
277.133
 30
0.000000
  70
    32
  0
VERTEX
  8
0
  5
118E8
 10
1233.59
 20
276.813
 30
0.000000
  70
    32
  0
VERTEX
  8
0
  5
118E9
 10
1234.05
 20
276.505
 30
0.000000
  70
    32
  0
VERTEX
  8
0
  5
118EA
 10
1234.52
 20
276.207
 30
0.000000
  70
    32
  0
VERTEX
  8
0
  5
118EB
 10
1235.00
 20
275.921
 30
0.000000
  70
    32
  0
VERTEX
  8
0
  5
118EC
 10
1235.49
 20
275.647
 30
0.000000
  70
    32
  0
VERTEX
  8
0
  5
118ED
 10
1235.99
 20
275.384
 30
0.000000
  70
    32
  0
VERTEX
  8
0
  5
118EE
 10
1236.49
 20
275.133
 30
0.000000
  70
    32
  0
VERTEX
  8
0
  5
118EF
 10
1237.00
 20
274.894
 30
0.000000
  70
    32
  0
VERTEX
  8
0
  5
118F0
 10
1237.51
 20
274.667
 30
0.000000
  70
    32
  0
VERTEX
  8
0
  5
118F1
 10
1238.03
 20
274.452
 30
0.000000
  70
    32
  0
VERTEX
  8
0
  5
118F2
 10
1238.55
 20
274.249
 30
0.000000
  70
    32
  0
VERTEX
  8
0
  5
118F3
 10
1239.08
 20
274.059
 30
0.000000
  70
    32
  0
VERTEX
  8
0
  5
118F4
 10
1239.61
 20
273.882
 30
0.000000
  70
    32
  0
VERTEX
  8
0
  5
118F5
 10
1240.15
 20
273.717
 30
0.000000
  70
    32
  0
VERTEX
  8
0
  5
118F6
 10
1240.69
 20
273.565
 30
0.000000
  70
    32
  0
VERTEX
  8
0
  5
118F7
 10
1241.24
 20
273.426
 30
0.000000
  70
    32
  0
VERTEX
  8
0
  5
118F8
 10
1241.79
 20
273.300
 30
0.000000
  70
    32
  0
VERTEX
  8
0
  5
118F9
 10
1242.34
 20
273.188
 30
0.000000
  70
    32
  0
VERTEX
  8
0
  5
118FA
 10
1242.90
 20
273.088
 30
0.000000
  70
    32
  0
VERTEX
  8
0
  5
118FB
 10
1243.45
 20
273.001
 30
0.000000
  70
    32
  0
VERTEX
  8
0
  5
118FC
 10
1244.01
 20
272.928
 30
0.000000
  70
    32
  0
VERTEX
  8
0
  5
118FD
 10
1244.57
 20
272.868
 30
0.000000
  70
    32
  0
VERTEX
  8
0
  5
118FE
 10
1245.14
 20
272.821
 30
0.000000
  70
    32
  0
VERTEX
  8
0
  5
118FF
 10
1245.70
 20
272.787
 30
0.000000
  70
    32
  0
VERTEX
  8
0
  5
11900
 10
1246.26
 20
272.767
 30
0.000000
  70
    32
  0
VERTEX
  8
0
  5
11901
 10
1246.83
 20
272.761
 30
0.000000
  70
    32
  0
SEQEND
  8
0
  5
11902
  0
POLYLINE
  5
11335
  8
0
 10
1246.828836353978
 20
317.19335556416524
 30
0.0
 66
     1
 70
     8
  0
VERTEX
  8
0
  5
11903
 10
1246.83
 20
317.193
 30
0.000000
  70
    32
  0
VERTEX
  8
0
  5
11904
 10
1247.39
 20
317.187
 30
0.000000
  70
    32
  0
VERTEX
  8
0
  5
11905
 10
1247.96
 20
317.167
 30
0.000000
  70
    32
  0
VERTEX
  8
0
  5
11906
 10
1248.52
 20
317.133
 30
0.000000
  70
    32
  0
VERTEX
  8
0
  5
11907
 10
1249.08
 20
317.086
 30
0.000000
  70
    32
  0
VERTEX
  8
0
  5
11908
 10
1249.64
 20
317.026
 30
0.000000
  70
    32
  0
VERTEX
  8
0
  5
11909
 10
1250.20
 20
316.953
 30
0.000000
  70
    32
  0
VERTEX
  8
0
  5
1190A
 10
1250.76
 20
316.866
 30
0.000000
  70
    32
  0
VERTEX
  8
0
  5
1190B
 10
1251.32
 20
316.766
 30
0.000000
  70
    32
  0
VERTEX
  8
0
  5
1190C
 10
1251.87
 20
316.654
 30
0.000000
  70
    32
  0
VERTEX
  8
0
  5
1190D
 10
1252.42
 20
316.528
 30
0.000000
  70
    32
  0
VERTEX
  8
0
  5
1190E
 10
1252.96
 20
316.389
 30
0.000000
  70
    32
  0
VERTEX
  8
0
  5
1190F
 10
1253.51
 20
316.237
 30
0.000000
  70
    32
  0
VERTEX
  8
0
  5
11910
 10
1254.04
 20
316.072
 30
0.000000
  70
    32
  0
VERTEX
  8
0
  5
11911
 10
1254.58
 20
315.895
 30
0.000000
  70
    32
  0
VERTEX
  8
0
  5
11912
 10
1255.11
 20
315.705
 30
0.000000
  70
    32
  0
VERTEX
  8
0
  5
11913
 10
1255.63
 20
315.502
 30
0.000000
  70
    32
  0
VERTEX
  8
0
  5
11914
 10
1256.15
 20
315.287
 30
0.000000
  70
    32
  0
VERTEX
  8
0
  5
11915
 10
1256.66
 20
315.060
 30
0.000000
  70
    32
  0
VERTEX
  8
0
  5
11916
 10
1257.17
 20
314.821
 30
0.000000
  70
    32
  0
VERTEX
  8
0
  5
11917
 10
1257.67
 20
314.570
 30
0.000000
  70
    32
  0
VERTEX
  8
0
  5
11918
 10
1258.17
 20
314.307
 30
0.000000
  70
    32
  0
VERTEX
  8
0
  5
11919
 10
1258.65
 20
314.033
 30
0.000000
  70
    32
  0
VERTEX
  8
0
  5
1191A
 10
1259.13
 20
313.747
 30
0.000000
  70
    32
  0
VERTEX
  8
0
  5
1191B
 10
1259.61
 20
313.449
 30
0.000000
  70
    32
  0
VERTEX
  8
0
  5
1191C
 10
1260.07
 20
313.141
 30
0.000000
  70
    32
  0
VERTEX
  8
0
  5
1191D
 10
1260.53
 20
312.821
 30
0.000000
  70
    32
  0
VERTEX
  8
0
  5
1191E
 10
1260.98
 20
312.491
 30
0.000000
  70
    32
  0
VERTEX
  8
0
  5
1191F
 10
1261.42
 20
312.150
 30
0.000000
  70
    32
  0
VERTEX
  8
0
  5
11920
 10
1261.85
 20
311.799
 30
0.000000
  70
    32
  0
VERTEX
  8
0
  5
11921
 10
1262.27
 20
311.438
 30
0.000000
  70
    32
  0
VERTEX
  8
0
  5
11922
 10
1262.69
 20
311.067
 30
0.000000
  70
    32
  0
VERTEX
  8
0
  5
11923
 10
1263.09
 20
310.686
 30
0.000000
  70
    32
  0
VERTEX
  8
0
  5
11924
 10
1263.49
 20
310.296
 30
0.000000
  70
    32
  0
VERTEX
  8
0
  5
11925
 10
1263.87
 20
309.897
 30
0.000000
  70
    32
  0
VERTEX
  8
0
  5
11926
 10
1264.24
 20
309.488
 30
0.000000
  70
    32
  0
VERTEX
  8
0
  5
11927
 10
1264.61
 20
309.071
 30
0.000000
  70
    32
  0
VERTEX
  8
0
  5
11928
 10
1264.96
 20
308.645
 30
0.000000
  70
    32
  0
VERTEX
  8
0
  5
11929
 10
1265.30
 20
308.211
 30
0.000000
  70
    32
  0
VERTEX
  8
0
  5
1192A
 10
1265.63
 20
307.769
 30
0.000000
  70
    32
  0
VERTEX
  8
0
  5
1192B
 10
1265.95
 20
307.320
 30
0.000000
  70
    32
  0
VERTEX
  8
0
  5
1192C
 10
1266.26
 20
306.863
 30
0.000000
  70
    32
  0
VERTEX
  8
0
  5
1192D
 10
1266.56
 20
306.398
 30
0.000000
  70
    32
  0
VERTEX
  8
0
  5
1192E
 10
1266.84
 20
305.927
 30
0.000000
  70
    32
  0
VERTEX
  8
0
  5
1192F
 10
1267.11
 20
305.450
 30
0.000000
  70
    32
  0
VERTEX
  8
0
  5
11930
 10
1267.37
 20
304.966
 30
0.000000
  70
    32
  0
VERTEX
  8
0
  5
11931
 10
1267.62
 20
304.476
 30
0.000000
  70
    32
  0
VERTEX
  8
0
  5
11932
 10
1267.86
 20
303.980
 30
0.000000
  70
    32
  0
VERTEX
  8
0
  5
11933
 10
1268.08
 20
303.479
 30
0.000000
  70
    32
  0
VERTEX
  8
0
  5
11934
 10
1268.29
 20
302.973
 30
0.000000
  70
    32
  0
VERTEX
  8
0
  5
11935
 10
1268.48
 20
302.461
 30
0.000000
  70
    32
  0
VERTEX
  8
0
  5
11936
 10
1268.67
 20
301.946
 30
0.000000
  70
    32
  0
VERTEX
  8
0
  5
11937
 10
1268.84
 20
301.426
 30
0.000000
  70
    32
  0
VERTEX
  8
0
  5
11938
 10
1269.00
 20
300.902
 30
0.000000
  70
    32
  0
VERTEX
  8
0
  5
11939
 10
1269.14
 20
300.375
 30
0.000000
  70
    32
  0
VERTEX
  8
0
  5
1193A
 10
1269.27
 20
299.845
 30
0.000000
  70
    32
  0
VERTEX
  8
0
  5
1193B
 10
1269.39
 20
299.311
 30
0.000000
  70
    32
  0
VERTEX
  8
0
  5
1193C
 10
1269.49
 20
298.775
 30
0.000000
  70
    32
  0
VERTEX
  8
0
  5
1193D
 10
1269.58
 20
298.237
 30
0.000000
  70
    32
  0
VERTEX
  8
0
  5
1193E
 10
1269.66
 20
297.697
 30
0.000000
  70
    32
  0
VERTEX
  8
0
  5
1193F
 10
1269.72
 20
297.155
 30
0.000000
  70
    32
  0
VERTEX
  8
0
  5
11940
 10
1269.77
 20
296.611
 30
0.000000
  70
    32
  0
VERTEX
  8
0
  5
11941
 10
1269.80
 20
296.067
 30
0.000000
  70
    32
  0
VERTEX
  8
0
  5
11942
 10
1269.82
 20
295.522
 30
0.000000
  70
    32
  0
VERTEX
  8
0
  5
11943
 10
1269.83
 20
294.977
 30
0.000000
  70
    32
  0
VERTEX
  8
0
  5
11944
 10
1269.82
 20
294.432
 30
0.000000
  70
    32
  0
VERTEX
  8
0
  5
11945
 10
1269.80
 20
293.887
 30
0.000000
  70
    32
  0
VERTEX
  8
0
  5
11946
 10
1269.77
 20
293.343
 30
0.000000
  70
    32
  0
VERTEX
  8
0
  5
11947
 10
1269.72
 20
292.799
 30
0.000000
  70
    32
  0
VERTEX
  8
0
  5
11948
 10
1269.66
 20
292.258
 30
0.000000
  70
    32
  0
VERTEX
  8
0
  5
11949
 10
1269.58
 20
291.717
 30
0.000000
  70
    32
  0
VERTEX
  8
0
  5
1194A
 10
1269.49
 20
291.179
 30
0.000000
  70
    32
  0
VERTEX
  8
0
  5
1194B
 10
1269.39
 20
290.643
 30
0.000000
  70
    32
  0
VERTEX
  8
0
  5
1194C
 10
1269.27
 20
290.109
 30
0.000000
  70
    32
  0
VERTEX
  8
0
  5
1194D
 10
1269.14
 20
289.579
 30
0.000000
  70
    32
  0
VERTEX
  8
0
  5
1194E
 10
1269.00
 20
289.052
 30
0.000000
  70
    32
  0
VERTEX
  8
0
  5
1194F
 10
1268.84
 20
288.528
 30
0.000000
  70
    32
  0
VERTEX
  8
0
  5
11950
 10
1268.67
 20
288.008
 30
0.000000
  70
    32
  0
VERTEX
  8
0
  5
11951
 10
1268.48
 20
287.493
 30
0.000000
  70
    32
  0
VERTEX
  8
0
  5
11952
 10
1268.29
 20
286.981
 30
0.000000
  70
    32
  0
VERTEX
  8
0
  5
11953
 10
1268.08
 20
286.475
 30
0.000000
  70
    32
  0
VERTEX
  8
0
  5
11954
 10
1267.86
 20
285.974
 30
0.000000
  70
    32
  0
VERTEX
  8
0
  5
11955
 10
1267.62
 20
285.478
 30
0.000000
  70
    32
  0
VERTEX
  8
0
  5
11956
 10
1267.37
 20
284.988
 30
0.000000
  70
    32
  0
VERTEX
  8
0
  5
11957
 10
1267.11
 20
284.504
 30
0.000000
  70
    32
  0
VERTEX
  8
0
  5
11958
 10
1266.84
 20
284.027
 30
0.000000
  70
    32
  0
VERTEX
  8
0
  5
11959
 10
1266.56
 20
283.556
 30
0.000000
  70
    32
  0
VERTEX
  8
0
  5
1195A
 10
1266.26
 20
283.091
 30
0.000000
  70
    32
  0
VERTEX
  8
0
  5
1195B
 10
1265.95
 20
282.634
 30
0.000000
  70
    32
  0
VERTEX
  8
0
  5
1195C
 10
1265.63
 20
282.185
 30
0.000000
  70
    32
  0
VERTEX
  8
0
  5
1195D
 10
1265.30
 20
281.743
 30
0.000000
  70
    32
  0
VERTEX
  8
0
  5
1195E
 10
1264.96
 20
281.309
 30
0.000000
  70
    32
  0
VERTEX
  8
0
  5
1195F
 10
1264.61
 20
280.883
 30
0.000000
  70
    32
  0
VERTEX
  8
0
  5
11960
 10
1264.24
 20
280.466
 30
0.000000
  70
    32
  0
VERTEX
  8
0
  5
11961
 10
1263.87
 20
280.057
 30
0.000000
  70
    32
  0
VERTEX
  8
0
  5
11962
 10
1263.49
 20
279.658
 30
0.000000
  70
    32
  0
VERTEX
  8
0
  5
11963
 10
1263.09
 20
279.268
 30
0.000000
  70
    32
  0
VERTEX
  8
0
  5
11964
 10
1262.69
 20
278.887
 30
0.000000
  70
    32
  0
VERTEX
  8
0
  5
11965
 10
1262.27
 20
278.516
 30
0.000000
  70
    32
  0
VERTEX
  8
0
  5
11966
 10
1261.85
 20
278.155
 30
0.000000
  70
    32
  0
VERTEX
  8
0
  5
11967
 10
1261.42
 20
277.804
 30
0.000000
  70
    32
  0
VERTEX
  8
0
  5
11968
 10
1260.98
 20
277.463
 30
0.000000
  70
    32
  0
VERTEX
  8
0
  5
11969
 10
1260.53
 20
277.133
 30
0.000000
  70
    32
  0
VERTEX
  8
0
  5
1196A
 10
1260.07
 20
276.813
 30
0.000000
  70
    32
  0
VERTEX
  8
0
  5
1196B
 10
1259.61
 20
276.505
 30
0.000000
  70
    32
  0
VERTEX
  8
0
  5
1196C
 10
1259.13
 20
276.207
 30
0.000000
  70
    32
  0
VERTEX
  8
0
  5
1196D
 10
1258.65
 20
275.921
 30
0.000000
  70
    32
  0
VERTEX
  8
0
  5
1196E
 10
1258.17
 20
275.647
 30
0.000000
  70
    32
  0
VERTEX
  8
0
  5
1196F
 10
1257.67
 20
275.384
 30
0.000000
  70
    32
  0
VERTEX
  8
0
  5
11970
 10
1257.17
 20
275.133
 30
0.000000
  70
    32
  0
VERTEX
  8
0
  5
11971
 10
1256.66
 20
274.894
 30
0.000000
  70
    32
  0
VERTEX
  8
0
  5
11972
 10
1256.15
 20
274.667
 30
0.000000
  70
    32
  0
VERTEX
  8
0
  5
11973
 10
1255.63
 20
274.452
 30
0.000000
  70
    32
  0
VERTEX
  8
0
  5
11974
 10
1255.11
 20
274.249
 30
0.000000
  70
    32
  0
VERTEX
  8
0
  5
11975
 10
1254.58
 20
274.059
 30
0.000000
  70
    32
  0
VERTEX
  8
0
  5
11976
 10
1254.04
 20
273.882
 30
0.000000
  70
    32
  0
VERTEX
  8
0
  5
11977
 10
1253.51
 20
273.717
 30
0.000000
  70
    32
  0
VERTEX
  8
0
  5
11978
 10
1252.96
 20
273.565
 30
0.000000
  70
    32
  0
VERTEX
  8
0
  5
11979
 10
1252.42
 20
273.426
 30
0.000000
  70
    32
  0
VERTEX
  8
0
  5
1197A
 10
1251.87
 20
273.300
 30
0.000000
  70
    32
  0
VERTEX
  8
0
  5
1197B
 10
1251.32
 20
273.188
 30
0.000000
  70
    32
  0
VERTEX
  8
0
  5
1197C
 10
1250.76
 20
273.088
 30
0.000000
  70
    32
  0
VERTEX
  8
0
  5
1197D
 10
1250.20
 20
273.001
 30
0.000000
  70
    32
  0
VERTEX
  8
0
  5
1197E
 10
1249.64
 20
272.928
 30
0.000000
  70
    32
  0
VERTEX
  8
0
  5
1197F
 10
1249.08
 20
272.868
 30
0.000000
  70
    32
  0
VERTEX
  8
0
  5
11980
 10
1248.52
 20
272.821
 30
0.000000
  70
    32
  0
VERTEX
  8
0
  5
11981
 10
1247.96
 20
272.787
 30
0.000000
  70
    32
  0
VERTEX
  8
0
  5
11982
 10
1247.39
 20
272.767
 30
0.000000
  70
    32
  0
VERTEX
  8
0
  5
11983
 10
1246.83
 20
272.761
 30
0.000000
  70
    32
  0
SEQEND
  8
0
  5
11984
  0
LINE
  5
11336
  8
0
 10
969.77902290853115
 20
406.3376242628438
 30
0.0
 11
973.42229462348052
 21
406.33913465994351
 31
0.0
  0
LINE
  5
11337
  8
0
 10
809.42229462348041
 20
406.33913465994351
 30
0.0
 11
969.77902289148267
 21
406.3376242628438
 31
0.0
  0
LINE
  5
11338
  8
0
 10
806.4222946234803
 20
422.35914842886331
 30
0.0
 11
806.4222946234803
 21
409.33913465994351
 31
0.0
  0
LINE
  5
11339
  8
0
 10
976.42229462348041
 20
422.3591484288628
 30
0.0
 11
976.42229462348041
 21
409.33913465994351
 31
0.0
  0
ARC
  5
1133A
  8
0
 10
969.77902290853115
 20
401.3376242628438
 30
0.0
 40
5.0
 50
90.0
 51
160.70995378081381
  0
LINE
  5
1133B
  8
0
 10
823.23161788342702
 20
386.33762426284358
 30
0.0
 11
823.23161788342702
 21
375.86337616255878
 31
0.0
  0
LINE
  5
1133C
  8
0
 10
824.75722651211026
 20
375.30698715116512
 30
0.0
 11
957.07257426246952
 21
375.30698715116449
 31
0.0
  0
LINE
  5
1133D
  8
0
 10
817.40350464015273
 20
402.98937638648408
 30
0.0
 11
823.23161788342702
 21
386.33762426284369
 31
0.0
  0
ARC
  5
1133E
  8
0
 10
812.68421285832255
 20
401.33762426284369
 30
0.0
 40
5.0
 50
19.290046219186191
 51
90.0
  0
LINE
  5
1133F
  8
0
 10
959.23161788342725
 20
386.33762426284369
 30
0.0
 11
823.23161788342702
 21
386.3376242628438
 31
0.0
  0
LINE
  5
11340
  8
0
 10
959.23161788342725
 20
386.33762426284358
 30
0.0
 11
959.23161788342725
 21
375.86337616255889
 31
0.0
  0
LINE
  5
11341
  8
0
 10
965.05973112670108
 20
402.9893763864842
 30
0.0
 11
959.23161788342725
 21
386.33762426284369
 31
0.0
  0
ARC
  5
11342
  8
0
 10
828.23161788342713
 20
375.86337616255878
 30
0.0
 40
5.0
 50
180.0
 51
203.18678925275759
  0
ARC
  5
11343
  8
0
 10
954.23161788342713
 20
375.86337616255889
 30
0.0
 40
5.0
 50
336.81321074724229
 51
0.0
  0
LINE
  5
11344
  8
0
 10
832.03355783265079
 20
357.33762426284272
 30
0.0
 11
868.23161788342713
 21
357.33762426284272
 31
0.0
  0
LINE
  5
11345
  8
0
 10
914.23161788342713
 20
357.33762426284272
 30
0.0
 11
949.46525579401668
 21
357.33762426284272
 31
0.0
  0
ARC
  5
11346
  8
0
 10
973.42229462348052
 20
409.33913465994351
 30
0.0
 40
3.0
 50
270.0
 51
0.0
  0
ARC
  5
11347
  8
0
 10
809.42229462348041
 20
409.33913465994351
 30
0.0
 40
3.0
 50
180.0
 51
270.0
  0
LINE
  5
11348
  8
0
 10
992.7079321605861
 20
374.35914842886291
 30
0.0
 11
1000.42229462348
 21
374.35914842886291
 31
0.0
  0
LINE
  5
11349
  8
0
 10
1153.153836353978
 20
436.3391346599438
 30
0.0
 11
1235.092141759673
 21
436.3391346599438
 31
0.0
  0
LINE
  5
1134A
  8
0
 10
1258.5655309482829
 20
436.3391346599438
 30
0.0
 11
1340.5038363539779
 21
436.3391346599438
 31
0.0
  0
ARC
  5
1134B
  8
0
 10
1153.153836353978
 20
434.3391346599438
 30
0.0
 40
2.0
 50
90.0
 51
180.0
  0
LINE
  5
1134C
  8
0
 10
1151.153836353978
 20
422.3391346599438
 30
0.0
 11
1151.153836353978
 21
434.3391346599438
 31
0.0
  0
ARC
  5
1134D
  8
0
 10
1340.5038363539779
 20
434.3391346599438
 30
0.0
 40
2.0
 50
0.0
 51
90.0
  0
LINE
  5
1134E
  8
0
 10
1342.5038363539779
 20
422.3391346599438
 30
0.0
 11
1342.5038363539779
 21
434.3391346599438
 31
0.0
  0
LINE
  5
1134F
  8
0
 10
1157.828836353978
 20
445.35914842886342
 30
0.0
 11
1177.828836353978
 21
445.35914842886342
 31
0.0
  0
ARC
  5
11350
  8
0
 10
1177.828836353978
 20
444.35914842886342
 30
0.0
 40
1.0
 50
0.0
 51
90.0
  0
ARC
  5
11351
  8
0
 10
1162.328836353978
 20
429.73414842886569
 30
0.0
 40
15.62499999999774
 50
69.390307062476182
 51
110.6096929375238
  0
ARC
  5
11352
  8
0
 10
1173.328836353978
 20
429.73414842886569
 30
0.0
 40
15.62499999999774
 50
69.390307062476182
 51
110.6096929375238
  0
LINE
  5
11353
  8
0
 10
1207.328836353978
 20
444.35914842886302
 30
0.0
 11
1207.328836353978
 21
436.33913465994323
 31
0.0
  0
LINE
  5
11354
  8
0
 10
1218.328836353978
 20
444.35914842886302
 30
0.0
 11
1218.328836353978
 21
436.33913465994323
 31
0.0
  0
LINE
  5
11355
  8
0
 10
1196.328836353978
 20
444.35914842886302
 30
0.0
 11
1196.328836353978
 21
436.33913465994323
 31
0.0
  0
ARC
  5
11356
  8
0
 10
1197.328836353978
 20
444.35914842886302
 30
0.0
 40
1.0
 50
90.0
 51
180.0
  0
LINE
  5
11357
  8
0
 10
1197.328836353978
 20
445.35914842886291
 30
0.0
 11
1217.328836353978
 21
445.35914842886291
 31
0.0
  0
ARC
  5
11358
  8
0
 10
1217.328836353978
 20
444.35914842886302
 30
0.0
 40
1.0
 50
0.0
 51
90.0
  0
ARC
  5
11359
  8
0
 10
1201.828836353978
 20
429.73414842886518
 30
0.0
 40
15.62499999999774
 50
69.390307062476182
 51
110.6096929375238
  0
ARC
  5
1135A
  8
0
 10
1212.828836353978
 20
429.73414842886518
 30
0.0
 40
15.62499999999774
 50
69.390307062476182
 51
110.6096929375238
  0
LINE
  5
1135B
  8
0
 10
1286.3288363539791
 20
444.35914842886342
 30
0.0
 11
1286.328836353978
 21
436.3391346599438
 31
0.0
  0
LINE
  5
1135C
  8
0
 10
1297.3288363539791
 20
444.35914842886342
 30
0.0
 11
1297.328836353978
 21
436.3391346599438
 31
0.0
  0
LINE
  5
1135D
  8
0
 10
1275.328836353978
 20
444.35914842886342
 30
0.0
 11
1275.328836353978
 21
436.3391346599438
 31
0.0
  0
ARC
  5
1135E
  8
0
 10
1276.328836353978
 20
444.35914842886342
 30
0.0
 40
1.0
 50
90.0
 51
180.0
  0
LINE
  5
1135F
  8
0
 10
1276.328836353978
 20
445.35914842886342
 30
0.0
 11
1296.3288363539791
 21
445.35914842886342
 31
0.0
  0
ARC
  5
11360
  8
0
 10
1296.3288363539791
 20
444.35914842886342
 30
0.0
 40
1.0
 50
0.0
 51
90.0
  0
ARC
  5
11361
  8
0
 10
1280.8288363539791
 20
429.73414842886569
 30
0.0
 40
15.62499999999774
 50
69.390307062476182
 51
110.6096929375238
  0
ARC
  5
11362
  8
0
 10
1291.828836353978
 20
429.73414842886569
 30
0.0
 40
15.62499999999774
 50
69.390307062476182
 51
110.6096929375238
  0
LINE
  5
11363
  8
0
 10
1325.828836353978
 20
444.35914842886342
 30
0.0
 11
1325.828836353978
 21
436.3391346599438
 31
0.0
  0
LINE
  5
11364
  8
0
 10
1336.828836353978
 20
444.35914842886342
 30
0.0
 11
1336.828836353978
 21
436.3391346599438
 31
0.0
  0
LINE
  5
11365
  8
0
 10
1314.828836353978
 20
444.35914842886342
 30
0.0
 11
1314.828836353978
 21
436.3391346599438
 31
0.0
  0
ARC
  5
11366
  8
0
 10
1315.828836353978
 20
444.35914842886342
 30
0.0
 40
1.0
 50
90.0
 51
180.0
  0
LINE
  5
11367
  8
0
 10
1315.828836353978
 20
445.35914842886342
 30
0.0
 11
1335.828836353978
 21
445.35914842886342
 31
0.0
  0
ARC
  5
11368
  8
0
 10
1335.828836353978
 20
444.35914842886342
 30
0.0
 40
1.0
 50
0.0
 51
90.0
  0
ARC
  5
11369
  8
0
 10
1320.328836353978
 20
429.73414842886569
 30
0.0
 40
15.62499999999774
 50
69.390307062476182
 51
110.6096929375238
  0
ARC
  5
1136A
  8
0
 10
1331.328836353978
 20
429.73414842886569
 30
0.0
 40
15.62499999999774
 50
69.390307062476182
 51
110.6096929375238
  0
LINE
  5
1136B
  8
0
 10
1233.828836353978
 20
451.35914842886331
 30
0.0
 11
1259.828836353978
 21
451.35914842886331
 31
0.0
  0
ARC
  5
1136C
  8
0
 10
1246.8299723178729
 20
299.80595461636523
 30
0.0
 40
139.00100959519921
 50
97.282847498678393
 51
100.7685546183795
  0
ARC
  5
1136D
  8
0
 10
1228.828836353978
 20
440.66136214502649
 30
0.0
 40
3.0
 50
277.28284749867839
 51
0.0
  0
ARC
  5
1136E
  8
0
 10
1233.828836353978
 20
449.35914842886342
 30
0.0
 40
2.0
 50
90.0
 51
180.0
  0
LINE
  5
1136F
  8
0
 10
1231.828836353978
 20
440.66136214502649
 30
0.0
 11
1231.828836353978
 21
449.35914842886342
 31
0.0
  0
ARC
  5
11370
  8
0
 10
1259.828836353978
 20
449.35914842886342
 30
0.0
 40
2.0
 50
0.0
 51
90.0
  0
LINE
  5
11371
  8
0
 10
1261.828836353978
 20
447.85914842886342
 30
0.0
 11
1261.828836353978
 21
449.35914842886342
 31
0.0
  0
ARC
  5
11372
  8
0
 10
1246.827700390083
 20
299.80595461636523
 30
0.0
 40
139.00100959519921
 50
79.231445381620475
 51
82.717152501321607
  0
ARC
  5
11373
  8
0
 10
1264.828836353978
 20
440.66136214502649
 30
0.0
 40
3.0
 50
180.0
 51
262.71715250132161
  0
LINE
  5
11374
  8
0
 10
1261.828836353978
 20
440.66136214502649
 30
0.0
 11
1261.828836353978
 21
449.35914842886342
 31
0.0
  0
ARC
  5
11375
  8
0
 10
1246.828836353978
 20
436.83913465994368
 30
0.0
 40
9.0
 50
12.024699180566399
 51
90.0
  0
ARC
  5
11376
  8
0
 10
1258.5655309482829
 20
439.3391346599438
 30
0.0
 40
3.0
 50
192.02469918056639
 51
270.0
  0
ARC
  5
11378
  8
0
 10
1246.828836353978
 20
436.83913465994368
 30
0.0
 40
9.0
 50
90.0
 51
167.97530081943361
  0
ARC
  5
11379
  8
0
 10
1235.092141759673
 20
439.3391346599438
 30
0.0
 40
3.0
 50
270.0
 51
347.97530081943358
  0
LINE
  5
1137B
  8
0
 10
997.96235328558043
 20
301.9377198836325
 30
0.0
 11
999.16153807615001
 21
301.61634729833332
 31
0.0
  0
LINE
  5
1137C
  8
0
 10
992.62435328558013
 20
282.01441988363251
 30
0.0
 11
993.82283774268308
 21
281.6932984557065
 31
0.0
  0
LINE
  5
1137D
  8
0
 10
990.70135328558035
 20
303.88331988363251
 30
0.0
 11
989.50204213109146
 21
304.20466281651289
 31
0.0
  0
LINE
  5
1137E
  8
0
 10
1227.828836353978
 20
301.56191398039761
 30
0.0
 11
1246.828836353978
 21
311.88108656569688
 31
0.0
  0
LINE
  5
1137F
  8
0
 10
1246.828836353978
 20
313.88051988363242
 30
0.0
 11
1227.828836353978
 21
304.20466281651289
 31
0.0
  0
LINE
  5
11380
  8
0
 10
985.36335328558016
 20
283.96001988363253
 30
0.0
 11
984.16381752444875
 21
284.28142299752352
 31
0.0
  0
LINE
  5
11382
  8
0
 10
1227.828836353978
 20
282.37517821586749
 30
0.0
 11
1246.828836353978
 21
272.56059964379352
 31
0.0
  0
LINE
  5
11383
  8
0
 10
1246.828836353978
 20
313.88051988363242
 30
0.0
 11
1246.828836353978
 21
311.93551988363248
 31
0.0
  0
LINE
  5
11384
  8
0
 10
1227.828836353978
 20
304.20466281651289
 30
0.0
 11
1227.828836353978
 21
282.37517821586749
 31
0.0
  0
POLYLINE
  5
11385
  8
0
 10
1227.828836353978
 20
292.09165637419989
 30
0.0
 66
     1
 70
     8
  0
VERTEX
  8
0
  5
11985
 10
1227.83
 20
292.092
 30
0.000000
  70
    32
  0
VERTEX
  8
0
  5
11986
 10
1227.85
 20
291.263
 30
0.000000
  70
    32
  0
VERTEX
  8
0
  5
11987
 10
1227.92
 20
290.437
 30
0.000000
  70
    32
  0
VERTEX
  8
0
  5
11988
 10
1228.03
 20
289.614
 30
0.000000
  70
    32
  0
VERTEX
  8
0
  5
11989
 10
1228.19
 20
288.797
 30
0.000000
  70
    32
  0
VERTEX
  8
0
  5
1198A
 10
1228.40
 20
287.989
 30
0.000000
  70
    32
  0
VERTEX
  8
0
  5
1198B
 10
1228.65
 20
287.190
 30
0.000000
  70
    32
  0
VERTEX
  8
0
  5
1198C
 10
1228.94
 20
286.403
 30
0.000000
  70
    32
  0
VERTEX
  8
0
  5
1198D
 10
1229.28
 20
285.630
 30
0.000000
  70
    32
  0
VERTEX
  8
0
  5
1198E
 10
1229.65
 20
284.872
 30
0.000000
  70
    32
  0
VERTEX
  8
0
  5
1198F
 10
1230.07
 20
284.132
 30
0.000000
  70
    32
  0
VERTEX
  8
0
  5
11990
 10
1230.53
 20
283.411
 30
0.000000
  70
    32
  0
VERTEX
  8
0
  5
11991
 10
1231.03
 20
282.710
 30
0.000000
  70
    32
  0
VERTEX
  8
0
  5
11992
 10
1231.57
 20
282.033
 30
0.000000
  70
    32
  0
VERTEX
  8
0
  5
11993
 10
1232.14
 20
281.379
 30
0.000000
  70
    32
  0
VERTEX
  8
0
  5
11994
 10
1232.75
 20
280.752
 30
0.000000
  70
    32
  0
VERTEX
  8
0
  5
11995
 10
1233.39
 20
280.151
 30
0.000000
  70
    32
  0
VERTEX
  8
0
  5
11996
 10
1234.07
 20
279.580
 30
0.000000
  70
    32
  0
VERTEX
  8
0
  5
11997
 10
1234.78
 20
279.039
 30
0.000000
  70
    32
  0
VERTEX
  8
0
  5
11998
 10
1235.51
 20
278.529
 30
0.000000
  70
    32
  0
VERTEX
  8
0
  5
11999
 10
1236.27
 20
278.051
 30
0.000000
  70
    32
  0
VERTEX
  8
0
  5
1199A
 10
1237.06
 20
277.608
 30
0.000000
  70
    32
  0
VERTEX
  8
0
  5
1199B
 10
1237.87
 20
277.200
 30
0.000000
  70
    32
  0
VERTEX
  8
0
  5
1199C
 10
1238.71
 20
276.827
 30
0.000000
  70
    32
  0
VERTEX
  8
0
  5
1199D
 10
1239.56
 20
276.491
 30
0.000000
  70
    32
  0
VERTEX
  8
0
  5
1199E
 10
1240.43
 20
276.193
 30
0.000000
  70
    32
  0
VERTEX
  8
0
  5
1199F
 10
1241.31
 20
275.933
 30
0.000000
  70
    32
  0
VERTEX
  8
0
  5
119A0
 10
1242.21
 20
275.712
 30
0.000000
  70
    32
  0
VERTEX
  8
0
  5
119A1
 10
1243.12
 20
275.530
 30
0.000000
  70
    32
  0
VERTEX
  8
0
  5
119A2
 10
1244.04
 20
275.388
 30
0.000000
  70
    32
  0
VERTEX
  8
0
  5
119A3
 10
1244.97
 20
275.287
 30
0.000000
  70
    32
  0
VERTEX
  8
0
  5
119A4
 10
1245.90
 20
275.226
 30
0.000000
  70
    32
  0
VERTEX
  8
0
  5
119A5
 10
1246.83
 20
275.206
 30
0.000000
  70
    32
  0
VERTEX
  8
0
  5
119A6
 10
1247.76
 20
275.226
 30
0.000000
  70
    32
  0
VERTEX
  8
0
  5
119A7
 10
1248.69
 20
275.287
 30
0.000000
  70
    32
  0
VERTEX
  8
0
  5
119A8
 10
1249.62
 20
275.388
 30
0.000000
  70
    32
  0
VERTEX
  8
0
  5
119A9
 10
1250.54
 20
275.530
 30
0.000000
  70
    32
  0
VERTEX
  8
0
  5
119AA
 10
1251.45
 20
275.712
 30
0.000000
  70
    32
  0
VERTEX
  8
0
  5
119AB
 10
1252.34
 20
275.933
 30
0.000000
  70
    32
  0
VERTEX
  8
0
  5
119AC
 10
1253.23
 20
276.193
 30
0.000000
  70
    32
  0
VERTEX
  8
0
  5
119AD
 10
1254.10
 20
276.491
 30
0.000000
  70
    32
  0
VERTEX
  8
0
  5
119AE
 10
1254.95
 20
276.827
 30
0.000000
  70
    32
  0
VERTEX
  8
0
  5
119AF
 10
1255.79
 20
277.200
 30
0.000000
  70
    32
  0
VERTEX
  8
0
  5
119B0
 10
1256.60
 20
277.608
 30
0.000000
  70
    32
  0
VERTEX
  8
0
  5
119B1
 10
1257.38
 20
278.051
 30
0.000000
  70
    32
  0
VERTEX
  8
0
  5
119B2
 10
1258.15
 20
278.529
 30
0.000000
  70
    32
  0
VERTEX
  8
0
  5
119B3
 10
1258.88
 20
279.039
 30
0.000000
  70
    32
  0
VERTEX
  8
0
  5
119B4
 10
1259.59
 20
279.580
 30
0.000000
  70
    32
  0
VERTEX
  8
0
  5
119B5
 10
1260.26
 20
280.151
 30
0.000000
  70
    32
  0
VERTEX
  8
0
  5
119B6
 10
1260.91
 20
280.752
 30
0.000000
  70
    32
  0
VERTEX
  8
0
  5
119B7
 10
1261.52
 20
281.379
 30
0.000000
  70
    32
  0
VERTEX
  8
0
  5
119B8
 10
1262.09
 20
282.033
 30
0.000000
  70
    32
  0
VERTEX
  8
0
  5
119B9
 10
1262.63
 20
282.710
 30
0.000000
  70
    32
  0
VERTEX
  8
0
  5
119BA
 10
1263.13
 20
283.411
 30
0.000000
  70
    32
  0
VERTEX
  8
0
  5
119BB
 10
1263.59
 20
284.132
 30
0.000000
  70
    32
  0
VERTEX
  8
0
  5
119BC
 10
1264.00
 20
284.872
 30
0.000000
  70
    32
  0
VERTEX
  8
0
  5
119BD
 10
1264.38
 20
285.630
 30
0.000000
  70
    32
  0
VERTEX
  8
0
  5
119BE
 10
1264.72
 20
286.403
 30
0.000000
  70
    32
  0
VERTEX
  8
0
  5
119BF
 10
1265.01
 20
287.190
 30
0.000000
  70
    32
  0
VERTEX
  8
0
  5
119C0
 10
1265.26
 20
287.989
 30
0.000000
  70
    32
  0
VERTEX
  8
0
  5
119C1
 10
1265.46
 20
288.797
 30
0.000000
  70
    32
  0
VERTEX
  8
0
  5
119C2
 10
1265.62
 20
289.614
 30
0.000000
  70
    32
  0
VERTEX
  8
0
  5
119C3
 10
1265.74
 20
290.437
 30
0.000000
  70
    32
  0
VERTEX
  8
0
  5
119C4
 10
1265.81
 20
291.263
 30
0.000000
  70
    32
  0
VERTEX
  8
0
  5
119C5
 10
1265.83
 20
292.092
 30
0.000000
  70
    32
  0
VERTEX
  8
0
  5
119C6
 10
1265.81
 20
292.920
 30
0.000000
  70
    32
  0
VERTEX
  8
0
  5
119C7
 10
1265.74
 20
293.747
 30
0.000000
  70
    32
  0
VERTEX
  8
0
  5
119C8
 10
1265.62
 20
294.569
 30
0.000000
  70
    32
  0
VERTEX
  8
0
  5
119C9
 10
1265.46
 20
295.386
 30
0.000000
  70
    32
  0
VERTEX
  8
0
  5
119CA
 10
1265.26
 20
296.195
 30
0.000000
  70
    32
  0
VERTEX
  8
0
  5
119CB
 10
1265.01
 20
296.993
 30
0.000000
  70
    32
  0
VERTEX
  8
0
  5
119CC
 10
1264.72
 20
297.780
 30
0.000000
  70
    32
  0
VERTEX
  8
0
  5
119CD
 10
1264.38
 20
298.554
 30
0.000000
  70
    32
  0
VERTEX
  8
0
  5
119CE
 10
1264.00
 20
299.311
 30
0.000000
  70
    32
  0
VERTEX
  8
0
  5
119CF
 10
1263.59
 20
300.052
 30
0.000000
  70
    32
  0
VERTEX
  8
0
  5
119D0
 10
1263.13
 20
300.773
 30
0.000000
  70
    32
  0
VERTEX
  8
0
  5
119D1
 10
1262.63
 20
301.473
 30
0.000000
  70
    32
  0
VERTEX
  8
0
  5
119D2
 10
1262.09
 20
302.151
 30
0.000000
  70
    32
  0
VERTEX
  8
0
  5
119D3
 10
1261.52
 20
302.804
 30
0.000000
  70
    32
  0
VERTEX
  8
0
  5
119D4
 10
1260.91
 20
303.432
 30
0.000000
  70
    32
  0
VERTEX
  8
0
  5
119D5
 10
1260.26
 20
304.032
 30
0.000000
  70
    32
  0
VERTEX
  8
0
  5
119D6
 10
1259.59
 20
304.603
 30
0.000000
  70
    32
  0
VERTEX
  8
0
  5
119D7
 10
1258.88
 20
305.145
 30
0.000000
  70
    32
  0
VERTEX
  8
0
  5
119D8
 10
1258.15
 20
305.655
 30
0.000000
  70
    32
  0
VERTEX
  8
0
  5
119D9
 10
1257.38
 20
306.132
 30
0.000000
  70
    32
  0
VERTEX
  8
0
  5
119DA
 10
1256.60
 20
306.575
 30
0.000000
  70
    32
  0
VERTEX
  8
0
  5
119DB
 10
1255.79
 20
306.984
 30
0.000000
  70
    32
  0
VERTEX
  8
0
  5
119DC
 10
1254.95
 20
307.356
 30
0.000000
  70
    32
  0
VERTEX
  8
0
  5
119DD
 10
1254.10
 20
307.692
 30
0.000000
  70
    32
  0
VERTEX
  8
0
  5
119DE
 10
1253.23
 20
307.991
 30
0.000000
  70
    32
  0
VERTEX
  8
0
  5
119DF
 10
1252.34
 20
308.251
 30
0.000000
  70
    32
  0
VERTEX
  8
0
  5
119E0
 10
1251.45
 20
308.472
 30
0.000000
  70
    32
  0
VERTEX
  8
0
  5
119E1
 10
1250.54
 20
308.653
 30
0.000000
  70
    32
  0
VERTEX
  8
0
  5
119E2
 10
1249.62
 20
308.795
 30
0.000000
  70
    32
  0
VERTEX
  8
0
  5
119E3
 10
1248.69
 20
308.896
 30
0.000000
  70
    32
  0
VERTEX
  8
0
  5
119E4
 10
1247.76
 20
308.957
 30
0.000000
  70
    32
  0
VERTEX
  8
0
  5
119E5
 10
1246.83
 20
308.978
 30
0.000000
  70
    32
  0
VERTEX
  8
0
  5
119E6
 10
1245.90
 20
308.957
 30
0.000000
  70
    32
  0
VERTEX
  8
0
  5
119E7
 10
1244.97
 20
308.896
 30
0.000000
  70
    32
  0
VERTEX
  8
0
  5
119E8
 10
1244.04
 20
308.795
 30
0.000000
  70
    32
  0
VERTEX
  8
0
  5
119E9
 10
1243.12
 20
308.653
 30
0.000000
  70
    32
  0
VERTEX
  8
0
  5
119EA
 10
1242.21
 20
308.472
 30
0.000000
  70
    32
  0
VERTEX
  8
0
  5
119EB
 10
1241.31
 20
308.251
 30
0.000000
  70
    32
  0
VERTEX
  8
0
  5
119EC
 10
1240.43
 20
307.991
 30
0.000000
  70
    32
  0
VERTEX
  8
0
  5
119ED
 10
1239.56
 20
307.692
 30
0.000000
  70
    32
  0
VERTEX
  8
0
  5
119EE
 10
1238.71
 20
307.356
 30
0.000000
  70
    32
  0
VERTEX
  8
0
  5
119EF
 10
1237.87
 20
306.984
 30
0.000000
  70
    32
  0
VERTEX
  8
0
  5
119F0
 10
1237.06
 20
306.575
 30
0.000000
  70
    32
  0
VERTEX
  8
0
  5
119F1
 10
1236.27
 20
306.132
 30
0.000000
  70
    32
  0
VERTEX
  8
0
  5
119F2
 10
1235.51
 20
305.655
 30
0.000000
  70
    32
  0
VERTEX
  8
0
  5
119F3
 10
1234.78
 20
305.145
 30
0.000000
  70
    32
  0
VERTEX
  8
0
  5
119F4
 10
1234.07
 20
304.603
 30
0.000000
  70
    32
  0
VERTEX
  8
0
  5
119F5
 10
1233.39
 20
304.032
 30
0.000000
  70
    32
  0
VERTEX
  8
0
  5
119F6
 10
1232.75
 20
303.432
 30
0.000000
  70
    32
  0
VERTEX
  8
0
  5
119F7
 10
1232.14
 20
302.804
 30
0.000000
  70
    32
  0
VERTEX
  8
0
  5
119F8
 10
1231.57
 20
302.151
 30
0.000000
  70
    32
  0
VERTEX
  8
0
  5
119F9
 10
1231.03
 20
301.473
 30
0.000000
  70
    32
  0
VERTEX
  8
0
  5
119FA
 10
1230.53
 20
300.773
 30
0.000000
  70
    32
  0
VERTEX
  8
0
  5
119FB
 10
1230.07
 20
300.052
 30
0.000000
  70
    32
  0
VERTEX
  8
0
  5
119FC
 10
1229.65
 20
299.311
 30
0.000000
  70
    32
  0
VERTEX
  8
0
  5
119FD
 10
1229.28
 20
298.554
 30
0.000000
  70
    32
  0
VERTEX
  8
0
  5
119FE
 10
1228.94
 20
297.780
 30
0.000000
  70
    32
  0
VERTEX
  8
0
  5
119FF
 10
1228.65
 20
296.993
 30
0.000000
  70
    32
  0
VERTEX
  8
0
  5
11A00
 10
1228.40
 20
296.195
 30
0.000000
  70
    32
  0
VERTEX
  8
0
  5
11A01
 10
1228.19
 20
295.386
 30
0.000000
  70
    32
  0
VERTEX
  8
0
  5
11A02
 10
1228.03
 20
294.569
 30
0.000000
  70
    32
  0
VERTEX
  8
0
  5
11A03
 10
1227.92
 20
293.747
 30
0.000000
  70
    32
  0
VERTEX
  8
0
  5
11A04
 10
1227.85
 20
292.920
 30
0.000000
  70
    32
  0
VERTEX
  8
0
  5
11A05
 10
1227.83
 20
292.092
 30
0.000000
  70
    32
  0
SEQEND
  8
0
  5
11A06
  0
LINE
  5
11386
  8
0
 10
1265.828836353978
 20
301.56191398039778
 30
0.0
 11
1246.828836353978
 21
311.88108656569688
 31
0.0
  0
LINE
  5
11387
  8
0
 10
1246.828836353978
 20
313.88051988363242
 30
0.0
 11
1265.828836353978
 21
304.20466281651301
 31
0.0
  0
LINE
  5
11388
  8
0
 10
1265.828836353978
 20
282.37517821586772
 30
0.0
 11
1246.828836353978
 21
272.56059964379352
 31
0.0
  0
LINE
  5
11389
  8
0
 10
1265.828836353978
 20
304.20466281651301
 30
0.0
 11
1265.828836353978
 21
282.37517821586761
 31
0.0
  0
LINE
  5
1138A
  8
0
 10
1325.3762413790821
 20
406.33913465994351
 30
0.0
 11
1339.5038363539779
 21
406.33913465994351
 31
0.0
  0
LINE
  5
1138B
  8
0
 10
1154.153836353978
 20
406.33913465994351
 30
0.0
 11
1168.2814313288741
 21
406.33913465994351
 31
0.0
  0
LINE
  5
1138C
  8
0
 10
992.07893595986025
 20
410.33913465994311
 30
0.0
 11
979.80943887691774
 21
410.33913465994311
 31
0.0
  0
LINE
  5
1138D
  8
0
 10
992.07893595986025
 20
384.33913465994311
 30
0.0
 11
979.80943887691774
 21
384.33913465994311
 31
0.0
  0
LINE
  5
1138E
  8
0
 10
396.18892064902178
 20
444.35914842886342
 30
0.0
 11
396.18892064902138
 21
436.3391346599438
 31
0.0
  0
LINE
  5
1138F
  8
0
 10
407.18892064902133
 20
444.35914842886342
 30
0.0
 11
407.18892064902133
 21
436.3391346599438
 31
0.0
  0
LINE
  5
11390
  8
0
 10
385.18892064902138
 20
444.35914842886342
 30
0.0
 11
385.18892064902138
 21
436.3391346599438
 31
0.0
  0
ARC
  5
11391
  8
0
 10
386.18892064902138
 20
444.35914842886342
 30
0.0
 40
1.0
 50
90.0
 51
180.0
  0
LINE
  5
11392
  8
0
 10
488.18892064902133
 20
418.33913465994311
 30
0.0
 11
488.18892064902133
 21
416.31280062095328
 31
0.0
  0
ARC
  5
11393
  8
0
 10
486.18892064902133
 20
418.33913465994311
 30
0.0
 40
2.0
 50
0.0
 51
90.0
  0
LINE
  5
11394
  8
0
 10
462.18892064902133
 20
418.33913465994311
 30
0.0
 11
462.18892064902133
 21
416.31280062095328
 31
0.0
  0
LINE
  5
11395
  8
0
 10
452.18892064902138
 20
408.33913465994311
 30
0.0
 11
452.18892064902138
 21
386.33913465994311
 31
0.0
  0
LINE
  5
11396
  8
0
 10
420.18892064902133
 20
294.38178843545597
 30
0.0
 11
420.18892064902133
 21
262.3591484288628
 31
0.0
  0
LINE
  5
11397
  8
0
 10
570.86392064902145
 20
422.33913465994362
 30
0.0
 11
570.86392064902145
 21
409.33913465994351
 31
0.0
  0
ARC
  5
11398
  8
0
 10
567.86392064902145
 20
409.33913465994351
 30
0.0
 40
3.0
 50
270.0
 51
0.0
  0
LINE
  5
11399
  8
0
 10
379.5139206490212
 20
422.33913465994362
 30
0.0
 11
379.51392064902171
 21
409.33913465994351
 31
0.0
  0
LINE
  5
1139A
  8
0
 10
396.64151562391731
 20
406.33913465994351
 30
0.0
 11
452.18892064902138
 21
406.33913465994351
 31
0.0
  0
LINE
  5
1139B
  8
0
 10
407.18892064902133
 20
386.33913465994362
 30
0.0
 11
452.18892064902138
 21
386.33913465994362
 31
0.0
  0
ARC
  5
1139C
  8
0
 10
382.5139206490212
 20
409.33913465994351
 30
0.0
 40
3.0
 50
180.0
 51
270.0
  0
LINE
  5
1139D
  8
0
 10
454.18892064902133
 20
384.33913465994311
 30
0.0
 11
456.2152546880111
 21
384.33913465994311
 31
0.0
  0
ARC
  5
1139E
  8
0
 10
454.18892064902133
 20
386.33913465994311
 30
0.0
 40
2.0
 50
180.0
 51
270.0
  0
LINE
  5
1139F
  8
0
 10
454.18892064902133
 20
410.33913465994311
 30
0.0
 11
456.2152546880111
 21
410.33913465994311
 31
0.0
  0
ARC
  5
113A0
  8
0
 10
454.18892064902133
 20
408.33913465994311
 30
0.0
 40
2.0
 50
90.0
 51
180.0
  0
LINE
  5
113A1
  8
0
 10
553.7363256741254
 20
406.33913465994351
 30
0.0
 11
498.18892064902138
 21
406.33913465994362
 31
0.0
  0
ARC
  5
113A2
  8
0
 10
553.7363256741254
 20
401.33913465994351
 30
0.0
 40
5.0
 50
90.0
 51
160.70995378081381
  0
LINE
  5
113A3
  8
0
 10
407.18892064902133
 20
386.33913465994362
 30
0.0
 11
407.18892064902133
 21
375.86488655965871
 31
0.0
  0
CIRCLE
  5
113A4
  8
0
 10
475.18892064902133
 20
397.33913465994311
 30
0.0
 40
23.0
  0
LINE
  5
113A5
  8
0
 10
423.18892064902138
 20
259.35914842886268
 30
0.0
 11
475.46635499206371
 21
259.35914842886302
 31
0.0
  0
ARC
  5
113A6
  8
0
 10
423.18892064902138
 20
262.3591484288628
 30
0.0
 40
3.0
 50
180.0
 51
270.0
  0
LINE
  5
113A7
  8
0
 10
530.18892064902138
 20
294.38178843545597
 30
0.0
 11
530.18892064902138
 21
262.3591484288628
 31
0.0
  0
LINE
  5
113A8
  8
0
 10
527.18892064902138
 20
259.35914842886268
 30
0.0
 11
474.91148630597939
 21
259.35914842886302
 31
0.0
  0
ARC
  5
113A9
  8
0
 10
527.18892064902138
 20
262.3591484288628
 30
0.0
 40
3.0
 50
270.0
 51
0.0
  0
LINE
  5
113AA
  8
0
 10
408.71452927770503
 20
375.30849754826539
 30
0.0
 11
541.02987702806411
 21
375.3084975482646
 31
0.0
  0
LINE
  5
113AB
  8
0
 10
401.36080740574738
 20
402.99088678358407
 30
0.0
 11
407.18892064902133
 21
386.33913465994362
 31
0.0
  0
ARC
  5
113AC
  8
0
 10
396.64151562391731
 20
401.33913465994351
 30
0.0
 40
5.0
 50
19.290046219186191
 51
90.0
  0
LINE
  5
113AD
  8
0
 10
543.18892064902138
 20
386.33913465994362
 30
0.0
 11
498.18892064902138
 21
386.33913465994362
 31
0.0
  0
LINE
  5
113AE
  8
0
 10
543.18892064902138
 20
386.33913465994362
 30
0.0
 11
543.18892064902138
 21
375.86488655965883
 31
0.0
  0
LINE
  5
113AF
  8
0
 10
549.01703389229533
 20
402.99088678358407
 30
0.0
 11
543.18892064902138
 21
386.33913465994362
 31
0.0
  0
LINE
  5
113B0
  8
0
 10
414.68892064902138
 20
356.3035137611854
 30
0.0
 11
414.68892064902138
 21
315.74440164065442
 31
0.0
  0
ARC
  5
113B1
  8
0
 10
475.05020347748717
 20
319.83897552592339
 30
0.0
 40
60.5
 50
183.88068213316919
 51
268.52035949833709
  0
ARC
  5
113B2
  8
0
 10
409.68892064902138
 20
356.3035137611854
 30
0.0
 40
5.0
 50
0.0
 51
23.403750738188101
  0
LINE
  5
113B3
  8
0
 10
407.59278991693822
 20
373.89623669398929
 30
0.0
 11
414.2775637756817
 21
358.28955360372458
 31
0.0
  0
ARC
  5
113B4
  8
0
 10
412.18892064902133
 20
375.86488655965883
 30
0.0
 40
5.0
 50
180.0
 51
203.18678925275759
  0
LINE
  5
113B5
  8
0
 10
535.68892064902138
 20
356.3034227151494
 30
0.0
 11
535.68892064902138
 21
315.74440164065442
 31
0.0
  0
ARC
  5
113B6
  8
0
 10
540.68892064902127
 20
356.3034227151494
 30
0.0
 40
5.0
 50
156.81321074724241
 51
180.0
  0
LINE
  5
113B7
  8
0
 10
542.78505138110438
 20
373.89623669398929
 30
0.0
 11
536.09278991693816
 21
358.2720725808191
 31
0.0
  0
ARC
  5
113B8
  8
0
 10
538.18892064902127
 20
375.86488655965883
 30
0.0
 40
5.0
 50
336.81321074724229
 51
0.0
  0
ARC
  5
113B9
  8
0
 10
475.32763782055548
 20
319.83897552592339
 30
0.0
 40
60.5
 50
271.47964050166291
 51
356.11931786683078
  0
LINE
  5
113BA
  8
0
 10
415.99086059824549
 20
357.3391346599426
 30
0.0
 11
533.42255855961128
 21
357.3391346599426
 31
0.0
  0
LINE
  5
113BB
  8
0
 10
498.18892064902138
 20
408.33913465994311
 30
0.0
 11
498.18892064902138
 21
386.33913465994311
 31
0.0
  0
LINE
  5
113BC
  8
0
 10
496.18892064902133
 20
384.33913465994311
 30
0.0
 11
494.16258661003161
 21
384.33913465994311
 31
0.0
  0
ARC
  5
113BD
  8
0
 10
496.18892064902133
 20
386.33913465994311
 30
0.0
 40
2.0
 50
270.0
 51
0.0
  0
LINE
  5
113BE
  8
0
 10
496.18892064902133
 20
410.33913465994311
 30
0.0
 11
494.16258661003161
 21
410.33913465994311
 31
0.0
  0
ARC
  5
113BF
  8
0
 10
496.18892064902133
 20
408.33913465994311
 30
0.0
 40
2.0
 50
0.0
 51
90.0
  0
LINE
  5
113C0
  8
0
 10
486.18892064902133
 20
420.339134659943
 30
0.0
 11
464.18892064902138
 21
420.339134659943
 31
0.0
  0
ARC
  5
113C1
  8
0
 10
464.18892064902138
 20
418.33913465994311
 30
0.0
 40
2.0
 50
90.0
 51
180.0
  0
LINE
  5
113C2
  8
0
 10
488.18892064902133
 20
376.33913465994328
 30
0.0
 11
488.18892064902133
 21
378.36546869893311
 31
0.0
  0
ARC
  5
113C3
  8
0
 10
486.18892064902133
 20
376.33913465994328
 30
0.0
 40
2.0
 50
270.0
 51
0.0
  0
LINE
  5
113C4
  8
0
 10
462.18892064902133
 20
376.33913465994328
 30
0.0
 11
462.18892064902133
 21
378.36546869893311
 31
0.0
  0
LINE
  5
113C5
  8
0
 10
486.18892064902133
 20
374.33913465994328
 30
0.0
 11
464.18892064902138
 21
374.33913465994328
 31
0.0
  0
ARC
  5
113C6
  8
0
 10
464.18892064902138
 20
376.33913465994328
 30
0.0
 40
2.0
 50
180.0
 51
270.0
  0
LINE
  5
113C7
  8
0
 10
379.5139206490212
 20
422.33913465994351
 30
0.0
 11
570.86392064902145
 21
422.33913465994351
 31
0.0
  0
CIRCLE
  5
113C8
  8
0
 10
475.18892064902133
 20
397.33913465994311
 30
0.0
 40
21.999999999999719
  0
CIRCLE
  5
113C9
  8
0
 10
475.18892064902133
 20
397.33913465994311
 30
0.0
 40
15.14592092430007
  0
CIRCLE
  5
113CA
  8
0
 10
475.18892064902133
 20
397.33913465994311
 30
0.0
 40
16.624500000000069
  0
LINE
  5
113CB
  8
0
 10
381.5139206490212
 20
436.3391346599438
 30
0.0
 11
568.86392064902145
 21
436.3391346599438
 31
0.0
  0
ARC
  5
113CC
  8
0
 10
381.5139206490212
 20
434.3391346599438
 30
0.0
 40
2.0
 50
90.0
 51
180.0
  0
LINE
  5
113CD
  8
0
 10
379.5139206490212
 20
422.3391346599438
 30
0.0
 11
379.5139206490212
 21
434.3391346599438
 31
0.0
  0
ARC
  5
113CE
  8
0
 10
568.86392064902145
 20
434.3391346599438
 30
0.0
 40
2.0
 50
0.0
 51
90.0
  0
LINE
  5
113CF
  8
0
 10
570.86392064902145
 20
422.3391346599438
 30
0.0
 11
570.86392064902145
 21
434.3391346599438
 31
0.0
  0
LINE
  5
113D0
  8
0
 10
386.18892064902138
 20
445.35914842886342
 30
0.0
 11
406.18892064902138
 21
445.35914842886342
 31
0.0
  0
ARC
  5
113D1
  8
0
 10
406.18892064902138
 20
444.35914842886342
 30
0.0
 40
1.0
 50
0.0
 51
90.0
  0
ARC
  5
113D2
  8
0
 10
390.68892064902138
 20
429.73414842886569
 30
0.0
 40
15.62499999999774
 50
69.39030706244877
 51
110.6096929375512
  0
ARC
  5
113D3
  8
0
 10
401.68892064902138
 20
429.73414842886569
 30
0.0
 40
15.62499999999774
 50
69.39030706244877
 51
110.6096929375512
  0
LINE
  5
113D4
  8
0
 10
435.68892064902178
 20
444.35914842886302
 30
0.0
 11
435.68892064902138
 21
436.33913465994323
 31
0.0
  0
LINE
  5
113D5
  8
0
 10
446.68892064902138
 20
444.35914842886302
 30
0.0
 11
446.68892064902138
 21
436.33913465994323
 31
0.0
  0
LINE
  5
113D6
  8
0
 10
424.68892064902133
 20
444.35914842886302
 30
0.0
 11
424.68892064902133
 21
436.33913465994323
 31
0.0
  0
ARC
  5
113D7
  8
0
 10
425.68892064902133
 20
444.35914842886302
 30
0.0
 40
1.0
 50
90.0
 51
180.0
  0
LINE
  5
113D8
  8
0
 10
425.68892064902133
 20
445.35914842886291
 30
0.0
 11
445.68892064902133
 21
445.35914842886291
 31
0.0
  0
ARC
  5
113D9
  8
0
 10
445.68892064902133
 20
444.35914842886302
 30
0.0
 40
1.0
 50
0.0
 51
90.0
  0
ARC
  5
113DA
  8
0
 10
430.18892064902138
 20
429.73414842886518
 30
0.0
 40
15.62499999999774
 50
69.39030706244877
 51
110.6096929375512
  0
ARC
  5
113DB
  8
0
 10
441.18892064902133
 20
429.73414842886518
 30
0.0
 40
15.62499999999774
 50
69.39030706244877
 51
110.6096929375512
  0
LINE
  5
113DC
  8
0
 10
514.68892064902218
 20
444.35914842886342
 30
0.0
 11
514.68892064902138
 21
436.3391346599438
 31
0.0
  0
LINE
  5
113DD
  8
0
 10
525.68892064902127
 20
444.35914842886342
 30
0.0
 11
525.68892064902127
 21
436.3391346599438
 31
0.0
  0
LINE
  5
113DE
  8
0
 10
503.68892064902133
 20
444.35914842886342
 30
0.0
 11
503.68892064902133
 21
436.3391346599438
 31
0.0
  0
ARC
  5
113DF
  8
0
 10
504.68892064902133
 20
444.35914842886342
 30
0.0
 40
1.0
 50
90.0
 51
180.0
  0
LINE
  5
113E0
  8
0
 10
504.68892064902133
 20
445.35914842886342
 30
0.0
 11
524.68892064902127
 21
445.35914842886342
 31
0.0
  0
ARC
  5
113E1
  8
0
 10
524.68892064902127
 20
444.35914842886342
 30
0.0
 40
1.0
 50
0.0
 51
90.0
  0
ARC
  5
113E2
  8
0
 10
509.18892064902138
 20
429.73414842886569
 30
0.0
 40
15.62499999999774
 50
69.39030706244877
 51
110.6096929375512
  0
ARC
  5
113E3
  8
0
 10
520.18892064902127
 20
429.73414842886569
 30
0.0
 40
15.62499999999774
 50
69.39030706244877
 51
110.6096929375512
  0
LINE
  5
113E4
  8
0
 10
554.18892064902184
 20
444.35914842886342
 30
0.0
 11
554.18892064902127
 21
436.3391346599438
 31
0.0
  0
LINE
  5
113E5
  8
0
 10
565.18892064902127
 20
444.35914842886342
 30
0.0
 11
565.18892064902127
 21
436.3391346599438
 31
0.0
  0
LINE
  5
113E6
  8
0
 10
543.18892064902138
 20
444.35914842886342
 30
0.0
 11
543.18892064902138
 21
436.3391346599438
 31
0.0
  0
ARC
  5
113E7
  8
0
 10
544.18892064902138
 20
444.35914842886342
 30
0.0
 40
1.0
 50
90.0
 51
180.0
  0
LINE
  5
113E8
  8
0
 10
544.18892064902138
 20
445.35914842886342
 30
0.0
 11
564.18892064902138
 21
445.35914842886342
 31
0.0
  0
ARC
  5
113E9
  8
0
 10
564.18892064902138
 20
444.35914842886342
 30
0.0
 40
1.0
 50
0.0
 51
90.0
  0
ARC
  5
113EA
  8
0
 10
548.68892064902127
 20
429.73414842886569
 30
0.0
 40
15.62499999999774
 50
69.39030706244877
 51
110.6096929375512
  0
ARC
  5
113EB
  8
0
 10
559.68892064902138
 20
429.73414842886569
 30
0.0
 40
15.62499999999774
 50
69.39030706244877
 51
110.6096929375512
  0
LINE
  5
113EC
  8
0
 10
462.18892064902133
 20
451.35914842886331
 30
0.0
 11
488.18892064902133
 21
451.35914842886331
 31
0.0
  0
ARC
  5
113ED
  8
0
 10
475.19005661291652
 20
299.80595461636523
 30
0.0
 40
139.00100959519921
 50
97.282847498678393
 51
100.7685546183795
  0
ARC
  5
113EE
  8
0
 10
457.18892064902133
 20
440.66136214502649
 30
0.0
 40
3.0
 50
277.28284749867839
 51
0.0
  0
ARC
  5
113EF
  8
0
 10
462.18892064902133
 20
449.35914842886342
 30
0.0
 40
2.0
 50
90.0
 51
180.0
  0
LINE
  5
113F0
  8
0
 10
460.18892064902138
 20
440.66136214502649
 30
0.0
 11
460.18892064902138
 21
449.35914842886342
 31
0.0
  0
ARC
  5
113F1
  8
0
 10
488.18892064902133
 20
449.35914842886342
 30
0.0
 40
2.0
 50
0.0
 51
90.0
  0
LINE
  5
113F2
  8
0
 10
490.18892064902133
 20
447.85914842886342
 30
0.0
 11
490.18892064902133
 21
449.35914842886342
 31
0.0
  0
ARC
  5
113F3
  8
0
 10
475.18778468512619
 20
299.80595461636523
 30
0.0
 40
139.00100959519921
 50
79.231445381620475
 51
82.717152501321607
  0
ARC
  5
113F4
  8
0
 10
493.18892064902138
 20
440.66136214502649
 30
0.0
 40
3.0
 50
180.0
 51
262.71715250132161
  0
LINE
  5
113F5
  8
0
 10
490.18892064902133
 20
440.66136214502649
 30
0.0
 11
490.18892064902133
 21
449.35914842886342
 31
0.0
  0
LINE
  5
113F6
  8
0
 10
553.7363256741254
 20
406.33913465994351
 30
0.0
 11
567.86392064902145
 21
406.33913465994351
 31
0.0
  0
LINE
  5
113F7
  8
0
 10
382.5139206490212
 20
406.33913465994351
 30
0.0
 11
396.64151562391731
 21
406.33913465994351
 31
0.0
  0
LINE
  5
113F8
  8
0
 10
812.65245175676046
 20
686.26088024374155
 30
0.0
 11
830.65245175676046
 21
686.26088024374155
 31
0.0
  0
ARC
  5
113F9
  8
0
 10
812.65245175676046
 20
685.26088024374155
 30
0.0
 40
1.0
 50
90.0
 51
180.0
  0
LINE
  5
113FA
  8
0
 10
1000.068458655731
 20
692.51088024374155
 30
0.0
 11
1000.068458655731
 21
670.51088024374167
 31
0.0
  0
LINE
  5
113FB
  8
0
 10
999.06845865573086
 20
693.51088024374155
 30
0.0
 11
1000.068458655731
 21
692.51088024374155
 31
0.0
  0
LINE
  5
113FC
  8
0
 10
999.06845865573086
 20
693.51088024374155
 30
0.0
 11
975.06845865573086
 21
693.51088024374155
 31
0.0
  0
LINE
  5
113FD
  8
0
 10
999.06845865573086
 20
693.51088024374155
 30
0.0
 11
999.06845865573086
 21
670.51088024374167
 31
0.0
  0
LINE
  5
113FE
  8
0
 10
780.06845865573075
 20
692.51088024374212
 30
0.0
 11
780.06845865573075
 21
670.51088024374167
 31
0.0
  0
LINE
  5
113FF
  8
0
 10
781.06845865573075
 20
693.51088024374212
 30
0.0
 11
805.06845865573075
 21
693.51088024374212
 31
0.0
  0
LINE
  5
11400
  8
0
 10
780.06845865573075
 20
692.51088024374212
 30
0.0
 11
781.06845865573075
 21
693.51088024374212
 31
0.0
  0
LINE
  5
11401
  8
0
 10
781.06845865573075
 20
693.51088024374212
 30
0.0
 11
781.06845865573075
 21
670.51088024374167
 31
0.0
  0
LINE
  5
11402
  8
0
 10
903.02994005254641
 20
679.51088024374155
 30
0.0
 11
975.06845865573086
 21
679.51088024374155
 31
0.0
  0
ARC
  5
11403
  8
0
 10
890.06845865573086
 20
670.51088024374167
 30
0.0
 40
15.0
 50
0.0
 51
180.0
  0
ARC
  5
11404
  8
0
 10
903.02994005254641
 20
681.51088024374155
 30
0.0
 40
2.0
 50
220.3202150699735
 51
270.0
  0
LINE
  5
11405
  8
0
 10
840.06845865573086
 20
695.51088024374121
 30
0.0
 11
850.06845865573086
 21
695.51088024374121
 31
0.0
  0
ARC
  5
11406
  8
0
 10
890.06845865573086
 20
670.51088024374167
 30
0.0
 40
25.970115990735511
 50
20.27657470064241
 51
180.0
  0
LINE
  5
11407
  8
0
 10
967.06845865573086
 20
724.20445527837683
 30
0.0
 11
898.06845865573086
 21
764.04162385246104
 31
0.0
  0
ARC
  5
11408
  8
0
 10
959.06845865573075
 20
710.34804881782566
 30
0.0
 40
16.0
 50
0.0
 51
60.000000000000199
  0
ARC
  5
11409
  8
0
 10
890.06845865573086
 20
750.18521739190999
 30
0.0
 40
16.0
 50
60.000000000000199
 51
119.9999999999998
  0
LINE
  5
1140A
  8
0
 10
882.06845865573086
 20
764.04162385246104
 30
0.0
 11
813.06845865573075
 21
724.20445527837683
 31
0.0
  0
LINE
  5
1140B
  8
0
 10
805.06845865573075
 20
710.34804881782577
 30
0.0
 11
805.06845865573075
 21
685.51088024374098
 31
0.0
  0
ARC
  5
1140C
  8
0
 10
821.06845865573075
 20
710.34804881782577
 30
0.0
 40
16.0
 50
119.9999999999998
 51
180.0
  0
LINE
  5
1140D
  8
0
 10
975.06845865573086
 20
670.51088024374167
 30
0.0
 11
975.06845865573086
 21
710.34804881782566
 31
0.0
  0
INSERT
  5
1140E
  8
0
  2
DT-TLV
 10
890.06845865573086
 20
721.76038024374179
 30
0.0
 41
0.5
 42
0.5
 43
0.5
  0
LINE
  5
1140F
  8
0
 10
890.06845865573086
 20
703.51088024374167
 30
0.0
 11
899.14025542545642
 21
703.51088024374167
 31
0.0
  0
LINE
  5
11410
  8
0
 10
890.06845865573086
 20
707.51088024374167
 30
0.0
 11
899.14025542545642
 21
707.51088024374167
 31
0.0
  0
LINE
  5
11411
  8
0
 10
890.06845865573086
 20
707.51088024374167
 30
0.0
 11
899.14025542545642
 21
707.51088024374167
 31
0.0
  0
LINE
  5
11412
  8
0
 10
874.06845865573086
 20
701.51088024374155
 30
0.0
 11
888.91375811735179
 21
701.51088024374155
 31
0.0
  0
LINE
  5
11413
  8
0
 10
874.06845865573086
 20
709.51088024374155
 30
0.0
 11
876.37785973248947
 21
705.51088024374155
 31
0.0
  0
LINE
  5
11414
  8
0
 10
874.06845865573086
 20
701.51088024374155
 30
0.0
 11
876.37785973248992
 21
705.51088024374155
 31
0.0
  0
LINE
  5
11415
  8
0
 10
888.91375811735179
 20
709.51088024374155
 30
0.0
 11
890.06845865573086
 21
707.51088024374167
 31
0.0
  0
LINE
  5
11416
  8
0
 10
888.91375811735179
 20
701.51088024374155
 30
0.0
 11
890.06845865573086
 21
703.51088024374167
 31
0.0
  0
LINE
  5
11417
  8
0
 10
899.14025542545642
 20
709.51088024374155
 30
0.0
 11
906.06845865573086
 21
705.51088024374155
 31
0.0
  0
LINE
  5
11418
  8
0
 10
899.14025542545551
 20
701.51088024374155
 30
0.0
 11
906.06845865573086
 21
705.51088024374155
 31
0.0
  0
LINE
  5
11419
  8
0
 10
899.14025542545642
 20
709.51088024374155
 30
0.0
 11
899.14025542545642
 21
707.51088024374167
 31
0.0
  0
LINE
  5
1141A
  8
0
 10
899.14025542545642
 20
703.51088024374167
 30
0.0
 11
899.14025542545642
 21
701.51088024374155
 31
0.0
  0
LINE
  5
1141B
  8
0
 10
888.91375811735179
 20
709.51088024374155
 30
0.0
 11
874.06845865573086
 21
709.51088024374155
 31
0.0
  0
LINE
  5
1141C
  8
0
 10
840.06845865573086
 20
695.51088024374121
 30
0.0
 11
840.06845865573086
 21
670.51088024374167
 31
0.0
  0
LINE
  5
1141D
  8
0
 10
850.06845865573086
 20
695.51088024374121
 30
0.0
 11
850.06845865573086
 21
670.51088024374167
 31
0.0
  0
CIRCLE
  5
1141E
  8
0
 10
958.48446555470116
 20
710.01088024374155
 30
0.0
 40
11.0
  0
POLYLINE
  5
1141F
  8
0
 66
     1
 10
0.0
 20
0.0
 30
0.0
 70
     1
  0
VERTEX
  5
11753
  8
0
 10
969.48446555470127
 20
703.66002728265585
 30
0.0
  0
VERTEX
  5
11754
  8
0
 10
969.48446555470127
 20
716.36173320482771
 30
0.0
  0
VERTEX
  5
11755
  8
0
 10
958.48446555470173
 20
722.71258616591354
 30
0.0
  0
VERTEX
  5
11756
  8
0
 10
947.48446555470161
 20
716.36173320482771
 30
0.0
  0
VERTEX
  5
11757
  8
0
 10
947.48446555470127
 20
703.66002728265585
 30
0.0
  0
VERTEX
  5
11758
  8
0
 10
958.48446555470116
 20
697.30917432157003
 30
0.0
  0
SEQEND
  5
11759
  8
0
  0
CIRCLE
  5
11420
  8
0
 10
890.06845865573086
 20
749.51088024374167
 30
0.0
 40
11.0
  0
POLYLINE
  5
11421
  8
0
 66
     1
 10
0.0
 20
0.0
 30
0.0
 70
     1
  0
VERTEX
  5
1175A
  8
0
 10
901.06845865573075
 20
755.86173320482771
 30
0.0
  0
VERTEX
  5
1175B
  8
0
 10
890.06845865573086
 20
762.21258616591354
 30
0.0
  0
VERTEX
  5
1175C
  8
0
 10
879.06845865573075
 20
755.86173320482771
 30
0.0
  0
VERTEX
  5
1175D
  8
0
 10
879.06845865573075
 20
743.16002728265596
 30
0.0
  0
VERTEX
  5
1175E
  8
0
 10
890.06845865573086
 20
736.80917432157003
 30
0.0
  0
VERTEX
  5
1175F
  8
0
 10
901.06845865573075
 20
743.16002728265585
 30
0.0
  0
SEQEND
  5
11760
  8
0
  0
CIRCLE
  5
11422
  8
0
 10
821.65245175676046
 20
710.01088024374155
 30
0.0
 40
11.0
  0
POLYLINE
  5
11423
  8
0
 66
     1
 10
0.0
 20
0.0
 30
0.0
 70
     1
  0
VERTEX
  5
11761
  8
0
 10
810.65245175676046
 20
703.66002728265585
 30
0.0
  0
VERTEX
  5
11762
  8
0
 10
810.65245175676046
 20
716.36173320482771
 30
0.0
  0
VERTEX
  5
11763
  8
0
 10
821.65245175676
 20
722.71258616591354
 30
0.0
  0
VERTEX
  5
11764
  8
0
 10
832.65245175676
 20
716.36173320482771
 30
0.0
  0
VERTEX
  5
11765
  8
0
 10
832.65245175676034
 20
703.66002728265585
 30
0.0
  0
VERTEX
  5
11766
  8
0
 10
821.65245175676046
 20
697.30917432157003
 30
0.0
  0
SEQEND
  5
11767
  8
0
  0
LINE
  5
11424
  8
0
 10
831.65245175676046
 20
685.26088024374155
 30
0.0
 11
831.65245175676046
 21
670.51088024374167
 31
0.0
  0
ARC
  5
11425
  8
0
 10
830.65245175676046
 20
685.26088024374155
 30
0.0
 40
1.0
 50
0.0
 51
90.0
  0
LINE
  5
11426
  8
0
 10
811.65245175676046
 20
685.26088024374155
 30
0.0
 11
811.65245175676046
 21
670.51088024374167
 31
0.0
  0
CIRCLE
  5
11427
  8
0
 10
821.65245175676046
 20
683.76088024374155
 30
0.0
 40
1.264625184688327
  0
LINE
  5
11428
  8
0
 10
978.56845865573177
 20
683.51088024374121
 30
0.0
 11
990.56845865573166
 21
683.51088024374121
 31
0.0
  0
ARC
  5
11429
  8
0
 10
990.56845865573166
 20
681.51088024374121
 30
0.0
 40
2.0
 50
0.0
 51
90.0
  0
ARC
  5
1142A
  8
0
 10
978.56845865573177
 20
681.51088024374121
 30
0.0
 40
2.0
 50
90.0
 51
180.0
  0
LINE
  5
1142B
  8
0
 10
792.06845865573166
 20
677.5108802437411
 30
0.0
 11
797.06845865573166
 21
677.51088024374098
 31
0.0
  0
ARC
  5
1142C
  8
0
 10
797.06845865573166
 20
685.51088024374098
 30
0.0
 40
8.0
 50
270.0
 51
0.0
  0
ARC
  5
1142D
  8
0
 10
792.06845865573166
 20
670.51088024374121
 30
0.0
 40
7.0
 50
90.0
 51
180.0
  0
ARC
  5
1142E
  8
0
 10
978.56845865573177
 20
691.51088024374087
 30
0.0
 40
2.0
 50
90.0
 51
180.0
  0
LINE
  5
1142F
  8
0
 10
992.56845865573177
 20
691.51088024374121
 30
0.0
 11
992.56845865573177
 21
690.62282884766455
 31
0.0
  0
ARC
  5
11430
  8
0
 10
990.56845865573166
 20
691.51088024374121
 30
0.0
 40
2.0
 50
0.0
 51
90.0
  0
LINE
  5
11431
  8
0
 10
976.56845865573177
 20
691.51088024374087
 30
0.0
 11
976.56845865573177
 21
690.62282884766466
 31
0.0
  0
LINE
  5
11432
  8
0
 10
991.7250999921115
 20
690.62282884766455
 30
0.0
 11
977.4556029091691
 21
690.62282884766455
 31
0.0
  0
LINE
  5
11433
  8
0
 10
992.56845865573177
 20
670.51088024374167
 30
0.0
 11
992.56845865573177
 21
681.51088024374121
 31
0.0
  0
LINE
  5
11434
  8
0
 10
976.56845865573177
 20
681.51088024374121
 30
0.0
 11
976.56845865573177
 21
670.51088024374167
 31
0.0
  0
ARC
  5
11435
  8
0
 10
801.56845865573177
 20
691.51088024374087
 30
0.0
 40
2.0
 50
0.0
 51
90.0
  0
LINE
  5
11436
  8
0
 10
787.56845865573166
 20
691.51088024374121
 30
0.0
 11
787.56845865573166
 21
690.62282884766455
 31
0.0
  0
ARC
  5
11437
  8
0
 10
789.56845865573166
 20
691.51088024374121
 30
0.0
 40
2.0
 50
90.0
 51
180.0
  0
LINE
  5
11438
  8
0
 10
803.56845865573177
 20
691.51088024374087
 30
0.0
 11
803.56845865573177
 21
690.62282884766466
 31
0.0
  0
LINE
  5
11439
  8
0
 10
788.41181731935137
 20
690.62282884766455
 30
0.0
 11
802.68131440229388
 21
690.62282884766455
 31
0.0
  0
LINE
  5
1143A
  8
0
 10
812.65245175676046
 20
654.76088024374155
 30
0.0
 11
830.65245175676046
 21
654.76088024374155
 31
0.0
  0
ARC
  5
1143B
  8
0
 10
812.65245175676046
 20
655.76088024374167
 30
0.0
 40
1.0
 50
180.0
 51
270.0
  0
LINE
  5
1143C
  8
0
 10
1000.068458655731
 20
648.51088024374155
 30
0.0
 11
1000.068458655731
 21
670.51088024374167
 31
0.0
  0
LINE
  5
1143D
  8
0
 10
999.06845865573086
 20
647.51088024374155
 30
0.0
 11
1000.068458655731
 21
648.51088024374155
 31
0.0
  0
LINE
  5
1143E
  8
0
 10
999.06845865573086
 20
647.51088024374155
 30
0.0
 11
975.06845865573086
 21
647.51088024374155
 31
0.0
  0
LINE
  5
1143F
  8
0
 10
999.06845865573086
 20
647.51088024374155
 30
0.0
 11
999.06845865573086
 21
670.51088024374167
 31
0.0
  0
LINE
  5
11440
  8
0
 10
780.06845865573075
 20
648.5108802437411
 30
0.0
 11
780.06845865573075
 21
670.51088024374167
 31
0.0
  0
LINE
  5
11441
  8
0
 10
781.06845865573075
 20
647.51088024374121
 30
0.0
 11
805.06845865573075
 21
647.51088024374121
 31
0.0
  0
LINE
  5
11442
  8
0
 10
780.06845865573075
 20
648.5108802437411
 30
0.0
 11
781.06845865573075
 21
647.51088024374121
 31
0.0
  0
LINE
  5
11443
  8
0
 10
781.06845865573075
 20
647.51088024374121
 30
0.0
 11
781.06845865573075
 21
670.51088024374167
 31
0.0
  0
LINE
  5
11444
  8
0
 10
903.02994005254641
 20
661.51088024374167
 30
0.0
 11
975.06845865573086
 21
661.51088024374167
 31
0.0
  0
ARC
  5
11445
  8
0
 10
890.06845865573086
 20
670.51088024374167
 30
0.0
 40
15.0
 50
180.0
 51
0.0
  0
ARC
  5
11446
  8
0
 10
903.02994005254641
 20
659.51088024374155
 30
0.0
 40
2.0
 50
90.0
 51
139.6797849300265
  0
LINE
  5
11447
  8
0
 10
840.06845865573086
 20
645.51088024374212
 30
0.0
 11
850.06845865573086
 21
645.51088024374212
 31
0.0
  0
ARC
  5
11448
  8
0
 10
890.06845865573086
 20
670.51088024374167
 30
0.0
 40
25.970115990735511
 50
180.0
 51
339.72342529935759
  0
LINE
  5
11449
  8
0
 10
967.06845865573086
 20
616.81730520910673
 30
0.0
 11
898.06845865573086
 21
576.98013663502252
 31
0.0
  0
ARC
  5
1144A
  8
0
 10
959.06845865573075
 20
630.67371166965756
 30
0.0
 40
16.0
 50
299.99999999999977
 51
0.0
  0
LINE
  5
1144B
  8
0
 10
882.06845865573086
 20
576.98013663502252
 30
0.0
 11
813.06845865573075
 21
616.81730520910651
 31
0.0
  0
LINE
  5
1144C
  8
0
 10
805.06845865573075
 20
630.67371166965745
 30
0.0
 11
805.06845865573075
 21
655.51088024374246
 31
0.0
  0
ARC
  5
1144D
  8
0
 10
821.06845865573075
 20
630.67371166965745
 30
0.0
 40
16.0
 50
180.0
 51
240.0000000000002
  0
LINE
  5
1144E
  8
0
 10
975.06845865573086
 20
670.51088024374167
 30
0.0
 11
975.06845865573086
 21
630.67371166965756
 31
0.0
  0
LINE
  5
1144F
  8
0
 10
840.06845865573086
 20
645.51088024374212
 30
0.0
 11
840.06845865573086
 21
670.51088024374167
 31
0.0
  0
LINE
  5
11450
  8
0
 10
850.06845865573086
 20
645.51088024374212
 30
0.0
 11
850.06845865573086
 21
670.51088024374167
 31
0.0
  0
CIRCLE
  5
11451
  8
0
 10
958.48446555470116
 20
631.01088024374155
 30
0.0
 40
11.0
  0
POLYLINE
  5
11452
  8
0
 66
     1
 10
0.0
 20
0.0
 30
0.0
 70
     1
  0
VERTEX
  5
11768
  8
0
 10
969.48446555470127
 20
637.36173320482749
 30
0.0
  0
VERTEX
  5
11769
  8
0
 10
969.48446555470127
 20
624.66002728265585
 30
0.0
  0
VERTEX
  5
1176A
  8
0
 10
958.48446555470173
 20
618.30917432156969
 30
0.0
  0
VERTEX
  5
1176B
  8
0
 10
947.48446555470161
 20
624.66002728265551
 30
0.0
  0
VERTEX
  5
1176C
  8
0
 10
947.48446555470127
 20
637.36173320482749
 30
0.0
  0
VERTEX
  5
1176D
  8
0
 10
958.48446555470116
 20
643.71258616591331
 30
0.0
  0
SEQEND
  5
1176E
  8
0
  0
CIRCLE
  5
11453
  8
0
 10
890.06845865573086
 20
591.51088024374155
 30
0.0
 40
11.0
  0
POLYLINE
  5
11454
  8
0
 66
     1
 10
0.0
 20
0.0
 30
0.0
 70
     1
  0
VERTEX
  5
1176F
  8
0
 10
901.06845865573075
 20
585.16002728265585
 30
0.0
  0
VERTEX
  5
11770
  8
0
 10
890.06845865573086
 20
578.80917432157003
 30
0.0
  0
VERTEX
  5
11771
  8
0
 10
879.06845865573075
 20
585.16002728265585
 30
0.0
  0
VERTEX
  5
11772
  8
0
 10
879.06845865573075
 20
597.86173320482737
 30
0.0
  0
VERTEX
  5
11773
  8
0
 10
890.06845865573086
 20
604.21258616591354
 30
0.0
  0
VERTEX
  5
11774
  8
0
 10
901.06845865573075
 20
597.86173320482771
 30
0.0
  0
SEQEND
  5
11775
  8
0
  0
CIRCLE
  5
11455
  8
0
 10
821.65245175676046
 20
631.01088024374155
 30
0.0
 40
11.0
  0
POLYLINE
  5
11456
  8
0
 66
     1
 10
0.0
 20
0.0
 30
0.0
 70
     1
  0
VERTEX
  5
11776
  8
0
 10
810.65245175676046
 20
637.36173320482749
 30
0.0
  0
VERTEX
  5
11777
  8
0
 10
810.65245175676046
 20
624.66002728265585
 30
0.0
  0
VERTEX
  5
11778
  8
0
 10
821.65245175676
 20
618.30917432156969
 30
0.0
  0
VERTEX
  5
11779
  8
0
 10
832.65245175676
 20
624.66002728265551
 30
0.0
  0
VERTEX
  5
1177A
  8
0
 10
832.65245175676034
 20
637.36173320482749
 30
0.0
  0
VERTEX
  5
1177B
  8
0
 10
821.65245175676046
 20
643.71258616591331
 30
0.0
  0
SEQEND
  5
1177C
  8
0
  0
LINE
  5
11457
  8
0
 10
831.65245175676046
 20
655.76088024374167
 30
0.0
 11
831.65245175676046
 21
670.51088024374167
 31
0.0
  0
ARC
  5
11458
  8
0
 10
830.65245175676046
 20
655.76088024374167
 30
0.0
 40
1.0
 50
270.0
 51
0.0
  0
LINE
  5
11459
  8
0
 10
811.65245175676046
 20
655.76088024374167
 30
0.0
 11
811.65245175676046
 21
670.51088024374167
 31
0.0
  0
CIRCLE
  5
1145A
  8
0
 10
821.65245175676046
 20
657.26088024374155
 30
0.0
 40
1.264625184688327
  0
LINE
  5
1145B
  8
0
 10
978.56845865573177
 20
657.51088024374235
 30
0.0
 11
990.56845865573166
 21
657.51088024374235
 31
0.0
  0
ARC
  5
1145C
  8
0
 10
990.56845865573166
 20
659.51088024374235
 30
0.0
 40
2.0
 50
270.0
 51
0.0
  0
ARC
  5
1145D
  8
0
 10
978.56845865573177
 20
659.51088024374235
 30
0.0
 40
2.0
 50
180.0
 51
270.0
  0
LINE
  5
1145E
  8
0
 10
792.06845865573166
 20
663.51088024374235
 30
0.0
 11
797.06845865573166
 21
663.51088024374235
 31
0.0
  0
ARC
  5
1145F
  8
0
 10
797.06845865573166
 20
655.51088024374235
 30
0.0
 40
8.0
 50
0.0
 51
90.0
  0
ARC
  5
11460
  8
0
 10
792.06845865573166
 20
670.51088024374235
 30
0.0
 40
7.0
 50
180.0
 51
270.0
  0
ARC
  5
11461
  8
0
 10
978.56845865573177
 20
649.51088024374235
 30
0.0
 40
2.0
 50
180.0
 51
270.0
  0
LINE
  5
11462
  8
0
 10
992.56845865573177
 20
649.51088024374235
 30
0.0
 11
992.56845865573177
 21
650.39893163981878
 31
0.0
  0
ARC
  5
11463
  8
0
 10
990.56845865573166
 20
649.51088024374235
 30
0.0
 40
2.0
 50
270.0
 51
0.0
  0
LINE
  5
11464
  8
0
 10
976.56845865573177
 20
649.51088024374235
 30
0.0
 11
976.56845865573177
 21
650.39893163981878
 31
0.0
  0
LINE
  5
11465
  8
0
 10
991.7250999921115
 20
650.39893163981878
 30
0.0
 11
977.4556029091691
 21
650.39893163981878
 31
0.0
  0
LINE
  5
11466
  8
0
 10
992.56845865573177
 20
670.51088024374167
 30
0.0
 11
992.56845865573177
 21
659.51088024374235
 31
0.0
  0
LINE
  5
11467
  8
0
 10
976.56845865573177
 20
659.51088024374235
 30
0.0
 11
976.56845865573177
 21
670.51088024374167
 31
0.0
  0
ARC
  5
11468
  8
0
 10
801.56845865573177
 20
649.51088024374235
 30
0.0
 40
2.0
 50
270.0
 51
0.0
  0
LINE
  5
11469
  8
0
 10
787.56845865573166
 20
649.51088024374235
 30
0.0
 11
787.56845865573166
 21
650.39893163981878
 31
0.0
  0
ARC
  5
1146A
  8
0
 10
789.56845865573166
 20
649.51088024374235
 30
0.0
 40
2.0
 50
180.0
 51
270.0
  0
LINE
  5
1146B
  8
0
 10
803.56845865573177
 20
649.51088024374235
 30
0.0
 11
803.56845865573177
 21
650.39893163981878
 31
0.0
  0
LINE
  5
1146C
  8
0
 10
788.41181731935137
 20
650.39893163981878
 30
0.0
 11
802.68131440229388
 21
650.39893163981878
 31
0.0
  0
ARC
  5
1146D
  8
0
 10
890.0684586557295
 20
590.83654309557255
 30
0.0
 40
16.0
 50
240.0000000000002
 51
299.99999999999977
  0
CIRCLE
  5
1146E
  8
0
 10
473.48798892446439
 20
272.8591484288628
 30
0.0
 40
12.0
  0
LINE
  5
1146F
  8
0
 10
979.92229462348132
 20
410.35914842886228
 30
0.0
 11
991.92229462348121
 21
410.35914842886228
 31
0.0
  0
ARC
  5
11470
  8
0
 10
991.92229462348121
 20
408.35914842886223
 30
0.0
 40
2.0
 50
0.0
 51
90.0
  0
ARC
  5
11471
  8
0
 10
979.92229462348132
 20
408.35914842886223
 30
0.0
 40
2.0
 50
90.0
 51
180.0
  0
ARC
  5
11472
  8
0
 10
979.92229462348132
 20
418.35914842886211
 30
0.0
 40
2.0
 50
90.0
 51
180.0
  0
LINE
  5
11473
  8
0
 10
993.92229462348143
 20
418.35914842886228
 30
0.0
 11
993.92229462348143
 21
417.47109703278568
 31
0.0
  0
ARC
  5
11474
  8
0
 10
991.92229462348121
 20
418.35914842886228
 30
0.0
 40
2.0
 50
0.0
 51
90.0
  0
LINE
  5
11475
  8
0
 10
977.92229462348132
 20
418.35914842886211
 30
0.0
 11
977.92229462348132
 21
417.47109703278579
 31
0.0
  0
LINE
  5
11476
  8
0
 10
993.07893595986116
 20
417.47109703278568
 30
0.0
 11
978.80943887691865
 21
417.47109703278568
 31
0.0
  0
LINE
  5
11477
  8
0
 10
993.92229462348143
 20
397.35914842886291
 30
0.0
 11
993.92229462348143
 21
408.35914842886223
 31
0.0
  0
LINE
  5
11478
  8
0
 10
977.92229462348132
 20
408.35914842886223
 30
0.0
 11
977.92229462348132
 21
397.35914842886291
 31
0.0
  0
LINE
  5
11479
  8
0
 10
979.92229462348132
 20
384.35914842886342
 30
0.0
 11
991.92229462348121
 21
384.35914842886342
 31
0.0
  0
ARC
  5
1147A
  8
0
 10
991.92229462348121
 20
386.35914842886342
 30
0.0
 40
2.0
 50
270.0
 51
0.0
  0
ARC
  5
1147B
  8
0
 10
979.92229462348132
 20
386.35914842886342
 30
0.0
 40
2.0
 50
180.0
 51
270.0
  0
ARC
  5
1147C
  8
0
 10
979.92229462348132
 20
376.35914842886348
 30
0.0
 40
2.0
 50
180.0
 51
270.0
  0
LINE
  5
1147D
  8
0
 10
993.92229462348143
 20
376.35914842886342
 30
0.0
 11
993.92229462348143
 21
377.24719982494003
 31
0.0
  0
ARC
  5
1147E
  8
0
 10
991.92229462348121
 20
376.35914842886342
 30
0.0
 40
2.0
 50
270.0
 51
0.0
  0
LINE
  5
1147F
  8
0
 10
977.92229462348132
 20
376.35914842886348
 30
0.0
 11
977.92229462348132
 21
377.24719982493991
 31
0.0
  0
LINE
  5
11480
  8
0
 10
993.07893595986116
 20
377.24719982494003
 30
0.0
 11
978.80943887691865
 21
377.24719982494003
 31
0.0
  0
LINE
  5
11481
  8
0
 10
993.92229462348143
 20
397.35914842886291
 30
0.0
 11
993.92229462348143
 21
386.35914842886342
 31
0.0
  0
LINE
  5
11482
  8
0
 10
977.92229462348132
 20
386.35914842886342
 30
0.0
 11
977.92229462348132
 21
397.35914842886291
 31
0.0
  0
LINE
  5
11483
  8
0
 10
790.87850903366359
 20
410.3591484288624
 30
0.0
 11
802.87850903366359
 21
410.35914842886262
 31
0.0
  0
ARC
  5
11484
  8
0
 10
802.87850903366359
 20
408.35914842886262
 30
0.0
 40
2.0
 50
0.0
 51
90.0
  0
ARC
  5
11485
  8
0
 10
790.87850903366359
 20
408.35914842886251
 30
0.0
 40
2.0
 50
90.0
 51
180.0
  0
LINE
  5
11486
  8
0
 10
804.87850903366359
 20
397.35914842886319
 30
0.0
 11
804.87850903366359
 21
408.35914842886262
 31
0.0
  0
LINE
  5
11487
  8
0
 10
788.8785090336637
 20
408.35914842886251
 30
0.0
 11
788.8785090336637
 21
397.35914842886319
 31
0.0
  0
LINE
  5
11488
  8
0
 10
790.87850903366359
 20
384.35914842886388
 30
0.0
 11
802.87850903366359
 21
384.3591484288637
 31
0.0
  0
ARC
  5
11489
  8
0
 10
802.87850903366359
 20
386.35914842886382
 30
0.0
 40
2.0
 50
270.0
 51
0.0
  0
ARC
  5
1148A
  8
0
 10
790.87850903366359
 20
386.35914842886388
 30
0.0
 40
2.0
 50
180.0
 51
270.0
  0
ARC
  5
1148B
  8
0
 10
790.87850903366359
 20
376.35914842886388
 30
0.0
 40
2.0
 50
180.0
 51
270.0
  0
LINE
  5
1148C
  8
0
 10
804.87850903366359
 20
376.35914842886388
 30
0.0
 11
804.87850903366359
 21
377.24719982494031
 31
0.0
  0
ARC
  5
1148D
  8
0
 10
802.87850903366359
 20
376.35914842886388
 30
0.0
 40
2.0
 50
270.0
 51
0.0
  0
LINE
  5
1148E
  8
0
 10
788.8785090336637
 20
376.35914842886388
 30
0.0
 11
788.8785090336637
 21
377.24719982494031
 31
0.0
  0
LINE
  5
1148F
  8
0
 10
804.03515037004354
 20
377.24719982494031
 30
0.0
 11
789.76565328710103
 21
377.24719982494031
 31
0.0
  0
LINE
  5
11490
  8
0
 10
804.87850903366359
 20
397.35914842886319
 30
0.0
 11
804.87850903366359
 21
386.35914842886382
 31
0.0
  0
LINE
  5
11491
  8
0
 10
788.8785090336637
 20
386.35914842886388
 30
0.0
 11
788.8785090336637
 21
397.35914842886319
 31
0.0
  0
CIRCLE
  5
114B6
  8
0
 10
1246.828836353978
 20
436.83913465994368
 30
0.0
 40
6.7186127443218542
  0
LINE
  5
11694
  8
0
 10
751.53178700160561
 20
392.3413629787492
 30
0.0
 11
706.153967001605
 21
392.3413629787492
 31
0.0
  0
LINE
  5
11695
  8
0
 10
728.84368700160564
 20
396.87898297874898
 30
0.0
 11
742.25890700160596
 21
396.87898297874898
 31
0.0
  0
LINE
  5
11696
  8
0
 10
697.07872700160578
 20
401.4166029787487
 30
0.0
 11
724.30444700160569
 21
401.4166029787487
 31
0.0
  0
LINE
  5
11697
  8
0
 10
706.153967001605
 20
392.3413629787492
 30
0.0
 11
697.07872700160578
 21
401.4166029787487
 31
0.0
  0
LINE
  5
11698
  8
0
 10
724.30444700160569
 20
401.4166029787487
 30
0.0
 11
728.84368700160564
 21
396.87898297874898
 31
0.0
  0
LINE
  5
11699
  8
0
 10
742.25890700160596
 20
401.4166029787487
 30
0.0
 11
751.53178700160561
 21
392.3413629787492
 31
0.0
  0
LINE
  5
1169A
  8
0
 10
742.25890700160596
 20
396.87898297874898
 30
0.0
 11
742.25890700160596
 21
401.4166029787487
 31
0.0
  0
LINE
  5
1169B
  8
0
 10
751.53178700160561
 20
667.08098394065507
 30
0.0
 11
706.153967001605
 21
667.08098394065507
 31
0.0
  0
LINE
  5
1169C
  8
0
 10
728.84368700160564
 20
671.61860394065502
 30
0.0
 11
742.25890700160596
 21
671.61860394065502
 31
0.0
  0
LINE
  5
1169D
  8
0
 10
697.07872700160578
 20
676.15622394065474
 30
0.0
 11
724.30444700160569
 21
676.15622394065474
 31
0.0
  0
LINE
  5
1169E
  8
0
 10
706.153967001605
 20
667.08098394065507
 30
0.0
 11
697.07872700160578
 21
676.15622394065474
 31
0.0
  0
LINE
  5
1169F
  8
0
 10
724.30444700160569
 20
676.15622394065474
 30
0.0
 11
728.84368700160564
 21
671.61860394065502
 31
0.0
  0
LINE
  5
116A0
  8
0
 10
742.25890700160596
 20
676.15622394065474
 30
0.0
 11
751.53178700160561
 21
667.08098394065507
 31
0.0
  0
LINE
  5
116A1
  8
0
 10
742.25890700160596
 20
671.61860394065502
 30
0.0
 11
742.25890700160596
 21
676.15622394065474
 31
0.0
  0
LINE
  5
116A2
  8
0
 10
1017.456398222248
 20
998.09257674183755
 30
0.0
 11
1062.8342182222491
 21
998.09257674183755
 31
0.0
  0
LINE
  5
116A3
  8
0
 10
1040.1444982222481
 20
1002.630196741837
 30
0.0
 11
1026.729278222248
 21
1002.630196741837
 31
0.0
  0
LINE
  5
116A4
  8
0
 10
1071.9094582222481
 20
1007.167816741837
 30
0.0
 11
1044.6837382222479
 21
1007.167816741837
 31
0.0
  0
LINE
  5
116A5
  8
0
 10
1062.8342182222491
 20
998.09257674183755
 30
0.0
 11
1071.9094582222481
 21
1007.167816741837
 31
0.0
  0
LINE
  5
116A6
  8
0
 10
1044.6837382222479
 20
1007.167816741837
 30
0.0
 11
1040.1444982222481
 21
1002.630196741837
 31
0.0
  0
LINE
  5
116A7
  8
0
 10
1026.729278222248
 20
1007.167816741837
 30
0.0
 11
1017.456398222248
 21
998.09257674183755
 31
0.0
  0
LINE
  5
116A8
  8
0
 10
1026.729278222248
 20
1002.630196741837
 30
0.0
 11
1026.729278222248
 21
1007.167816741837
 31
0.0
  0
VIEWPORT
  5
41
 67
     1
  8
0
 10
117.358407079646
 20
73.5
 30
0.0
 40
234.716814159292
 41
147.0
 68
     1
 69
     1
1001
ACAD
1000
MVIEW
1002
{
1070
    16
1010
0.0
1020
0.0
1030
0.0
1010
0.0
1020
0.0
1030
1.0
1040
0.0
1040
147.0
1040
117.358407079646
1040
73.5
1040
50.0
1040
0.0
1040
0.0
1070
     0
1070
   100
1070
     1
1070
     1
1070
     0
1070
     0
1070
     0
1070
     0
1040
0.0
1040
0.0
1040
0.0
1040
1.0
1040
1.0
1040
0.0
1040
0.0
1070
     0
1002
{
1002
}
1002
}
  0
ENDSEC
  0
EOF
