  0
SECTION
  2
HEADER
  9
$ACADVER
  1
AC1012
  9
$DWGCODEPAGE
  3
dos932
  9
$INSBASE
 10
0.0
 20
0.0
 30
0.0
  9
$EXTMIN
 10
110.0
 20
50.0
 30
0.0
  9
$EXTMAX
 10
2860.0
 20
1910.0
 30
0.0
  9
$LIMMIN
 10
0.0
 20
0.0
  9
$LIMMAX
 10
2970.0
 20
2100.0
  9
$ORTHOMODE
 70
     1
  9
$REGENMODE
 70
     1
  9
$FILLMODE
 70
     1
  9
$QTEXTMODE
 70
     0
  9
$MIRRTEXT
 70
     1
  9
$DRAGMODE
 70
     2
  9
$LTSCALE
 40
40.0
  9
$OSMODE
 70
    35
  9
$ATTMODE
 70
     1
  9
$TEXTSIZE
 40
40.0
  9
$TRACEWID
 40
0.05
  9
$TEXTSTYLE
  7
STANDARD
  9
$CLAYER
  8
0
  9
$CELTYPE
  6
BYLAYER
  9
$CECOLOR
 62
   256
  9
$CELTSCALE
 40
1.0
  9
$DELOBJ
 70
     1
  9
$DISPSILH
 70
     0
  9
$DIMSCALE
 40
10.0
  9
$DIMASZ
 40
2.8
  9
$DIMEXO
 40
1.0
  9
$DIMDLI
 40
5.0
  9
$DIMRND
 40
0.1
  9
$DIMDLE
 40
0.0
  9
$DIMEXE
 40
1.0
  9
$DIMTP
 40
0.0
  9
$DIMTM
 40
0.0
  9
$DIMTXT
 40
2.5
  9
$DIMCEN
 40
0.0
  9
$DIMTSZ
 40
0.0
  9
$DIMTOL
 70
     0
  9
$DIMLIM
 70
     0
  9
$DIMTIH
 70
     0
  9
$DIMTOH
 70
     0
  9
$DIMSE1
 70
     0
  9
$DIMSE2
 70
     0
  9
$DIMTAD
 70
     3
  9
$DIMZIN
 70
     8
  9
$DIMBLK
  1

  9
$DIMASO
 70
     1
  9
$DIMSHO
 70
     1
  9
$DIMPOST
  1

  9
$DIMAPOST
  1

  9
$DIMALT
 70
     0
  9
$DIMALTD
 70
     2
  9
$DIMALTF
 40
1.0
  9
$DIMLFAC
 40
1.0
  9
$DIMTOFL
 70
     1
  9
$DIMTVP
 40
0.0
  9
$DIMTIX
 70
     0
  9
$DIMSOXD
 70
     0
  9
$DIMSAH
 70
     1
  9
$DIMBLK1
  1
_OPEN
  9
$DIMBLK2
  1
_OPEN
  9
$DIMSTYLE
  2
DIM1
  9
$DIMCLRD
 70
     2
  9
$DIMCLRE
 70
     2
  9
$DIMCLRT
 70
     2
  9
$DIMTFAC
 40
0.7
  9
$DIMGAP
 40
0.85
  9
$DIMJUST
 70
     0
  9
$DIMSD1
 70
     0
  9
$DIMSD2
 70
     0
  9
$DIMTOLJ
 70
     1
  9
$DIMTZIN
 70
     8
  9
$DIMALTZ
 70
     8
  9
$DIMALTTZ
 70
     8
  9
$DIMFIT
 70
     3
  9
$DIMUPT
 70
     0
  9
$DIMUNIT
 70
     2
  9
$DIMDEC
 70
     2
  9
$DIMTDEC
 70
     3
  9
$DIMALTU
 70
     2
  9
$DIMALTTD
 70
     3
  9
$DIMTXSTY
  7
DIM
  9
$DIMAUNIT
 70
     0
  9
$LUNITS
 70
     2
  9
$LUPREC
 70
     4
  9
$SKETCHINC
 40
0.1
  9
$FILLETRAD
 40
0.0
  9
$AUNITS
 70
     0
  9
$AUPREC
 70
     0
  9
$MENU
  1
C:\ACADR13\WIN\SUPPORT\ACAD.mnc
  9
$ELEVATION
 40
0.0
  9
$PELEVATION
 40
0.0
  9
$THICKNESS
 40
0.0
  9
$LIMCHECK
 70
     0
  9
$BLIPMODE
 70
     1
  9
$CHAMFERA
 40
0.0
  9
$CHAMFERB
 40
0.0
  9
$CHAMFERC
 40
0.0
  9
$CHAMFERD
 40
0.0
  9
$SKPOLY
 70
     0
  9
$TDCREATE
 40
2451589.540470243
  9
$TDUPDATE
 40
2451981.561728507
  9
$TDINDWG
 40
0.0855879630
  9
$TDUSRTIMER
 40
0.0855879630
  9
$USRTIMER
 70
     1
  9
$ANGBASE
 50
0.0
  9
$ANGDIR
 70
     0
  9
$PDMODE
 70
     0
  9
$PDSIZE
 40
0.0
  9
$PLINEWID
 40
0.0
  9
$COORDS
 70
     1
  9
$SPLFRAME
 70
     0
  9
$SPLINETYPE
 70
     6
  9
$SPLINESEGS
 70
     8
  9
$ATTDIA
 70
     0
  9
$ATTREQ
 70
     1
  9
$HANDLING
 70
     1
  9
$HANDSEED
  5
13A87
  9
$SURFTAB1
 70
     6
  9
$SURFTAB2
 70
     6
  9
$SURFTYPE
 70
     6
  9
$SURFU
 70
     6
  9
$SURFV
 70
     6
  9
$UCSNAME
  2

  9
$UCSORG
 10
0.0
 20
0.0
 30
0.0
  9
$UCSXDIR
 10
1.0
 20
0.0
 30
0.0
  9
$UCSYDIR
 10
0.0
 20
1.0
 30
0.0
  9
$PUCSNAME
  2

  9
$PUCSORG
 10
0.0
 20
0.0
 30
0.0
  9
$PUCSXDIR
 10
1.0
 20
0.0
 30
0.0
  9
$PUCSYDIR
 10
0.0
 20
1.0
 30
0.0
  9
$USERI1
 70
     0
  9
$USERI2
 70
     0
  9
$USERI3
 70
     0
  9
$USERI4
 70
     0
  9
$USERI5
 70
     0
  9
$USERR1
 40
0.0
  9
$USERR2
 40
0.0
  9
$USERR3
 40
0.0
  9
$USERR4
 40
0.0
  9
$USERR5
 40
0.0
  9
$WORLDVIEW
 70
     1
  9
$SHADEDGE
 70
     3
  9
$SHADEDIF
 70
    70
  9
$TILEMODE
 70
     1
  9
$MAXACTVP
 70
    16
  9
$PINSBASE
 10
0.0
 20
0.0
 30
0.0
  9
$PLIMCHECK
 70
     0
  9
$PEXTMIN
 10
1.000000E+20
 20
1.000000E+20
 30
1.000000E+20
  9
$PEXTMAX
 10
-1.000000E+20
 20
-1.000000E+20
 30
-1.000000E+20
  9
$PLIMMIN
 10
0.0
 20
0.0
  9
$PLIMMAX
 10
20.0
 20
147.0
  9
$UNITMODE
 70
     0
  9
$VISRETAIN
 70
     0
  9
$PLINEGEN
 70
     0
  9
$PSLTSCALE
 70
     1
  9
$TREEDEPTH
 70
  3020
  9
$PICKSTYLE
 70
     1
  9
$CMLSTYLE
  2
STANDARD
  9
$CMLJUST
 70
     0
  9
$CMLSCALE
 40
1.0
  9
$SAVEIMAGES
 70
     1
  0
ENDSEC
  0
SECTION
  2
CLASSES
  0
CLASS
  1
LWPOLYLINE
  2
AcDbPolyline
  3
"AutoCAD"
 90
    32768
280
     0
281
     1
  0
ENDSEC
  0
SECTION
  2
TABLES
  0
TABLE
  2
VPORT
  5
8
100
AcDbSymbolTable
 70
     2
  0
VPORT
  5
13A86
100
AcDbSymbolTableRecord
100
AcDbViewportTableRecord
  2
*ACTIVE
 70
     0
 10
0.0
 20
0.0
 11
1.0
 21
1.0
 12
1977.992958
 22
1122.54369
 13
0.0
 23
0.0
 14
1.0
 24
1.0
 15
0.0
 25
0.0
 16
0.0
 26
0.0
 36
1.0
 17
0.0
 27
0.0
 37
0.0
 40
2245.08738
 41
1.762063
 42
50.0
 43
0.0
 44
0.0
 50
0.0
 51
0.0
 71
     0
 72
   100
 73
     1
 74
     1
 75
     0
 76
     0
 77
     0
 78
     0
  0
ENDTAB
  0
TABLE
  2
LTYPE
  5
5
100
AcDbSymbolTable
 70
     1
  0
LTYPE
  5
12
100
AcDbSymbolTableRecord
100
AcDbLinetypeTableRecord
  2
BYBLOCK
 70
     0
  3

 72
    65
 73
     0
 40
0.0
  0
LTYPE
  5
13
100
AcDbSymbolTableRecord
100
AcDbLinetypeTableRecord
  2
BYLAYER
 70
     0
  3

 72
    65
 73
     0
 40
0.0
  0
LTYPE
  5
14
100
AcDbSymbolTableRecord
100
AcDbLinetypeTableRecord
  2
CONTINUOUS
 70
     0
  3
Solid line
 72
    65
 73
     0
 40
0.0
  0
ENDTAB
  0
TABLE
  2
LAYER
  5
2
100
AcDbSymbolTable
 70
     1
  0
LAYER
  5
F
100
AcDbSymbolTableRecord
100
AcDbLayerTableRecord
  2
0
 70
     0
 62
     7
  6
CONTINUOUS
  0
ENDTAB
  0
TABLE
  2
STYLE
  5
3
100
AcDbSymbolTable
 70
     3
  0
STYLE
  5
10
100
AcDbSymbolTableRecord
100
AcDbTextStyleTableRecord
  2
STANDARD
 70
     0
 40
0.0
 41
0.8
 50
0.0
 71
     0
 42
40.0
  3
simplex
  4
extfont
  0
STYLE
  5
237C
100
AcDbSymbolTableRecord
100
AcDbTextStyleTableRecord
  2
PTSH
 70
     0
 40
0.0
 41
0.9
 50
0.0
 71
     0
 42
4.0
  3
SIMPLEX
  4
EXTFONT
  0
STYLE
  5
2592
100
AcDbSymbolTableRecord
100
AcDbTextStyleTableRecord
  2
DIM
 70
     0
 40
0.0
 41
0.8
 50
0.0
 71
     0
 42
4.0
  3
simplex
  4
extfont
  0
ENDTAB
  0
TABLE
  2
VIEW
  5
6
100
AcDbSymbolTable
 70
     0
  0
ENDTAB
  0
TABLE
  2
UCS
  5
7
100
AcDbSymbolTable
 70
     0
  0
ENDTAB
  0
TABLE
  2
APPID
  5
9
100
AcDbSymbolTable
 70
     1
  0
APPID
  5
11
100
AcDbSymbolTableRecord
100
AcDbRegAppTableRecord
  2
ACAD
 70
     0
  0
ENDTAB
  0
TABLE
  2
DIMSTYLE
  5
A
100
AcDbSymbolTable
 70
     1
  0
DIMSTYLE
105
2237
100
AcDbSymbolTableRecord
100
AcDbDimStyleTableRecord
  2
DIM1
 70
     0
  3

  4

  5

  6
_OPEN
  7
_OPEN
 40
10.0
 41
2.8
 42
1.0
 43
5.0
 44
1.0
 45
0.1
 46
0.0
 47
0.0
 48
0.0
140
2.5
141
0.0
142
0.0
143
1.0
144
1.0
145
0.0
146
0.7
147
0.85
 71
     0
 72
     0
 73
     0
 74
     0
 75
     0
 76
     0
 77
     3
 78
     8
170
     0
171
     2
172
     1
173
     1
174
     0
175
     0
176
     2
177
     2
178
     2
270
     2
271
     2
272
     3
273
     2
274
     3
340
2592
275
     0
280
     0
281
     0
282
     0
283
     1
284
     8
285
     8
286
     8
287
     3
288
     0
  0
ENDTAB
  0
TABLE
  2
BLOCK_RECORD
  5
1
100
AcDbSymbolTable
 70
     2
  0
BLOCK_RECORD
  5
18
100
AcDbSymbolTableRecord
100
AcDbBlockTableRecord
  2
*MODEL_SPACE
  0
BLOCK_RECORD
  5
15
100
AcDbSymbolTableRecord
100
AcDbBlockTableRecord
  2
*PAPER_SPACE
  0
BLOCK_RECORD
  5
2448
100
AcDbSymbolTableRecord
100
AcDbBlockTableRecord
  2
_OPEN
  0
BLOCK_RECORD
  5
47DB
100
AcDbSymbolTableRecord
100
AcDbBlockTableRecord
  2
YA
  0
ENDTAB
  0
ENDSEC
  0
SECTION
  2
BLOCKS
  0
BLOCK
  5
3C
100
AcDbEntity
  8
0
100
AcDbBlockBegin
  2
*MODEL_SPACE
 70
     0
 10
0.0
 20
0.0
 30
0.0
  3
*MODEL_SPACE
  1

  0
ENDBLK
  5
3D
100
AcDbEntity
  8
0
100
AcDbBlockEnd
  0
BLOCK
  5
3A
100
AcDbEntity
 67
     1
  8
0
100
AcDbBlockBegin
  2
*PAPER_SPACE
 70
     0
 10
0.0
 20
0.0
 30
0.0
  3
*PAPER_SPACE
  1

  0
ENDBLK
  5
3B
100
AcDbEntity
 67
     1
  8
0
100
AcDbBlockEnd
  0
BLOCK
  5
2449
100
AcDbEntity
  8
0
 48
4.0
100
AcDbBlockBegin
  2
_OPEN
 70
     0
 10
0.0
 20
0.0
 30
0.0
  3
_OPEN
  1
H1111.DWG
  0
LINE
  5
244A
100
AcDbEntity
  8
0
  6
BYBLOCK
 62
     0
 48
4.0
100
AcDbLine
 10
-1.0
 20
0.166667
 30
0.0
 11
0.0
 21
0.0
 31
0.0
  0
LINE
  5
244B
100
AcDbEntity
  8
0
  6
BYBLOCK
 62
     0
 48
4.0
100
AcDbLine
 10
0.0
 20
0.0
 30
0.0
 11
-1.0
 21
-0.166667
 31
0.0
  0
LINE
  5
244C
100
AcDbEntity
  8
0
  6
BYBLOCK
 62
     0
 48
4.0
100
AcDbLine
 10
0.0
 20
0.0
 30
0.0
 11
-1.0
 21
0.0
 31
0.0
  0
ENDBLK
  5
244D
100
AcDbEntity
  8
0
 48
4.0
100
AcDbBlockEnd
  0
BLOCK
  5
47E3
100
AcDbEntity
  8
0
100
AcDbBlockBegin
  2
YA
 70
     0
 10
0.0
 20
0.0
 30
0.0
  3
YA
  1

  0
LINE
  5
47DC
100
AcDbEntity
  8
0
100
AcDbLine
 10
-16.8065
 20
2.801
 30
0.0
 11
-8.4035
 21
2.801
 31
0.0
  0
LINE
  5
47DD
100
AcDbEntity
  8
0
100
AcDbLine
 10
-8.4035
 20
2.801
 30
0.0
 11
-7.0025
 21
1.4005
 31
0.0
  0
LINE
  5
47DE
100
AcDbEntity
  8
0
100
AcDbLine
 10
-7.0025
 20
1.4005
 30
0.0
 11
-2.862
 21
1.4005
 31
0.0
  0
LINE
  5
47DF
100
AcDbEntity
  8
0
100
AcDbLine
 10
-2.862
 20
1.4005
 30
0.0
 11
-2.862
 21
2.801
 31
0.0
  0
LINE
  5
47E0
100
AcDbEntity
  8
0
100
AcDbLine
 10
-2.862
 20
2.801
 30
0.0
 11
0.0
 21
0.0
 31
0.0
  0
LINE
  5
47E1
100
AcDbEntity
  8
0
100
AcDbLine
 10
0.0
 20
0.0
 30
0.0
 11
-14.0055
 21
0.0
 31
0.0
  0
LINE
  5
47E2
100
AcDbEntity
  8
0
100
AcDbLine
 10
-14.0055
 20
0.0
 30
0.0
 11
-16.8065
 21
2.801
 31
0.0
  0
ENDBLK
  5
47E4
100
AcDbEntity
  8
0
100
AcDbBlockEnd
  0
ENDSEC
  0
SECTION
  2
ENTITIES
  0
MTEXT
  5
ADA
100
AcDbEntity
  8
0
100
AcDbMText
 10
3801.392798
 20
498.463111
 30
0.0
 40
2.0
 41
472.264648
 71
     1
 72
     1
  1

  0
MTEXT
  5
ADB
100
AcDbEntity
  8
0
100
AcDbMText
 10
3890.499332
 20
578.507937
 30
0.0
 40
2.0
 41
454.443342
 71
     1
 72
     1
  1

  0
MTEXT
  5
ADC
100
AcDbEntity
  8
0
100
AcDbMText
 10
3837.035411
 20
-479.862464
 30
0.0
 40
2.0
 41
516.817915
 71
     1
 72
     1
  1

  0
TEXT
  5
2529
100
AcDbEntity
  8
0
  6
CONTINUOUS
100
AcDbText
 10
2743.142857
 20
70.0
 30
0.0
 40
30.0
  1
JA5
 41
0.9
  7
PTSH
 72
     2
 11
2810.0
 21
85.0
 31
0.0
100
AcDbText
 73
     2
  0
POLYLINE
  5
2563
100
AcDbEntity
  8
0
100
AcDb2dPolyline
 66
     1
 10
0.0
 20
0.0
 30
0.0
 70
     1
  0
VERTEX
  5
13A09
100
AcDbEntity
  8
0
100
AcDbVertex
100
AcDb2dVertex
 10
110.0
 20
50.0
 30
0.0
  0
VERTEX
  5
13A0A
100
AcDbEntity
  8
0
100
AcDbVertex
100
AcDb2dVertex
 10
2860.0
 20
50.0
 30
0.0
  0
VERTEX
  5
13A0B
100
AcDbEntity
  8
0
100
AcDbVertex
100
AcDb2dVertex
 10
2860.0
 20
1910.0
 30
0.0
  0
VERTEX
  5
13A0C
100
AcDbEntity
  8
0
100
AcDbVertex
100
AcDb2dVertex
 10
110.0
 20
1910.0
 30
0.0
  0
SEQEND
  5
13A0D
100
AcDbEntity
  8
0
  0
ARC
  5
132AC
100
AcDbEntity
  8
0
100
AcDbCircle
 10
677.971193
 20
961.782704
 30
0.0
 40
43.0
100
AcDbArc
 50
205.91298
 51
249.192388
  0
LINE
  5
132AD
100
AcDbEntity
  8
0
100
AcDbLine
 10
635.971193
 20
919.782704
 30
0.0
 11
668.751648
 21
919.782704
 31
0.0
  0
LINE
  5
132AE
100
AcDbEntity
  8
0
100
AcDbLine
 10
607.971193
 20
981.782704
 30
0.0
 11
717.963499
 21
981.782704
 31
0.0
  0
LINE
  5
132AF
100
AcDbEntity
  8
0
100
AcDbLine
 10
621.971193
 20
1041.572038
 30
0.0
 11
733.971193
 21
1041.572038
 31
0.0
  0
LINE
  5
132B0
100
AcDbEntity
  8
0
100
AcDbLine
 10
621.971193
 20
1027.572038
 30
0.0
 11
733.971193
 21
1027.572038
 31
0.0
  0
LINE
  5
132B1
100
AcDbEntity
  8
0
100
AcDbLine
 10
621.971193
 20
1011.782704
 30
0.0
 11
733.971193
 21
1011.782704
 31
0.0
  0
LINE
  5
132B2
100
AcDbEntity
  8
0
100
AcDbLine
 10
612.971193
 20
1025.782704
 30
0.0
 11
733.971193
 21
1025.782704
 31
0.0
  0
LINE
  5
132B3
100
AcDbEntity
  8
0
100
AcDbLine
 10
626.566695
 20
1050.572038
 30
0.0
 11
647.351304
 21
1050.572038
 31
0.0
  0
ARC
  5
132B4
100
AcDbEntity
  8
0
100
AcDbCircle
 10
646.052266
 20
1045.475143
 30
0.0
 40
5.096278
100
AcDbArc
 50
53.504105
 51
126.495895
  0
CIRCLE
  5
132B5
100
AcDbEntity
  8
0
100
AcDbCircle
 10
636.958999
 20
1172.627642
 30
0.0
 40
10.5
  0
POLYLINE
  5
132B6
100
AcDbEntity
  8
0
100
AcDb2dPolyline
 66
     1
 10
0.0
 20
0.0
 30
0.0
 70
     1
  0
VERTEX
  5
13A0E
100
AcDbEntity
  8
0
100
AcDbVertex
100
AcDb2dVertex
 10
643.021177
 20
1162.127642
 30
0.0
  0
VERTEX
  5
13A0F
100
AcDbEntity
  8
0
100
AcDbVertex
100
AcDb2dVertex
 10
649.083355
 20
1172.627642
 30
0.0
  0
VERTEX
  5
13A10
100
AcDbEntity
  8
0
100
AcDbVertex
100
AcDb2dVertex
 10
643.021177
 20
1183.127642
 30
0.0
  0
VERTEX
  5
13A11
100
AcDbEntity
  8
0
100
AcDbVertex
100
AcDb2dVertex
 10
630.896822
 20
1183.127642
 30
0.0
  0
VERTEX
  5
13A12
100
AcDbEntity
  8
0
100
AcDbVertex
100
AcDb2dVertex
 10
624.834644
 20
1172.627642
 30
0.0
  0
VERTEX
  5
13A13
100
AcDbEntity
  8
0
100
AcDbVertex
100
AcDb2dVertex
 10
630.896822
 20
1162.127642
 30
0.0
  0
SEQEND
  5
13A14
100
AcDbEntity
  8
0
  0
LINE
  5
132B7
100
AcDbEntity
  8
0
100
AcDbLine
 10
637.050151
 20
1159.639835
 30
0.0
 11
718.892234
 21
1159.639835
 31
0.0
  0
POLYLINE
  5
132B8
100
AcDbEntity
  8
0
100
AcDb2dPolyline
 66
     1
 10
0.0
 20
0.0
 30
0.0
 70
     1
  0
VERTEX
  5
13A15
100
AcDbEntity
  8
0
100
AcDbVertex
100
AcDb2dVertex
 10
643.021177
 20
1265.152028
 30
0.0
  0
VERTEX
  5
13A16
100
AcDbEntity
  8
0
100
AcDbVertex
100
AcDb2dVertex
 10
649.083355
 20
1254.652028
 30
0.0
  0
VERTEX
  5
13A17
100
AcDbEntity
  8
0
100
AcDbVertex
100
AcDb2dVertex
 10
643.021177
 20
1244.152028
 30
0.0
  0
VERTEX
  5
13A18
100
AcDbEntity
  8
0
100
AcDbVertex
100
AcDb2dVertex
 10
630.896822
 20
1244.152028
 30
0.0
  0
VERTEX
  5
13A19
100
AcDbEntity
  8
0
100
AcDbVertex
100
AcDb2dVertex
 10
624.834644
 20
1254.652028
 30
0.0
  0
VERTEX
  5
13A1A
100
AcDbEntity
  8
0
100
AcDbVertex
100
AcDb2dVertex
 10
630.896822
 20
1265.152028
 30
0.0
  0
SEQEND
  5
13A1B
100
AcDbEntity
  8
0
  0
CIRCLE
  5
132B9
100
AcDbEntity
  8
0
100
AcDbCircle
 10
636.958999
 20
1254.652028
 30
0.0
 40
10.5
  0
LINE
  5
132BA
100
AcDbEntity
  8
0
100
AcDbLine
 10
637.050151
 20
1267.639835
 30
0.0
 11
718.892234
 21
1267.639835
 31
0.0
  0
LINE
  5
132BB
100
AcDbEntity
  8
0
100
AcDbLine
 10
656.546384
 20
1354.473809
 30
0.0
 11
631.818665
 21
1347.847653
 31
0.0
  0
LINE
  5
132BC
100
AcDbEntity
  8
0
100
AcDbLine
 10
748.971062
 20
1432.352749
 30
0.0
 11
636.971062
 21
1432.351124
 31
0.0
  0
ARC
  5
132BD
100
AcDbEntity
  8
0
100
AcDbCircle
 10
651.632622
 20
1406.783294
 30
0.0
 40
5.0
100
AcDbArc
 50
168.492333
 51
234.363785
  0
LINE
  5
132BE
100
AcDbEntity
  8
0
100
AcDbLine
 10
757.970859
 20
1446.35288
 30
0.0
 11
636.970859
 21
1446.351124
 31
0.0
  0
LINE
  5
132BF
100
AcDbEntity
  8
0
100
AcDbLine
 10
748.970833
 20
1448.142083
 30
0.0
 11
636.970833
 21
1448.140458
 31
0.0
  0
LINE
  5
132C0
100
AcDbEntity
  8
0
100
AcDbLine
 10
748.97063
 20
1462.142083
 30
0.0
 11
636.97063
 21
1462.140458
 31
0.0
  0
ARC
  5
132C1
100
AcDbEntity
  8
0
100
AcDbCircle
 10
651.95858
 20
1452.25402
 30
0.0
 40
18.886039
100
AcDbArc
 50
71.278191
 51
108.723472
  0
LINE
  5
132C2
100
AcDbEntity
  8
0
100
AcDbLine
 10
641.566001
 20
1471.140525
 30
0.0
 11
662.350611
 21
1471.140827
 31
0.0
  0
LINE
  5
132C3
100
AcDbEntity
  8
0
100
AcDbLine
 10
652.484602
 20
1471.140066
 30
0.0
 11
642.29304
 21
1471.139918
 31
0.0
  0
LINE
  5
132C4
100
AcDbEntity
  8
0
100
AcDbLine
 10
678.970192
 20
1478.141271
 30
0.0
 11
636.970398
 21
1478.141271
 31
0.0
  0
TEXT
  5
132C5
100
AcDbEntity
  8
0
100
AcDbText
 10
572.995909
 20
815.737754
 30
0.0
 40
30.0
  1
20A,25A
 72
     4
 11
664.42448
 21
827.880611
 31
0.0
100
AcDbText
  0
TEXT
  5
132C6
100
AcDbEntity
  8
0
100
AcDbText
 10
457.56771
 20
660.306717
 30
0.0
 40
42.0
  1
TLV  JA5 (PT)
 72
     4
 11
668.36771
 21
678.306717
 31
0.0
100
AcDbText
  0
ARC
  5
132C7
100
AcDbEntity
  8
0
100
AcDbCircle
 10
615.686476
 20
1376.01003
 30
0.0
 40
7.987821
100
AcDbArc
 50
346.032743
 51
43.959398
  0
LINE
  5
132C8
100
AcDbEntity
  8
0
100
AcDbLine
 10
631.818665
 20
1347.847653
 30
0.0
 11
622.759508
 21
1381.654925
 31
0.0
  0
LINE
  5
132C9
100
AcDbEntity
  8
0
100
AcDbLine
 10
623.273356
 20
1379.71752
 30
0.0
 11
621.436364
 21
1381.554763
 31
0.0
  0
LINE
  5
132CA
100
AcDbEntity
  8
0
100
AcDbLine
 10
615.929557
 20
1380.079624
 30
0.0
 11
621.436364
 21
1381.554763
 31
0.0
  0
ARC
  5
132CB
100
AcDbEntity
  8
0
100
AcDbCircle
 10
450.731621
 20
961.785054
 30
0.0
 40
43.0
100
AcDbArc
 50
179.999317
 51
359.999317
  0
ARC
  5
132CC
100
AcDbEntity
  8
0
100
AcDbCircle
 10
677.971193
 20
961.782704
 30
0.0
 40
43.0
100
AcDbArc
 50
180.0
 51
198.961819
  0
LINE
  5
132D3
100
AcDbEntity
  8
0
100
AcDbLine
 10
635.971193
 20
943.782704
 30
0.0
 11
635.971193
 21
919.782704
 31
0.0
  0
ARC
  5
132E0
100
AcDbEntity
  8
0
100
AcDbCircle
 10
634.62405
 20
946.463228
 30
0.0
 40
3.0
100
AcDbArc
 50
296.682589
 51
26.682589
  0
TEXT
  5
132E5
100
AcDbEntity
  8
0
100
AcDbText
 10
196.09841
 20
977.74444
 30
0.0
 40
42.0
  1
正面
100
AcDbText
  0
TEXT
  5
132E6
100
AcDbEntity
  8
0
100
AcDbText
 10
196.09841
 20
1188.061874
 30
0.0
 40
42.0
  1
平面
100
AcDbText
  0
ARC
  5
132E7
100
AcDbEntity
  8
0
100
AcDbCircle
 10
921.971193
 20
1213.639835
 30
0.0
 40
300.0
100
AcDbArc
 50
171.614461
 51
188.385539
  0
LINE
  5
132E8
100
AcDbEntity
  8
0
100
AcDbLine
 10
459.063073
 20
1071.785054
 30
0.0
 11
459.063073
 21
1062.785054
 31
0.0
  0
LINE
  5
132E9
100
AcDbEntity
  8
0
100
AcDbLine
 10
450.732073
 20
1071.785054
 30
0.0
 11
450.732073
 21
1062.785054
 31
0.0
  0
LINE
  5
132EA
100
AcDbEntity
  8
0
100
AcDbLine
 10
442.401073
 20
1071.785054
 30
0.0
 11
442.401073
 21
1062.785054
 31
0.0
  0
CIRCLE
  5
132EB
100
AcDbEntity
  8
0
100
AcDbCircle
 10
450.732109
 20
1002.785054
 30
0.0
 40
21.0
  0
LINE
  5
132EC
100
AcDbEntity
  8
0
100
AcDbLine
 10
498.143543
 20
981.784489
 30
0.0
 11
404.248556
 21
981.785608
 31
0.0
  0
LINE
  5
132ED
100
AcDbEntity
  8
0
100
AcDbLine
 10
504.731671
 20
1025.784387
 30
0.0
 11
396.731671
 21
1025.785721
 31
0.0
  0
LINE
  5
132EE
100
AcDbEntity
  8
0
100
AcDbLine
 10
504.731692
 20
1027.573721
 30
0.0
 11
396.731692
 21
1027.575055
 31
0.0
  0
LINE
  5
132EF
100
AcDbEntity
  8
0
100
AcDbLine
 10
504.731859
 20
1041.573721
 30
0.0
 11
396.731859
 21
1041.575055
 31
0.0
  0
LINE
  5
132F0
100
AcDbEntity
  8
0
100
AcDbLine
 10
464.732073
 20
1061.574221
 30
0.0
 11
436.732073
 21
1061.574555
 31
0.0
  0
LINE
  5
132F1
100
AcDbEntity
  8
0
100
AcDbLine
 10
396.731671
 20
1025.785721
 30
0.0
 11
396.731504
 21
1011.785721
 31
0.0
  0
ARC
  5
132F2
100
AcDbEntity
  8
0
100
AcDbCircle
 10
409.231933
 20
988.043879
 30
0.0
 40
8.0
100
AcDbArc
 50
179.999317
 51
239.999317
  0
LINE
  5
132F3
100
AcDbEntity
  8
0
100
AcDbLine
 10
396.731504
 20
1011.785721
 30
0.0
 11
424.732216
 21
1011.785364
 31
0.0
  0
LINE
  5
132F4
100
AcDbEntity
  8
0
100
AcDbLine
 10
401.23218
 20
1008.785644
 30
0.0
 11
401.231933
 21
988.043974
 31
0.0
  0
ARC
  5
132F5
100
AcDbEntity
  8
0
100
AcDbCircle
 10
398.23218
 20
1008.78568
 30
0.0
 40
3.0
100
AcDbArc
 50
359.999317
 51
89.999317
  0
LINE
  5
132F6
100
AcDbEntity
  8
0
100
AcDbLine
 10
429.732198
 20
1010.285304
 30
0.0
 11
429.73202
 21
995.285304
 31
0.0
  0
ARC
  5
132F7
100
AcDbEntity
  8
0
100
AcDbCircle
 10
402.731799
 20
976.785626
 30
0.0
 40
5.0
100
AcDbArc
 50
359.999317
 51
59.999317
  0
LINE
  5
132F8
100
AcDbEntity
  8
0
100
AcDbLine
 10
407.731621
 20
961.785567
 30
0.0
 11
407.731799
 21
976.785567
 31
0.0
  0
ARC
  5
132F9
100
AcDbEntity
  8
0
100
AcDbCircle
 10
431.23202
 20
995.285287
 30
0.0
 40
1.5
100
AcDbArc
 50
179.999317
 51
269.999317
  0
LINE
  5
132FA
100
AcDbEntity
  8
0
100
AcDbLine
 10
431.758336
 20
993.78528
 30
0.0
 11
431.232002
 21
993.785287
 31
0.0
  0
ARC
  5
132FB
100
AcDbEntity
  8
0
100
AcDbCircle
 10
424.732157
 20
1006.785364
 30
0.0
 40
5.0
100
AcDbArc
 50
359.999317
 51
89.999317
  0
ARC
  5
132FC
100
AcDbEntity
  8
0
100
AcDbCircle
 10
431.232198
 20
1010.285287
 30
0.0
 40
1.5
100
AcDbArc
 50
89.999317
 51
179.999317
  0
LINE
  5
132FD
100
AcDbEntity
  8
0
100
AcDbLine
 10
431.75855
 20
1011.78528
 30
0.0
 11
431.232216
 21
1011.785287
 31
0.0
  0
ARC
  5
132FE
100
AcDbEntity
  8
0
100
AcDbCircle
 10
404.995663
 20
1036.289557
 30
0.0
 40
14.28125
100
AcDbArc
 50
68.43589
 51
111.573082
  0
LINE
  5
132FF
100
AcDbEntity
  8
0
100
AcDbLine
 10
420.744545
 20
1050.571423
 30
0.0
 11
399.744545
 21
1050.569779
 31
0.0
  0
LINE
  5
13300
100
AcDbEntity
  8
0
100
AcDbLine
 10
396.731859
 20
1041.575055
 30
0.0
 11
396.731692
 21
1027.575055
 31
0.0
  0
LINE
  5
13301
100
AcDbEntity
  8
0
100
AcDbLine
 10
399.744545
 20
1050.569779
 30
0.0
 11
399.74525
 21
1041.570396
 31
0.0
  0
LINE
  5
13302
100
AcDbEntity
  8
0
100
AcDbLine
 10
412.231692
 20
1027.574847
 30
0.0
 11
412.231671
 21
1025.785513
 31
0.0
  0
LINE
  5
13303
100
AcDbEntity
  8
0
100
AcDbLine
 10
436.732073
 20
1061.574555
 30
0.0
 11
436.731859
 21
1041.574555
 31
0.0
  0
LINE
  5
13304
100
AcDbEntity
  8
0
100
AcDbLine
 10
410.244623
 20
1049.571218
 30
0.0
 11
410.24525
 21
1041.571218
 31
0.0
  0
LINE
  5
13305
100
AcDbEntity
  8
0
100
AcDbLine
 10
420.744545
 20
1050.571423
 30
0.0
 11
420.74525
 21
1041.57204
 31
0.0
  0
ARC
  5
13306
100
AcDbEntity
  8
0
100
AcDbCircle
 10
415.495663
 20
1036.290379
 30
0.0
 40
14.28125
100
AcDbArc
 50
68.43589
 51
111.573082
  0
LINE
  5
13307
100
AcDbEntity
  8
0
100
AcDbLine
 10
504.731671
 20
1025.784387
 30
0.0
 11
504.731504
 21
1011.784387
 31
0.0
  0
ARC
  5
13308
100
AcDbEntity
  8
0
100
AcDbCircle
 10
476.732157
 20
1006.784744
 30
0.0
 40
5.0
100
AcDbArc
 50
89.999317
 51
179.999317
  0
LINE
  5
13309
100
AcDbEntity
  8
0
100
AcDbLine
 10
471.732198
 20
1010.284804
 30
0.0
 11
471.73202
 21
995.284804
 31
0.0
  0
LINE
  5
1330A
100
AcDbEntity
  8
0
100
AcDbLine
 10
469.705668
 20
993.784828
 30
0.0
 11
470.232002
 21
993.784822
 31
0.0
  0
ARC
  5
1330B
100
AcDbEntity
  8
0
100
AcDbCircle
 10
470.23202
 20
995.284822
 30
0.0
 40
1.5
100
AcDbArc
 50
269.999317
 51
359.999317
  0
LINE
  5
1330C
100
AcDbEntity
  8
0
100
AcDbLine
 10
469.705882
 20
1011.784828
 30
0.0
 11
470.232216
 21
1011.784822
 31
0.0
  0
ARC
  5
1330D
100
AcDbEntity
  8
0
100
AcDbCircle
 10
470.232198
 20
1010.284822
 30
0.0
 40
1.5
100
AcDbArc
 50
359.999317
 51
89.999317
  0
LINE
  5
1330E
100
AcDbEntity
  8
0
100
AcDbLine
 10
504.732145
 20
1005.78325
 30
0.0
 11
504.731895
 21
984.78325
 31
0.0
  0
ARC
  5
1330F
100
AcDbEntity
  8
0
100
AcDbCircle
 10
515.772735
 20
995.064356
 30
0.0
 40
20.073875
100
AcDbArc
 50
148.270224
 51
209.159574
  0
ARC
  5
13310
100
AcDbEntity
  8
0
100
AcDbCircle
 10
498.731799
 20
976.784482
 30
0.0
 40
5.0
100
AcDbArc
 50
100.80624
 51
179.999317
  0
LINE
  5
13311
100
AcDbEntity
  8
0
100
AcDbLine
 10
493.73162
 20
961.784542
 30
0.0
 11
493.731799
 21
976.784542
 31
0.0
  0
ARC
  5
13312
100
AcDbEntity
  8
0
100
AcDbCircle
 10
497.231893
 20
984.642617
 30
0.0
 40
3.0
100
AcDbArc
 50
280.80624
 51
331.539237
  0
LINE
  5
13313
100
AcDbEntity
  8
0
100
AcDbLine
 10
504.731895
 20
984.78325
 30
0.0
 11
502.506791
 21
984.783276
 31
0.0
  0
ARC
  5
13314
100
AcDbEntity
  8
0
100
AcDbCircle
 10
502.506755
 20
981.783276
 30
0.0
 40
3.0
100
AcDbArc
 50
89.999317
 51
151.539237
  0
LINE
  5
13315
100
AcDbEntity
  8
0
100
AcDbLine
 10
504.732928
 20
1011.784387
 30
0.0
 11
476.732216
 21
1011.784744
 31
0.0
  0
LINE
  5
13316
100
AcDbEntity
  8
0
100
AcDbLine
 10
500.23218
 20
1008.784464
 30
0.0
 11
500.23218
 21
1008.783303
 31
0.0
  0
LINE
  5
13317
100
AcDbEntity
  8
0
100
AcDbLine
 10
504.732145
 20
1005.78325
 30
0.0
 11
503.232145
 21
1005.783267
 31
0.0
  0
ARC
  5
13318
100
AcDbEntity
  8
0
100
AcDbCircle
 10
503.23218
 20
1008.784429
 30
0.0
 40
3.0
100
AcDbArc
 50
89.999317
 51
179.999317
  0
ARC
  5
13319
100
AcDbEntity
  8
0
100
AcDbCircle
 10
503.23218
 20
1008.783267
 30
0.0
 40
3.0
100
AcDbArc
 50
179.999317
 51
269.999317
  0
LINE
  5
1331A
100
AcDbEntity
  8
0
100
AcDbLine
 10
456.732073
 20
1025.78498
 30
0.0
 11
456.732073
 21
1022.909677
 31
0.0
  0
LINE
  5
1331B
100
AcDbEntity
  8
0
100
AcDbLine
 10
444.732073
 20
1025.785128
 30
0.0
 11
444.732073
 21
1022.909655
 31
0.0
  0
LINE
  5
1331C
100
AcDbEntity
  8
0
100
AcDbLine
 10
464.732073
 20
1061.574221
 30
0.0
 11
464.731859
 21
1041.574221
 31
0.0
  0
LINE
  5
1331D
100
AcDbEntity
  8
0
100
AcDbLine
 10
459.063073
 20
1062.785054
 30
0.0
 11
442.401073
 21
1062.785054
 31
0.0
  0
LINE
  5
1331E
100
AcDbEntity
  8
0
100
AcDbLine
 10
443.257073
 20
1062.785054
 30
0.0
 11
443.294889
 21
1061.574388
 31
0.0
  0
LINE
  5
1331F
100
AcDbEntity
  8
0
100
AcDbLine
 10
442.401073
 20
1062.785054
 30
0.0
 11
442.438889
 21
1061.574388
 31
0.0
  0
LINE
  5
13320
100
AcDbEntity
  8
0
100
AcDbLine
 10
458.207073
 20
1062.785054
 30
0.0
 11
458.169258
 21
1061.574388
 31
0.0
  0
LINE
  5
13321
100
AcDbEntity
  8
0
100
AcDbLine
 10
459.063073
 20
1062.785054
 30
0.0
 11
459.025258
 21
1061.574388
 31
0.0
  0
LINE
  5
13322
100
AcDbEntity
  8
0
100
AcDbLine
 10
504.731859
 20
1041.573721
 30
0.0
 11
504.731692
 21
1027.573721
 31
0.0
  0
LINE
  5
13323
100
AcDbEntity
  8
0
100
AcDbLine
 10
489.231692
 20
1027.573929
 30
0.0
 11
489.231671
 21
1025.784596
 31
0.0
  0
LINE
  5
13324
100
AcDbEntity
  8
0
100
AcDbLine
 10
480.718575
 20
1050.573414
 30
0.0
 11
501.718575
 21
1050.573163
 31
0.0
  0
ARC
  5
13325
100
AcDbEntity
  8
0
100
AcDbCircle
 10
485.968405
 20
1036.292718
 30
0.0
 40
14.28125
100
AcDbArc
 50
68.430722
 51
111.567913
  0
LINE
  5
13326
100
AcDbEntity
  8
0
100
AcDbLine
 10
480.718575
 20
1050.573414
 30
0.0
 11
480.718468
 21
1041.574031
 31
0.0
  0
ARC
  5
13327
100
AcDbEntity
  8
0
100
AcDbCircle
 10
496.468405
 20
1036.292593
 30
0.0
 40
14.28125
100
AcDbArc
 50
68.430722
 51
111.567913
  0
LINE
  5
13328
100
AcDbEntity
  8
0
100
AcDbLine
 10
491.218563
 20
1049.573906
 30
0.0
 11
491.218468
 21
1041.573906
 31
0.0
  0
LINE
  5
13329
100
AcDbEntity
  8
0
100
AcDbLine
 10
501.718575
 20
1050.573163
 30
0.0
 11
501.718468
 21
1041.573781
 31
0.0
  0
LINE
  5
1332A
100
AcDbEntity
  8
0
100
AcDbLine
 10
459.063073
 20
1071.785054
 30
0.0
 11
442.401073
 21
1071.785054
 31
0.0
  0
INSERT
  5
1332B
100
AcDbEntity
  8
0
100
AcDbBlockReference
  2
YA
 10
593.065393
 20
1002.782704
 30
0.0
 41
3.6
 42
3.6
 43
3.6
  0
LINE
  5
1332C
100
AcDbEntity
  8
0
100
AcDbLine
 10
621.971193
 20
1025.782704
 30
0.0
 11
621.971193
 21
1011.782704
 31
0.0
  0
LINE
  5
1332D
100
AcDbEntity
  8
0
100
AcDbLine
 10
607.971193
 20
1023.782704
 30
0.0
 11
607.971193
 21
1002.782704
 31
0.0
  0
LINE
  5
1332E
100
AcDbEntity
  8
0
100
AcDbLine
 10
607.971193
 20
1002.782704
 30
0.0
 11
607.971193
 21
981.782704
 31
0.0
  0
LINE
  5
1332F
100
AcDbEntity
  8
0
100
AcDbLine
 10
611.971193
 20
1011.782704
 30
0.0
 11
611.971193
 21
993.782704
 31
0.0
  0
LINE
  5
13330
100
AcDbEntity
  8
0
100
AcDbLine
 10
626.971193
 20
1011.782704
 30
0.0
 11
626.971193
 21
993.782704
 31
0.0
  0
LINE
  5
13331
100
AcDbEntity
  8
0
100
AcDbLine
 10
626.971193
 20
993.782704
 30
0.0
 11
611.971193
 21
993.782704
 31
0.0
  0
ARC
  5
13332
100
AcDbEntity
  8
0
100
AcDbCircle
 10
629.971193
 20
976.782704
 30
0.0
 40
5.0
100
AcDbArc
 50
0.0
 51
90.0
  0
LINE
  5
13333
100
AcDbEntity
  8
0
100
AcDbLine
 10
634.971193
 20
976.782704
 30
0.0
 11
634.971193
 21
961.782704
 31
0.0
  0
LINE
  5
13334
100
AcDbEntity
  8
0
100
AcDbLine
 10
626.971193
 20
1011.782704
 30
0.0
 11
611.971193
 21
1011.782704
 31
0.0
  0
LINE
  5
13335
100
AcDbEntity
  8
0
100
AcDbLine
 10
607.971193
 20
1023.782704
 30
0.0
 11
621.971193
 21
1023.782704
 31
0.0
  0
LINE
  5
13336
100
AcDbEntity
  8
0
100
AcDbLine
 10
621.971193
 20
1041.572038
 30
0.0
 11
621.971193
 21
1027.572038
 31
0.0
  0
LINE
  5
13337
100
AcDbEntity
  8
0
100
AcDbLine
 10
612.971193
 20
1025.782704
 30
0.0
 11
612.971193
 21
1023.782704
 31
0.0
  0
LINE
  5
13338
100
AcDbEntity
  8
0
100
AcDbLine
 10
639.471193
 20
1027.572038
 30
0.0
 11
639.471193
 21
1025.782704
 31
0.0
  0
ARC
  5
13339
100
AcDbEntity
  8
0
100
AcDbCircle
 10
636.958999
 20
1031.685382
 30
0.0
 40
18.886039
100
AcDbArc
 50
71.277359
 51
108.722641
  0
LINE
  5
1333A
100
AcDbEntity
  8
0
100
AcDbLine
 10
630.896822
 20
1041.572038
 30
0.0
 11
630.896822
 21
1049.572038
 31
0.0
  0
LINE
  5
1333B
100
AcDbEntity
  8
0
100
AcDbLine
 10
624.834644
 20
1049.572038
 30
0.0
 11
624.834644
 21
1041.572038
 31
0.0
  0
ARC
  5
1333C
100
AcDbEntity
  8
0
100
AcDbCircle
 10
627.865733
 20
1045.475143
 30
0.0
 40
5.096278
100
AcDbArc
 50
53.504105
 51
126.495895
  0
LINE
  5
1333D
100
AcDbEntity
  8
0
100
AcDbLine
 10
624.834644
 20
1049.572038
 30
0.0
 11
626.566695
 21
1050.572038
 31
0.0
  0
LINE
  5
1333E
100
AcDbEntity
  8
0
100
AcDbLine
 10
637.485296
 20
1050.571421
 30
0.0
 11
627.293733
 21
1050.571421
 31
0.0
  0
LINE
  5
1333F
100
AcDbEntity
  8
0
100
AcDbLine
 10
643.021177
 20
1041.572038
 30
0.0
 11
643.021177
 21
1049.572038
 31
0.0
  0
ARC
  5
13340
100
AcDbEntity
  8
0
100
AcDbCircle
 10
637.050151
 20
1171.639835
 30
0.0
 40
12.0
100
AcDbArc
 50
188.385539
 51
270.0
  0
INSERT
  5
13341
100
AcDbEntity
  8
0
100
AcDbBlockReference
  2
YA
 10
593.065393
 20
1213.639835
 30
0.0
 41
3.6
 42
3.6
 43
3.6
  0
LINE
  5
13342
100
AcDbEntity
  8
0
100
AcDbLine
 10
607.971193
 20
1234.639835
 30
0.0
 11
607.971193
 21
1213.639835
 31
0.0
  0
LINE
  5
13343
100
AcDbEntity
  8
0
100
AcDbLine
 10
622.707095
 20
1192.639835
 30
0.0
 11
607.971193
 21
1192.639835
 31
0.0
  0
LINE
  5
13344
100
AcDbEntity
  8
0
100
AcDbLine
 10
607.971193
 20
1213.639835
 30
0.0
 11
607.971193
 21
1192.639835
 31
0.0
  0
ARC
  5
13345
100
AcDbEntity
  8
0
100
AcDbCircle
 10
618.971193
 20
1213.639835
 30
0.0
 40
6.0
100
AcDbArc
 50
89.149041
 51
270.850959
  0
LINE
  5
13346
100
AcDbEntity
  8
0
100
AcDbLine
 10
611.971193
 20
1190.639835
 30
0.0
 11
622.854159
 21
1190.639835
 31
0.0
  0
LINE
  5
13347
100
AcDbEntity
  8
0
100
AcDbLine
 10
611.971193
 20
1190.639835
 30
0.0
 11
611.971193
 21
1192.639835
 31
0.0
  0
ARC
  5
13348
100
AcDbEntity
  8
0
100
AcDbCircle
 10
619.104856
 20
1204.640827
 30
0.0
 40
3.0
100
AcDbArc
 50
1.701917
 51
90.850959
  0
ARC
  5
13349
100
AcDbEntity
  8
0
100
AcDbCircle
 10
619.104856
 20
1222.638842
 30
0.0
 40
3.0
100
AcDbArc
 50
269.149041
 51
358.298083
  0
LINE
  5
1334A
100
AcDbEntity
  8
0
100
AcDbLine
 10
622.707095
 20
1234.639835
 30
0.0
 11
607.971193
 21
1234.639835
 31
0.0
  0
LINE
  5
1334B
100
AcDbEntity
  8
0
100
AcDbLine
 10
611.971193
 20
1234.639835
 30
0.0
 11
611.971193
 21
1236.639835
 31
0.0
  0
ARC
  5
1334C
100
AcDbEntity
  8
0
100
AcDbCircle
 10
637.050151
 20
1255.639835
 30
0.0
 40
12.0
100
AcDbArc
 50
90.0
 51
171.614461
  0
LINE
  5
1334D
100
AcDbEntity
  8
0
100
AcDbLine
 10
611.971193
 20
1236.639835
 30
0.0
 11
622.854159
 21
1236.639835
 31
0.0
  0
LINE
  5
1334E
100
AcDbEntity
  8
0
100
AcDbLine
 10
597.936769
 20
1342.905685
 30
0.0
 11
624.016665
 21
1349.894177
 31
0.0
  0
LINE
  5
1334F
100
AcDbEntity
  8
0
100
AcDbLine
 10
590.948277
 20
1368.98558
 30
0.0
 11
617.028172
 21
1375.974073
 31
0.0
  0
LINE
  5
13350
100
AcDbEntity
  8
0
100
AcDbLine
 10
597.936769
 20
1342.905685
 30
0.0
 11
590.948277
 21
1368.98558
 31
0.0
  0
LINE
  5
13351
100
AcDbEntity
  8
0
100
AcDbLine
 10
622.510989
 20
1355.510643
 30
0.0
 11
628.017797
 21
1356.985783
 31
0.0
  0
LINE
  5
13352
100
AcDbEntity
  8
0
100
AcDbLine
 10
623.113518
 20
1353.261359
 30
0.0
 11
628.620325
 21
1354.736499
 31
0.0
  0
LINE
  5
13353
100
AcDbEntity
  8
0
100
AcDbLine
 10
618.533848
 20
1370.357607
 30
0.0
 11
624.040656
 21
1371.832747
 31
0.0
  0
LINE
  5
13354
100
AcDbEntity
  8
0
100
AcDbLine
 10
623.438128
 20
1374.082031
 30
0.0
 11
624.040656
 21
1371.832747
 31
0.0
  0
LINE
  5
13355
100
AcDbEntity
  8
0
100
AcDbLine
 10
625.115281
 20
1345.788627
 30
0.0
 11
615.929557
 21
1380.079624
 31
0.0
  0
LINE
  5
13356
100
AcDbEntity
  8
0
100
AcDbLine
 10
617.93132
 20
1372.606891
 30
0.0
 11
623.438128
 21
1374.082031
 31
0.0
  0
ARC
  5
13357
100
AcDbEntity
  8
0
100
AcDbCircle
 10
622.870437
 20
1349.191766
 30
0.0
 40
7.987821
100
AcDbArc
 50
346.032743
 51
43.959398
  0
LINE
  5
13358
100
AcDbEntity
  8
0
100
AcDbLine
 10
631.294692
 20
1349.773269
 30
0.0
 11
630.622088
 21
1347.263766
 31
0.0
  0
LINE
  5
13359
100
AcDbEntity
  8
0
100
AcDbLine
 10
625.115281
 20
1345.788627
 30
0.0
 11
630.622088
 21
1347.263766
 31
0.0
  0
ARC
  5
1335A
100
AcDbEntity
  8
0
100
AcDbCircle
 10
597.958747
 20
1356.889866
 30
0.0
 40
30.059202
100
AcDbArc
 50
0.182826
 51
29.809314
  0
LINE
  5
1335B
100
AcDbEntity
  8
0
100
AcDbLine
 10
628.017797
 20
1356.985783
 30
0.0
 11
628.620325
 21
1354.736499
 31
0.0
  0
TEXT
  5
1335C
100
AcDbEntity
  8
0
100
AcDbText
 10
196.09841
 20
1409.842665
 30
0.0
 40
42.0
  1
背面
100
AcDbText
  0
LINE
  5
1335D
100
AcDbEntity
  8
0
100
AcDbLine
 10
607.970888
 20
1444.350704
 30
0.0
 11
607.971193
 21
1423.350704
 31
0.0
  0
LINE
  5
1335E
100
AcDbEntity
  8
0
100
AcDbLine
 10
636.970859
 20
1446.351124
 30
0.0
 11
636.971062
 21
1432.351124
 31
0.0
  0
LINE
  5
1335F
100
AcDbEntity
  8
0
100
AcDbLine
 10
621.606725
 20
1402.350901
 30
0.0
 11
607.971497
 21
1402.350704
 31
0.0
  0
LINE
  5
13360
100
AcDbEntity
  8
0
100
AcDbLine
 10
607.971193
 20
1423.350704
 30
0.0
 11
607.971497
 21
1402.350704
 31
0.0
  0
LINE
  5
13361
100
AcDbEntity
  8
0
100
AcDbLine
 10
627.659871
 20
1385.534567
 30
0.0
 11
626.587764
 21
1397.786752
 31
0.0
  0
LINE
  5
13362
100
AcDbEntity
  8
0
100
AcDbLine
 10
625.44779
 20
1382.37529
 30
0.0
 11
622.759508
 21
1381.654925
 31
0.0
  0
LINE
  5
13363
100
AcDbEntity
  8
0
100
AcDbLine
 10
623.721532
 20
1381.912714
 30
0.0
 11
624.488796
 21
1382.118313
 31
0.0
  0
ARC
  5
13364
100
AcDbEntity
  8
0
100
AcDbCircle
 10
624.67129
 20
1385.273056
 30
0.0
 40
3.0
100
AcDbArc
 50
285.000831
 51
5.000831
  0
LINE
  5
13365
100
AcDbEntity
  8
0
100
AcDbLine
 10
611.971323
 20
1414.350762
 30
0.0
 11
626.971323
 21
1414.350979
 31
0.0
  0
LINE
  5
13366
100
AcDbEntity
  8
0
100
AcDbLine
 10
611.971062
 20
1432.350762
 30
0.0
 11
626.971062
 21
1432.350979
 31
0.0
  0
ARC
  5
13367
100
AcDbEntity
  8
0
100
AcDbCircle
 10
621.606797
 20
1397.350901
 30
0.0
 40
5.0
100
AcDbArc
 50
5.000831
 51
90.000831
  0
LINE
  5
13368
100
AcDbEntity
  8
0
100
AcDbLine
 10
611.971062
 20
1432.350762
 30
0.0
 11
611.971323
 21
1414.350762
 31
0.0
  0
LINE
  5
13369
100
AcDbEntity
  8
0
100
AcDbLine
 10
626.971062
 20
1432.350979
 30
0.0
 11
626.971323
 21
1414.350979
 31
0.0
  0
LINE
  5
1336A
100
AcDbEntity
  8
0
100
AcDbLine
 10
636.970888
 20
1444.351124
 30
0.0
 11
607.970888
 21
1444.350704
 31
0.0
  0
LINE
  5
1336B
100
AcDbEntity
  8
0
100
AcDbLine
 10
636.970398
 20
1478.141271
 30
0.0
 11
636.970833
 21
1448.140458
 31
0.0
  0
LINE
  5
1336C
100
AcDbEntity
  8
0
100
AcDbLine
 10
645.896259
 20
1462.140588
 30
0.0
 11
645.896143
 21
1470.140588
 31
0.0
  0
LINE
  5
1336D
100
AcDbEntity
  8
0
100
AcDbLine
 10
639.833965
 20
1470.1405
 30
0.0
 11
639.834081
 21
1462.1405
 31
0.0
  0
ARC
  5
1336E
100
AcDbEntity
  8
0
100
AcDbCircle
 10
642.865113
 20
1466.043648
 30
0.0
 40
5.096278
100
AcDbArc
 50
53.504937
 51
126.496726
  0
LINE
  5
1336F
100
AcDbEntity
  8
0
100
AcDbLine
 10
639.833965
 20
1470.1405
 30
0.0
 11
641.566001
 21
1471.140525
 31
0.0
  0
ARC
  5
13370
100
AcDbEntity
  8
0
100
AcDbCircle
 10
692.971788
 20
1382.351937
 30
0.0
 40
43.0
100
AcDbArc
 50
341.039013
 51
0.000831
  0
ARC
  5
13371
100
AcDbEntity
  8
0
100
AcDbCircle
 10
692.971788
 20
1382.351937
 30
0.0
 40
43.0
100
AcDbArc
 50
180.000831
 51
199.96723
  0
ARC
  5
13372
100
AcDbEntity
  8
0
100
AcDbCircle
 10
875.209387
 20
961.782704
 30
0.0
 40
43.0
100
AcDbArc
 50
180.0
 51
0.0
  0
ARC
  5
13373
100
AcDbEntity
  8
0
100
AcDbCircle
 10
677.971193
 20
961.782704
 30
0.0
 40
43.0
100
AcDbArc
 50
340.033601
 51
360.0
  0
LINE
  5
13374
100
AcDbEntity
  8
0
100
AcDbLine
 10
745.49519
 20
961.807037
 30
0.0
 11
748.183482
 21
961.086711
 31
0.0
  0
ARC
  5
13375
100
AcDbEntity
  8
0
100
AcDbCircle
 10
746.271647
 20
964.704814
 30
0.0
 40
3.0
100
AcDbArc
 50
175.0
 51
255.0
  0
ELLIPSE
  5
13376
100
AcDbEntity
  8
0
100
AcDbEllipse
 10
875.209387
 20
945.55486
 30
0.0
 11
-17.5
 21
0.0
 31
0.0
210
0.0
220
0.0
230
1.0
 40
0.965926
 41
3.101003103797176
 42
6.32377485697224
  0
LINE
  5
13377
100
AcDbEntity
  8
0
100
AcDbLine
 10
854.720492
 20
994.154837
 30
0.0
 11
857.737966
 21
943.217354
 31
0.0
  0
LINE
  5
13378
100
AcDbEntity
  8
0
100
AcDbLine
 10
895.698283
 20
994.154837
 30
0.0
 11
892.680809
 21
943.217354
 31
0.0
  0
LINE
  5
13379
100
AcDbEntity
  8
0
100
AcDbLine
 10
714.397001
 20
933.905105
 30
0.0
 11
739.124816
 21
927.279307
 31
0.0
  0
ARC
  5
1337A
100
AcDbEntity
  8
0
100
AcDbCircle
 10
677.971193
 20
961.782704
 30
0.0
 40
43.0
100
AcDbArc
 50
257.619201
 51
317.046813
  0
ARC
  5
1337B
100
AcDbEntity
  8
0
100
AcDbCircle
 10
713.102905
 20
929.075476
 30
0.0
 40
5.0
100
AcDbArc
 50
75.0
 51
137.046813
  0
LINE
  5
1337C
100
AcDbEntity
  8
0
100
AcDbLine
 10
755.013457
 20
959.511509
 30
0.0
 11
749.506628
 21
960.986569
 31
0.0
  0
LINE
  5
1337D
100
AcDbEntity
  8
0
100
AcDbLine
 10
745.82823
 20
925.220379
 30
0.0
 11
755.013457
 21
959.511509
 31
0.0
  0
LINE
  5
1337E
100
AcDbEntity
  8
0
100
AcDbLine
 10
773.006783
 20
922.337831
 30
0.0
 11
746.926786
 21
929.325945
 31
0.0
  0
LINE
  5
1337F
100
AcDbEntity
  8
0
100
AcDbLine
 10
753.011802
 20
952.038747
 30
0.0
 11
747.504973
 21
953.513807
 31
0.0
  0
LINE
  5
13380
100
AcDbEntity
  8
0
100
AcDbLine
 10
752.409306
 20
949.789455
 30
0.0
 11
746.902477
 21
951.264515
 31
0.0
  0
LINE
  5
13381
100
AcDbEntity
  8
0
100
AcDbLine
 10
747.669663
 20
959.149299
 30
0.0
 11
749.506628
 21
960.986569
 31
0.0
  0
ARC
  5
13382
100
AcDbEntity
  8
0
100
AcDbCircle
 10
755.256596
 20
955.441919
 30
0.0
 40
7.987821
100
AcDbArc
 50
136.041434
 51
193.968089
  0
LINE
  5
13383
100
AcDbEntity
  8
0
100
AcDbLine
 10
739.124816
 20
927.279307
 30
0.0
 11
748.183482
 21
961.086711
 31
0.0
  0
ARC
  5
13384
100
AcDbEntity
  8
0
100
AcDbCircle
 10
772.984602
 20
936.322012
 30
0.0
 40
30.059202
100
AcDbArc
 50
150.191517
 51
179.818005
  0
LINE
  5
13385
100
AcDbEntity
  8
0
100
AcDbLine
 10
747.829885
 20
932.69314
 30
0.0
 11
742.323056
 21
934.1682
 31
0.0
  0
LINE
  5
13386
100
AcDbEntity
  8
0
100
AcDbLine
 10
748.432381
 20
934.942433
 30
0.0
 11
742.925552
 21
936.417493
 31
0.0
  0
LINE
  5
13387
100
AcDbEntity
  8
0
100
AcDbLine
 10
742.925552
 20
936.417493
 30
0.0
 11
742.323056
 21
934.1682
 31
0.0
  0
LINE
  5
13388
100
AcDbEntity
  8
0
100
AcDbLine
 10
745.82823
 20
925.220379
 30
0.0
 11
740.321401
 21
926.695439
 31
0.0
  0
ARC
  5
13389
100
AcDbEntity
  8
0
100
AcDbCircle
 10
748.073025
 20
928.62355
 30
0.0
 40
7.987821
100
AcDbArc
 50
136.041434
 51
193.968089
  0
LINE
  5
1338A
100
AcDbEntity
  8
0
100
AcDbLine
 10
739.648761
 20
929.204932
 30
0.0
 11
740.321401
 21
926.695439
 31
0.0
  0
LINE
  5
1338B
100
AcDbEntity
  8
0
100
AcDbLine
 10
747.504973
 20
953.513807
 30
0.0
 11
746.902477
 21
951.264515
 31
0.0
  0
LINE
  5
1338C
100
AcDbEntity
  8
0
100
AcDbLine
 10
747.221454
 20
961.344486
 30
0.0
 11
746.454188
 21
961.550074
 31
0.0
  0
LINE
  5
1338D
100
AcDbEntity
  8
0
100
AcDbLine
 10
773.006783
 20
922.337831
 30
0.0
 11
779.994898
 21
948.417828
 31
0.0
  0
LINE
  5
1338E
100
AcDbEntity
  8
0
100
AcDbLine
 10
779.994898
 20
948.417828
 30
0.0
 11
753.9149
 21
955.405942
 31
0.0
  0
ELLIPSE
  5
1338F
100
AcDbEntity
  8
0
100
AcDbEllipse
 10
875.209387
 20
942.110796
 30
0.0
 11
17.75
 21
0.0
 31
0.0
210
0.0
220
0.0
230
-1.0
 40
0.965926
 41
0.4477847473764708
 42
0.5994123592542787
  0
ELLIPSE
  5
13390
100
AcDbEntity
  8
0
100
AcDbEllipse
 10
875.209387
 20
942.110796
 30
0.0
 11
17.75
 21
0.0
 31
0.0
210
0.0
220
0.0
230
-1.0
 40
0.965926
 41
5.683772947925307
 42
5.835400559803447
  0
ELLIPSE
  5
13391
100
AcDbEntity
  8
0
100
AcDbEllipse
 10
875.209387
 20
944.183009
 30
0.0
 11
17.75
 21
0.0
 31
0.0
210
0.0
220
0.0
230
-1.0
 40
0.965926
 41
5.683772947925307
 42
5.835400559803447
  0
LINE
  5
13392
100
AcDbEntity
  8
0
100
AcDbLine
 10
873.864978
 20
959.20673
 30
0.0
 11
873.864978
 21
961.203432
 31
0.0
  0
LINE
  5
13393
100
AcDbEntity
  8
0
100
AcDbLine
 10
876.553797
 20
959.20673
 30
0.0
 11
876.553797
 21
961.203432
 31
0.0
  0
LINE
  5
13394
100
AcDbEntity
  8
0
100
AcDbLine
 10
860.553793
 20
953.855591
 30
0.0
 11
873.864978
 21
961.278943
 31
0.0
  0
ELLIPSE
  5
13395
100
AcDbEntity
  8
0
100
AcDbEllipse
 10
875.209387
 20
944.183009
 30
0.0
 11
-17.5
 21
0.0
 31
0.0
210
0.0
220
0.0
230
1.0
 40
0.965926
 41
4.818932400495492
 42
5.653043515254864
  0
LINE
  5
13396
100
AcDbEntity
  8
0
100
AcDbLine
 10
889.864982
 20
953.855591
 30
0.0
 11
876.553797
 21
961.278943
 31
0.0
  0
ELLIPSE
  5
13397
100
AcDbEntity
  8
0
100
AcDbEllipse
 10
875.209387
 20
944.183009
 30
0.0
 11
-17.5
 21
0.0
 31
0.0
210
0.0
220
0.0
230
1.0
 40
0.965926
 41
3.771734445514514
 42
4.605845560273887
  0
LINE
  5
13398
100
AcDbEntity
  8
0
100
AcDbLine
 10
888.709387
 20
935.377829
 30
0.0
 11
888.709387
 21
942.365944
 31
0.0
  0
LINE
  5
13399
100
AcDbEntity
  8
0
100
AcDbLine
 10
861.709387
 20
935.377829
 30
0.0
 11
861.709387
 21
942.365944
 31
0.0
  0
ELLIPSE
  5
1339A
100
AcDbEntity
  8
0
100
AcDbEllipse
 10
875.209387
 20
935.377829
 30
0.0
 11
-10.5
 21
0.0
 31
0.0
210
0.0
220
0.0
230
1.0
 40
0.965926
 41
0.0
 42
6.283185307179586
  0
ELLIPSE
  5
1339B
100
AcDbEntity
  8
0
100
AcDbEllipse
 10
875.209387
 20
935.377829
 30
0.0
 11
-13.5
 21
0.0
 31
0.0
210
0.0
220
0.0
230
1.0
 40
0.965926
 41
0.0
 42
6.283185307179586
  0
LINE
  5
1339C
100
AcDbEntity
  8
0
100
AcDbLine
 10
859.209387
 20
951.606355
 30
0.0
 11
859.209387
 21
934.687451
 31
0.0
  0
ELLIPSE
  5
1339D
100
AcDbEntity
  8
0
100
AcDbEllipse
 10
875.209387
 20
944.183009
 30
0.0
 11
-17.5
 21
0.0
 31
0.0
210
0.0
220
0.0
230
1.0
 40
0.965926
 41
5.86613001289398
 42
6.700240601465533
  0
ELLIPSE
  5
1339E
100
AcDbEntity
  8
0
100
AcDbEllipse
 10
875.209387
 20
942.110796
 30
0.0
 11
-17.75
 21
0.0
 31
0.0
210
0.0
220
0.0
230
1.0
 40
0.965926
 41
0.4477847473764708
 42
0.5994123592542787
  0
LINE
  5
1339F
100
AcDbEntity
  8
0
100
AcDbLine
 10
860.553793
 20
932.438215
 30
0.0
 11
862.338733
 21
931.442794
 31
0.0
  0
LINE
  5
133A0
100
AcDbEntity
  8
0
100
AcDbLine
 10
889.864982
 20
932.438215
 30
0.0
 11
888.080042
 21
931.442794
 31
0.0
  0
ELLIPSE
  5
133A1
100
AcDbEntity
  8
0
100
AcDbEllipse
 10
875.209387
 20
942.365944
 30
0.0
 11
-13.5
 21
0.0
 31
0.0
210
0.0
220
0.0
230
1.0
 40
0.965926
 41
3.141592653589793
 42
6.283185307179586
  0
LINE
  5
133A2
100
AcDbEntity
  8
0
100
AcDbLine
 10
889.864982
 20
951.783378
 30
0.0
 11
889.864982
 21
953.855591
 31
0.0
  0
LINE
  5
133A3
100
AcDbEntity
  8
0
100
AcDbLine
 10
860.553793
 20
951.783378
 30
0.0
 11
873.864978
 21
959.20673
 31
0.0
  0
ELLIPSE
  5
133A4
100
AcDbEntity
  8
0
100
AcDbEllipse
 10
875.209387
 20
942.110796
 30
0.0
 11
-17.75
 21
0.0
 31
0.0
210
0.0
220
0.0
230
1.0
 40
0.965926
 41
4.636574992944329
 42
4.788202967825049
  0
LINE
  5
133A5
100
AcDbEntity
  8
0
100
AcDbLine
 10
860.553793
 20
951.783378
 30
0.0
 11
860.553793
 21
953.855591
 31
0.0
  0
LINE
  5
133A6
100
AcDbEntity
  8
0
100
AcDbLine
 10
889.864982
 20
951.783378
 30
0.0
 11
876.553797
 21
959.20673
 31
0.0
  0
ELLIPSE
  5
133A7
100
AcDbEntity
  8
0
100
AcDbEllipse
 10
875.209387
 20
942.110796
 30
0.0
 11
-17.75
 21
0.0
 31
0.0
210
0.0
220
0.0
230
1.0
 40
0.965926
 41
5.683772947925307
 42
5.835400559803447
  0
ELLIPSE
  5
133A8
100
AcDbEntity
  8
0
100
AcDbEllipse
 10
875.209387
 20
944.183009
 30
0.0
 11
-17.75
 21
0.0
 31
0.0
210
0.0
220
0.0
230
1.0
 40
0.965926
 41
5.683772947925307
 42
5.835400559803447
  0
ELLIPSE
  5
133A9
100
AcDbEntity
  8
0
100
AcDbEllipse
 10
875.209387
 20
944.183009
 30
0.0
 11
-17.75
 21
0.0
 31
0.0
210
0.0
220
0.0
230
1.0
 40
0.965926
 41
4.636574992944329
 42
4.788202967825049
  0
LINE
  5
133AA
100
AcDbEntity
  8
0
100
AcDbLine
 10
891.209387
 20
951.606355
 30
0.0
 11
891.209387
 21
934.687451
 31
0.0
  0
ELLIPSE
  5
133AB
100
AcDbEntity
  8
0
100
AcDbEllipse
 10
875.209387
 20
944.183009
 30
0.0
 11
-17.5
 21
0.0
 31
0.0
210
0.0
220
0.0
230
1.0
 40
0.965926
 41
2.724537359304187
 42
3.55864794787574
  0
ARC
  5
133AC
100
AcDbEntity
  8
0
100
AcDbCircle
 10
916.709387
 20
988.041035
 30
0.0
 40
8.0
100
AcDbArc
 50
300.0
 51
0.0
  0
LINE
  5
133AD
100
AcDbEntity
  8
0
100
AcDbLine
 10
821.210099
 20
1027.572038
 30
0.0
 11
929.210099
 21
1027.572038
 31
0.0
  0
LINE
  5
133AE
100
AcDbEntity
  8
0
100
AcDbLine
 10
821.210099
 20
1025.782704
 30
0.0
 11
929.210099
 21
1025.782704
 31
0.0
  0
LINE
  5
133AF
100
AcDbEntity
  8
0
100
AcDbLine
 10
929.210099
 20
1011.782704
 30
0.0
 11
901.209387
 21
1011.782704
 31
0.0
  0
ARC
  5
133B0
100
AcDbEntity
  8
0
100
AcDbCircle
 10
927.709387
 20
1008.782704
 30
0.0
 40
3.0
100
AcDbArc
 50
90.0
 51
180.0
  0
LINE
  5
133B1
100
AcDbEntity
  8
0
100
AcDbLine
 10
929.208675
 20
1041.572038
 30
0.0
 11
890.209387
 21
1041.572038
 31
0.0
  0
ARC
  5
133B2
100
AcDbEntity
  8
0
100
AcDbCircle
 10
920.946232
 20
1036.286662
 30
0.0
 40
14.28125
100
AcDbArc
 50
68.426236
 51
111.563427
  0
LINE
  5
133B3
100
AcDbEntity
  8
0
100
AcDbLine
 10
905.19752
 20
1050.568716
 30
0.0
 11
926.19752
 21
1050.566821
 31
0.0
  0
ARC
  5
133B4
100
AcDbEntity
  8
0
100
AcDbCircle
 10
433.971193
 20
1213.639835
 30
0.0
 40
300.0
100
AcDbArc
 50
351.614461
 51
8.385539
  0
POLYLINE
  5
133B5
100
AcDbEntity
  8
0
100
AcDb2dPolyline
 66
     1
 10
0.0
 20
0.0
 30
0.0
 70
     1
  0
VERTEX
  5
13A1C
100
AcDbEntity
  8
0
100
AcDbVertex
100
AcDb2dVertex
 10
712.921208
 20
1162.127642
 30
0.0
  0
VERTEX
  5
13A1D
100
AcDbEntity
  8
0
100
AcDbVertex
100
AcDb2dVertex
 10
706.85903
 20
1172.627642
 30
0.0
  0
VERTEX
  5
13A1E
100
AcDbEntity
  8
0
100
AcDbVertex
100
AcDb2dVertex
 10
712.921208
 20
1183.127642
 30
0.0
  0
VERTEX
  5
13A1F
100
AcDbEntity
  8
0
100
AcDbVertex
100
AcDb2dVertex
 10
725.045564
 20
1183.127642
 30
0.0
  0
VERTEX
  5
13A20
100
AcDbEntity
  8
0
100
AcDbVertex
100
AcDb2dVertex
 10
731.107742
 20
1172.627642
 30
0.0
  0
VERTEX
  5
13A21
100
AcDbEntity
  8
0
100
AcDbVertex
100
AcDb2dVertex
 10
725.045564
 20
1162.127642
 30
0.0
  0
SEQEND
  5
13A22
100
AcDbEntity
  8
0
  0
CIRCLE
  5
133B6
100
AcDbEntity
  8
0
100
AcDbCircle
 10
718.983386
 20
1172.627642
 30
0.0
 40
10.5
  0
LINE
  5
133B7
100
AcDbEntity
  8
0
100
AcDbLine
 10
677.971193
 20
1071.782704
 30
0.0
 11
677.971193
 21
1062.782704
 31
0.0
  0
LINE
  5
133B8
100
AcDbEntity
  8
0
100
AcDbLine
 10
669.640193
 20
1071.782704
 30
0.0
 11
669.640193
 21
1062.782704
 31
0.0
  0
LINE
  5
133B9
100
AcDbEntity
  8
0
100
AcDbLine
 10
686.302193
 20
1071.782704
 30
0.0
 11
686.302193
 21
1062.782704
 31
0.0
  0
LINE
  5
133BA
100
AcDbEntity
  8
0
100
AcDbLine
 10
691.971193
 20
1057.572038
 30
0.0
 11
733.971193
 21
1057.572038
 31
0.0
  0
LINE
  5
133BB
100
AcDbEntity
  8
0
100
AcDbLine
 10
729.375691
 20
1050.572038
 30
0.0
 11
708.591081
 21
1050.572038
 31
0.0
  0
ARC
  5
133BC
100
AcDbEntity
  8
0
100
AcDbCircle
 10
718.983386
 20
1031.685382
 30
0.0
 40
18.886039
100
AcDbArc
 50
71.277359
 51
108.722641
  0
CIRCLE
  5
133BD
100
AcDbEntity
  8
0
100
AcDbCircle
 10
677.970481
 20
995.281543
 30
0.0
 40
10.5
  0
LINE
  5
133BE
100
AcDbEntity
  8
0
100
AcDbLine
 10
686.302193
 20
1062.782704
 30
0.0
 11
669.640193
 21
1062.782704
 31
0.0
  0
LINE
  5
133BF
100
AcDbEntity
  8
0
100
AcDbLine
 10
663.971193
 20
1061.572038
 30
0.0
 11
691.971193
 21
1061.572038
 31
0.0
  0
LINE
  5
133C0
100
AcDbEntity
  8
0
100
AcDbLine
 10
663.971193
 20
1061.572038
 30
0.0
 11
663.971193
 21
1041.572038
 31
0.0
  0
LINE
  5
133C1
100
AcDbEntity
  8
0
100
AcDbLine
 10
649.083355
 20
1049.572038
 30
0.0
 11
649.083355
 21
1041.572038
 31
0.0
  0
LINE
  5
133C2
100
AcDbEntity
  8
0
100
AcDbLine
 10
649.083355
 20
1049.572038
 30
0.0
 11
647.351304
 21
1050.572038
 31
0.0
  0
LINE
  5
133C3
100
AcDbEntity
  8
0
100
AcDbLine
 10
670.496193
 20
1062.782704
 30
0.0
 11
670.534008
 21
1061.572038
 31
0.0
  0
LINE
  5
133C4
100
AcDbEntity
  8
0
100
AcDbLine
 10
669.640193
 20
1062.782704
 30
0.0
 11
669.678008
 21
1061.572038
 31
0.0
  0
LINE
  5
133C5
100
AcDbEntity
  8
0
100
AcDbLine
 10
691.971193
 20
1061.572038
 30
0.0
 11
691.971193
 21
1041.572038
 31
0.0
  0
LINE
  5
133C6
100
AcDbEntity
  8
0
100
AcDbLine
 10
706.85903
 20
1049.572038
 30
0.0
 11
708.591081
 21
1050.572038
 31
0.0
  0
ARC
  5
133C7
100
AcDbEntity
  8
0
100
AcDbCircle
 10
709.890119
 20
1045.475143
 30
0.0
 40
5.096278
100
AcDbArc
 50
53.504105
 51
126.495895
  0
LINE
  5
133C8
100
AcDbEntity
  8
0
100
AcDbLine
 10
706.85903
 20
1049.572038
 30
0.0
 11
706.85903
 21
1041.572038
 31
0.0
  0
LINE
  5
133C9
100
AcDbEntity
  8
0
100
AcDbLine
 10
712.921208
 20
1041.572038
 30
0.0
 11
712.921208
 21
1049.572038
 31
0.0
  0
LINE
  5
133CA
100
AcDbEntity
  8
0
100
AcDbLine
 10
685.446193
 20
1062.782704
 30
0.0
 11
685.408377
 21
1061.572038
 31
0.0
  0
LINE
  5
133CB
100
AcDbEntity
  8
0
100
AcDbLine
 10
686.302193
 20
1062.782704
 30
0.0
 11
686.264377
 21
1061.572038
 31
0.0
  0
LINE
  5
133CC
100
AcDbEntity
  8
0
100
AcDbLine
 10
733.971193
 20
1025.782704
 30
0.0
 11
733.971193
 21
1011.782704
 31
0.0
  0
LINE
  5
133CD
100
AcDbEntity
  8
0
100
AcDbLine
 10
762.971193
 20
1023.782704
 30
0.0
 11
762.971193
 21
1002.782704
 31
0.0
  0
LINE
  5
133CE
100
AcDbEntity
  8
0
100
AcDbLine
 10
758.971193
 20
993.782704
 30
0.0
 11
743.971193
 21
993.782704
 31
0.0
  0
LINE
  5
133CF
100
AcDbEntity
  8
0
100
AcDbLine
 10
749.335966
 20
981.782704
 30
0.0
 11
762.971193
 21
981.782704
 31
0.0
  0
LINE
  5
133D0
100
AcDbEntity
  8
0
100
AcDbLine
 10
758.971193
 20
1011.782704
 30
0.0
 11
743.971193
 21
1011.782704
 31
0.0
  0
ARC
  5
133D1
100
AcDbEntity
  8
0
100
AcDbCircle
 10
780.721069
 20
998.71837
 30
0.0
 40
57.671059
100
AcDbArc
 50
174.05568
 51
191.508499
  0
LINE
  5
133D2
100
AcDbEntity
  8
0
100
AcDbLine
 10
743.971193
 20
1011.782704
 30
0.0
 11
743.971193
 21
993.782704
 31
0.0
  0
LINE
  5
133D3
100
AcDbEntity
  8
0
100
AcDbLine
 10
720.971193
 20
979.712867
 30
0.0
 11
720.971193
 21
961.782704
 31
0.0
  0
ARC
  5
133D4
100
AcDbEntity
  8
0
100
AcDbCircle
 10
719.310004
 20
986.214661
 30
0.0
 40
5.0
100
AcDbArc
 50
305.637046
 51
11.508499
  0
ARC
  5
133D5
100
AcDbEntity
  8
0
100
AcDbCircle
 10
723.971193
 20
979.712867
 30
0.0
 40
3.0
100
AcDbArc
 50
125.637046
 51
180.0
  0
ARC
  5
133D6
100
AcDbEntity
  8
0
100
AcDbCircle
 10
749.335966
 20
976.782704
 30
0.0
 40
5.0
100
AcDbArc
 50
90.0
 51
175.0
  0
LINE
  5
133D7
100
AcDbEntity
  8
0
100
AcDbLine
 10
743.283063
 20
964.966282
 30
0.0
 11
744.354992
 21
977.218483
 31
0.0
  0
LINE
  5
133D8
100
AcDbEntity
  8
0
100
AcDbLine
 10
762.971193
 20
1002.782704
 30
0.0
 11
762.971193
 21
981.782704
 31
0.0
  0
LINE
  5
133D9
100
AcDbEntity
  8
0
100
AcDbLine
 10
758.971193
 20
1011.782704
 30
0.0
 11
758.971193
 21
993.782704
 31
0.0
  0
LINE
  5
133DA
100
AcDbEntity
  8
0
100
AcDbLine
 10
733.971193
 20
1023.782704
 30
0.0
 11
762.971193
 21
1023.782704
 31
0.0
  0
LINE
  5
133DB
100
AcDbEntity
  8
0
100
AcDbLine
 10
733.971193
 20
1057.572038
 30
0.0
 11
733.971193
 21
1027.572038
 31
0.0
  0
LINE
  5
133DC
100
AcDbEntity
  8
0
100
AcDbLine
 10
716.471193
 20
1027.572038
 30
0.0
 11
716.471193
 21
1025.782704
 31
0.0
  0
LINE
  5
133DD
100
AcDbEntity
  8
0
100
AcDbLine
 10
718.45709
 20
1050.571421
 30
0.0
 11
728.648652
 21
1050.571421
 31
0.0
  0
LINE
  5
133DE
100
AcDbEntity
  8
0
100
AcDbLine
 10
731.107742
 20
1049.572038
 30
0.0
 11
729.375691
 21
1050.572038
 31
0.0
  0
ARC
  5
133DF
100
AcDbEntity
  8
0
100
AcDbCircle
 10
728.076653
 20
1045.475143
 30
0.0
 40
5.096278
100
AcDbArc
 50
53.504105
 51
126.495895
  0
LINE
  5
133E0
100
AcDbEntity
  8
0
100
AcDbLine
 10
731.107742
 20
1049.572038
 30
0.0
 11
731.107742
 21
1041.572038
 31
0.0
  0
LINE
  5
133E1
100
AcDbEntity
  8
0
100
AcDbLine
 10
725.045564
 20
1041.572038
 30
0.0
 11
725.045564
 21
1049.572038
 31
0.0
  0
LINE
  5
133E2
100
AcDbEntity
  8
0
100
AcDbLine
 10
686.302193
 20
1071.782704
 30
0.0
 11
669.640193
 21
1071.782704
 31
0.0
  0
ARC
  5
133E3
100
AcDbEntity
  8
0
100
AcDbCircle
 10
718.892234
 20
1171.639835
 30
0.0
 40
12.0
100
AcDbArc
 50
270.0
 51
351.614461
  0
LINE
  5
133E4
100
AcDbEntity
  8
0
100
AcDbLine
 10
883.541099
 20
1071.782704
 30
0.0
 11
883.541099
 21
1062.782704
 31
0.0
  0
LINE
  5
133E5
100
AcDbEntity
  8
0
100
AcDbLine
 10
866.879099
 20
1071.782704
 30
0.0
 11
866.879099
 21
1062.782704
 31
0.0
  0
LINE
  5
133E6
100
AcDbEntity
  8
0
100
AcDbLine
 10
875.210099
 20
1071.782704
 30
0.0
 11
875.210099
 21
1062.782704
 31
0.0
  0
CIRCLE
  5
133E7
100
AcDbEntity
  8
0
100
AcDbCircle
 10
875.209387
 20
1002.782704
 30
0.0
 40
21.0
  0
ARC
  5
133E8
100
AcDbEntity
  8
0
100
AcDbCircle
 10
852.625859
 20
978.782704
 30
0.0
 40
3.0
100
AcDbArc
 50
3.39017
 51
90.0
  0
ARC
  5
133E9
100
AcDbEntity
  8
0
100
AcDbCircle
 10
855.709387
 20
995.282704
 30
0.0
 40
1.5
100
AcDbArc
 50
180.0
 51
270.0
  0
LINE
  5
133EA
100
AcDbEntity
  8
0
100
AcDbLine
 10
821.210099
 20
1041.572038
 30
0.0
 11
860.209387
 21
1041.572038
 31
0.0
  0
ARC
  5
133EB
100
AcDbEntity
  8
0
100
AcDbCircle
 10
849.209387
 20
1006.782704
 30
0.0
 40
5.0
100
AcDbArc
 50
360.0
 51
90.0
  0
ARC
  5
133EC
100
AcDbEntity
  8
0
100
AcDbCircle
 10
855.709387
 20
1010.282704
 30
0.0
 40
1.5
100
AcDbArc
 50
90.0
 51
180.0
  0
LINE
  5
133ED
100
AcDbEntity
  8
0
100
AcDbLine
 10
821.210099
 20
1025.782704
 30
0.0
 11
821.210099
 21
1011.782704
 31
0.0
  0
ARC
  5
133EE
100
AcDbEntity
  8
0
100
AcDbCircle
 10
810.16867
 20
995.062781
 30
0.0
 40
20.073875
100
AcDbArc
 50
330.839743
 51
31.729093
  0
LINE
  5
133EF
100
AcDbEntity
  8
0
100
AcDbLine
 10
854.209387
 20
1010.282704
 30
0.0
 11
854.209387
 21
995.282704
 31
0.0
  0
LINE
  5
133F0
100
AcDbEntity
  8
0
100
AcDbLine
 10
821.209387
 20
1005.781543
 30
0.0
 11
821.209387
 21
984.781543
 31
0.0
  0
LINE
  5
133F1
100
AcDbEntity
  8
0
100
AcDbLine
 10
827.797703
 20
981.782704
 30
0.0
 11
852.625859
 21
981.782704
 31
0.0
  0
ARC
  5
133F2
100
AcDbEntity
  8
0
100
AcDbCircle
 10
827.209387
 20
976.782704
 30
0.0
 40
5.0
100
AcDbArc
 50
0.0
 51
79.193077
  0
LINE
  5
133F3
100
AcDbEntity
  8
0
100
AcDbLine
 10
832.209387
 20
961.782704
 30
0.0
 11
832.209387
 21
976.782704
 31
0.0
  0
ARC
  5
133F4
100
AcDbEntity
  8
0
100
AcDbCircle
 10
823.434491
 20
981.781543
 30
0.0
 40
3.0
100
AcDbArc
 50
28.46008
 51
90.0
  0
ARC
  5
133F5
100
AcDbEntity
  8
0
100
AcDbCircle
 10
828.709387
 20
984.640821
 30
0.0
 40
3.0
100
AcDbArc
 50
208.46008
 51
259.193077
  0
LINE
  5
133F6
100
AcDbEntity
  8
0
100
AcDbLine
 10
821.209387
 20
984.781543
 30
0.0
 11
823.434491
 21
984.781543
 31
0.0
  0
LINE
  5
133F7
100
AcDbEntity
  8
0
100
AcDbLine
 10
821.208675
 20
1011.782704
 30
0.0
 11
849.209387
 21
1011.782704
 31
0.0
  0
ARC
  5
133F8
100
AcDbEntity
  8
0
100
AcDbCircle
 10
822.709387
 20
1008.781543
 30
0.0
 40
3.0
100
AcDbArc
 50
270.0
 51
0.0
  0
ARC
  5
133F9
100
AcDbEntity
  8
0
100
AcDbCircle
 10
822.709387
 20
1008.782704
 30
0.0
 40
3.0
100
AcDbArc
 50
0.0
 51
90.0
  0
LINE
  5
133FA
100
AcDbEntity
  8
0
100
AcDbLine
 10
825.709387
 20
1008.782704
 30
0.0
 11
825.709387
 21
1008.781543
 31
0.0
  0
LINE
  5
133FB
100
AcDbEntity
  8
0
100
AcDbLine
 10
821.209387
 20
1005.781543
 30
0.0
 11
822.709387
 21
1005.781543
 31
0.0
  0
ARC
  5
133FC
100
AcDbEntity
  8
0
100
AcDbCircle
 10
839.97349
 20
1036.290788
 30
0.0
 40
14.28125
100
AcDbArc
 50
68.431404
 51
111.568596
  0
LINE
  5
133FD
100
AcDbEntity
  8
0
100
AcDbLine
 10
845.22349
 20
1050.571421
 30
0.0
 11
824.22349
 21
1050.571421
 31
0.0
  0
LINE
  5
133FE
100
AcDbEntity
  8
0
100
AcDbLine
 10
821.210099
 20
1041.572038
 30
0.0
 11
821.210099
 21
1027.572038
 31
0.0
  0
LINE
  5
133FF
100
AcDbEntity
  8
0
100
AcDbLine
 10
836.710099
 20
1027.572038
 30
0.0
 11
836.710099
 21
1025.782704
 31
0.0
  0
ARC
  5
13400
100
AcDbEntity
  8
0
100
AcDbCircle
 10
829.47349
 20
1036.290788
 30
0.0
 40
14.28125
100
AcDbArc
 50
68.431404
 51
111.568596
  0
LINE
  5
13401
100
AcDbEntity
  8
0
100
AcDbLine
 10
824.22349
 20
1050.571421
 30
0.0
 11
824.22349
 21
1041.572038
 31
0.0
  0
LINE
  5
13402
100
AcDbEntity
  8
0
100
AcDbLine
 10
834.72349
 20
1049.572038
 30
0.0
 11
834.72349
 21
1041.572038
 31
0.0
  0
LINE
  5
13403
100
AcDbEntity
  8
0
100
AcDbLine
 10
845.22349
 20
1050.571421
 30
0.0
 11
845.22349
 21
1041.572038
 31
0.0
  0
LINE
  5
13404
100
AcDbEntity
  8
0
100
AcDbLine
 10
856.235721
 20
993.782704
 30
0.0
 11
855.709387
 21
993.782704
 31
0.0
  0
LINE
  5
13405
100
AcDbEntity
  8
0
100
AcDbLine
 10
856.235721
 20
1011.782704
 30
0.0
 11
855.709387
 21
1011.782704
 31
0.0
  0
LINE
  5
13406
100
AcDbEntity
  8
0
100
AcDbLine
 10
896.209387
 20
1010.282704
 30
0.0
 11
896.209387
 21
995.282704
 31
0.0
  0
ARC
  5
13407
100
AcDbEntity
  8
0
100
AcDbCircle
 10
923.209387
 20
976.782704
 30
0.0
 40
5.0
100
AcDbArc
 50
120.0
 51
180.0
  0
ARC
  5
13408
100
AcDbEntity
  8
0
100
AcDbCircle
 10
897.792916
 20
978.782704
 30
0.0
 40
3.0
100
AcDbArc
 50
90.0
 51
176.60983
  0
LINE
  5
13409
100
AcDbEntity
  8
0
100
AcDbLine
 10
918.209387
 20
961.782704
 30
0.0
 11
918.209387
 21
976.782704
 31
0.0
  0
LINE
  5
1340A
100
AcDbEntity
  8
0
100
AcDbLine
 10
897.792916
 20
981.782704
 30
0.0
 11
921.69269
 21
981.782704
 31
0.0
  0
LINE
  5
1340B
100
AcDbEntity
  8
0
100
AcDbLine
 10
894.183053
 20
993.782704
 30
0.0
 11
894.709387
 21
993.782704
 31
0.0
  0
ARC
  5
1340C
100
AcDbEntity
  8
0
100
AcDbCircle
 10
894.709387
 20
995.282704
 30
0.0
 40
1.5
100
AcDbArc
 50
270.0
 51
0.0
  0
ARC
  5
1340D
100
AcDbEntity
  8
0
100
AcDbCircle
 10
901.209387
 20
1006.782704
 30
0.0
 40
5.0
100
AcDbArc
 50
90.0
 51
180.0
  0
LINE
  5
1340E
100
AcDbEntity
  8
0
100
AcDbLine
 10
894.183053
 20
1011.782704
 30
0.0
 11
894.709387
 21
1011.782704
 31
0.0
  0
ARC
  5
1340F
100
AcDbEntity
  8
0
100
AcDbCircle
 10
894.709387
 20
1010.282704
 30
0.0
 40
1.5
100
AcDbArc
 50
0.0
 51
90.0
  0
ARC
  5
13410
100
AcDbEntity
  8
0
100
AcDbCircle
 10
890.209387
 20
1044.572038
 30
0.0
 40
3.0
100
AcDbArc
 50
180.0
 51
270.0
  0
ARC
  5
13411
100
AcDbEntity
  8
0
100
AcDbCircle
 10
892.208675
 20
1044.572038
 30
0.0
 40
3.0
100
AcDbArc
 50
180.0
 51
270.0
  0
LINE
  5
13412
100
AcDbEntity
  8
0
100
AcDbLine
 10
889.210099
 20
1061.572038
 30
0.0
 11
889.210099
 21
1044.479603
 31
0.0
  0
LINE
  5
13413
100
AcDbEntity
  8
0
100
AcDbLine
 10
861.210099
 20
1061.572038
 30
0.0
 11
861.210099
 21
1044.572038
 31
0.0
  0
ARC
  5
13414
100
AcDbEntity
  8
0
100
AcDbCircle
 10
858.210099
 20
1044.572038
 30
0.0
 40
3.0
100
AcDbArc
 50
270.0
 51
0.0
  0
ARC
  5
13415
100
AcDbEntity
  8
0
100
AcDbCircle
 10
860.209387
 20
1044.572038
 30
0.0
 40
3.0
100
AcDbArc
 50
270.0
 51
0.0
  0
LINE
  5
13416
100
AcDbEntity
  8
0
100
AcDbLine
 10
863.209387
 20
1045.572038
 30
0.0
 11
863.209387
 21
1044.572038
 31
0.0
  0
LINE
  5
13417
100
AcDbEntity
  8
0
100
AcDbLine
 10
887.209387
 20
1045.572038
 30
0.0
 11
887.209387
 21
1044.572038
 31
0.0
  0
ARC
  5
13418
100
AcDbEntity
  8
0
100
AcDbCircle
 10
875.209387
 20
1045.572038
 30
0.0
 40
12.0
100
AcDbArc
 50
0.0
 51
180.0
  0
LINE
  5
13419
100
AcDbEntity
  8
0
100
AcDbLine
 10
861.210099
 20
1061.572038
 30
0.0
 11
889.210099
 21
1061.572038
 31
0.0
  0
LINE
  5
1341A
100
AcDbEntity
  8
0
100
AcDbLine
 10
883.541099
 20
1062.782704
 30
0.0
 11
866.879099
 21
1062.782704
 31
0.0
  0
LINE
  5
1341B
100
AcDbEntity
  8
0
100
AcDbLine
 10
867.735099
 20
1062.782704
 30
0.0
 11
867.772915
 21
1061.572038
 31
0.0
  0
LINE
  5
1341C
100
AcDbEntity
  8
0
100
AcDbLine
 10
866.879099
 20
1062.782704
 30
0.0
 11
866.916915
 21
1061.572038
 31
0.0
  0
LINE
  5
1341D
100
AcDbEntity
  8
0
100
AcDbLine
 10
882.685099
 20
1062.782704
 30
0.0
 11
882.647284
 21
1061.572038
 31
0.0
  0
LINE
  5
1341E
100
AcDbEntity
  8
0
100
AcDbLine
 10
883.541099
 20
1062.782704
 30
0.0
 11
883.503284
 21
1061.572038
 31
0.0
  0
LINE
  5
1341F
100
AcDbEntity
  8
0
100
AcDbLine
 10
913.710099
 20
1027.572038
 30
0.0
 11
913.710099
 21
1025.782704
 31
0.0
  0
ARC
  5
13420
100
AcDbEntity
  8
0
100
AcDbCircle
 10
910.446232
 20
1036.287609
 30
0.0
 40
14.28125
100
AcDbArc
 50
68.426236
 51
111.563427
  0
LINE
  5
13421
100
AcDbEntity
  8
0
100
AcDbLine
 10
905.19752
 20
1050.568716
 30
0.0
 11
905.196709
 21
1041.569333
 31
0.0
  0
LINE
  5
13422
100
AcDbEntity
  8
0
100
AcDbLine
 10
915.69743
 20
1049.568386
 30
0.0
 11
915.696709
 21
1041.568386
 31
0.0
  0
LINE
  5
13423
100
AcDbEntity
  8
0
100
AcDbLine
 10
883.541099
 20
1071.782704
 30
0.0
 11
866.879099
 21
1071.782704
 31
0.0
  0
LINE
  5
13424
100
AcDbEntity
  8
0
100
AcDbLine
 10
733.718773
 20
1201.335835
 30
0.0
 11
684.650383
 21
1201.335835
 31
0.0
  0
LINE
  5
13425
100
AcDbEntity
  8
0
100
AcDbLine
 10
733.718554
 20
1225.949168
 30
0.0
 11
684.640549
 21
1225.949168
 31
0.0
  0
CIRCLE
  5
13426
100
AcDbEntity
  8
0
100
AcDbCircle
 10
718.983386
 20
1254.652028
 30
0.0
 40
10.5
  0
POLYLINE
  5
13427
100
AcDbEntity
  8
0
100
AcDb2dPolyline
 66
     1
 10
0.0
 20
0.0
 30
0.0
 70
     1
  0
VERTEX
  5
13A23
100
AcDbEntity
  8
0
100
AcDbVertex
100
AcDb2dVertex
 10
712.921208
 20
1265.152028
 30
0.0
  0
VERTEX
  5
13A24
100
AcDbEntity
  8
0
100
AcDbVertex
100
AcDb2dVertex
 10
706.85903
 20
1254.652028
 30
0.0
  0
VERTEX
  5
13A25
100
AcDbEntity
  8
0
100
AcDbVertex
100
AcDb2dVertex
 10
712.921208
 20
1244.152028
 30
0.0
  0
VERTEX
  5
13A26
100
AcDbEntity
  8
0
100
AcDbVertex
100
AcDb2dVertex
 10
725.045564
 20
1244.152028
 30
0.0
  0
VERTEX
  5
13A27
100
AcDbEntity
  8
0
100
AcDbVertex
100
AcDb2dVertex
 10
731.107742
 20
1254.652028
 30
0.0
  0
VERTEX
  5
13A28
100
AcDbEntity
  8
0
100
AcDbVertex
100
AcDb2dVertex
 10
725.045564
 20
1265.152028
 30
0.0
  0
SEQEND
  5
13A29
100
AcDbEntity
  8
0
  0
CIRCLE
  5
13428
100
AcDbEntity
  8
0
100
AcDbCircle
 10
677.971193
 20
1213.639835
 30
0.0
 40
14.0
  0
POLYLINE
  5
13429
100
AcDbEntity
  8
0
100
AcDb2dPolyline
 66
     1
 10
0.0
 20
0.0
 30
0.0
  0
VERTEX
  5
13A2A
100
AcDbEntity
  8
0
100
AcDbVertex
100
AcDb2dVertex
 10
677.971193
 20
1221.969379
 30
0.0
  0
VERTEX
  5
13A2B
100
AcDbEntity
  8
0
100
AcDbVertex
100
AcDb2dVertex
 10
686.300737
 20
1213.639835
 30
0.0
  0
SEQEND
  5
13A2C
100
AcDbEntity
  8
0
  0
CIRCLE
  5
1342A
100
AcDbEntity
  8
0
100
AcDbCircle
 10
677.971193
 20
1213.639835
 30
0.0
 40
8.331
  0
POLYLINE
  5
1342B
100
AcDbEntity
  8
0
100
AcDb2dPolyline
 66
     1
 10
0.0
 20
0.0
 30
0.0
  0
VERTEX
  5
13A2D
100
AcDbEntity
  8
0
100
AcDbVertex
100
AcDb2dVertex
 10
686.300737
 20
1213.639835
 30
0.0
  0
VERTEX
  5
13A2E
100
AcDbEntity
  8
0
100
AcDbVertex
100
AcDb2dVertex
 10
677.971193
 20
1205.310291
 30
0.0
  0
SEQEND
  5
13A2F
100
AcDbEntity
  8
0
  0
POLYLINE
  5
1342C
100
AcDbEntity
  8
0
100
AcDb2dPolyline
 66
     1
 10
0.0
 20
0.0
 30
0.0
  0
VERTEX
  5
13A30
100
AcDbEntity
  8
0
100
AcDbVertex
100
AcDb2dVertex
 10
669.640193
 20
1213.639835
 30
0.0
  0
VERTEX
  5
13A31
100
AcDbEntity
  8
0
100
AcDbVertex
100
AcDb2dVertex
 10
677.971193
 20
1221.970835
 30
0.0
  0
SEQEND
  5
13A32
100
AcDbEntity
  8
0
  0
POLYLINE
  5
1342D
100
AcDbEntity
  8
0
100
AcDb2dPolyline
 66
     1
 10
0.0
 20
0.0
 30
0.0
  0
VERTEX
  5
13A33
100
AcDbEntity
  8
0
100
AcDbVertex
100
AcDb2dVertex
 10
677.971193
 20
1205.310291
 30
0.0
  0
VERTEX
  5
13A34
100
AcDbEntity
  8
0
100
AcDbVertex
100
AcDb2dVertex
 10
669.641649
 20
1213.639835
 30
0.0
  0
SEQEND
  5
13A35
100
AcDbEntity
  8
0
  0
ELLIPSE
  5
1342E
100
AcDbEntity
  8
0
100
AcDbEllipse
 10
776.500841
 20
1213.639835
 30
0.0
 11
0.0
 21
13.5
 31
0.0
210
0.0
220
0.0
230
1.0
 40
0.258819
 41
3.141592653589793
 42
6.283185307179586
  0
LINE
  5
1342F
100
AcDbEntity
  8
0
100
AcDbLine
 10
762.971193
 20
1234.639835
 30
0.0
 11
762.971193
 21
1213.639835
 31
0.0
  0
LINE
  5
13430
100
AcDbEntity
  8
0
100
AcDbLine
 10
733.23529
 20
1192.639835
 30
0.0
 11
762.971193
 21
1192.639835
 31
0.0
  0
LINE
  5
13431
100
AcDbEntity
  8
0
100
AcDbLine
 10
743.971193
 20
1190.639835
 30
0.0
 11
758.971193
 21
1190.639835
 31
0.0
  0
LINE
  5
13432
100
AcDbEntity
  8
0
100
AcDbLine
 10
743.971193
 20
1190.639835
 30
0.0
 11
743.971193
 21
1192.639835
 31
0.0
  0
LINE
  5
13433
100
AcDbEntity
  8
0
100
AcDbLine
 10
762.971193
 20
1213.639835
 30
0.0
 11
762.971193
 21
1192.639835
 31
0.0
  0
LINE
  5
13434
100
AcDbEntity
  8
0
100
AcDbLine
 10
758.971193
 20
1190.639835
 30
0.0
 11
758.971193
 21
1192.639835
 31
0.0
  0
LINE
  5
13435
100
AcDbEntity
  8
0
100
AcDbLine
 10
762.971193
 20
1200.139835
 30
0.0
 11
776.500841
 21
1200.139835
 31
0.0
  0
LINE
  5
13436
100
AcDbEntity
  8
0
100
AcDbLine
 10
733.23529
 20
1234.639835
 30
0.0
 11
762.971193
 21
1234.639835
 31
0.0
  0
LINE
  5
13437
100
AcDbEntity
  8
0
100
AcDbLine
 10
743.971193
 20
1236.639835
 30
0.0
 11
758.971193
 21
1236.639835
 31
0.0
  0
LINE
  5
13438
100
AcDbEntity
  8
0
100
AcDbLine
 10
743.971193
 20
1234.639835
 30
0.0
 11
743.971193
 21
1236.639835
 31
0.0
  0
ARC
  5
13439
100
AcDbEntity
  8
0
100
AcDbCircle
 10
718.892234
 20
1255.639835
 30
0.0
 40
12.0
100
AcDbArc
 50
8.385539
 51
90.0
  0
LINE
  5
1343A
100
AcDbEntity
  8
0
100
AcDbLine
 10
758.971193
 20
1234.639835
 30
0.0
 11
758.971193
 21
1236.639835
 31
0.0
  0
LINE
  5
1343B
100
AcDbEntity
  8
0
100
AcDbLine
 10
762.971193
 20
1227.139835
 30
0.0
 11
776.500841
 21
1227.139835
 31
0.0
  0
ARC
  5
1343C
100
AcDbEntity
  8
0
100
AcDbCircle
 10
692.971788
 20
1382.351937
 30
0.0
 40
43.0
100
AcDbArc
 50
290.808443
 51
334.087851
  0
LINE
  5
1343D
100
AcDbEntity
  8
0
100
AcDbLine
 10
734.972397
 20
1340.352546
 30
0.0
 11
702.191941
 21
1340.352071
 31
0.0
  0
ARC
  5
1343E
100
AcDbEntity
  8
0
100
AcDbCircle
 10
692.971788
 20
1382.351937
 30
0.0
 40
43.0
100
AcDbArc
 50
222.954018
 51
282.38163
  0
ARC
  5
1343F
100
AcDbEntity
  8
0
100
AcDbCircle
 10
657.84055
 20
1349.644199
 30
0.0
 40
5.0
100
AcDbArc
 50
42.954018
 51
105.000831
  0
LINE
  5
13445
100
AcDbEntity
  8
0
100
AcDbLine
 10
734.972049
 20
1364.352546
 30
0.0
 11
734.972397
 21
1340.352546
 31
0.0
  0
ARC
  5
1344E
100
AcDbEntity
  8
0
100
AcDbCircle
 10
736.319152
 20
1367.033089
 30
0.0
 40
3.0
100
AcDbArc
 50
153.318243
 51
243.318243
  0
LINE
  5
13456
100
AcDbEntity
  8
0
100
AcDbLine
 10
929.210099
 20
1025.782704
 30
0.0
 11
929.210099
 21
1011.782704
 31
0.0
  0
LINE
  5
13457
100
AcDbEntity
  8
0
100
AcDbLine
 10
924.709387
 20
1008.782704
 30
0.0
 11
924.709387
 21
988.041035
 31
0.0
  0
LINE
  5
13458
100
AcDbEntity
  8
0
100
AcDbLine
 10
929.210099
 20
1041.572038
 30
0.0
 11
929.210099
 21
1027.572038
 31
0.0
  0
LINE
  5
13459
100
AcDbEntity
  8
0
100
AcDbLine
 10
926.19752
 20
1050.566821
 30
0.0
 11
926.196709
 21
1041.567439
 31
0.0
  0
INSERT
  5
1345A
100
AcDbEntity
  8
0
100
AcDbBlockReference
  2
YA
 10
777.876993
 20
1423.352953
 30
0.0
 41
-3.6
 42
3.6
 43
3.6
  0
LINE
  5
1345B
100
AcDbEntity
  8
0
100
AcDbLine
 10
684.639192
 20
1492.351816
 30
0.0
 11
684.639322
 21
1483.351816
 31
0.0
  0
LINE
  5
1345C
100
AcDbEntity
  8
0
100
AcDbLine
 10
701.301192
 20
1492.352058
 30
0.0
 11
701.301322
 21
1483.352058
 31
0.0
  0
LINE
  5
1345D
100
AcDbEntity
  8
0
100
AcDbLine
 10
692.970192
 20
1492.351937
 30
0.0
 11
692.970322
 21
1483.351937
 31
0.0
  0
LINE
  5
1345E
100
AcDbEntity
  8
0
100
AcDbLine
 10
762.971497
 20
1402.352953
 30
0.0
 11
652.979191
 21
1402.351357
 31
0.0
  0
LINE
  5
1345F
100
AcDbEntity
  8
0
100
AcDbLine
 10
649.971527
 20
1400.281476
 30
0.0
 11
649.971788
 21
1382.351313
 31
0.0
  0
ARC
  5
13460
100
AcDbEntity
  8
0
100
AcDbCircle
 10
590.221375
 20
1419.286112
 30
0.0
 40
57.671059
100
AcDbArc
 50
348.492333
 51
5.945151
  0
ARC
  5
13461
100
AcDbEntity
  8
0
100
AcDbCircle
 10
646.971527
 20
1400.281433
 30
0.0
 40
3.0
100
AcDbArc
 50
0.000831
 51
54.363785
  0
LINE
  5
13462
100
AcDbEntity
  8
0
100
AcDbLine
 10
706.97034
 20
1482.141474
 30
0.0
 11
678.97034
 21
1482.141068
 31
0.0
  0
LINE
  5
13463
100
AcDbEntity
  8
0
100
AcDbLine
 10
678.97034
 20
1482.141068
 30
0.0
 11
678.97063
 21
1462.141068
 31
0.0
  0
LINE
  5
13464
100
AcDbEntity
  8
0
100
AcDbLine
 10
654.470833
 20
1448.140712
 30
0.0
 11
654.470859
 21
1446.351378
 31
0.0
  0
LINE
  5
13465
100
AcDbEntity
  8
0
100
AcDbLine
 10
658.020614
 20
1462.140764
 30
0.0
 11
658.020498
 21
1470.140764
 31
0.0
  0
LINE
  5
13466
100
AcDbEntity
  8
0
100
AcDbLine
 10
664.082676
 20
1470.140852
 30
0.0
 11
664.082792
 21
1462.140852
 31
0.0
  0
ARC
  5
13467
100
AcDbEntity
  8
0
100
AcDbCircle
 10
661.051647
 20
1466.043912
 30
0.0
 40
5.096278
100
AcDbArc
 50
53.504937
 51
126.496726
  0
LINE
  5
13468
100
AcDbEntity
  8
0
100
AcDbLine
 10
664.082676
 20
1470.140852
 30
0.0
 11
662.350611
 21
1471.140827
 31
0.0
  0
LINE
  5
13469
100
AcDbEntity
  8
0
100
AcDbLine
 10
706.97034
 20
1482.141474
 30
0.0
 11
706.97063
 21
1462.141474
 31
0.0
  0
LINE
  5
1346A
100
AcDbEntity
  8
0
100
AcDbLine
 10
684.639322
 20
1483.351816
 30
0.0
 11
684.677155
 21
1482.14115
 31
0.0
  0
LINE
  5
1346B
100
AcDbEntity
  8
0
100
AcDbLine
 10
685.495322
 20
1483.351828
 30
0.0
 11
685.533155
 21
1482.141163
 31
0.0
  0
LINE
  5
1346C
100
AcDbEntity
  8
0
100
AcDbLine
 10
701.301322
 20
1483.352058
 30
0.0
 11
701.263524
 21
1482.141391
 31
0.0
  0
LINE
  5
1346D
100
AcDbEntity
  8
0
100
AcDbLine
 10
700.445322
 20
1483.352045
 30
0.0
 11
700.407524
 21
1482.141379
 31
0.0
  0
LINE
  5
1346E
100
AcDbEntity
  8
0
100
AcDbLine
 10
684.639322
 20
1483.351816
 30
0.0
 11
701.301322
 21
1483.352058
 31
0.0
  0
LINE
  5
1346F
100
AcDbEntity
  8
0
100
AcDbLine
 10
762.970888
 20
1444.352953
 30
0.0
 11
762.971193
 21
1423.352953
 31
0.0
  0
LINE
  5
13470
100
AcDbEntity
  8
0
100
AcDbLine
 10
748.970859
 20
1446.352749
 30
0.0
 11
748.971062
 21
1432.352749
 31
0.0
  0
LINE
  5
13471
100
AcDbEntity
  8
0
100
AcDbLine
 10
743.971323
 20
1414.352677
 30
0.0
 11
758.971323
 21
1414.352894
 31
0.0
  0
LINE
  5
13472
100
AcDbEntity
  8
0
100
AcDbLine
 10
743.971062
 20
1432.352677
 30
0.0
 11
758.971062
 21
1432.352894
 31
0.0
  0
LINE
  5
13473
100
AcDbEntity
  8
0
100
AcDbLine
 10
735.97157
 20
1397.352561
 30
0.0
 11
735.971788
 21
1382.352561
 31
0.0
  0
ARC
  5
13474
100
AcDbEntity
  8
0
100
AcDbCircle
 10
740.97157
 20
1397.352633
 30
0.0
 40
5.0
100
AcDbArc
 50
90.000831
 51
180.000831
  0
LINE
  5
13475
100
AcDbEntity
  8
0
100
AcDbLine
 10
743.971062
 20
1432.352677
 30
0.0
 11
743.971323
 21
1414.352677
 31
0.0
  0
LINE
  5
13476
100
AcDbEntity
  8
0
100
AcDbLine
 10
762.971193
 20
1423.352953
 30
0.0
 11
762.971497
 21
1402.352953
 31
0.0
  0
LINE
  5
13477
100
AcDbEntity
  8
0
100
AcDbLine
 10
758.971062
 20
1432.352894
 30
0.0
 11
758.971323
 21
1414.352894
 31
0.0
  0
LINE
  5
13478
100
AcDbEntity
  8
0
100
AcDbLine
 10
762.970888
 20
1444.352953
 30
0.0
 11
748.970888
 21
1444.352749
 31
0.0
  0
LINE
  5
13479
100
AcDbEntity
  8
0
100
AcDbLine
 10
733.456396
 20
1471.141241
 30
0.0
 11
743.647959
 21
1471.141389
 31
0.0
  0
LINE
  5
1347A
100
AcDbEntity
  8
0
100
AcDbLine
 10
744.374997
 20
1471.142017
 30
0.0
 11
723.590388
 21
1471.141715
 31
0.0
  0
ARC
  5
1347B
100
AcDbEntity
  8
0
100
AcDbCircle
 10
733.982967
 20
1452.25521
 30
0.0
 40
18.886039
100
AcDbArc
 50
71.278191
 51
108.723472
  0
LINE
  5
1347C
100
AcDbEntity
  8
0
100
AcDbLine
 10
731.470833
 20
1448.141829
 30
0.0
 11
731.470859
 21
1446.352495
 31
0.0
  0
LINE
  5
1347D
100
AcDbEntity
  8
0
100
AcDbLine
 10
721.858351
 20
1470.14169
 30
0.0
 11
723.590388
 21
1471.141715
 31
0.0
  0
ARC
  5
1347E
100
AcDbEntity
  8
0
100
AcDbCircle
 10
724.8895
 20
1466.044838
 30
0.0
 40
5.096278
100
AcDbArc
 50
53.504937
 51
126.496726
  0
LINE
  5
1347F
100
AcDbEntity
  8
0
100
AcDbLine
 10
721.858351
 20
1470.14169
 30
0.0
 11
721.858468
 21
1462.14169
 31
0.0
  0
LINE
  5
13480
100
AcDbEntity
  8
0
100
AcDbLine
 10
727.920645
 20
1462.141778
 30
0.0
 11
727.920529
 21
1470.141778
 31
0.0
  0
LINE
  5
13481
100
AcDbEntity
  8
0
100
AcDbLine
 10
748.97063
 20
1462.142083
 30
0.0
 11
748.970833
 21
1448.142083
 31
0.0
  0
LINE
  5
13482
100
AcDbEntity
  8
0
100
AcDbLine
 10
746.107063
 20
1470.142042
 30
0.0
 11
744.374997
 21
1471.142017
 31
0.0
  0
ARC
  5
13483
100
AcDbEntity
  8
0
100
AcDbCircle
 10
743.076033
 20
1466.045102
 30
0.0
 40
5.096278
100
AcDbArc
 50
53.504937
 51
126.496726
  0
LINE
  5
13484
100
AcDbEntity
  8
0
100
AcDbLine
 10
746.107063
 20
1470.142042
 30
0.0
 11
746.107179
 21
1462.142042
 31
0.0
  0
LINE
  5
13485
100
AcDbEntity
  8
0
100
AcDbLine
 10
740.045001
 20
1462.141954
 30
0.0
 11
740.044885
 21
1470.141954
 31
0.0
  0
LINE
  5
13486
100
AcDbEntity
  8
0
100
AcDbLine
 10
757.970859
 20
1446.35288
 30
0.0
 11
757.970888
 21
1444.35288
 31
0.0
  0
LINE
  5
13487
100
AcDbEntity
  8
0
100
AcDbLine
 10
684.639192
 20
1492.351816
 30
0.0
 11
701.301192
 21
1492.352058
 31
0.0
  0
TEXT
  5
13488
100
AcDbEntity
  8
0
100
AcDbText
 10
1717.990122
 20
660.306717
 30
0.0
 40
42.0
  1
TLV  JAF5 (JIS10K)
 72
     4
 11
2008.790122
 21
678.306717
 31
0.0
100
AcDbText
  0
LINE
  5
13489
100
AcDbEntity
  8
0
100
AcDbLine
 10
1476.005445
 20
1373.350704
 30
0.0
 11
1476.005445
 21
1473.350704
 31
0.0
  0
LINE
  5
1348A
100
AcDbEntity
  8
0
100
AcDbLine
 10
1462.005445
 20
1423.350704
 30
0.0
 11
1462.005445
 21
1373.350704
 31
0.0
  0
LINE
  5
1348B
100
AcDbEntity
  8
0
100
AcDbLine
 10
1462.005445
 20
1423.350704
 30
0.0
 11
1462.005445
 21
1373.350704
 31
0.0
  0
LINE
  5
1348C
100
AcDbEntity
  8
0
100
AcDbLine
 10
1533.349155
 20
1347.847307
 30
0.0
 11
1524.290489
 21
1381.654711
 31
0.0
  0
ARC
  5
1348D
100
AcDbEntity
  8
0
100
AcDbCircle
 10
1594.502778
 20
1382.350704
 30
0.0
 40
43.0
100
AcDbArc
 50
180.0
 51
199.966399
  0
ARC
  5
1348E
100
AcDbEntity
  8
0
100
AcDbCircle
 10
1517.217374
 20
1376.009918
 30
0.0
 40
7.987821
100
AcDbArc
 50
346.031911
 51
43.958566
  0
LINE
  5
1348F
100
AcDbEntity
  8
0
100
AcDbLine
 10
1524.804308
 20
1379.717298
 30
0.0
 11
1522.967343
 21
1381.554568
 31
0.0
  0
LINE
  5
13490
100
AcDbEntity
  8
0
100
AcDbLine
 10
1517.460514
 20
1380.079508
 30
0.0
 11
1522.967343
 21
1381.554568
 31
0.0
  0
ARC
  5
13491
100
AcDbEntity
  8
0
100
AcDbCircle
 10
1594.502778
 20
1382.350704
 30
0.0
 40
43.0
100
AcDbArc
 50
341.038181
 51
360.0
  0
LINE
  5
13492
100
AcDbEntity
  8
0
100
AcDbLine
 10
1698.005445
 20
1373.350704
 30
0.0
 11
1698.005445
 21
1473.350704
 31
0.0
  0
LINE
  5
13493
100
AcDbEntity
  8
0
100
AcDbLine
 10
1712.005445
 20
1423.350704
 30
0.0
 11
1712.005445
 21
1373.350704
 31
0.0
  0
LINE
  5
13494
100
AcDbEntity
  8
0
100
AcDbLine
 10
1712.005445
 20
1423.350704
 30
0.0
 11
1712.005445
 21
1373.350704
 31
0.0
  0
LINE
  5
13495
100
AcDbEntity
  8
0
100
AcDbLine
 10
1462.005445
 20
1002.782704
 30
0.0
 11
1462.005445
 21
952.782704
 31
0.0
  0
CIRCLE
  5
13496
100
AcDbEntity
  8
0
100
AcDbCircle
 10
1304.477339
 20
1002.782704
 30
0.0
 40
50.0
  0
ARC
  5
13497
100
AcDbEntity
  8
0
100
AcDbCircle
 10
1304.477339
 20
961.782704
 30
0.0
 40
43.0
100
AcDbArc
 50
180.0
 51
0.0
  0
LINE
  5
13498
100
AcDbEntity
  8
0
100
AcDbLine
 10
1712.005445
 20
1002.782704
 30
0.0
 11
1712.005445
 21
952.782704
 31
0.0
  0
LINE
  5
13499
100
AcDbEntity
  8
0
100
AcDbLine
 10
1698.005445
 20
952.782704
 30
0.0
 11
1698.005445
 21
1052.782704
 31
0.0
  0
LINE
  5
1349A
100
AcDbEntity
  8
0
100
AcDbLine
 10
1462.005445
 20
1002.782704
 30
0.0
 11
1462.005445
 21
952.782704
 31
0.0
  0
LINE
  5
1349B
100
AcDbEntity
  8
0
100
AcDbLine
 10
1476.005445
 20
952.782704
 30
0.0
 11
1476.005445
 21
1052.782704
 31
0.0
  0
ARC
  5
1349C
100
AcDbEntity
  8
0
100
AcDbCircle
 10
1579.508111
 20
961.782704
 30
0.0
 40
43.0
100
AcDbArc
 50
340.033601
 51
360.0
  0
ARC
  5
1349D
100
AcDbEntity
  8
0
100
AcDbCircle
 10
1579.508111
 20
961.782704
 30
0.0
 40
43.0
100
AcDbArc
 50
180.0
 51
199.966399
  0
ARC
  5
1349E
100
AcDbEntity
  8
0
100
AcDbCircle
 10
1647.808566
 20
964.704814
 30
0.0
 40
3.0
100
AcDbArc
 50
175.0
 51
255.0
  0
LINE
  5
1349F
100
AcDbEntity
  8
0
100
AcDbLine
 10
1647.032109
 20
961.807037
 30
0.0
 11
1649.720401
 21
961.086711
 31
0.0
  0
ARC
  5
134A2
100
AcDbEntity
  8
0
100
AcDbCircle
 10
1579.508111
 20
961.782704
 30
0.0
 40
43.0
100
AcDbArc
 50
257.619201
 51
317.046813
  0
TEXT
  5
134A3
100
AcDbEntity
  8
0
100
AcDbText
 10
1538.388291
 20
834.877944
 30
0.0
 40
30.0
  1
20A
 72
     4
 11
1578.388291
 21
849.877944
 31
0.0
100
AcDbText
  0
LINE
  5
134A4
100
AcDbEntity
  8
0
100
AcDbLine
 10
1462.005445
 20
952.782704
 30
0.0
 11
1476.005445
 21
952.782704
 31
0.0
  0
ARC
  5
134A5
100
AcDbEntity
  8
0
100
AcDbCircle
 10
1579.508111
 20
961.782704
 30
0.0
 40
43.0
100
AcDbArc
 50
205.91298
 51
249.192388
  0
LINE
  5
134A6
100
AcDbEntity
  8
0
100
AcDbLine
 10
1537.508111
 20
919.782704
 30
0.0
 11
1570.288567
 21
919.782704
 31
0.0
  0
LINE
  5
134A7
100
AcDbEntity
  8
0
100
AcDbLine
 10
1537.508111
 20
943.782704
 30
0.0
 11
1537.508111
 21
919.782704
 31
0.0
  0
ARC
  5
134B8
100
AcDbEntity
  8
0
100
AcDbCircle
 10
1536.160969
 20
946.463228
 30
0.0
 40
3.0
100
AcDbArc
 50
296.682589
 51
26.682589
  0
ARC
  5
134BD
100
AcDbEntity
  8
0
100
AcDbCircle
 10
1656.793515
 20
955.441919
 30
0.0
 40
7.987821
100
AcDbArc
 50
136.041434
 51
193.968089
  0
LINE
  5
134BE
100
AcDbEntity
  8
0
100
AcDbLine
 10
1640.661734
 20
927.279307
 30
0.0
 11
1649.720401
 21
961.086711
 31
0.0
  0
ARC
  5
134BF
100
AcDbEntity
  8
0
100
AcDbCircle
 10
1674.521521
 20
936.322012
 30
0.0
 40
30.059202
100
AcDbArc
 50
150.191517
 51
179.818005
  0
LINE
  5
134C0
100
AcDbEntity
  8
0
100
AcDbLine
 10
1647.365149
 20
925.220379
 30
0.0
 11
1656.550375
 21
959.511509
 31
0.0
  0
LINE
  5
134C1
100
AcDbEntity
  8
0
100
AcDbLine
 10
1649.366803
 20
932.69314
 30
0.0
 11
1643.859975
 21
934.1682
 31
0.0
  0
LINE
  5
134C2
100
AcDbEntity
  8
0
100
AcDbLine
 10
1649.969299
 20
934.942433
 30
0.0
 11
1644.46247
 21
936.417493
 31
0.0
  0
LINE
  5
134C3
100
AcDbEntity
  8
0
100
AcDbLine
 10
1648.758373
 20
961.344486
 30
0.0
 11
1647.991106
 21
961.550074
 31
0.0
  0
ARC
  5
134C4
100
AcDbEntity
  8
0
100
AcDbCircle
 10
1614.639824
 20
929.075476
 30
0.0
 40
5.0
100
AcDbArc
 50
75.0
 51
137.046813
  0
LINE
  5
134C5
100
AcDbEntity
  8
0
100
AcDbLine
 10
1615.933919
 20
933.905105
 30
0.0
 11
1640.661734
 21
927.279307
 31
0.0
  0
ARC
  5
134C6
100
AcDbEntity
  8
0
100
AcDbCircle
 10
1649.609943
 20
928.62355
 30
0.0
 40
7.987821
100
AcDbArc
 50
136.041434
 51
193.968089
  0
LINE
  5
134C7
100
AcDbEntity
  8
0
100
AcDbLine
 10
1641.185679
 20
929.204932
 30
0.0
 11
1641.85832
 21
926.695439
 31
0.0
  0
LINE
  5
134C8
100
AcDbEntity
  8
0
100
AcDbLine
 10
1644.46247
 20
936.417493
 30
0.0
 11
1643.859975
 21
934.1682
 31
0.0
  0
LINE
  5
134C9
100
AcDbEntity
  8
0
100
AcDbLine
 10
1647.365149
 20
925.220379
 30
0.0
 11
1641.85832
 21
926.695439
 31
0.0
  0
LINE
  5
134CA
100
AcDbEntity
  8
0
100
AcDbLine
 10
1656.550375
 20
959.511509
 30
0.0
 11
1651.043546
 21
960.986569
 31
0.0
  0
LINE
  5
134CB
100
AcDbEntity
  8
0
100
AcDbLine
 10
1649.206582
 20
959.149299
 30
0.0
 11
1651.043546
 21
960.986569
 31
0.0
  0
LINE
  5
134CC
100
AcDbEntity
  8
0
100
AcDbLine
 10
1674.543702
 20
922.337831
 30
0.0
 11
1681.531816
 21
948.417828
 31
0.0
  0
LINE
  5
134CD
100
AcDbEntity
  8
0
100
AcDbLine
 10
1674.543702
 20
922.337831
 30
0.0
 11
1648.463705
 21
929.325945
 31
0.0
  0
LINE
  5
134CE
100
AcDbEntity
  8
0
100
AcDbLine
 10
1649.041891
 20
953.513807
 30
0.0
 11
1648.439396
 21
951.264515
 31
0.0
  0
LINE
  5
134CF
100
AcDbEntity
  8
0
100
AcDbLine
 10
1654.54872
 20
952.038747
 30
0.0
 11
1649.041891
 21
953.513807
 31
0.0
  0
LINE
  5
134D0
100
AcDbEntity
  8
0
100
AcDbLine
 10
1653.946224
 20
949.789455
 30
0.0
 11
1648.439396
 21
951.264515
 31
0.0
  0
LINE
  5
134D1
100
AcDbEntity
  8
0
100
AcDbLine
 10
1681.531816
 20
948.417828
 30
0.0
 11
1655.451819
 21
955.405942
 31
0.0
  0
LINE
  5
134D2
100
AcDbEntity
  8
0
100
AcDbLine
 10
1712.005445
 20
952.782704
 30
0.0
 11
1698.005445
 21
952.782704
 31
0.0
  0
INSERT
  5
134D3
100
AcDbEntity
  8
0
100
AcDbBlockReference
  2
YA
 10
1447.099645
 20
1213.639835
 30
0.0
 41
3.6
 42
3.6
 43
3.6
  0
INSERT
  5
134D4
100
AcDbEntity
  8
0
100
AcDbBlockReference
  2
YA
 10
1447.099645
 20
1002.782704
 30
0.0
 41
3.6
 42
3.6
 43
3.6
  0
LINE
  5
134D5
100
AcDbEntity
  8
0
100
AcDbLine
 10
1318.47703
 20
1061.571204
 30
0.0
 11
1290.47703
 21
1061.571538
 31
0.0
  0
LINE
  5
134D6
100
AcDbEntity
  8
0
100
AcDbLine
 10
1312.80803
 20
1071.782037
 30
0.0
 11
1296.14603
 21
1071.782037
 31
0.0
  0
LINE
  5
134D7
100
AcDbEntity
  8
0
100
AcDbLine
 10
1312.80803
 20
1062.782037
 30
0.0
 11
1296.14603
 21
1062.782037
 31
0.0
  0
LINE
  5
134D8
100
AcDbEntity
  8
0
100
AcDbLine
 10
1296.14603
 20
1071.782037
 30
0.0
 11
1296.14603
 21
1062.782037
 31
0.0
  0
LINE
  5
134D9
100
AcDbEntity
  8
0
100
AcDbLine
 10
1250.476627
 20
1025.782704
 30
0.0
 11
1250.476627
 21
1011.782704
 31
0.0
  0
ARC
  5
134DA
100
AcDbEntity
  8
0
100
AcDbCircle
 10
1256.477339
 20
976.782704
 30
0.0
 40
5.0
100
AcDbArc
 50
360.0
 51
6.124621
  0
LINE
  5
134DB
100
AcDbEntity
  8
0
100
AcDbLine
 10
1261.477339
 20
961.782704
 30
0.0
 11
1261.477339
 21
976.782704
 31
0.0
  0
ARC
  5
134DC
100
AcDbEntity
  8
0
100
AcDbCircle
 10
1262.977339
 20
988.041035
 30
0.0
 40
8.0
100
AcDbArc
 50
180.0
 51
240.0
  0
ARC
  5
134DD
100
AcDbEntity
  8
0
100
AcDbCircle
 10
1256.477339
 20
976.782704
 30
0.0
 40
5.0
100
AcDbArc
 50
50.761236
 51
60.0
  0
LINE
  5
134DE
100
AcDbEntity
  8
0
100
AcDbLine
 10
1259.101134
 20
981.782704
 30
0.0
 11
1257.994037
 21
981.782704
 31
0.0
  0
LINE
  5
134DF
100
AcDbEntity
  8
0
100
AcDbLine
 10
1254.977339
 20
995.729336
 30
0.0
 11
1254.977339
 21
988.041035
 31
0.0
  0
LINE
  5
134E0
100
AcDbEntity
  8
0
100
AcDbLine
 10
1250.476627
 20
1011.782704
 30
0.0
 11
1255.294009
 21
1011.782704
 31
0.0
  0
ARC
  5
134E1
100
AcDbEntity
  8
0
100
AcDbCircle
 10
1251.977339
 20
1008.782704
 30
0.0
 40
3.0
100
AcDbArc
 50
0.0
 51
90.0
  0
CIRCLE
  5
134E2
100
AcDbEntity
  8
0
100
AcDbCircle
 10
1277.960835
 20
976.2662
 30
0.0
 40
7.5
  0
LINE
  5
134E3
100
AcDbEntity
  8
0
100
AcDbLine
 10
1272.927235
 20
1041.571761
 30
0.0
 11
1250.476815
 21
1041.572038
 31
0.0
  0
ARC
  5
134E4
100
AcDbEntity
  8
0
100
AcDbCircle
 10
1269.24062
 20
1036.287362
 30
0.0
 40
14.28125
100
AcDbArc
 50
68.43589
 51
111.573082
  0
LINE
  5
134E5
100
AcDbEntity
  8
0
100
AcDbLine
 10
1274.489501
 20
1050.568406
 30
0.0
 11
1253.489501
 21
1050.566762
 31
0.0
  0
LINE
  5
134E6
100
AcDbEntity
  8
0
100
AcDbLine
 10
1250.476815
 20
1041.572038
 30
0.0
 11
1250.476648
 21
1027.572038
 31
0.0
  0
LINE
  5
134E7
100
AcDbEntity
  8
0
100
AcDbLine
 10
1261.055048
 20
1027.571907
 30
0.0
 11
1250.476648
 21
1027.572038
 31
0.0
  0
LINE
  5
134E8
100
AcDbEntity
  8
0
100
AcDbLine
 10
1260.081393
 20
1025.782704
 30
0.0
 11
1250.476627
 21
1025.782704
 31
0.0
  0
LINE
  5
134E9
100
AcDbEntity
  8
0
100
AcDbLine
 10
1263.98958
 20
1049.568201
 30
0.0
 11
1263.990206
 21
1041.568201
 31
0.0
  0
LINE
  5
134EA
100
AcDbEntity
  8
0
100
AcDbLine
 10
1253.489501
 20
1050.566762
 30
0.0
 11
1253.490206
 21
1041.567379
 31
0.0
  0
ARC
  5
134EB
100
AcDbEntity
  8
0
100
AcDbCircle
 10
1258.74062
 20
1036.28654
 30
0.0
 40
14.28125
100
AcDbArc
 50
68.43589
 51
111.573082
  0
CIRCLE
  5
134EC
100
AcDbEntity
  8
0
100
AcDbCircle
 10
1277.960835
 20
1029.299209
 30
0.0
 40
7.5
  0
LINE
  5
134ED
100
AcDbEntity
  8
0
100
AcDbLine
 10
1290.47703
 20
1061.571538
 30
0.0
 11
1290.476914
 21
1050.78258
 31
0.0
  0
LINE
  5
134EE
100
AcDbEntity
  8
0
100
AcDbLine
 10
1274.489501
 20
1050.568406
 30
0.0
 11
1274.49011
 21
1042.792279
 31
0.0
  0
LINE
  5
134EF
100
AcDbEntity
  8
0
100
AcDbLine
 10
1296.14603
 20
1062.782037
 30
0.0
 11
1296.183845
 21
1061.571371
 31
0.0
  0
LINE
  5
134F0
100
AcDbEntity
  8
0
100
AcDbLine
 10
1297.00203
 20
1062.782037
 30
0.0
 11
1297.039845
 21
1061.571371
 31
0.0
  0
LINE
  5
134F1
100
AcDbEntity
  8
0
100
AcDbLine
 10
1304.47703
 20
1071.782037
 30
0.0
 11
1304.47703
 21
1062.782037
 31
0.0
  0
LINE
  5
134F2
100
AcDbEntity
  8
0
100
AcDbLine
 10
1312.80803
 20
1071.782037
 30
0.0
 11
1312.80803
 21
1062.782037
 31
0.0
  0
LINE
  5
134F3
100
AcDbEntity
  8
0
100
AcDbLine
 10
1358.476627
 20
1025.782704
 30
0.0
 11
1358.476627
 21
1011.782704
 31
0.0
  0
CIRCLE
  5
134F4
100
AcDbEntity
  8
0
100
AcDbCircle
 10
1330.993844
 20
976.2662
 30
0.0
 40
7.5
  0
LINE
  5
134F5
100
AcDbEntity
  8
0
100
AcDbLine
 10
1358.477339
 20
1005.781543
 30
0.0
 11
1358.477339
 21
984.781543
 31
0.0
  0
ARC
  5
134F6
100
AcDbEntity
  8
0
100
AcDbCircle
 10
1352.477339
 20
976.782704
 30
0.0
 40
5.0
100
AcDbArc
 50
173.875379
 51
180.0
  0
LINE
  5
134F7
100
AcDbEntity
  8
0
100
AcDbLine
 10
1347.477339
 20
961.782704
 30
0.0
 11
1347.477339
 21
976.782704
 31
0.0
  0
LINE
  5
134F8
100
AcDbEntity
  8
0
100
AcDbLine
 10
1358.477339
 20
984.781543
 30
0.0
 11
1356.252235
 21
984.781543
 31
0.0
  0
ARC
  5
134F9
100
AcDbEntity
  8
0
100
AcDbCircle
 10
1352.477339
 20
976.782704
 30
0.0
 40
5.0
100
AcDbArc
 50
100.806923
 51
129.238764
  0
LINE
  5
134FA
100
AcDbEntity
  8
0
100
AcDbLine
 10
1351.889024
 20
981.782704
 30
0.0
 11
1349.853544
 21
981.782704
 31
0.0
  0
ARC
  5
134FB
100
AcDbEntity
  8
0
100
AcDbCircle
 10
1350.977339
 20
984.640821
 30
0.0
 40
3.0
100
AcDbArc
 50
280.806923
 51
331.53992
  0
ARC
  5
134FC
100
AcDbEntity
  8
0
100
AcDbCircle
 10
1356.252235
 20
981.781543
 30
0.0
 40
3.0
100
AcDbArc
 50
90.0
 51
151.53992
  0
ARC
  5
134FD
100
AcDbEntity
  8
0
100
AcDbCircle
 10
1356.977339
 20
1008.782704
 30
0.0
 40
3.0
100
AcDbArc
 50
90.0
 51
168.35508
  0
ARC
  5
134FE
100
AcDbEntity
  8
0
100
AcDbCircle
 10
1356.977339
 20
1008.781543
 30
0.0
 40
3.0
100
AcDbArc
 50
204.690912
 51
270.0
  0
LINE
  5
134FF
100
AcDbEntity
  8
0
100
AcDbLine
 10
1358.478051
 20
1011.782704
 30
0.0
 11
1353.66067
 21
1011.782704
 31
0.0
  0
LINE
  5
13500
100
AcDbEntity
  8
0
100
AcDbLine
 10
1353.977339
 20
1008.782704
 30
0.0
 11
1353.977339
 21
1008.781543
 31
0.0
  0
LINE
  5
13501
100
AcDbEntity
  8
0
100
AcDbLine
 10
1358.477339
 20
1005.781543
 30
0.0
 11
1356.977339
 21
1005.781543
 31
0.0
  0
CIRCLE
  5
13502
100
AcDbEntity
  8
0
100
AcDbCircle
 10
1330.993844
 20
1029.299209
 30
0.0
 40
7.5
  0
ARC
  5
13503
100
AcDbEntity
  8
0
100
AcDbCircle
 10
1339.713361
 20
1036.289701
 30
0.0
 40
14.28125
100
AcDbArc
 50
68.430722
 51
111.567913
  0
LINE
  5
13504
100
AcDbEntity
  8
0
100
AcDbLine
 10
1334.463532
 20
1050.570397
 30
0.0
 11
1355.463532
 21
1050.570146
 31
0.0
  0
LINE
  5
13505
100
AcDbEntity
  8
0
100
AcDbLine
 10
1318.47703
 20
1061.571204
 30
0.0
 11
1318.476914
 21
1050.782828
 31
0.0
  0
LINE
  5
13506
100
AcDbEntity
  8
0
100
AcDbLine
 10
1334.463532
 20
1050.570397
 30
0.0
 11
1334.463439
 21
1042.793126
 31
0.0
  0
LINE
  5
13507
100
AcDbEntity
  8
0
100
AcDbLine
 10
1312.80803
 20
1062.782037
 30
0.0
 11
1312.770214
 21
1061.571371
 31
0.0
  0
LINE
  5
13508
100
AcDbEntity
  8
0
100
AcDbLine
 10
1311.95203
 20
1062.782037
 30
0.0
 11
1311.914214
 21
1061.571371
 31
0.0
  0
LINE
  5
13509
100
AcDbEntity
  8
0
100
AcDbLine
 10
1358.476815
 20
1041.570704
 30
0.0
 11
1358.476648
 21
1027.570704
 31
0.0
  0
LINE
  5
1350A
100
AcDbEntity
  8
0
100
AcDbLine
 10
1358.476648
 20
1027.570704
 30
0.0
 11
1347.900243
 21
1027.570834
 31
0.0
  0
LINE
  5
1350B
100
AcDbEntity
  8
0
100
AcDbLine
 10
1358.476627
 20
1025.782704
 30
0.0
 11
1348.873285
 21
1025.782704
 31
0.0
  0
LINE
  5
1350C
100
AcDbEntity
  8
0
100
AcDbLine
 10
1358.476815
 20
1041.570704
 30
0.0
 11
1336.028402
 21
1041.570981
 31
0.0
  0
LINE
  5
1350D
100
AcDbEntity
  8
0
100
AcDbLine
 10
1355.463532
 20
1050.570146
 30
0.0
 11
1355.463424
 21
1041.570764
 31
0.0
  0
LINE
  5
1350E
100
AcDbEntity
  8
0
100
AcDbLine
 10
1344.96352
 20
1049.570889
 30
0.0
 11
1344.963424
 21
1041.570889
 31
0.0
  0
ARC
  5
1350F
100
AcDbEntity
  8
0
100
AcDbCircle
 10
1350.213361
 20
1036.289576
 30
0.0
 40
14.28125
100
AcDbArc
 50
68.430722
 51
111.567913
  0
ARC
  5
13510
100
AcDbEntity
  8
0
100
AcDbCircle
 10
1823.508111
 20
1213.639835
 30
0.0
 40
300.0
100
AcDbArc
 50
171.614461
 51
188.385539
  0
ARC
  5
13511
100
AcDbEntity
  8
0
100
AcDbCircle
 10
1335.508111
 20
1213.639835
 30
0.0
 40
300.0
100
AcDbArc
 50
351.614461
 51
8.385539
  0
LINE
  5
13512
100
AcDbEntity
  8
0
100
AcDbLine
 10
1476.005445
 20
1163.639835
 30
0.0
 11
1476.005445
 21
1263.639835
 31
0.0
  0
LINE
  5
13513
100
AcDbEntity
  8
0
100
AcDbLine
 10
1462.005445
 20
1213.639835
 30
0.0
 11
1462.005445
 21
1163.639835
 31
0.0
  0
LINE
  5
13514
100
AcDbEntity
  8
0
100
AcDbLine
 10
1462.005445
 20
1213.639835
 30
0.0
 11
1462.005445
 21
1163.639835
 31
0.0
  0
CIRCLE
  5
13515
100
AcDbEntity
  8
0
100
AcDbCircle
 10
1538.495918
 20
1172.627642
 30
0.0
 40
10.5
  0
POLYLINE
  5
13516
100
AcDbEntity
  8
0
100
AcDb2dPolyline
 66
     1
 10
0.0
 20
0.0
 30
0.0
 70
     1
  0
VERTEX
  5
13A36
100
AcDbEntity
  8
0
100
AcDbVertex
100
AcDb2dVertex
 10
1544.558096
 20
1162.127642
 30
0.0
  0
VERTEX
  5
13A37
100
AcDbEntity
  8
0
100
AcDbVertex
100
AcDb2dVertex
 10
1550.620274
 20
1172.627642
 30
0.0
  0
VERTEX
  5
13A38
100
AcDbEntity
  8
0
100
AcDbVertex
100
AcDb2dVertex
 10
1544.558096
 20
1183.127642
 30
0.0
  0
VERTEX
  5
13A39
100
AcDbEntity
  8
0
100
AcDbVertex
100
AcDb2dVertex
 10
1532.43374
 20
1183.127642
 30
0.0
  0
VERTEX
  5
13A3A
100
AcDbEntity
  8
0
100
AcDbVertex
100
AcDb2dVertex
 10
1526.371562
 20
1172.627642
 30
0.0
  0
VERTEX
  5
13A3B
100
AcDbEntity
  8
0
100
AcDbVertex
100
AcDb2dVertex
 10
1532.43374
 20
1162.127642
 30
0.0
  0
SEQEND
  5
13A3C
100
AcDbEntity
  8
0
  0
POLYLINE
  5
13517
100
AcDbEntity
  8
0
100
AcDb2dPolyline
 66
     1
 10
0.0
 20
0.0
 30
0.0
 70
     1
  0
VERTEX
  5
13A3D
100
AcDbEntity
  8
0
100
AcDbVertex
100
AcDb2dVertex
 10
1614.458127
 20
1162.127642
 30
0.0
  0
VERTEX
  5
13A3E
100
AcDbEntity
  8
0
100
AcDbVertex
100
AcDb2dVertex
 10
1608.395949
 20
1172.627642
 30
0.0
  0
VERTEX
  5
13A3F
100
AcDbEntity
  8
0
100
AcDbVertex
100
AcDb2dVertex
 10
1614.458127
 20
1183.127642
 30
0.0
  0
VERTEX
  5
13A40
100
AcDbEntity
  8
0
100
AcDbVertex
100
AcDb2dVertex
 10
1626.582482
 20
1183.127642
 30
0.0
  0
VERTEX
  5
13A41
100
AcDbEntity
  8
0
100
AcDbVertex
100
AcDb2dVertex
 10
1632.64466
 20
1172.627642
 30
0.0
  0
VERTEX
  5
13A42
100
AcDbEntity
  8
0
100
AcDbVertex
100
AcDb2dVertex
 10
1626.582482
 20
1162.127642
 30
0.0
  0
SEQEND
  5
13A43
100
AcDbEntity
  8
0
  0
CIRCLE
  5
13518
100
AcDbEntity
  8
0
100
AcDbCircle
 10
1620.520305
 20
1172.627642
 30
0.0
 40
10.5
  0
LINE
  5
13519
100
AcDbEntity
  8
0
100
AcDbLine
 10
1698.005445
 20
1163.639835
 30
0.0
 11
1698.005445
 21
1263.639835
 31
0.0
  0
LINE
  5
1351A
100
AcDbEntity
  8
0
100
AcDbLine
 10
1712.005445
 20
1213.639835
 30
0.0
 11
1712.005445
 21
1163.639835
 31
0.0
  0
CIRCLE
  5
1351B
100
AcDbEntity
  8
0
100
AcDbCircle
 10
1579.508824
 20
995.281543
 30
0.0
 40
10.5
  0
LINE
  5
1351C
100
AcDbEntity
  8
0
100
AcDbLine
 10
1509.508111
 20
981.782704
 30
0.0
 11
1619.500417
 21
981.782704
 31
0.0
  0
LINE
  5
1351D
100
AcDbEntity
  8
0
100
AcDbLine
 10
1523.508111
 20
1027.572038
 30
0.0
 11
1635.508111
 21
1027.572038
 31
0.0
  0
LINE
  5
1351E
100
AcDbEntity
  8
0
100
AcDbLine
 10
1523.508111
 20
1025.782704
 30
0.0
 11
1635.508111
 21
1025.782704
 31
0.0
  0
LINE
  5
1351F
100
AcDbEntity
  8
0
100
AcDbLine
 10
1514.508111
 20
1025.782704
 30
0.0
 11
1635.508111
 21
1025.782704
 31
0.0
  0
LINE
  5
13520
100
AcDbEntity
  8
0
100
AcDbLine
 10
1523.508111
 20
1011.782704
 30
0.0
 11
1635.508111
 21
1011.782704
 31
0.0
  0
LINE
  5
13521
100
AcDbEntity
  8
0
100
AcDbLine
 10
1565.508111
 20
1061.572038
 30
0.0
 11
1593.508111
 21
1061.572038
 31
0.0
  0
LINE
  5
13522
100
AcDbEntity
  8
0
100
AcDbLine
 10
1587.839111
 20
1062.782704
 30
0.0
 11
1571.177111
 21
1062.782704
 31
0.0
  0
LINE
  5
13523
100
AcDbEntity
  8
0
100
AcDbLine
 10
1587.839111
 20
1071.782704
 30
0.0
 11
1571.177111
 21
1071.782704
 31
0.0
  0
LINE
  5
13524
100
AcDbEntity
  8
0
100
AcDbLine
 10
1523.508111
 20
1041.572038
 30
0.0
 11
1635.508111
 21
1041.572038
 31
0.0
  0
LINE
  5
13525
100
AcDbEntity
  8
0
100
AcDbLine
 10
1538.58707
 20
1159.639835
 30
0.0
 11
1620.429153
 21
1159.639835
 31
0.0
  0
LINE
  5
13526
100
AcDbEntity
  8
0
100
AcDbLine
 10
1571.177111
 20
1071.782704
 30
0.0
 11
1571.177111
 21
1062.782704
 31
0.0
  0
LINE
  5
13527
100
AcDbEntity
  8
0
100
AcDbLine
 10
1503.478778
 20
989.182704
 30
0.0
 11
1509.505445
 21
989.602704
 31
0.0
  0
LINE
  5
13528
100
AcDbEntity
  8
0
100
AcDbLine
 10
1509.505445
 20
1015.962704
 30
0.0
 11
1503.478778
 21
1016.382704
 31
0.0
  0
LINE
  5
13529
100
AcDbEntity
  8
0
100
AcDbLine
 10
1503.478778
 20
989.182704
 30
0.0
 11
1503.478778
 21
1016.382704
 31
0.0
  0
LINE
  5
1352A
100
AcDbEntity
  8
0
100
AcDbLine
 10
1492.626096
 20
1016.382704
 30
0.0
 11
1492.626096
 21
989.182704
 31
0.0
  0
LINE
  5
1352B
100
AcDbEntity
  8
0
100
AcDbLine
 10
1485.005445
 20
1025.680238
 30
0.0
 11
1485.005445
 21
979.885171
 31
0.0
  0
LINE
  5
1352C
100
AcDbEntity
  8
0
100
AcDbLine
 10
1462.005445
 20
1052.782704
 30
0.0
 11
1462.005445
 21
1002.782704
 31
0.0
  0
LINE
  5
1352D
100
AcDbEntity
  8
0
100
AcDbLine
 10
1462.005445
 20
1052.782704
 30
0.0
 11
1462.005445
 21
1002.782704
 31
0.0
  0
LINE
  5
1352E
100
AcDbEntity
  8
0
100
AcDbLine
 10
1485.005445
 20
979.885171
 30
0.0
 11
1476.005445
 21
978.780109
 31
0.0
  0
LINE
  5
1352F
100
AcDbEntity
  8
0
100
AcDbLine
 10
1492.626096
 20
989.182704
 30
0.0
 11
1503.478778
 21
989.182704
 31
0.0
  0
LINE
  5
13530
100
AcDbEntity
  8
0
100
AcDbLine
 10
1485.005445
 20
979.885171
 30
0.0
 11
1492.626096
 21
989.182704
 31
0.0
  0
LINE
  5
13531
100
AcDbEntity
  8
0
100
AcDbLine
 10
1476.005445
 20
1052.782704
 30
0.0
 11
1462.005445
 21
1052.782704
 31
0.0
  0
LINE
  5
13532
100
AcDbEntity
  8
0
100
AcDbLine
 10
1485.005445
 20
1025.680238
 30
0.0
 11
1492.626096
 21
1016.382704
 31
0.0
  0
LINE
  5
13533
100
AcDbEntity
  8
0
100
AcDbLine
 10
1503.478778
 20
1016.382704
 30
0.0
 11
1492.626096
 21
1016.382704
 31
0.0
  0
LINE
  5
13534
100
AcDbEntity
  8
0
100
AcDbLine
 10
1485.005445
 20
1025.680238
 30
0.0
 11
1476.005445
 21
1026.785299
 31
0.0
  0
LINE
  5
13535
100
AcDbEntity
  8
0
100
AcDbLine
 10
1509.508111
 20
1023.782704
 30
0.0
 11
1509.508111
 21
981.782704
 31
0.0
  0
LINE
  5
13536
100
AcDbEntity
  8
0
100
AcDbLine
 10
1523.508111
 20
1025.782704
 30
0.0
 11
1523.508111
 21
1011.782704
 31
0.0
  0
LINE
  5
13537
100
AcDbEntity
  8
0
100
AcDbLine
 10
1528.508111
 20
1011.782704
 30
0.0
 11
1528.508111
 21
993.782704
 31
0.0
  0
LINE
  5
13538
100
AcDbEntity
  8
0
100
AcDbLine
 10
1513.508111
 20
1011.782704
 30
0.0
 11
1513.508111
 21
993.782704
 31
0.0
  0
ARC
  5
13539
100
AcDbEntity
  8
0
100
AcDbCircle
 10
1531.508111
 20
976.782704
 30
0.0
 40
5.0
100
AcDbArc
 50
0.0
 51
90.0
  0
LINE
  5
1353A
100
AcDbEntity
  8
0
100
AcDbLine
 10
1536.508111
 20
976.782704
 30
0.0
 11
1536.508111
 21
961.782704
 31
0.0
  0
LINE
  5
1353B
100
AcDbEntity
  8
0
100
AcDbLine
 10
1528.508111
 20
993.782704
 30
0.0
 11
1513.508111
 21
993.782704
 31
0.0
  0
LINE
  5
1353C
100
AcDbEntity
  8
0
100
AcDbLine
 10
1528.508111
 20
1011.782704
 30
0.0
 11
1513.508111
 21
1011.782704
 31
0.0
  0
LINE
  5
1353D
100
AcDbEntity
  8
0
100
AcDbLine
 10
1528.103613
 20
1050.572038
 30
0.0
 11
1548.888223
 21
1050.572038
 31
0.0
  0
ARC
  5
1353E
100
AcDbEntity
  8
0
100
AcDbCircle
 10
1538.495918
 20
1031.685382
 30
0.0
 40
18.886039
100
AcDbArc
 50
71.277359
 51
108.722641
  0
LINE
  5
1353F
100
AcDbEntity
  8
0
100
AcDbLine
 10
1523.508111
 20
1041.572038
 30
0.0
 11
1523.508111
 21
1027.572038
 31
0.0
  0
LINE
  5
13540
100
AcDbEntity
  8
0
100
AcDbLine
 10
1509.508111
 20
1023.782704
 30
0.0
 11
1523.508111
 21
1023.782704
 31
0.0
  0
LINE
  5
13541
100
AcDbEntity
  8
0
100
AcDbLine
 10
1514.508111
 20
1025.782704
 30
0.0
 11
1514.508111
 21
1023.782704
 31
0.0
  0
LINE
  5
13542
100
AcDbEntity
  8
0
100
AcDbLine
 10
1541.008111
 20
1027.572038
 30
0.0
 11
1541.008111
 21
1025.782704
 31
0.0
  0
LINE
  5
13543
100
AcDbEntity
  8
0
100
AcDbLine
 10
1539.022214
 20
1050.571421
 30
0.0
 11
1528.830652
 21
1050.571421
 31
0.0
  0
LINE
  5
13544
100
AcDbEntity
  8
0
100
AcDbLine
 10
1526.371562
 20
1049.572038
 30
0.0
 11
1528.103613
 21
1050.572038
 31
0.0
  0
ARC
  5
13545
100
AcDbEntity
  8
0
100
AcDbCircle
 10
1529.402651
 20
1045.475143
 30
0.0
 40
5.096278
100
AcDbArc
 50
53.504105
 51
126.495895
  0
LINE
  5
13546
100
AcDbEntity
  8
0
100
AcDbLine
 10
1526.371562
 20
1049.572038
 30
0.0
 11
1526.371562
 21
1041.572038
 31
0.0
  0
LINE
  5
13547
100
AcDbEntity
  8
0
100
AcDbLine
 10
1532.43374
 20
1041.572038
 30
0.0
 11
1532.43374
 21
1049.572038
 31
0.0
  0
LINE
  5
13548
100
AcDbEntity
  8
0
100
AcDbLine
 10
1565.508111
 20
1061.572038
 30
0.0
 11
1565.508111
 21
1041.572038
 31
0.0
  0
LINE
  5
13549
100
AcDbEntity
  8
0
100
AcDbLine
 10
1550.620274
 20
1049.572038
 30
0.0
 11
1548.888223
 21
1050.572038
 31
0.0
  0
ARC
  5
1354A
100
AcDbEntity
  8
0
100
AcDbCircle
 10
1547.589185
 20
1045.475143
 30
0.0
 40
5.096278
100
AcDbArc
 50
53.504105
 51
126.495895
  0
LINE
  5
1354B
100
AcDbEntity
  8
0
100
AcDbLine
 10
1550.620274
 20
1049.572038
 30
0.0
 11
1550.620274
 21
1041.572038
 31
0.0
  0
LINE
  5
1354C
100
AcDbEntity
  8
0
100
AcDbLine
 10
1544.558096
 20
1041.572038
 30
0.0
 11
1544.558096
 21
1049.572038
 31
0.0
  0
LINE
  5
1354D
100
AcDbEntity
  8
0
100
AcDbLine
 10
1571.177111
 20
1062.782704
 30
0.0
 11
1571.214927
 21
1061.572038
 31
0.0
  0
LINE
  5
1354E
100
AcDbEntity
  8
0
100
AcDbLine
 10
1572.033111
 20
1062.782704
 30
0.0
 11
1572.070927
 21
1061.572038
 31
0.0
  0
LINE
  5
1354F
100
AcDbEntity
  8
0
100
AcDbLine
 10
1462.005445
 20
1163.639835
 30
0.0
 11
1476.005445
 21
1163.639835
 31
0.0
  0
ARC
  5
13550
100
AcDbEntity
  8
0
100
AcDbCircle
 10
1538.58707
 20
1171.639835
 30
0.0
 40
12.0
100
AcDbArc
 50
188.385539
 51
270.0
  0
LINE
  5
13551
100
AcDbEntity
  8
0
100
AcDbLine
 10
1587.839111
 20
1071.782704
 30
0.0
 11
1587.839111
 21
1062.782704
 31
0.0
  0
LINE
  5
13552
100
AcDbEntity
  8
0
100
AcDbLine
 10
1579.508111
 20
1071.782704
 30
0.0
 11
1579.508111
 21
1062.782704
 31
0.0
  0
ARC
  5
13553
100
AcDbEntity
  8
0
100
AcDbCircle
 10
1650.872884
 20
976.782704
 30
0.0
 40
5.0
100
AcDbArc
 50
90.0
 51
175.0
  0
LINE
  5
13554
100
AcDbEntity
  8
0
100
AcDbLine
 10
1660.508111
 20
993.782704
 30
0.0
 11
1645.508111
 21
993.782704
 31
0.0
  0
LINE
  5
13555
100
AcDbEntity
  8
0
100
AcDbLine
 10
1660.508111
 20
1011.782704
 30
0.0
 11
1645.508111
 21
1011.782704
 31
0.0
  0
LINE
  5
13556
100
AcDbEntity
  8
0
100
AcDbLine
 10
1635.508111
 20
1023.782704
 30
0.0
 11
1664.508111
 21
1023.782704
 31
0.0
  0
LINE
  5
13557
100
AcDbEntity
  8
0
100
AcDbLine
 10
1635.508111
 20
1025.782704
 30
0.0
 11
1635.508111
 21
1011.782704
 31
0.0
  0
ARC
  5
13558
100
AcDbEntity
  8
0
100
AcDbCircle
 10
1682.257988
 20
998.71837
 30
0.0
 40
57.671059
100
AcDbArc
 50
174.05568
 51
191.508499
  0
LINE
  5
13559
100
AcDbEntity
  8
0
100
AcDbLine
 10
1645.508111
 20
1011.782704
 30
0.0
 11
1645.508111
 21
993.782704
 31
0.0
  0
LINE
  5
1355A
100
AcDbEntity
  8
0
100
AcDbLine
 10
1622.508111
 20
979.712867
 30
0.0
 11
1622.508111
 21
961.782704
 31
0.0
  0
LINE
  5
1355B
100
AcDbEntity
  8
0
100
AcDbLine
 10
1644.819982
 20
964.966282
 30
0.0
 11
1645.891911
 21
977.218483
 31
0.0
  0
ARC
  5
1355C
100
AcDbEntity
  8
0
100
AcDbCircle
 10
1625.508111
 20
979.712867
 30
0.0
 40
3.0
100
AcDbArc
 50
125.637046
 51
180.0
  0
ARC
  5
1355D
100
AcDbEntity
  8
0
100
AcDbCircle
 10
1620.846923
 20
986.214661
 30
0.0
 40
5.0
100
AcDbArc
 50
305.637046
 51
11.508499
  0
LINE
  5
1355E
100
AcDbEntity
  8
0
100
AcDbLine
 10
1593.508111
 20
1057.572038
 30
0.0
 11
1635.508111
 21
1057.572038
 31
0.0
  0
LINE
  5
1355F
100
AcDbEntity
  8
0
100
AcDbLine
 10
1630.912609
 20
1050.572038
 30
0.0
 11
1610.128
 21
1050.572038
 31
0.0
  0
ARC
  5
13560
100
AcDbEntity
  8
0
100
AcDbCircle
 10
1611.427038
 20
1045.475143
 30
0.0
 40
5.096278
100
AcDbArc
 50
53.504105
 51
126.495895
  0
LINE
  5
13561
100
AcDbEntity
  8
0
100
AcDbLine
 10
1593.508111
 20
1061.572038
 30
0.0
 11
1593.508111
 21
1041.572038
 31
0.0
  0
LINE
  5
13562
100
AcDbEntity
  8
0
100
AcDbLine
 10
1608.395949
 20
1049.572038
 30
0.0
 11
1608.395949
 21
1041.572038
 31
0.0
  0
LINE
  5
13563
100
AcDbEntity
  8
0
100
AcDbLine
 10
1608.395949
 20
1049.572038
 30
0.0
 11
1610.128
 21
1050.572038
 31
0.0
  0
LINE
  5
13564
100
AcDbEntity
  8
0
100
AcDbLine
 10
1587.839111
 20
1062.782704
 30
0.0
 11
1587.801296
 21
1061.572038
 31
0.0
  0
LINE
  5
13565
100
AcDbEntity
  8
0
100
AcDbLine
 10
1586.983111
 20
1062.782704
 30
0.0
 11
1586.945296
 21
1061.572038
 31
0.0
  0
LINE
  5
13566
100
AcDbEntity
  8
0
100
AcDbLine
 10
1635.508111
 20
1057.572038
 30
0.0
 11
1635.508111
 21
1027.572038
 31
0.0
  0
LINE
  5
13567
100
AcDbEntity
  8
0
100
AcDbLine
 10
1618.008111
 20
1027.572038
 30
0.0
 11
1618.008111
 21
1025.782704
 31
0.0
  0
ARC
  5
13568
100
AcDbEntity
  8
0
100
AcDbCircle
 10
1629.613571
 20
1045.475143
 30
0.0
 40
5.096278
100
AcDbArc
 50
53.504105
 51
126.495895
  0
LINE
  5
13569
100
AcDbEntity
  8
0
100
AcDbLine
 10
1619.994008
 20
1050.571421
 30
0.0
 11
1630.185571
 21
1050.571421
 31
0.0
  0
ARC
  5
1356A
100
AcDbEntity
  8
0
100
AcDbCircle
 10
1620.520305
 20
1031.685382
 30
0.0
 40
18.886039
100
AcDbArc
 50
71.277359
 51
108.722641
  0
LINE
  5
1356B
100
AcDbEntity
  8
0
100
AcDbLine
 10
1626.582482
 20
1041.572038
 30
0.0
 11
1626.582482
 21
1049.572038
 31
0.0
  0
LINE
  5
1356C
100
AcDbEntity
  8
0
100
AcDbLine
 10
1614.458127
 20
1041.572038
 30
0.0
 11
1614.458127
 21
1049.572038
 31
0.0
  0
LINE
  5
1356D
100
AcDbEntity
  8
0
100
AcDbLine
 10
1632.64466
 20
1049.572038
 30
0.0
 11
1632.64466
 21
1041.572038
 31
0.0
  0
LINE
  5
1356E
100
AcDbEntity
  8
0
100
AcDbLine
 10
1632.64466
 20
1049.572038
 30
0.0
 11
1630.912609
 21
1050.572038
 31
0.0
  0
LINE
  5
1356F
100
AcDbEntity
  8
0
100
AcDbLine
 10
1681.384794
 20
1016.382704
 30
0.0
 11
1681.384794
 21
989.182704
 31
0.0
  0
LINE
  5
13570
100
AcDbEntity
  8
0
100
AcDbLine
 10
1670.532111
 20
1016.382704
 30
0.0
 11
1670.532111
 21
989.182704
 31
0.0
  0
LINE
  5
13571
100
AcDbEntity
  8
0
100
AcDbLine
 10
1664.508111
 20
1023.782704
 30
0.0
 11
1664.508111
 21
981.782704
 31
0.0
  0
LINE
  5
13572
100
AcDbEntity
  8
0
100
AcDbLine
 10
1689.005445
 20
1025.680238
 30
0.0
 11
1689.005445
 21
979.885171
 31
0.0
  0
LINE
  5
13573
100
AcDbEntity
  8
0
100
AcDbLine
 10
1712.005445
 20
1052.782704
 30
0.0
 11
1712.005445
 21
1002.782704
 31
0.0
  0
LINE
  5
13574
100
AcDbEntity
  8
0
100
AcDbLine
 10
1712.005445
 20
1052.782704
 30
0.0
 11
1712.005445
 21
1002.782704
 31
0.0
  0
LINE
  5
13575
100
AcDbEntity
  8
0
100
AcDbLine
 10
1689.005445
 20
979.885171
 30
0.0
 11
1681.384794
 21
989.182704
 31
0.0
  0
LINE
  5
13576
100
AcDbEntity
  8
0
100
AcDbLine
 10
1660.508111
 20
1011.782704
 30
0.0
 11
1660.508111
 21
993.782704
 31
0.0
  0
LINE
  5
13577
100
AcDbEntity
  8
0
100
AcDbLine
 10
1670.532111
 20
989.182704
 30
0.0
 11
1664.505445
 21
989.602704
 31
0.0
  0
LINE
  5
13578
100
AcDbEntity
  8
0
100
AcDbLine
 10
1681.384794
 20
989.182704
 30
0.0
 11
1670.532111
 21
989.182704
 31
0.0
  0
LINE
  5
13579
100
AcDbEntity
  8
0
100
AcDbLine
 10
1650.872884
 20
981.782704
 30
0.0
 11
1664.508111
 21
981.782704
 31
0.0
  0
LINE
  5
1357A
100
AcDbEntity
  8
0
100
AcDbLine
 10
1670.532111
 20
989.182704
 30
0.0
 11
1664.505445
 21
989.602704
 31
0.0
  0
LINE
  5
1357B
100
AcDbEntity
  8
0
100
AcDbLine
 10
1689.005445
 20
979.885171
 30
0.0
 11
1698.005445
 21
978.780109
 31
0.0
  0
LINE
  5
1357C
100
AcDbEntity
  8
0
100
AcDbLine
 10
1689.005445
 20
1025.680238
 30
0.0
 11
1681.384794
 21
1016.382704
 31
0.0
  0
LINE
  5
1357D
100
AcDbEntity
  8
0
100
AcDbLine
 10
1664.505445
 20
1015.962704
 30
0.0
 11
1670.532111
 21
1016.382704
 31
0.0
  0
LINE
  5
1357E
100
AcDbEntity
  8
0
100
AcDbLine
 10
1670.532111
 20
1016.382704
 30
0.0
 11
1681.384794
 21
1016.382704
 31
0.0
  0
LINE
  5
1357F
100
AcDbEntity
  8
0
100
AcDbLine
 10
1664.505445
 20
1015.962704
 30
0.0
 11
1670.532111
 21
1016.382704
 31
0.0
  0
LINE
  5
13580
100
AcDbEntity
  8
0
100
AcDbLine
 10
1689.005445
 20
1025.680238
 30
0.0
 11
1698.005445
 21
1026.785299
 31
0.0
  0
LINE
  5
13581
100
AcDbEntity
  8
0
100
AcDbLine
 10
1698.005445
 20
1052.782704
 30
0.0
 11
1712.005445
 21
1052.782704
 31
0.0
  0
ARC
  5
13582
100
AcDbEntity
  8
0
100
AcDbCircle
 10
1620.429153
 20
1171.639835
 30
0.0
 40
12.0
100
AcDbArc
 50
270.0
 51
351.614461
  0
LINE
  5
13583
100
AcDbEntity
  8
0
100
AcDbLine
 10
1712.005445
 20
1163.639835
 30
0.0
 11
1698.005445
 21
1163.639835
 31
0.0
  0
POLYLINE
  5
13584
100
AcDbEntity
  8
0
100
AcDb2dPolyline
 66
     1
 10
0.0
 20
0.0
 30
0.0
  0
VERTEX
  5
13A44
100
AcDbEntity
  8
0
100
AcDbVertex
100
AcDb2dVertex
 10
1579.508111
 20
1205.310291
 30
0.0
  0
VERTEX
  5
13A45
100
AcDbEntity
  8
0
100
AcDbVertex
100
AcDb2dVertex
 10
1571.178567
 20
1213.639835
 30
0.0
  0
SEQEND
  5
13A46
100
AcDbEntity
  8
0
  0
POLYLINE
  5
13585
100
AcDbEntity
  8
0
100
AcDb2dPolyline
 66
     1
 10
0.0
 20
0.0
 30
0.0
  0
VERTEX
  5
13A47
100
AcDbEntity
  8
0
100
AcDbVertex
100
AcDb2dVertex
 10
1571.177111
 20
1213.639835
 30
0.0
  0
VERTEX
  5
13A48
100
AcDbEntity
  8
0
100
AcDbVertex
100
AcDb2dVertex
 10
1579.508111
 20
1221.970835
 30
0.0
  0
SEQEND
  5
13A49
100
AcDbEntity
  8
0
  0
CIRCLE
  5
13586
100
AcDbEntity
  8
0
100
AcDbCircle
 10
1579.508111
 20
1213.639835
 30
0.0
 40
8.331
  0
CIRCLE
  5
13587
100
AcDbEntity
  8
0
100
AcDbCircle
 10
1579.508111
 20
1213.639835
 30
0.0
 40
14.0
  0
LINE
  5
13588
100
AcDbEntity
  8
0
100
AcDbLine
 10
1538.58707
 20
1267.639835
 30
0.0
 11
1620.429153
 21
1267.639835
 31
0.0
  0
ARC
  5
13589
100
AcDbEntity
  8
0
100
AcDbCircle
 10
1594.502778
 20
1382.350704
 30
0.0
 40
43.0
100
AcDbArc
 50
222.953187
 51
282.380799
  0
LINE
  5
1358A
100
AcDbEntity
  8
0
100
AcDbLine
 10
1503.478778
 20
1200.039835
 30
0.0
 11
1509.505445
 21
1200.459835
 31
0.0
  0
LINE
  5
1358B
100
AcDbEntity
  8
0
100
AcDbLine
 10
1509.505445
 20
1226.819835
 30
0.0
 11
1503.478778
 21
1227.239835
 31
0.0
  0
LINE
  5
1358C
100
AcDbEntity
  8
0
100
AcDbLine
 10
1485.005445
 20
1236.537369
 30
0.0
 11
1485.005445
 21
1190.742301
 31
0.0
  0
LINE
  5
1358D
100
AcDbEntity
  8
0
100
AcDbLine
 10
1462.005445
 20
1263.639835
 30
0.0
 11
1462.005445
 21
1213.639835
 31
0.0
  0
LINE
  5
1358E
100
AcDbEntity
  8
0
100
AcDbLine
 10
1462.005445
 20
1263.639835
 30
0.0
 11
1462.005445
 21
1213.639835
 31
0.0
  0
LINE
  5
1358F
100
AcDbEntity
  8
0
100
AcDbLine
 10
1492.626096
 20
1227.239835
 30
0.0
 11
1492.626096
 21
1200.039835
 31
0.0
  0
LINE
  5
13590
100
AcDbEntity
  8
0
100
AcDbLine
 10
1503.478778
 20
1200.039835
 30
0.0
 11
1503.478778
 21
1227.239835
 31
0.0
  0
LINE
  5
13591
100
AcDbEntity
  8
0
100
AcDbLine
 10
1485.005445
 20
1190.742301
 30
0.0
 11
1492.626096
 21
1200.039835
 31
0.0
  0
LINE
  5
13592
100
AcDbEntity
  8
0
100
AcDbLine
 10
1485.005445
 20
1190.742301
 30
0.0
 11
1476.005445
 21
1189.63724
 31
0.0
  0
LINE
  5
13593
100
AcDbEntity
  8
0
100
AcDbLine
 10
1492.626096
 20
1200.039835
 30
0.0
 11
1503.478778
 21
1200.039835
 31
0.0
  0
LINE
  5
13594
100
AcDbEntity
  8
0
100
AcDbLine
 10
1476.005445
 20
1263.639835
 30
0.0
 11
1462.005445
 21
1263.639835
 31
0.0
  0
LINE
  5
13595
100
AcDbEntity
  8
0
100
AcDbLine
 10
1485.005445
 20
1236.537369
 30
0.0
 11
1492.626096
 21
1227.239835
 31
0.0
  0
LINE
  5
13596
100
AcDbEntity
  8
0
100
AcDbLine
 10
1503.478778
 20
1227.239835
 30
0.0
 11
1492.626096
 21
1227.239835
 31
0.0
  0
LINE
  5
13597
100
AcDbEntity
  8
0
100
AcDbLine
 10
1485.005445
 20
1236.537369
 30
0.0
 11
1476.005445
 21
1237.64243
 31
0.0
  0
LINE
  5
13598
100
AcDbEntity
  8
0
100
AcDbLine
 10
1509.502778
 20
1234.637168
 30
0.0
 11
1509.502778
 21
1192.637168
 31
0.0
  0
LINE
  5
13599
100
AcDbEntity
  8
0
100
AcDbLine
 10
1524.384922
 20
1190.608168
 30
0.0
 11
1513.502778
 21
1190.608168
 31
0.0
  0
LINE
  5
1359A
100
AcDbEntity
  8
0
100
AcDbLine
 10
1509.502778
 20
1192.637168
 30
0.0
 11
1524.235627
 21
1192.637168
 31
0.0
  0
LINE
  5
1359B
100
AcDbEntity
  8
0
100
AcDbLine
 10
1513.502778
 20
1190.608168
 30
0.0
 11
1513.502778
 21
1192.634502
 31
0.0
  0
ARC
  5
1359C
100
AcDbEntity
  8
0
100
AcDbCircle
 10
1520.499725
 20
1213.637168
 30
0.0
 40
6.0
100
AcDbArc
 50
89.149041
 51
270.850959
  0
ARC
  5
1359D
100
AcDbEntity
  8
0
100
AcDbCircle
 10
1520.641775
 20
1204.640827
 30
0.0
 40
3.0
100
AcDbArc
 50
1.701917
 51
90.850959
  0
ARC
  5
1359E
100
AcDbEntity
  8
0
100
AcDbCircle
 10
1520.641775
 20
1204.640827
 30
0.0
 40
3.0
100
AcDbArc
 50
1.701917
 51
90.850959
  0
ARC
  5
1359F
100
AcDbEntity
  8
0
100
AcDbCircle
 10
1520.641775
 20
1222.638842
 30
0.0
 40
3.0
100
AcDbArc
 50
269.149041
 51
358.298083
  0
ARC
  5
135A0
100
AcDbEntity
  8
0
100
AcDbCircle
 10
1520.641775
 20
1222.638842
 30
0.0
 40
3.0
100
AcDbArc
 50
269.149041
 51
358.298083
  0
POLYLINE
  5
135A1
100
AcDbEntity
  8
0
100
AcDb2dPolyline
 66
     1
 10
0.0
 20
0.0
 30
0.0
 70
     1
  0
VERTEX
  5
13A4A
100
AcDbEntity
  8
0
100
AcDbVertex
100
AcDb2dVertex
 10
1544.558096
 20
1265.152028
 30
0.0
  0
VERTEX
  5
13A4B
100
AcDbEntity
  8
0
100
AcDbVertex
100
AcDb2dVertex
 10
1550.620274
 20
1254.652028
 30
0.0
  0
VERTEX
  5
13A4C
100
AcDbEntity
  8
0
100
AcDbVertex
100
AcDb2dVertex
 10
1544.558096
 20
1244.152028
 30
0.0
  0
VERTEX
  5
13A4D
100
AcDbEntity
  8
0
100
AcDbVertex
100
AcDb2dVertex
 10
1532.43374
 20
1244.152028
 30
0.0
  0
VERTEX
  5
13A4E
100
AcDbEntity
  8
0
100
AcDbVertex
100
AcDb2dVertex
 10
1526.371562
 20
1254.652028
 30
0.0
  0
VERTEX
  5
13A4F
100
AcDbEntity
  8
0
100
AcDbVertex
100
AcDb2dVertex
 10
1532.43374
 20
1265.152028
 30
0.0
  0
SEQEND
  5
13A50
100
AcDbEntity
  8
0
  0
CIRCLE
  5
135A2
100
AcDbEntity
  8
0
100
AcDbCircle
 10
1538.495918
 20
1254.652028
 30
0.0
 40
10.5
  0
LINE
  5
135A3
100
AcDbEntity
  8
0
100
AcDbLine
 10
1513.502778
 20
1236.666169
 30
0.0
 11
1513.502778
 21
1234.639835
 31
0.0
  0
LINE
  5
135A4
100
AcDbEntity
  8
0
100
AcDbLine
 10
1509.502778
 20
1234.637168
 30
0.0
 11
1524.235627
 21
1234.637168
 31
0.0
  0
LINE
  5
135A5
100
AcDbEntity
  8
0
100
AcDbLine
 10
1524.384922
 20
1236.666169
 30
0.0
 11
1513.502778
 21
1236.666169
 31
0.0
  0
ARC
  5
135A6
100
AcDbEntity
  8
0
100
AcDbCircle
 10
1538.58707
 20
1255.639835
 30
0.0
 40
12.0
100
AcDbArc
 50
90.0
 51
171.614461
  0
LINE
  5
135A7
100
AcDbEntity
  8
0
100
AcDbLine
 10
1499.467187
 20
1342.90583
 30
0.0
 11
1525.547185
 21
1349.893944
 31
0.0
  0
LINE
  5
135A8
100
AcDbEntity
  8
0
100
AcDbLine
 10
1492.479073
 20
1368.985827
 30
0.0
 11
1518.55907
 21
1375.973942
 31
0.0
  0
LINE
  5
135A9
100
AcDbEntity
  8
0
100
AcDbLine
 10
1462.005445
 20
1373.350704
 30
0.0
 11
1476.005445
 21
1373.350704
 31
0.0
  0
LINE
  5
135AA
100
AcDbEntity
  8
0
100
AcDbLine
 10
1499.467187
 20
1342.90583
 30
0.0
 11
1492.479073
 21
1368.985827
 31
0.0
  0
LINE
  5
135AB
100
AcDbEntity
  8
0
100
AcDbLine
 10
1558.07697
 20
1354.473105
 30
0.0
 11
1533.349155
 21
1347.847307
 31
0.0
  0
ARC
  5
135AC
100
AcDbEntity
  8
0
100
AcDbCircle
 10
1524.400946
 20
1349.19155
 30
0.0
 40
7.987821
100
AcDbArc
 50
346.031911
 51
43.958566
  0
LINE
  5
135AD
100
AcDbEntity
  8
0
100
AcDbLine
 10
1524.644086
 20
1353.26114
 30
0.0
 11
1530.150915
 21
1354.7362
 31
0.0
  0
LINE
  5
135AE
100
AcDbEntity
  8
0
100
AcDbLine
 10
1526.645741
 20
1345.788378
 30
0.0
 11
1517.460514
 21
1380.079508
 31
0.0
  0
LINE
  5
135AF
100
AcDbEntity
  8
0
100
AcDbLine
 10
1526.645741
 20
1345.788378
 30
0.0
 11
1532.15257
 21
1347.263438
 31
0.0
  0
LINE
  5
135B0
100
AcDbEntity
  8
0
100
AcDbLine
 10
1532.82521
 20
1349.772931
 30
0.0
 11
1532.15257
 21
1347.263438
 31
0.0
  0
LINE
  5
135B1
100
AcDbEntity
  8
0
100
AcDbLine
 10
1519.462169
 20
1372.606746
 30
0.0
 11
1524.968998
 21
1374.081806
 31
0.0
  0
LINE
  5
135B2
100
AcDbEntity
  8
0
100
AcDbLine
 10
1524.968998
 20
1374.081806
 30
0.0
 11
1525.571494
 21
1371.832514
 31
0.0
  0
LINE
  5
135B3
100
AcDbEntity
  8
0
100
AcDbLine
 10
1520.064665
 20
1370.357454
 30
0.0
 11
1525.571494
 21
1371.832514
 31
0.0
  0
LINE
  5
135B4
100
AcDbEntity
  8
0
100
AcDbLine
 10
1524.04159
 20
1355.510432
 30
0.0
 11
1529.548419
 21
1356.985492
 31
0.0
  0
LINE
  5
135B5
100
AcDbEntity
  8
0
100
AcDbLine
 10
1529.548419
 20
1356.985492
 30
0.0
 11
1530.150915
 21
1354.7362
 31
0.0
  0
ARC
  5
135B6
100
AcDbEntity
  8
0
100
AcDbCircle
 10
1499.489368
 20
1356.890012
 30
0.0
 40
30.059202
100
AcDbArc
 50
0.181995
 51
29.808483
  0
ARC
  5
135B7
100
AcDbEntity
  8
0
100
AcDbCircle
 10
1559.371065
 20
1349.643476
 30
0.0
 40
5.0
100
AcDbArc
 50
42.953187
 51
105.0
  0
LINE
  5
135B8
100
AcDbEntity
  8
0
100
AcDbLine
 10
1645.502778
 20
1190.608168
 30
0.0
 11
1660.502778
 21
1190.608168
 31
0.0
  0
LINE
  5
135B9
100
AcDbEntity
  8
0
100
AcDbLine
 10
1634.763635
 20
1192.634502
 30
0.0
 11
1664.502778
 21
1192.634502
 31
0.0
  0
LINE
  5
135BA
100
AcDbEntity
  8
0
100
AcDbLine
 10
1634.764009
 20
1234.634502
 30
0.0
 11
1664.502778
 21
1234.634502
 31
0.0
  0
LINE
  5
135BB
100
AcDbEntity
  8
0
100
AcDbLine
 10
1645.502778
 20
1236.666169
 30
0.0
 11
1660.502778
 21
1236.666169
 31
0.0
  0
LINE
  5
135BC
100
AcDbEntity
  8
0
100
AcDbLine
 10
1635.255691
 20
1201.335835
 30
0.0
 11
1586.187302
 21
1201.335835
 31
0.0
  0
POLYLINE
  5
135BD
100
AcDbEntity
  8
0
100
AcDb2dPolyline
 66
     1
 10
0.0
 20
0.0
 30
0.0
  0
VERTEX
  5
13A51
100
AcDbEntity
  8
0
100
AcDbVertex
100
AcDb2dVertex
 10
1579.508111
 20
1221.969379
 30
0.0
  0
VERTEX
  5
13A52
100
AcDbEntity
  8
0
100
AcDbVertex
100
AcDb2dVertex
 10
1587.837656
 20
1213.639835
 30
0.0
  0
SEQEND
  5
13A53
100
AcDbEntity
  8
0
  0
POLYLINE
  5
135BE
100
AcDbEntity
  8
0
100
AcDb2dPolyline
 66
     1
 10
0.0
 20
0.0
 30
0.0
  0
VERTEX
  5
13A54
100
AcDbEntity
  8
0
100
AcDbVertex
100
AcDb2dVertex
 10
1587.837656
 20
1213.639835
 30
0.0
  0
VERTEX
  5
13A55
100
AcDbEntity
  8
0
100
AcDbVertex
100
AcDb2dVertex
 10
1579.508111
 20
1205.310291
 30
0.0
  0
SEQEND
  5
13A56
100
AcDbEntity
  8
0
  0
LINE
  5
135BF
100
AcDbEntity
  8
0
100
AcDbLine
 10
1645.502778
 20
1190.608168
 30
0.0
 11
1645.502778
 21
1192.634502
 31
0.0
  0
LINE
  5
135C0
100
AcDbEntity
  8
0
100
AcDbLine
 10
1635.255472
 20
1225.949168
 30
0.0
 11
1586.177468
 21
1225.949168
 31
0.0
  0
CIRCLE
  5
135C1
100
AcDbEntity
  8
0
100
AcDbCircle
 10
1620.520305
 20
1254.652028
 30
0.0
 40
10.5
  0
POLYLINE
  5
135C2
100
AcDbEntity
  8
0
100
AcDb2dPolyline
 66
     1
 10
0.0
 20
0.0
 30
0.0
 70
     1
  0
VERTEX
  5
13A57
100
AcDbEntity
  8
0
100
AcDbVertex
100
AcDb2dVertex
 10
1614.458127
 20
1265.152028
 30
0.0
  0
VERTEX
  5
13A58
100
AcDbEntity
  8
0
100
AcDbVertex
100
AcDb2dVertex
 10
1608.395949
 20
1254.652028
 30
0.0
  0
VERTEX
  5
13A59
100
AcDbEntity
  8
0
100
AcDbVertex
100
AcDb2dVertex
 10
1614.458127
 20
1244.152028
 30
0.0
  0
VERTEX
  5
13A5A
100
AcDbEntity
  8
0
100
AcDbVertex
100
AcDb2dVertex
 10
1626.582482
 20
1244.152028
 30
0.0
  0
VERTEX
  5
13A5B
100
AcDbEntity
  8
0
100
AcDbVertex
100
AcDb2dVertex
 10
1632.64466
 20
1254.652028
 30
0.0
  0
VERTEX
  5
13A5C
100
AcDbEntity
  8
0
100
AcDbVertex
100
AcDb2dVertex
 10
1626.582482
 20
1265.152028
 30
0.0
  0
SEQEND
  5
13A5D
100
AcDbEntity
  8
0
  0
LINE
  5
135C3
100
AcDbEntity
  8
0
100
AcDbLine
 10
1645.502778
 20
1236.666169
 30
0.0
 11
1645.502778
 21
1234.639835
 31
0.0
  0
ARC
  5
135C4
100
AcDbEntity
  8
0
100
AcDbCircle
 10
1620.429153
 20
1255.639835
 30
0.0
 40
12.0
100
AcDbArc
 50
8.385539
 51
90.0
  0
LINE
  5
135C5
100
AcDbEntity
  8
0
100
AcDbLine
 10
1681.384794
 20
1227.239835
 30
0.0
 11
1681.384794
 21
1200.039835
 31
0.0
  0
LINE
  5
135C6
100
AcDbEntity
  8
0
100
AcDbLine
 10
1670.532111
 20
1200.039835
 30
0.0
 11
1670.532111
 21
1227.239835
 31
0.0
  0
LINE
  5
135C7
100
AcDbEntity
  8
0
100
AcDbLine
 10
1664.502778
 20
1213.637168
 30
0.0
 11
1664.502778
 21
1234.634502
 31
0.0
  0
LINE
  5
135C8
100
AcDbEntity
  8
0
100
AcDbLine
 10
1689.005445
 20
1236.537369
 30
0.0
 11
1689.005445
 21
1190.742301
 31
0.0
  0
LINE
  5
135C9
100
AcDbEntity
  8
0
100
AcDbLine
 10
1712.005445
 20
1263.639835
 30
0.0
 11
1712.005445
 21
1213.639835
 31
0.0
  0
LINE
  5
135CA
100
AcDbEntity
  8
0
100
AcDbLine
 10
1712.005445
 20
1263.639835
 30
0.0
 11
1712.005445
 21
1213.639835
 31
0.0
  0
LINE
  5
135CB
100
AcDbEntity
  8
0
100
AcDbLine
 10
1689.005445
 20
1190.742301
 30
0.0
 11
1681.384794
 21
1200.039835
 31
0.0
  0
LINE
  5
135CC
100
AcDbEntity
  8
0
100
AcDbLine
 10
1664.502778
 20
1192.634502
 30
0.0
 11
1664.502778
 21
1213.637168
 31
0.0
  0
LINE
  5
135CD
100
AcDbEntity
  8
0
100
AcDbLine
 10
1660.502778
 20
1190.608168
 30
0.0
 11
1660.502778
 21
1192.634502
 31
0.0
  0
LINE
  5
135CE
100
AcDbEntity
  8
0
100
AcDbLine
 10
1681.384794
 20
1200.039835
 30
0.0
 11
1670.532111
 21
1200.039835
 31
0.0
  0
LINE
  5
135CF
100
AcDbEntity
  8
0
100
AcDbLine
 10
1670.532111
 20
1200.039835
 30
0.0
 11
1664.505445
 21
1200.459835
 31
0.0
  0
LINE
  5
135D0
100
AcDbEntity
  8
0
100
AcDbLine
 10
1689.005445
 20
1190.742301
 30
0.0
 11
1698.005445
 21
1189.63724
 31
0.0
  0
LINE
  5
135D1
100
AcDbEntity
  8
0
100
AcDbLine
 10
1689.005445
 20
1236.537369
 30
0.0
 11
1681.384794
 21
1227.239835
 31
0.0
  0
LINE
  5
135D2
100
AcDbEntity
  8
0
100
AcDbLine
 10
1660.502778
 20
1236.666169
 30
0.0
 11
1660.502778
 21
1234.639835
 31
0.0
  0
LINE
  5
135D3
100
AcDbEntity
  8
0
100
AcDbLine
 10
1670.532111
 20
1227.239835
 30
0.0
 11
1681.384794
 21
1227.239835
 31
0.0
  0
LINE
  5
135D4
100
AcDbEntity
  8
0
100
AcDbLine
 10
1664.505445
 20
1226.819835
 30
0.0
 11
1670.532111
 21
1227.239835
 31
0.0
  0
LINE
  5
135D5
100
AcDbEntity
  8
0
100
AcDbLine
 10
1689.005445
 20
1236.537369
 30
0.0
 11
1698.005445
 21
1237.64243
 31
0.0
  0
LINE
  5
135D6
100
AcDbEntity
  8
0
100
AcDbLine
 10
1698.005445
 20
1263.639835
 30
0.0
 11
1712.005445
 21
1263.639835
 31
0.0
  0
ARC
  5
135D7
100
AcDbEntity
  8
0
100
AcDbCircle
 10
1594.502778
 20
1382.350704
 30
0.0
 40
43.0
100
AcDbArc
 50
290.807612
 51
334.08702
  0
LINE
  5
135D8
100
AcDbEntity
  8
0
100
AcDbLine
 10
1636.502778
 20
1340.350704
 30
0.0
 11
1603.722322
 21
1340.350704
 31
0.0
  0
LINE
  5
135DB
100
AcDbEntity
  8
0
100
AcDbLine
 10
1636.502778
 20
1364.350704
 30
0.0
 11
1636.502778
 21
1340.350704
 31
0.0
  0
ARC
  5
135EB
100
AcDbEntity
  8
0
100
AcDbCircle
 10
1637.84992
 20
1367.031227
 30
0.0
 40
3.0
100
AcDbArc
 50
153.317411
 51
243.317411
  0
LINE
  5
135EF
100
AcDbEntity
  8
0
100
AcDbLine
 10
1712.005445
 20
1373.350704
 30
0.0
 11
1698.005445
 21
1373.350704
 31
0.0
  0
CIRCLE
  5
135F0
100
AcDbEntity
  8
0
100
AcDbCircle
 10
2095.963493
 20
1002.782704
 30
0.0
 40
62.5
  0
CIRCLE
  5
135F1
100
AcDbEntity
  8
0
100
AcDbCircle
 10
1844.910945
 20
1002.782704
 30
0.0
 40
50.0
  0
ARC
  5
135F2
100
AcDbEntity
  8
0
100
AcDbCircle
 10
1844.910945
 20
961.782704
 30
0.0
 40
43.0
100
AcDbArc
 50
180.0
 51
0.0
  0
CIRCLE
  5
135F3
100
AcDbEntity
  8
0
100
AcDbCircle
 10
2064.143688
 20
970.962899
 30
0.0
 40
9.5
  0
CIRCLE
  5
135F4
100
AcDbEntity
  8
0
100
AcDbCircle
 10
2127.783298
 20
970.962899
 30
0.0
 40
9.5
  0
ELLIPSE
  5
135F5
100
AcDbEntity
  8
0
100
AcDbEllipse
 10
1844.910945
 20
942.110796
 30
0.0
 11
15.5
 21
-0.0000000000000028
 31
0.0
210
0.0
220
0.0
230
1.0
 40
0.965926
 41
5.767343567685098
 42
7.173076562409475
  0
ELLIPSE
  5
135F6
100
AcDbEntity
  8
0
100
AcDbEllipse
 10
1844.910945
 20
935.377829
 30
0.0
 11
-13.5
 21
0.0
 31
0.0
210
0.0
220
0.0
230
1.0
 40
0.965926
 41
0.0
 42
6.283185307179586
  0
ELLIPSE
  5
135F7
100
AcDbEntity
  8
0
100
AcDbEllipse
 10
1844.910945
 20
942.365944
 30
0.0
 11
-13.5
 21
0.0
 31
0.0
210
0.0
220
0.0
230
1.0
 40
0.965926
 41
3.141592653589793
 42
4.139174727933616
  0
LINE
  5
135F8
100
AcDbEntity
  8
0
100
AcDbLine
 10
1859.566539
 20
951.783378
 30
0.0
 11
1855.673078
 21
953.954675
 31
0.0
  0
ELLIPSE
  5
135F9
100
AcDbEntity
  8
0
100
AcDbEllipse
 10
1844.910945
 20
935.377829
 30
0.0
 11
-10.5
 21
0.0
 31
0.0
210
0.0
220
0.0
230
1.0
 40
0.965926
 41
0.0
 42
6.283185307179586
  0
LINE
  5
135FA
100
AcDbEntity
  8
0
100
AcDbLine
 10
1831.410945
 20
935.377829
 30
0.0
 11
1831.410945
 21
942.365944
 31
0.0
  0
ELLIPSE
  5
135FB
100
AcDbEntity
  8
0
100
AcDbEllipse
 10
1844.910945
 20
944.183009
 30
0.0
 11
-17.5
 21
0.0
 31
0.0
210
0.0
220
0.0
230
1.0
 40
0.965926
 41
5.86613001289398
 42
6.700240601465533
  0
LINE
  5
135FC
100
AcDbEntity
  8
0
100
AcDbLine
 10
1828.910945
 20
951.606355
 30
0.0
 11
1828.910945
 21
934.687451
 31
0.0
  0
LINE
  5
135FD
100
AcDbEntity
  8
0
100
AcDbLine
 10
1830.255351
 20
932.438215
 30
0.0
 11
1832.04029
 21
931.442794
 31
0.0
  0
ELLIPSE
  5
135FE
100
AcDbEntity
  8
0
100
AcDbEllipse
 10
1844.910945
 20
942.110796
 30
0.0
 11
-17.75
 21
0.0
 31
0.0
210
0.0
220
0.0
230
1.0
 40
0.965926
 41
0.4477847473764708
 42
0.5994123592542787
  0
ELLIPSE
  5
135FF
100
AcDbEntity
  8
0
100
AcDbEllipse
 10
1844.910945
 20
942.365944
 30
0.0
 11
-13.5
 21
0.0
 31
0.0
210
0.0
220
0.0
230
1.0
 40
0.965926
 41
5.285603232835769
 42
6.283185307179586
  0
ELLIPSE
  5
13600
100
AcDbEntity
  8
0
100
AcDbEllipse
 10
1844.910945
 20
945.55486
 30
0.0
 11
-17.5
 21
0.0
 31
0.0
210
0.0
220
0.0
230
1.0
 40
0.965926
 41
5.694094555807684
 42
6.32377485697224
  0
ELLIPSE
  5
13601
100
AcDbEntity
  8
0
100
AcDbEllipse
 10
1844.910945
 20
942.110796
 30
0.0
 11
-17.75
 21
0.0
 31
0.0
210
0.0
220
0.0
230
1.0
 40
0.965926
 41
5.683772947925307
 42
5.835400559803447
  0
ELLIPSE
  5
13602
100
AcDbEntity
  8
0
100
AcDbEllipse
 10
1844.910945
 20
944.183009
 30
0.0
 11
-17.75
 21
0.0
 31
0.0
210
0.0
220
0.0
230
1.0
 40
0.965926
 41
5.683772947925307
 42
5.835400559803447
  0
LINE
  5
13603
100
AcDbEntity
  8
0
100
AcDbLine
 10
1830.255351
 20
951.783378
 30
0.0
 11
1830.255351
 21
953.855591
 31
0.0
  0
LINE
  5
13604
100
AcDbEntity
  8
0
100
AcDbLine
 10
1830.255351
 20
951.783378
 30
0.0
 11
1834.148811
 21
953.954675
 31
0.0
  0
LINE
  5
13605
100
AcDbEntity
  8
0
100
AcDbLine
 10
1830.255351
 20
953.855591
 30
0.0
 11
1831.577943
 21
954.593171
 31
0.0
  0
ELLIPSE
  5
13606
100
AcDbEntity
  8
0
100
AcDbEllipse
 10
1844.910945
 20
944.183009
 30
0.0
 11
-17.5
 21
0.0
 31
0.0
210
0.0
220
0.0
230
1.0
 40
0.965926
 41
5.61189670828093
 42
5.653043515254864
  0
LINE
  5
13607
100
AcDbEntity
  8
0
100
AcDbLine
 10
1858.410945
 20
935.377829
 30
0.0
 11
1858.410945
 21
942.365944
 31
0.0
  0
ELLIPSE
  5
13608
100
AcDbEntity
  8
0
100
AcDbEllipse
 10
1844.910945
 20
944.183009
 30
0.0
 11
-17.5
 21
0.0
 31
0.0
210
0.0
220
0.0
230
1.0
 40
0.965926
 41
2.724537359304187
 42
3.55864794787574
  0
LINE
  5
13609
100
AcDbEntity
  8
0
100
AcDbLine
 10
1860.910945
 20
951.606355
 30
0.0
 11
1860.910945
 21
934.687451
 31
0.0
  0
LINE
  5
1360A
100
AcDbEntity
  8
0
100
AcDbLine
 10
1859.566539
 20
932.438215
 30
0.0
 11
1857.7816
 21
931.442794
 31
0.0
  0
ELLIPSE
  5
1360B
100
AcDbEntity
  8
0
100
AcDbEllipse
 10
1844.910945
 20
942.110796
 30
0.0
 11
17.75
 21
0.0
 31
0.0
210
0.0
220
0.0
230
-1.0
 40
0.965926
 41
0.4477847473764708
 42
0.5994123592542787
  0
ELLIPSE
  5
1360C
100
AcDbEntity
  8
0
100
AcDbEllipse
 10
1844.910945
 20
942.110796
 30
0.0
 11
17.75
 21
0.0
 31
0.0
210
0.0
220
0.0
230
-1.0
 40
0.965926
 41
5.683772947925307
 42
5.835400559803447
  0
ELLIPSE
  5
1360D
100
AcDbEntity
  8
0
100
AcDbEllipse
 10
1844.910945
 20
944.183009
 30
0.0
 11
17.75
 21
0.0
 31
0.0
210
0.0
220
0.0
230
-1.0
 40
0.965926
 41
5.683772947925307
 42
5.835400559803447
  0
LINE
  5
1360E
100
AcDbEntity
  8
0
100
AcDbLine
 10
1859.566539
 20
951.783378
 30
0.0
 11
1859.566539
 21
953.855591
 31
0.0
  0
ELLIPSE
  5
1360F
100
AcDbEntity
  8
0
100
AcDbEllipse
 10
1844.910945
 20
945.55486
 30
0.0
 11
-17.5
 21
0.0
 31
0.0
210
0.0
220
0.0
230
1.0
 40
0.965926
 41
3.101003103797176
 42
3.730683404961697
  0
LINE
  5
13610
100
AcDbEntity
  8
0
100
AcDbLine
 10
1859.566539
 20
953.855591
 30
0.0
 11
1858.243946
 21
954.593171
 31
0.0
  0
ELLIPSE
  5
13611
100
AcDbEntity
  8
0
100
AcDbEllipse
 10
1844.910945
 20
944.183009
 30
0.0
 11
-17.5
 21
0.0
 31
0.0
210
0.0
220
0.0
230
1.0
 40
0.965926
 41
3.771734445514514
 42
3.81288125248845
  0
ARC
  5
13612
100
AcDbEntity
  8
0
100
AcDbCircle
 10
2095.963493
 20
961.782704
 30
0.0
 40
43.0
100
AcDbArc
 50
186.125541
 51
353.874459
  0
LINE
  5
13615
100
AcDbEntity
  8
0
100
AcDbLine
 10
1830.911871
 20
1061.571371
 30
0.0
 11
1858.911871
 21
1061.571371
 31
0.0
  0
LINE
  5
13616
100
AcDbEntity
  8
0
100
AcDbLine
 10
1844.911871
 20
1071.782037
 30
0.0
 11
1844.911871
 21
1062.782037
 31
0.0
  0
LINE
  5
13617
100
AcDbEntity
  8
0
100
AcDbLine
 10
1836.580871
 20
1071.782037
 30
0.0
 11
1836.580871
 21
1062.782037
 31
0.0
  0
LINE
  5
13618
100
AcDbEntity
  8
0
100
AcDbLine
 10
1853.242871
 20
1071.782037
 30
0.0
 11
1853.242871
 21
1062.782037
 31
0.0
  0
LINE
  5
13619
100
AcDbEntity
  8
0
100
AcDbLine
 10
1790.911657
 20
1025.782704
 30
0.0
 11
1790.911657
 21
1011.782704
 31
0.0
  0
CIRCLE
  5
1361A
100
AcDbEntity
  8
0
100
AcDbCircle
 10
1818.39444
 20
976.2662
 30
0.0
 40
7.5
  0
LINE
  5
1361B
100
AcDbEntity
  8
0
100
AcDbLine
 10
1790.910945
 20
1005.781543
 30
0.0
 11
1790.910945
 21
984.781543
 31
0.0
  0
LINE
  5
1361C
100
AcDbEntity
  8
0
100
AcDbLine
 10
1790.910945
 20
984.781543
 30
0.0
 11
1793.136049
 21
984.781543
 31
0.0
  0
ARC
  5
1361D
100
AcDbEntity
  8
0
100
AcDbCircle
 10
1796.910945
 20
976.782704
 30
0.0
 40
5.0
100
AcDbArc
 50
0.0
 51
6.124621
  0
LINE
  5
1361E
100
AcDbEntity
  8
0
100
AcDbLine
 10
1801.910945
 20
961.782704
 30
0.0
 11
1801.910945
 21
976.782704
 31
0.0
  0
ARC
  5
1361F
100
AcDbEntity
  8
0
100
AcDbCircle
 10
1796.910945
 20
976.782704
 30
0.0
 40
5.0
100
AcDbArc
 50
50.761236
 51
79.193077
  0
ARC
  5
13620
100
AcDbEntity
  8
0
100
AcDbCircle
 10
1798.410945
 20
984.640821
 30
0.0
 40
3.0
100
AcDbArc
 50
208.46008
 51
259.193077
  0
LINE
  5
13621
100
AcDbEntity
  8
0
100
AcDbLine
 10
1797.49926
 20
981.782704
 30
0.0
 11
1799.534739
 21
981.782704
 31
0.0
  0
ARC
  5
13622
100
AcDbEntity
  8
0
100
AcDbCircle
 10
1793.136049
 20
981.781543
 30
0.0
 40
3.0
100
AcDbArc
 50
28.46008
 51
90.0
  0
ARC
  5
13623
100
AcDbEntity
  8
0
100
AcDbCircle
 10
1792.410945
 20
1008.782704
 30
0.0
 40
3.0
100
AcDbArc
 50
0.0
 51
90.0
  0
ARC
  5
13624
100
AcDbEntity
  8
0
100
AcDbCircle
 10
1792.410945
 20
1008.781543
 30
0.0
 40
3.0
100
AcDbArc
 50
270.0
 51
0.0
  0
LINE
  5
13625
100
AcDbEntity
  8
0
100
AcDbLine
 10
1790.910233
 20
1011.782704
 30
0.0
 11
1795.727614
 21
1011.782704
 31
0.0
  0
LINE
  5
13626
100
AcDbEntity
  8
0
100
AcDbLine
 10
1790.910945
 20
1005.781543
 30
0.0
 11
1792.410945
 21
1005.781543
 31
0.0
  0
LINE
  5
13627
100
AcDbEntity
  8
0
100
AcDbLine
 10
1795.410945
 20
1008.782704
 30
0.0
 11
1795.410945
 21
1008.781543
 31
0.0
  0
CIRCLE
  5
13628
100
AcDbEntity
  8
0
100
AcDbCircle
 10
1818.39444
 20
1029.299209
 30
0.0
 40
7.5
  0
LINE
  5
13629
100
AcDbEntity
  8
0
100
AcDbLine
 10
1790.911657
 20
1041.572038
 30
0.0
 11
1790.911657
 21
1027.572038
 31
0.0
  0
LINE
  5
1362A
100
AcDbEntity
  8
0
100
AcDbLine
 10
1790.911657
 20
1025.782704
 30
0.0
 11
1800.514999
 21
1025.782704
 31
0.0
  0
LINE
  5
1362B
100
AcDbEntity
  8
0
100
AcDbLine
 10
1790.911657
 20
1027.572038
 30
0.0
 11
1801.488728
 21
1027.572038
 31
0.0
  0
LINE
  5
1362C
100
AcDbEntity
  8
0
100
AcDbLine
 10
1813.362076
 20
1041.571761
 30
0.0
 11
1790.911657
 21
1041.572038
 31
0.0
  0
ARC
  5
1362D
100
AcDbEntity
  8
0
100
AcDbCircle
 10
1799.175461
 20
1036.28654
 30
0.0
 40
14.28125
100
AcDbArc
 50
68.43589
 51
111.573082
  0
LINE
  5
1362E
100
AcDbEntity
  8
0
100
AcDbLine
 10
1793.924343
 20
1050.566762
 30
0.0
 11
1793.925048
 21
1041.567379
 31
0.0
  0
LINE
  5
1362F
100
AcDbEntity
  8
0
100
AcDbLine
 10
1804.424421
 20
1049.568201
 30
0.0
 11
1804.425048
 21
1041.568201
 31
0.0
  0
LINE
  5
13630
100
AcDbEntity
  8
0
100
AcDbLine
 10
1814.924343
 20
1050.568406
 30
0.0
 11
1793.924343
 21
1050.566762
 31
0.0
  0
ARC
  5
13631
100
AcDbEntity
  8
0
100
AcDbCircle
 10
1809.675461
 20
1036.287362
 30
0.0
 40
14.28125
100
AcDbArc
 50
68.43589
 51
111.573082
  0
LINE
  5
13632
100
AcDbEntity
  8
0
100
AcDbLine
 10
1814.924343
 20
1050.568406
 30
0.0
 11
1814.924952
 21
1042.792279
 31
0.0
  0
LINE
  5
13633
100
AcDbEntity
  8
0
100
AcDbLine
 10
1830.911871
 20
1061.571371
 30
0.0
 11
1830.911871
 21
1050.782975
 31
0.0
  0
ARC
  5
13634
100
AcDbEntity
  8
0
100
AcDbCircle
 10
1844.911159
 20
1045.571371
 30
0.0
 40
12.0
100
AcDbArc
 50
30.754181
 51
149.245245
  0
LINE
  5
13635
100
AcDbEntity
  8
0
100
AcDbLine
 10
1853.242871
 20
1062.782037
 30
0.0
 11
1836.580871
 21
1062.782037
 31
0.0
  0
LINE
  5
13636
100
AcDbEntity
  8
0
100
AcDbLine
 10
1837.436871
 20
1062.782037
 30
0.0
 11
1837.474687
 21
1061.571371
 31
0.0
  0
LINE
  5
13637
100
AcDbEntity
  8
0
100
AcDbLine
 10
1836.580871
 20
1062.782037
 30
0.0
 11
1836.618687
 21
1061.571371
 31
0.0
  0
LINE
  5
13638
100
AcDbEntity
  8
0
100
AcDbLine
 10
1852.386871
 20
1062.782037
 30
0.0
 11
1852.349056
 21
1061.571371
 31
0.0
  0
LINE
  5
13639
100
AcDbEntity
  8
0
100
AcDbLine
 10
1853.242871
 20
1062.782037
 30
0.0
 11
1853.205056
 21
1061.571371
 31
0.0
  0
LINE
  5
1363A
100
AcDbEntity
  8
0
100
AcDbLine
 10
1853.242871
 20
1071.782037
 30
0.0
 11
1836.580871
 21
1071.782037
 31
0.0
  0
LINE
  5
1363B
100
AcDbEntity
  8
0
100
AcDbLine
 10
1898.911657
 20
1025.782704
 30
0.0
 11
1898.911657
 21
1011.782704
 31
0.0
  0
ARC
  5
1363C
100
AcDbEntity
  8
0
100
AcDbCircle
 10
1886.410945
 20
988.041035
 30
0.0
 40
8.0
100
AcDbArc
 50
300.0
 51
0.0
  0
CIRCLE
  5
1363D
100
AcDbEntity
  8
0
100
AcDbCircle
 10
1871.427449
 20
976.2662
 30
0.0
 40
7.5
  0
ARC
  5
1363E
100
AcDbEntity
  8
0
100
AcDbCircle
 10
1892.910945
 20
976.782704
 30
0.0
 40
5.0
100
AcDbArc
 50
173.875379
 51
180.0
  0
LINE
  5
1363F
100
AcDbEntity
  8
0
100
AcDbLine
 10
1887.910945
 20
961.782704
 30
0.0
 11
1887.910945
 21
976.782704
 31
0.0
  0
ARC
  5
13640
100
AcDbEntity
  8
0
100
AcDbCircle
 10
1892.910945
 20
976.782704
 30
0.0
 40
5.0
100
AcDbArc
 50
120.0
 51
129.238764
  0
LINE
  5
13641
100
AcDbEntity
  8
0
100
AcDbLine
 10
1890.28715
 20
981.782704
 30
0.0
 11
1891.394247
 21
981.782704
 31
0.0
  0
LINE
  5
13642
100
AcDbEntity
  8
0
100
AcDbLine
 10
1894.410945
 20
995.729336
 30
0.0
 11
1894.410945
 21
988.041035
 31
0.0
  0
ARC
  5
13643
100
AcDbEntity
  8
0
100
AcDbCircle
 10
1897.410945
 20
1008.782704
 30
0.0
 40
3.0
100
AcDbArc
 50
90.0
 51
180.0
  0
LINE
  5
13644
100
AcDbEntity
  8
0
100
AcDbLine
 10
1898.911657
 20
1011.782704
 30
0.0
 11
1894.094275
 21
1011.782704
 31
0.0
  0
LINE
  5
13645
100
AcDbEntity
  8
0
100
AcDbLine
 10
1888.333162
 20
1027.572038
 30
0.0
 11
1898.911657
 21
1027.572038
 31
0.0
  0
LINE
  5
13646
100
AcDbEntity
  8
0
100
AcDbLine
 10
1889.30689
 20
1025.782704
 30
0.0
 11
1898.911657
 21
1025.782704
 31
0.0
  0
LINE
  5
13647
100
AcDbEntity
  8
0
100
AcDbLine
 10
1874.898373
 20
1050.570397
 30
0.0
 11
1895.898373
 21
1050.570146
 31
0.0
  0
ARC
  5
13648
100
AcDbEntity
  8
0
100
AcDbCircle
 10
1890.648203
 20
1036.289576
 30
0.0
 40
14.28125
100
AcDbArc
 50
68.430722
 51
111.567913
  0
LINE
  5
13649
100
AcDbEntity
  8
0
100
AcDbLine
 10
1898.911657
 20
1041.570704
 30
0.0
 11
1876.463244
 21
1041.570981
 31
0.0
  0
CIRCLE
  5
1364A
100
AcDbEntity
  8
0
100
AcDbCircle
 10
1871.427449
 20
1029.299209
 30
0.0
 40
7.5
  0
LINE
  5
1364B
100
AcDbEntity
  8
0
100
AcDbLine
 10
1858.911871
 20
1061.571371
 30
0.0
 11
1858.911871
 21
1050.782434
 31
0.0
  0
ARC
  5
1364C
100
AcDbEntity
  8
0
100
AcDbCircle
 10
1880.148203
 20
1036.289701
 30
0.0
 40
14.28125
100
AcDbArc
 50
68.430722
 51
111.567913
  0
LINE
  5
1364D
100
AcDbEntity
  8
0
100
AcDbLine
 10
1885.398361
 20
1049.570889
 30
0.0
 11
1885.398266
 21
1041.570889
 31
0.0
  0
LINE
  5
1364E
100
AcDbEntity
  8
0
100
AcDbLine
 10
1874.898373
 20
1050.570397
 30
0.0
 11
1874.898281
 21
1042.793126
 31
0.0
  0
LINE
  5
1364F
100
AcDbEntity
  8
0
100
AcDbLine
 10
1898.911657
 20
1041.572038
 30
0.0
 11
1898.911657
 21
1027.572038
 31
0.0
  0
LINE
  5
13650
100
AcDbEntity
  8
0
100
AcDbLine
 10
1895.898373
 20
1050.570146
 30
0.0
 11
1895.898266
 21
1041.570764
 31
0.0
  0
CIRCLE
  5
13651
100
AcDbEntity
  8
0
100
AcDbCircle
 10
2127.783298
 20
1034.602509
 30
0.0
 40
9.5
  0
LINE
  5
13652
100
AcDbEntity
  8
0
100
AcDbLine
 10
2087.632493
 20
1071.782704
 30
0.0
 11
2087.632493
 21
1064.724971
 31
0.0
  0
LINE
  5
13653
100
AcDbEntity
  8
0
100
AcDbLine
 10
2104.294493
 20
1071.782704
 30
0.0
 11
2104.294493
 21
1064.724971
 31
0.0
  0
LINE
  5
13654
100
AcDbEntity
  8
0
100
AcDbLine
 10
2095.963493
 20
1071.782704
 30
0.0
 11
2095.963493
 21
1065.282704
 31
0.0
  0
CIRCLE
  5
13655
100
AcDbEntity
  8
0
100
AcDbCircle
 10
2064.143688
 20
1034.602509
 30
0.0
 40
9.5
  0
LINE
  5
13656
100
AcDbEntity
  8
0
100
AcDbLine
 10
2041.963279
 20
1041.572705
 30
0.0
 11
2041.963279
 21
1034.250574
 31
0.0
  0
LINE
  5
13657
100
AcDbEntity
  8
0
100
AcDbLine
 10
2044.975965
 20
1050.567429
 30
0.0
 11
2044.97667
 21
1041.568046
 31
0.0
  0
LINE
  5
13658
100
AcDbEntity
  8
0
100
AcDbLine
 10
2055.679625
 20
1050.568267
 30
0.0
 11
2044.975965
 21
1050.567429
 31
0.0
  0
ARC
  5
13659
100
AcDbEntity
  8
0
100
AcDbCircle
 10
2050.227083
 20
1036.287207
 30
0.0
 40
14.28125
100
AcDbArc
 50
71.311224
 51
111.573082
  0
LINE
  5
1365A
100
AcDbEntity
  8
0
100
AcDbLine
 10
2046.957467
 20
1041.572644
 30
0.0
 11
2041.963279
 21
1041.572705
 31
0.0
  0
LINE
  5
1365B
100
AcDbEntity
  8
0
100
AcDbLine
 10
2104.294493
 20
1071.782704
 30
0.0
 11
2087.632493
 21
1071.782704
 31
0.0
  0
LINE
  5
1365C
100
AcDbEntity
  8
0
100
AcDbLine
 10
2149.963279
 20
1041.572705
 30
0.0
 11
2149.963279
 21
1034.25131
 31
0.0
  0
LINE
  5
1365D
100
AcDbEntity
  8
0
100
AcDbLine
 10
2149.963279
 20
1041.571371
 30
0.0
 11
2144.970478
 21
1041.571433
 31
0.0
  0
LINE
  5
1365E
100
AcDbEntity
  8
0
100
AcDbLine
 10
2146.949995
 20
1050.570814
 30
0.0
 11
2146.949888
 21
1041.571431
 31
0.0
  0
LINE
  5
1365F
100
AcDbEntity
  8
0
100
AcDbLine
 10
2136.244189
 20
1050.570941
 30
0.0
 11
2146.949995
 21
1050.570814
 31
0.0
  0
ARC
  5
13660
100
AcDbEntity
  8
0
100
AcDbCircle
 10
2141.699825
 20
1036.290243
 30
0.0
 40
14.28125
100
AcDbArc
 50
68.430722
 51
108.699134
  0
INSERT
  5
13661
100
AcDbEntity
  8
0
100
AcDbBlockReference
  2
YA
 10
2269.632315
 20
1002.782704
 30
0.0
 41
3.6
 42
3.6
 43
3.6
  0
INSERT
  5
13662
100
AcDbEntity
  8
0
100
AcDbBlockReference
  2
YA
 10
2269.632315
 20
1213.639835
 30
0.0
 41
3.6
 42
3.6
 43
3.6
  0
LINE
  5
13663
100
AcDbEntity
  8
0
100
AcDbLine
 10
1650.502778
 20
1432.350704
 30
0.0
 11
1538.502778
 21
1432.350704
 31
0.0
  0
LINE
  5
13664
100
AcDbEntity
  8
0
100
AcDbLine
 10
1664.502778
 20
1402.350704
 30
0.0
 11
1554.510472
 21
1402.350704
 31
0.0
  0
LINE
  5
13665
100
AcDbEntity
  8
0
100
AcDbLine
 10
1650.502778
 20
1462.140037
 30
0.0
 11
1538.502778
 21
1462.140037
 31
0.0
  0
LINE
  5
13666
100
AcDbEntity
  8
0
100
AcDbLine
 10
1650.502778
 20
1446.350704
 30
0.0
 11
1538.502778
 21
1446.350704
 31
0.0
  0
LINE
  5
13667
100
AcDbEntity
  8
0
100
AcDbLine
 10
1650.502778
 20
1448.140037
 30
0.0
 11
1538.502778
 21
1448.140037
 31
0.0
  0
LINE
  5
13668
100
AcDbEntity
  8
0
100
AcDbLine
 10
1659.502778
 20
1446.350704
 30
0.0
 11
1538.502778
 21
1446.350704
 31
0.0
  0
LINE
  5
13669
100
AcDbEntity
  8
0
100
AcDbLine
 10
1580.502778
 20
1478.140037
 30
0.0
 11
1538.502778
 21
1478.140037
 31
0.0
  0
LINE
  5
1366A
100
AcDbEntity
  8
0
100
AcDbLine
 10
1503.478778
 20
1409.750704
 30
0.0
 11
1509.505445
 21
1410.170704
 31
0.0
  0
LINE
  5
1366B
100
AcDbEntity
  8
0
100
AcDbLine
 10
1503.478778
 20
1409.750704
 30
0.0
 11
1509.505445
 21
1410.170704
 31
0.0
  0
LINE
  5
1366C
100
AcDbEntity
  8
0
100
AcDbLine
 10
1509.505445
 20
1436.530704
 30
0.0
 11
1503.478778
 21
1436.950704
 31
0.0
  0
LINE
  5
1366D
100
AcDbEntity
  8
0
100
AcDbLine
 10
1509.505445
 20
1436.530704
 30
0.0
 11
1503.478778
 21
1436.950704
 31
0.0
  0
LINE
  5
1366E
100
AcDbEntity
  8
0
100
AcDbLine
 10
1462.005445
 20
1473.350704
 30
0.0
 11
1462.005445
 21
1423.350704
 31
0.0
  0
LINE
  5
1366F
100
AcDbEntity
  8
0
100
AcDbLine
 10
1462.005445
 20
1473.350704
 30
0.0
 11
1462.005445
 21
1423.350704
 31
0.0
  0
LINE
  5
13670
100
AcDbEntity
  8
0
100
AcDbLine
 10
1462.005445
 20
1473.350704
 30
0.0
 11
1462.005445
 21
1423.350704
 31
0.0
  0
LINE
  5
13671
100
AcDbEntity
  8
0
100
AcDbLine
 10
1485.005445
 20
1446.248237
 30
0.0
 11
1485.005445
 21
1400.45317
 31
0.0
  0
LINE
  5
13672
100
AcDbEntity
  8
0
100
AcDbLine
 10
1503.478778
 20
1436.950704
 30
0.0
 11
1503.478778
 21
1409.750704
 31
0.0
  0
LINE
  5
13673
100
AcDbEntity
  8
0
100
AcDbLine
 10
1492.626096
 20
1436.950704
 30
0.0
 11
1492.626096
 21
1409.750704
 31
0.0
  0
LINE
  5
13674
100
AcDbEntity
  8
0
100
AcDbLine
 10
1485.005445
 20
1400.45317
 30
0.0
 11
1476.005445
 21
1399.348109
 31
0.0
  0
LINE
  5
13675
100
AcDbEntity
  8
0
100
AcDbLine
 10
1492.626096
 20
1409.750704
 30
0.0
 11
1503.478778
 21
1409.750704
 31
0.0
  0
LINE
  5
13676
100
AcDbEntity
  8
0
100
AcDbLine
 10
1485.005445
 20
1400.45317
 30
0.0
 11
1492.626096
 21
1409.750704
 31
0.0
  0
LINE
  5
13677
100
AcDbEntity
  8
0
100
AcDbLine
 10
1476.005445
 20
1473.350704
 30
0.0
 11
1462.005445
 21
1473.350704
 31
0.0
  0
LINE
  5
13678
100
AcDbEntity
  8
0
100
AcDbLine
 10
1485.005445
 20
1446.248237
 30
0.0
 11
1476.005445
 21
1447.353298
 31
0.0
  0
LINE
  5
13679
100
AcDbEntity
  8
0
100
AcDbLine
 10
1503.478778
 20
1436.950704
 30
0.0
 11
1492.626096
 21
1436.950704
 31
0.0
  0
LINE
  5
1367A
100
AcDbEntity
  8
0
100
AcDbLine
 10
1485.005445
 20
1446.248237
 30
0.0
 11
1492.626096
 21
1436.950704
 31
0.0
  0
LINE
  5
1367B
100
AcDbEntity
  8
0
100
AcDbLine
 10
1538.502778
 20
1446.350704
 30
0.0
 11
1538.502778
 21
1432.350704
 31
0.0
  0
LINE
  5
1367C
100
AcDbEntity
  8
0
100
AcDbLine
 10
1509.502778
 20
1444.350704
 30
0.0
 11
1509.502778
 21
1402.350704
 31
0.0
  0
LINE
  5
1367D
100
AcDbEntity
  8
0
100
AcDbLine
 10
1529.190907
 20
1385.534281
 30
0.0
 11
1528.118979
 21
1397.786482
 31
0.0
  0
LINE
  5
1367E
100
AcDbEntity
  8
0
100
AcDbLine
 10
1526.97878
 20
1382.375036
 30
0.0
 11
1524.290489
 21
1381.654711
 31
0.0
  0
LINE
  5
1367F
100
AcDbEntity
  8
0
100
AcDbLine
 10
1525.252516
 20
1381.912485
 30
0.0
 11
1526.019783
 21
1382.118074
 31
0.0
  0
ARC
  5
13680
100
AcDbEntity
  8
0
100
AcDbCircle
 10
1526.202323
 20
1385.272814
 30
0.0
 40
3.0
100
AcDbArc
 50
285.0
 51
5.0
  0
LINE
  5
13681
100
AcDbEntity
  8
0
100
AcDbLine
 10
1523.138005
 20
1402.350704
 30
0.0
 11
1509.502778
 21
1402.350704
 31
0.0
  0
ARC
  5
13682
100
AcDbEntity
  8
0
100
AcDbCircle
 10
1523.138005
 20
1397.350704
 30
0.0
 40
5.0
100
AcDbArc
 50
5.0
 51
90.0
  0
LINE
  5
13683
100
AcDbEntity
  8
0
100
AcDbLine
 10
1513.502778
 20
1432.350704
 30
0.0
 11
1528.502778
 21
1432.350704
 31
0.0
  0
LINE
  5
13684
100
AcDbEntity
  8
0
100
AcDbLine
 10
1513.502778
 20
1414.350704
 30
0.0
 11
1528.502778
 21
1414.350704
 31
0.0
  0
LINE
  5
13685
100
AcDbEntity
  8
0
100
AcDbLine
 10
1513.502778
 20
1432.350704
 30
0.0
 11
1513.502778
 21
1414.350704
 31
0.0
  0
LINE
  5
13686
100
AcDbEntity
  8
0
100
AcDbLine
 10
1528.502778
 20
1432.350704
 30
0.0
 11
1528.502778
 21
1414.350704
 31
0.0
  0
LINE
  5
13687
100
AcDbEntity
  8
0
100
AcDbLine
 10
1551.502778
 20
1400.280867
 30
0.0
 11
1551.502778
 21
1382.350704
 31
0.0
  0
ARC
  5
13688
100
AcDbEntity
  8
0
100
AcDbCircle
 10
1491.752902
 20
1419.286369
 30
0.0
 40
57.671059
100
AcDbArc
 50
348.491501
 51
5.94432
  0
ARC
  5
13689
100
AcDbEntity
  8
0
100
AcDbCircle
 10
1548.502778
 20
1400.280867
 30
0.0
 40
3.0
100
AcDbArc
 50
0.0
 51
54.362954
  0
ARC
  5
1368A
100
AcDbEntity
  8
0
100
AcDbCircle
 10
1553.163967
 20
1406.78266
 30
0.0
 40
5.0
100
AcDbArc
 50
168.491501
 51
234.362954
  0
LINE
  5
1368B
100
AcDbEntity
  8
0
100
AcDbLine
 10
1554.016881
 20
1471.13942
 30
0.0
 11
1543.825318
 21
1471.13942
 31
0.0
  0
ARC
  5
1368C
100
AcDbEntity
  8
0
100
AcDbCircle
 10
1544.397318
 20
1466.043142
 30
0.0
 40
5.096278
100
AcDbArc
 50
53.504105
 51
126.495895
  0
LINE
  5
1368D
100
AcDbEntity
  8
0
100
AcDbLine
 10
1543.09828
 20
1471.140037
 30
0.0
 11
1563.88289
 21
1471.140037
 31
0.0
  0
LINE
  5
1368E
100
AcDbEntity
  8
0
100
AcDbLine
 10
1538.502778
 20
1478.140037
 30
0.0
 11
1538.502778
 21
1448.140037
 31
0.0
  0
LINE
  5
1368F
100
AcDbEntity
  8
0
100
AcDbLine
 10
1538.502778
 20
1444.350704
 30
0.0
 11
1509.502778
 21
1444.350704
 31
0.0
  0
LINE
  5
13690
100
AcDbEntity
  8
0
100
AcDbLine
 10
1541.366229
 20
1470.140037
 30
0.0
 11
1543.09828
 21
1471.140037
 31
0.0
  0
LINE
  5
13691
100
AcDbEntity
  8
0
100
AcDbLine
 10
1541.366229
 20
1470.140037
 30
0.0
 11
1541.366229
 21
1462.140037
 31
0.0
  0
LINE
  5
13692
100
AcDbEntity
  8
0
100
AcDbLine
 10
1556.002778
 20
1448.140037
 30
0.0
 11
1556.002778
 21
1446.350704
 31
0.0
  0
LINE
  5
13693
100
AcDbEntity
  8
0
100
AcDbLine
 10
1565.61494
 20
1470.140037
 30
0.0
 11
1563.88289
 21
1471.140037
 31
0.0
  0
ARC
  5
13694
100
AcDbEntity
  8
0
100
AcDbCircle
 10
1562.583851
 20
1466.043142
 30
0.0
 40
5.096278
100
AcDbArc
 50
53.504105
 51
126.495895
  0
LINE
  5
13695
100
AcDbEntity
  8
0
100
AcDbLine
 10
1565.61494
 20
1470.140037
 30
0.0
 11
1565.61494
 21
1462.140037
 31
0.0
  0
LINE
  5
13696
100
AcDbEntity
  8
0
100
AcDbLine
 10
1559.552763
 20
1462.140037
 30
0.0
 11
1559.552763
 21
1470.140037
 31
0.0
  0
LINE
  5
13697
100
AcDbEntity
  8
0
100
AcDbLine
 10
1547.428407
 20
1462.140037
 30
0.0
 11
1547.428407
 21
1470.140037
 31
0.0
  0
ARC
  5
13698
100
AcDbEntity
  8
0
100
AcDbCircle
 10
1553.490585
 20
1452.253381
 30
0.0
 40
18.886039
100
AcDbArc
 50
71.277359
 51
108.722641
  0
LINE
  5
13699
100
AcDbEntity
  8
0
100
AcDbLine
 10
1594.502778
 20
1492.350704
 30
0.0
 11
1594.502778
 21
1483.350704
 31
0.0
  0
LINE
  5
1369A
100
AcDbEntity
  8
0
100
AcDbLine
 10
1586.171778
 20
1492.350704
 30
0.0
 11
1586.171778
 21
1483.350704
 31
0.0
  0
LINE
  5
1369B
100
AcDbEntity
  8
0
100
AcDbLine
 10
1602.833778
 20
1492.350704
 30
0.0
 11
1602.833778
 21
1483.350704
 31
0.0
  0
LINE
  5
1369C
100
AcDbEntity
  8
0
100
AcDbLine
 10
1645.502778
 20
1432.350704
 30
0.0
 11
1660.502778
 21
1432.350704
 31
0.0
  0
LINE
  5
1369D
100
AcDbEntity
  8
0
100
AcDbLine
 10
1645.502778
 20
1414.350704
 30
0.0
 11
1660.502778
 21
1414.350704
 31
0.0
  0
LINE
  5
1369E
100
AcDbEntity
  8
0
100
AcDbLine
 10
1637.502778
 20
1397.350704
 30
0.0
 11
1637.502778
 21
1382.350704
 31
0.0
  0
ARC
  5
1369F
100
AcDbEntity
  8
0
100
AcDbCircle
 10
1642.502778
 20
1397.350704
 30
0.0
 40
5.0
100
AcDbArc
 50
90.0
 51
180.0
  0
LINE
  5
136A0
100
AcDbEntity
  8
0
100
AcDbLine
 10
1645.502778
 20
1432.350704
 30
0.0
 11
1645.502778
 21
1414.350704
 31
0.0
  0
LINE
  5
136A1
100
AcDbEntity
  8
0
100
AcDbLine
 10
1580.502778
 20
1482.140037
 30
0.0
 11
1580.502778
 21
1462.140037
 31
0.0
  0
LINE
  5
136A2
100
AcDbEntity
  8
0
100
AcDbLine
 10
1608.502778
 20
1482.140037
 30
0.0
 11
1608.502778
 21
1462.140037
 31
0.0
  0
LINE
  5
136A3
100
AcDbEntity
  8
0
100
AcDbLine
 10
1601.977778
 20
1483.350704
 30
0.0
 11
1601.939962
 21
1482.140037
 31
0.0
  0
LINE
  5
136A4
100
AcDbEntity
  8
0
100
AcDbLine
 10
1587.027778
 20
1483.350704
 30
0.0
 11
1587.065594
 21
1482.140037
 31
0.0
  0
LINE
  5
136A5
100
AcDbEntity
  8
0
100
AcDbLine
 10
1586.171778
 20
1483.350704
 30
0.0
 11
1586.209594
 21
1482.140037
 31
0.0
  0
LINE
  5
136A6
100
AcDbEntity
  8
0
100
AcDbLine
 10
1602.833778
 20
1483.350704
 30
0.0
 11
1602.795962
 21
1482.140037
 31
0.0
  0
LINE
  5
136A7
100
AcDbEntity
  8
0
100
AcDbLine
 10
1586.171778
 20
1483.350704
 30
0.0
 11
1602.833778
 21
1483.350704
 31
0.0
  0
LINE
  5
136A8
100
AcDbEntity
  8
0
100
AcDbLine
 10
1608.502778
 20
1482.140037
 30
0.0
 11
1580.502778
 21
1482.140037
 31
0.0
  0
LINE
  5
136A9
100
AcDbEntity
  8
0
100
AcDbLine
 10
1633.002778
 20
1448.140037
 30
0.0
 11
1633.002778
 21
1446.350704
 31
0.0
  0
LINE
  5
136AA
100
AcDbEntity
  8
0
100
AcDbLine
 10
1645.907276
 20
1471.140037
 30
0.0
 11
1625.122666
 21
1471.140037
 31
0.0
  0
ARC
  5
136AB
100
AcDbEntity
  8
0
100
AcDbCircle
 10
1626.421705
 20
1466.043142
 30
0.0
 40
5.096278
100
AcDbArc
 50
53.504105
 51
126.495895
  0
LINE
  5
136AC
100
AcDbEntity
  8
0
100
AcDbLine
 10
1623.390616
 20
1470.140037
 30
0.0
 11
1623.390616
 21
1462.140037
 31
0.0
  0
LINE
  5
136AD
100
AcDbEntity
  8
0
100
AcDbLine
 10
1623.390616
 20
1470.140037
 30
0.0
 11
1625.122666
 21
1471.140037
 31
0.0
  0
ARC
  5
136AE
100
AcDbEntity
  8
0
100
AcDbCircle
 10
1635.514971
 20
1452.253381
 30
0.0
 40
18.886039
100
AcDbArc
 50
71.277359
 51
108.722641
  0
LINE
  5
136AF
100
AcDbEntity
  8
0
100
AcDbLine
 10
1641.577149
 20
1462.140037
 30
0.0
 11
1641.577149
 21
1470.140037
 31
0.0
  0
LINE
  5
136B0
100
AcDbEntity
  8
0
100
AcDbLine
 10
1647.639327
 20
1470.140037
 30
0.0
 11
1647.639327
 21
1462.140037
 31
0.0
  0
ARC
  5
136B1
100
AcDbEntity
  8
0
100
AcDbCircle
 10
1644.608238
 20
1466.043142
 30
0.0
 40
5.096278
100
AcDbArc
 50
53.504105
 51
126.495895
  0
LINE
  5
136B2
100
AcDbEntity
  8
0
100
AcDbLine
 10
1647.639327
 20
1470.140037
 30
0.0
 11
1645.907276
 21
1471.140037
 31
0.0
  0
LINE
  5
136B3
100
AcDbEntity
  8
0
100
AcDbLine
 10
1634.988675
 20
1471.13942
 30
0.0
 11
1645.180238
 21
1471.13942
 31
0.0
  0
LINE
  5
136B4
100
AcDbEntity
  8
0
100
AcDbLine
 10
1629.452793
 20
1462.140037
 30
0.0
 11
1629.452793
 21
1470.140037
 31
0.0
  0
LINE
  5
136B5
100
AcDbEntity
  8
0
100
AcDbLine
 10
1650.502778
 20
1446.350704
 30
0.0
 11
1650.502778
 21
1432.350704
 31
0.0
  0
LINE
  5
136B6
100
AcDbEntity
  8
0
100
AcDbLine
 10
1670.532111
 20
1409.750704
 30
0.0
 11
1670.532111
 21
1436.950704
 31
0.0
  0
LINE
  5
136B7
100
AcDbEntity
  8
0
100
AcDbLine
 10
1681.384794
 20
1436.950704
 30
0.0
 11
1681.384794
 21
1409.750704
 31
0.0
  0
LINE
  5
136B8
100
AcDbEntity
  8
0
100
AcDbLine
 10
1664.502778
 20
1444.350704
 30
0.0
 11
1664.502778
 21
1402.350704
 31
0.0
  0
LINE
  5
136B9
100
AcDbEntity
  8
0
100
AcDbLine
 10
1712.005445
 20
1473.350704
 30
0.0
 11
1712.005445
 21
1423.350704
 31
0.0
  0
LINE
  5
136BA
100
AcDbEntity
  8
0
100
AcDbLine
 10
1712.005445
 20
1473.350704
 30
0.0
 11
1712.005445
 21
1423.350704
 31
0.0
  0
LINE
  5
136BB
100
AcDbEntity
  8
0
100
AcDbLine
 10
1689.005445
 20
1446.248237
 30
0.0
 11
1689.005445
 21
1400.45317
 31
0.0
  0
LINE
  5
136BC
100
AcDbEntity
  8
0
100
AcDbLine
 10
1689.005445
 20
1400.45317
 30
0.0
 11
1681.384794
 21
1409.750704
 31
0.0
  0
LINE
  5
136BD
100
AcDbEntity
  8
0
100
AcDbLine
 10
1670.532111
 20
1409.750704
 30
0.0
 11
1664.505445
 21
1410.170704
 31
0.0
  0
LINE
  5
136BE
100
AcDbEntity
  8
0
100
AcDbLine
 10
1681.384794
 20
1409.750704
 30
0.0
 11
1670.532111
 21
1409.750704
 31
0.0
  0
LINE
  5
136BF
100
AcDbEntity
  8
0
100
AcDbLine
 10
1660.502778
 20
1432.350704
 30
0.0
 11
1660.502778
 21
1414.350704
 31
0.0
  0
LINE
  5
136C0
100
AcDbEntity
  8
0
100
AcDbLine
 10
1689.005445
 20
1400.45317
 30
0.0
 11
1698.005445
 21
1399.348109
 31
0.0
  0
LINE
  5
136C1
100
AcDbEntity
  8
0
100
AcDbLine
 10
1689.005445
 20
1446.248237
 30
0.0
 11
1681.384794
 21
1436.950704
 31
0.0
  0
LINE
  5
136C2
100
AcDbEntity
  8
0
100
AcDbLine
 10
1650.502778
 20
1462.140037
 30
0.0
 11
1650.502778
 21
1448.140037
 31
0.0
  0
LINE
  5
136C3
100
AcDbEntity
  8
0
100
AcDbLine
 10
1664.505445
 20
1436.530704
 30
0.0
 11
1670.532111
 21
1436.950704
 31
0.0
  0
LINE
  5
136C4
100
AcDbEntity
  8
0
100
AcDbLine
 10
1670.532111
 20
1436.950704
 30
0.0
 11
1681.384794
 21
1436.950704
 31
0.0
  0
LINE
  5
136C5
100
AcDbEntity
  8
0
100
AcDbLine
 10
1659.502778
 20
1446.350704
 30
0.0
 11
1659.502778
 21
1444.350704
 31
0.0
  0
LINE
  5
136C6
100
AcDbEntity
  8
0
100
AcDbLine
 10
1664.502778
 20
1444.350704
 30
0.0
 11
1650.502778
 21
1444.350704
 31
0.0
  0
LINE
  5
136C7
100
AcDbEntity
  8
0
100
AcDbLine
 10
1689.005445
 20
1446.248237
 30
0.0
 11
1698.005445
 21
1447.353298
 31
0.0
  0
LINE
  5
136C8
100
AcDbEntity
  8
0
100
AcDbLine
 10
1698.005445
 20
1473.350704
 30
0.0
 11
1712.005445
 21
1473.350704
 31
0.0
  0
LINE
  5
136C9
100
AcDbEntity
  8
0
100
AcDbLine
 10
1586.171778
 20
1492.350704
 30
0.0
 11
1602.833778
 21
1492.350704
 31
0.0
  0
INSERT
  5
136CA
100
AcDbEntity
  8
0
100
AcDbBlockReference
  2
YA
 10
1726.911245
 20
1423.350704
 30
0.0
 41
-3.6
 42
3.6
 43
3.6
  0
LINE
  5
136CB
100
AcDbEntity
  8
0
100
AcDbLine
 10
2520.538115
 20
1360.850704
 30
0.0
 11
2520.538115
 21
1485.850704
 31
0.0
  0
LINE
  5
136CC
100
AcDbEntity
  8
0
100
AcDbLine
 10
2298.538115
 20
1360.850704
 30
0.0
 11
2298.538115
 21
1485.850704
 31
0.0
  0
LINE
  5
136CD
100
AcDbEntity
  8
0
100
AcDbLine
 10
2284.538115
 20
1423.350704
 30
0.0
 11
2284.538115
 21
1360.850704
 31
0.0
  0
LINE
  5
136CE
100
AcDbEntity
  8
0
100
AcDbLine
 10
2534.538115
 20
1423.350704
 30
0.0
 11
2534.538115
 21
1360.850704
 31
0.0
  0
LINE
  5
136CF
100
AcDbEntity
  8
0
100
AcDbLine
 10
2355.881826
 20
1347.847307
 30
0.0
 11
2346.823159
 21
1381.654711
 31
0.0
  0
ARC
  5
136D0
100
AcDbEntity
  8
0
100
AcDbCircle
 10
2339.750045
 20
1376.009918
 30
0.0
 40
7.987821
100
AcDbArc
 50
346.031911
 51
43.958566
  0
LINE
  5
136D1
100
AcDbEntity
  8
0
100
AcDbLine
 10
2347.336978
 20
1379.717298
 30
0.0
 11
2345.500014
 21
1381.554568
 31
0.0
  0
LINE
  5
136D2
100
AcDbEntity
  8
0
100
AcDbLine
 10
2339.993185
 20
1380.079508
 30
0.0
 11
2345.500014
 21
1381.554568
 31
0.0
  0
ARC
  5
136D3
100
AcDbEntity
  8
0
100
AcDbCircle
 10
2417.035449
 20
1382.350704
 30
0.0
 40
43.0
100
AcDbArc
 50
180.0
 51
199.966399
  0
ARC
  5
136D4
100
AcDbEntity
  8
0
100
AcDbCircle
 10
2417.035449
 20
1382.350704
 30
0.0
 40
43.0
100
AcDbArc
 50
341.038181
 51
0.0
  0
LINE
  5
136D5
100
AcDbEntity
  8
0
100
AcDbLine
 10
2534.538115
 20
1002.782704
 30
0.0
 11
2534.538115
 21
940.282704
 31
0.0
  0
LINE
  5
136D6
100
AcDbEntity
  8
0
100
AcDbLine
 10
2520.538115
 20
940.282704
 30
0.0
 11
2520.538115
 21
1065.282704
 31
0.0
  0
LINE
  5
136D7
100
AcDbEntity
  8
0
100
AcDbLine
 10
2298.538115
 20
940.282704
 30
0.0
 11
2298.538115
 21
1065.282704
 31
0.0
  0
LINE
  5
136D8
100
AcDbEntity
  8
0
100
AcDbLine
 10
2284.538115
 20
1002.782704
 30
0.0
 11
2284.538115
 21
940.282704
 31
0.0
  0
ARC
  5
136D9
100
AcDbEntity
  8
0
100
AcDbCircle
 10
2402.040782
 20
961.782704
 30
0.0
 40
43.0
100
AcDbArc
 50
340.033601
 51
360.0
  0
ARC
  5
136DA
100
AcDbEntity
  8
0
100
AcDbCircle
 10
2402.040782
 20
961.782704
 30
0.0
 40
43.0
100
AcDbArc
 50
180.0
 51
198.961819
  0
LINE
  5
136DB
100
AcDbEntity
  8
0
100
AcDbLine
 10
2469.564779
 20
961.807037
 30
0.0
 11
2472.253071
 21
961.086711
 31
0.0
  0
ARC
  5
136DC
100
AcDbEntity
  8
0
100
AcDbCircle
 10
2470.341237
 20
964.704814
 30
0.0
 40
3.0
100
AcDbArc
 50
175.0
 51
255.0
  0
CIRCLE
  5
136DD
100
AcDbEntity
  8
0
100
AcDbCircle
 10
2663.112737
 20
1002.782704
 30
0.0
 40
62.5
  0
CIRCLE
  5
136DE
100
AcDbEntity
  8
0
100
AcDbCircle
 10
2631.292932
 20
970.962899
 30
0.0
 40
9.5
  0
CIRCLE
  5
136DF
100
AcDbEntity
  8
0
100
AcDbCircle
 10
2694.932543
 20
970.962899
 30
0.0
 40
9.5
  0
ARC
  5
136E0
100
AcDbEntity
  8
0
100
AcDbCircle
 10
2402.040782
 20
961.782704
 30
0.0
 40
43.0
100
AcDbArc
 50
257.619201
 51
317.046813
  0
TEXT
  5
136E1
100
AcDbEntity
  8
0
100
AcDbText
 10
2357.492687
 20
834.877944
 30
0.0
 40
30.0
  1
25A
 72
     4
 11
2397.492687
 21
849.877944
 31
0.0
100
AcDbText
  0
LINE
  5
136E2
100
AcDbEntity
  8
0
100
AcDbLine
 10
2284.538115
 20
940.282704
 30
0.0
 11
2298.538115
 21
940.282704
 31
0.0
  0
ARC
  5
136E3
100
AcDbEntity
  8
0
100
AcDbCircle
 10
2402.040782
 20
961.782704
 30
0.0
 40
43.0
100
AcDbArc
 50
205.91298
 51
249.192388
  0
LINE
  5
136E4
100
AcDbEntity
  8
0
100
AcDbLine
 10
2360.040782
 20
919.782704
 30
0.0
 11
2392.821237
 21
919.782704
 31
0.0
  0
LINE
  5
136E7
100
AcDbEntity
  8
0
100
AcDbLine
 10
2360.040782
 20
943.782704
 30
0.0
 11
2360.040782
 21
919.782704
 31
0.0
  0
ARC
  5
136F7
100
AcDbEntity
  8
0
100
AcDbCircle
 10
2358.693639
 20
946.463228
 30
0.0
 40
3.0
100
AcDbArc
 50
296.682589
 51
26.682589
  0
LINE
  5
136FB
100
AcDbEntity
  8
0
100
AcDbLine
 10
2497.076373
 20
922.337831
 30
0.0
 11
2470.996375
 21
929.325945
 31
0.0
  0
LINE
  5
136FC
100
AcDbEntity
  8
0
100
AcDbLine
 10
2504.064487
 20
948.417828
 30
0.0
 11
2477.98449
 21
955.405942
 31
0.0
  0
LINE
  5
136FD
100
AcDbEntity
  8
0
100
AcDbLine
 10
2438.46659
 20
933.905105
 30
0.0
 11
2463.194405
 21
927.279307
 31
0.0
  0
ARC
  5
136FE
100
AcDbEntity
  8
0
100
AcDbCircle
 10
2437.172495
 20
929.075476
 30
0.0
 40
5.0
100
AcDbArc
 50
75.0
 51
137.046813
  0
ARC
  5
136FF
100
AcDbEntity
  8
0
100
AcDbCircle
 10
2479.326185
 20
955.441919
 30
0.0
 40
7.987821
100
AcDbArc
 50
136.041434
 51
193.968089
  0
LINE
  5
13700
100
AcDbEntity
  8
0
100
AcDbLine
 10
2463.194405
 20
927.279307
 30
0.0
 11
2472.253071
 21
961.086711
 31
0.0
  0
LINE
  5
13701
100
AcDbEntity
  8
0
100
AcDbLine
 10
2479.083046
 20
959.511509
 30
0.0
 11
2473.576217
 21
960.986569
 31
0.0
  0
LINE
  5
13702
100
AcDbEntity
  8
0
100
AcDbLine
 10
2471.739252
 20
959.149299
 30
0.0
 11
2473.576217
 21
960.986569
 31
0.0
  0
ARC
  5
13703
100
AcDbEntity
  8
0
100
AcDbCircle
 10
2472.142614
 20
928.62355
 30
0.0
 40
7.987821
100
AcDbArc
 50
136.041434
 51
193.968089
  0
LINE
  5
13704
100
AcDbEntity
  8
0
100
AcDbLine
 10
2469.897819
 20
925.220379
 30
0.0
 11
2464.39099
 21
926.695439
 31
0.0
  0
LINE
  5
13705
100
AcDbEntity
  8
0
100
AcDbLine
 10
2463.71835
 20
929.204932
 30
0.0
 11
2464.39099
 21
926.695439
 31
0.0
  0
ARC
  5
13706
100
AcDbEntity
  8
0
100
AcDbCircle
 10
2497.054192
 20
936.322012
 30
0.0
 40
30.059202
100
AcDbArc
 50
150.191517
 51
179.818005
  0
LINE
  5
13707
100
AcDbEntity
  8
0
100
AcDbLine
 10
2469.897819
 20
925.220379
 30
0.0
 11
2479.083046
 21
959.511509
 31
0.0
  0
LINE
  5
13708
100
AcDbEntity
  8
0
100
AcDbLine
 10
2466.995141
 20
936.417493
 30
0.0
 11
2466.392645
 21
934.1682
 31
0.0
  0
LINE
  5
13709
100
AcDbEntity
  8
0
100
AcDbLine
 10
2471.899474
 20
932.69314
 30
0.0
 11
2466.392645
 21
934.1682
 31
0.0
  0
LINE
  5
1370A
100
AcDbEntity
  8
0
100
AcDbLine
 10
2472.50197
 20
934.942433
 30
0.0
 11
2466.995141
 21
936.417493
 31
0.0
  0
LINE
  5
1370B
100
AcDbEntity
  8
0
100
AcDbLine
 10
2471.574562
 20
953.513807
 30
0.0
 11
2470.972066
 21
951.264515
 31
0.0
  0
LINE
  5
1370C
100
AcDbEntity
  8
0
100
AcDbLine
 10
2477.081391
 20
952.038747
 30
0.0
 11
2471.574562
 21
953.513807
 31
0.0
  0
LINE
  5
1370D
100
AcDbEntity
  8
0
100
AcDbLine
 10
2476.478895
 20
949.789455
 30
0.0
 11
2470.972066
 21
951.264515
 31
0.0
  0
LINE
  5
1370E
100
AcDbEntity
  8
0
100
AcDbLine
 10
2471.291043
 20
961.344486
 30
0.0
 11
2470.523777
 21
961.550074
 31
0.0
  0
LINE
  5
1370F
100
AcDbEntity
  8
0
100
AcDbLine
 10
2497.076373
 20
922.337831
 30
0.0
 11
2504.064487
 21
948.417828
 31
0.0
  0
LINE
  5
13710
100
AcDbEntity
  8
0
100
AcDbLine
 10
2534.538115
 20
940.282704
 30
0.0
 11
2520.538115
 21
940.282704
 31
0.0
  0
ARC
  5
13711
100
AcDbEntity
  8
0
100
AcDbCircle
 10
2663.112737
 20
961.782704
 30
0.0
 40
43.0
100
AcDbArc
 50
186.125541
 51
353.874459
  0
ELLIPSE
  5
13712
100
AcDbEntity
  8
0
100
AcDbEllipse
 10
2663.112737
 20
934.730782
 30
0.0
 11
-13.5
 21
0.0
 31
0.0
210
0.0
220
0.0
230
1.0
 40
0.965926
 41
5.748817438465182
 42
9.959145829483782
  0
ELLIPSE
  5
13713
100
AcDbEntity
  8
0
100
AcDbEllipse
 10
2663.112737
 20
934.730782
 30
0.0
 11
-10.5
 21
0.0
 31
0.0
210
0.0
220
0.0
230
1.0
 40
0.965926
 41
5.635928540994264
 42
10.0720347269547
  0
LINE
  5
13714
100
AcDbEntity
  8
0
100
AcDbLine
 10
2649.612737
 20
934.730782
 30
0.0
 11
2649.612737
 21
941.718896
 31
0.0
  0
ELLIPSE
  5
13715
100
AcDbEntity
  8
0
100
AcDbEllipse
 10
2663.112737
 20
944.183009
 30
0.0
 11
-17.5
 21
0.0
 31
0.0
210
0.0
220
0.0
230
1.0
 40
0.965926
 41
6.367186872101851
 42
6.700240601465533
  0
LINE
  5
13716
100
AcDbEntity
  8
0
100
AcDbLine
 10
2647.112737
 20
942.365405
 30
0.0
 11
2647.112737
 21
934.687451
 31
0.0
  0
LINE
  5
13717
100
AcDbEntity
  8
0
100
AcDbLine
 10
2648.457143
 20
932.438215
 30
0.0
 11
2650.015553
 21
931.569124
 31
0.0
  0
ELLIPSE
  5
13718
100
AcDbEntity
  8
0
100
AcDbEllipse
 10
2663.112737
 20
942.110796
 30
0.0
 11
-17.75
 21
0.0
 31
0.0
210
0.0
220
0.0
230
1.0
 40
0.965926
 41
0.4477847473764708
 42
0.5994123592542787
  0
ELLIPSE
  5
13719
100
AcDbEntity
  8
0
100
AcDbEllipse
 10
2663.112737
 20
941.718896
 30
0.0
 11
-13.5
 21
0.0
 31
0.0
210
0.0
220
0.0
230
1.0
 40
0.965926
 41
6.280178440686935
 42
6.283185307179586
  0
LINE
  5
1371A
100
AcDbEntity
  8
0
100
AcDbLine
 10
2676.612737
 20
934.730782
 30
0.0
 11
2676.612737
 21
941.718896
 31
0.0
  0
ELLIPSE
  5
1371B
100
AcDbEntity
  8
0
100
AcDbEllipse
 10
2663.112737
 20
944.183009
 30
0.0
 11
-17.5
 21
0.0
 31
0.0
210
0.0
220
0.0
230
1.0
 40
0.965926
 41
2.724537359304187
 42
3.057591088667526
  0
LINE
  5
1371C
100
AcDbEntity
  8
0
100
AcDbLine
 10
2679.112737
 20
942.365405
 30
0.0
 11
2679.112737
 21
934.687451
 31
0.0
  0
LINE
  5
1371D
100
AcDbEntity
  8
0
100
AcDbLine
 10
2677.768332
 20
932.438215
 30
0.0
 11
2676.209922
 21
931.569124
 31
0.0
  0
ELLIPSE
  5
1371E
100
AcDbEntity
  8
0
100
AcDbEllipse
 10
2663.112737
 20
942.110796
 30
0.0
 11
17.75
 21
0.0
 31
0.0
210
0.0
220
0.0
230
-1.0
 40
0.965926
 41
0.4477847473764708
 42
0.5994123592542787
  0
ELLIPSE
  5
1371F
100
AcDbEntity
  8
0
100
AcDbEllipse
 10
2663.112737
 20
941.718896
 30
0.0
 11
-13.5
 21
0.0
 31
0.0
210
0.0
220
0.0
230
1.0
 40
0.965926
 41
3.141592653589793
 42
3.144599520082445
  0
LINE
  5
13720
100
AcDbEntity
  8
0
100
AcDbLine
 10
2534.538115
 20
1213.639835
 30
0.0
 11
2534.538115
 21
1151.139835
 31
0.0
  0
LINE
  5
13721
100
AcDbEntity
  8
0
100
AcDbLine
 10
2520.538115
 20
1151.139835
 30
0.0
 11
2520.538115
 21
1276.139835
 31
0.0
  0
LINE
  5
13722
100
AcDbEntity
  8
0
100
AcDbLine
 10
2284.538115
 20
1213.639835
 30
0.0
 11
2284.538115
 21
1151.139835
 31
0.0
  0
LINE
  5
13723
100
AcDbEntity
  8
0
100
AcDbLine
 10
2298.538115
 20
1151.139835
 30
0.0
 11
2298.538115
 21
1276.139835
 31
0.0
  0
ARC
  5
13724
100
AcDbEntity
  8
0
100
AcDbCircle
 10
2158.040782
 20
1213.639835
 30
0.0
 40
300.0
100
AcDbArc
 50
351.614461
 51
8.385539
  0
ARC
  5
13725
100
AcDbEntity
  8
0
100
AcDbCircle
 10
2646.040782
 20
1213.639835
 30
0.0
 40
300.0
100
AcDbArc
 50
171.614461
 51
188.385539
  0
POLYLINE
  5
13726
100
AcDbEntity
  8
0
100
AcDb2dPolyline
 66
     1
 10
0.0
 20
0.0
 30
0.0
 70
     1
  0
VERTEX
  5
13A5E
100
AcDbEntity
  8
0
100
AcDbVertex
100
AcDb2dVertex
 10
2367.090766
 20
1162.127642
 30
0.0
  0
VERTEX
  5
13A5F
100
AcDbEntity
  8
0
100
AcDbVertex
100
AcDb2dVertex
 10
2373.152944
 20
1172.627642
 30
0.0
  0
VERTEX
  5
13A60
100
AcDbEntity
  8
0
100
AcDbVertex
100
AcDb2dVertex
 10
2367.090766
 20
1183.127642
 30
0.0
  0
VERTEX
  5
13A61
100
AcDbEntity
  8
0
100
AcDbVertex
100
AcDb2dVertex
 10
2354.966411
 20
1183.127642
 30
0.0
  0
VERTEX
  5
13A62
100
AcDbEntity
  8
0
100
AcDbVertex
100
AcDb2dVertex
 10
2348.904233
 20
1172.627642
 30
0.0
  0
VERTEX
  5
13A63
100
AcDbEntity
  8
0
100
AcDbVertex
100
AcDb2dVertex
 10
2354.966411
 20
1162.127642
 30
0.0
  0
SEQEND
  5
13A64
100
AcDbEntity
  8
0
  0
CIRCLE
  5
13727
100
AcDbEntity
  8
0
100
AcDbCircle
 10
2361.028589
 20
1172.627642
 30
0.0
 40
10.5
  0
CIRCLE
  5
13728
100
AcDbEntity
  8
0
100
AcDbCircle
 10
2443.052975
 20
1172.627642
 30
0.0
 40
10.5
  0
POLYLINE
  5
13729
100
AcDbEntity
  8
0
100
AcDb2dPolyline
 66
     1
 10
0.0
 20
0.0
 30
0.0
 70
     1
  0
VERTEX
  5
13A65
100
AcDbEntity
  8
0
100
AcDbVertex
100
AcDb2dVertex
 10
2436.990797
 20
1162.127642
 30
0.0
  0
VERTEX
  5
13A66
100
AcDbEntity
  8
0
100
AcDbVertex
100
AcDb2dVertex
 10
2430.92862
 20
1172.627642
 30
0.0
  0
VERTEX
  5
13A67
100
AcDbEntity
  8
0
100
AcDbVertex
100
AcDb2dVertex
 10
2436.990797
 20
1183.127642
 30
0.0
  0
VERTEX
  5
13A68
100
AcDbEntity
  8
0
100
AcDbVertex
100
AcDb2dVertex
 10
2449.115153
 20
1183.127642
 30
0.0
  0
VERTEX
  5
13A69
100
AcDbEntity
  8
0
100
AcDbVertex
100
AcDb2dVertex
 10
2455.177331
 20
1172.627642
 30
0.0
  0
VERTEX
  5
13A6A
100
AcDbEntity
  8
0
100
AcDbVertex
100
AcDb2dVertex
 10
2449.115153
 20
1162.127642
 30
0.0
  0
SEQEND
  5
13A6B
100
AcDbEntity
  8
0
  0
LINE
  5
1372A
100
AcDbEntity
  8
0
100
AcDbLine
 10
2332.040782
 20
981.782704
 30
0.0
 11
2442.033088
 21
981.782704
 31
0.0
  0
LINE
  5
1372B
100
AcDbEntity
  8
0
100
AcDbLine
 10
2346.040782
 20
1027.572038
 30
0.0
 11
2458.040782
 21
1027.572038
 31
0.0
  0
LINE
  5
1372C
100
AcDbEntity
  8
0
100
AcDbLine
 10
2346.040782
 20
1011.782704
 30
0.0
 11
2458.040782
 21
1011.782704
 31
0.0
  0
LINE
  5
1372D
100
AcDbEntity
  8
0
100
AcDbLine
 10
2337.040782
 20
1025.782704
 30
0.0
 11
2458.040782
 21
1025.782704
 31
0.0
  0
LINE
  5
1372E
100
AcDbEntity
  8
0
100
AcDbLine
 10
2346.040782
 20
1041.572038
 30
0.0
 11
2458.040782
 21
1041.572038
 31
0.0
  0
LINE
  5
1372F
100
AcDbEntity
  8
0
100
AcDbLine
 10
2388.040782
 20
1061.572038
 30
0.0
 11
2416.040782
 21
1061.572038
 31
0.0
  0
LINE
  5
13730
100
AcDbEntity
  8
0
100
AcDbLine
 10
2361.11974
 20
1159.639835
 30
0.0
 11
2442.961824
 21
1159.639835
 31
0.0
  0
LINE
  5
13731
100
AcDbEntity
  8
0
100
AcDbLine
 10
2393.709782
 20
1071.782704
 30
0.0
 11
2393.709782
 21
1062.782704
 31
0.0
  0
LINE
  5
13732
100
AcDbEntity
  8
0
100
AcDbLine
 10
2402.040782
 20
1071.782704
 30
0.0
 11
2402.040782
 21
1062.782704
 31
0.0
  0
LINE
  5
13733
100
AcDbEntity
  8
0
100
AcDbLine
 10
2410.371782
 20
1071.782704
 30
0.0
 11
2410.371782
 21
1062.782704
 31
0.0
  0
LINE
  5
13734
100
AcDbEntity
  8
0
100
AcDbLine
 10
2351.040782
 20
993.782704
 30
0.0
 11
2336.040782
 21
993.782704
 31
0.0
  0
LINE
  5
13735
100
AcDbEntity
  8
0
100
AcDbLine
 10
2351.040782
 20
1011.782704
 30
0.0
 11
2336.040782
 21
1011.782704
 31
0.0
  0
LINE
  5
13736
100
AcDbEntity
  8
0
100
AcDbLine
 10
2332.040782
 20
1023.782704
 30
0.0
 11
2346.040782
 21
1023.782704
 31
0.0
  0
LINE
  5
13737
100
AcDbEntity
  8
0
100
AcDbLine
 10
2332.040782
 20
1023.782704
 30
0.0
 11
2332.040782
 21
981.782704
 31
0.0
  0
LINE
  5
13738
100
AcDbEntity
  8
0
100
AcDbLine
 10
2317.321154
 20
1020.032704
 30
0.0
 11
2317.316665
 21
985.530159
 31
0.0
  0
LINE
  5
13739
100
AcDbEntity
  8
0
100
AcDbLine
 10
2307.538115
 20
1028.677643
 30
0.0
 11
2307.538115
 21
976.887765
 31
0.0
  0
LINE
  5
1373A
100
AcDbEntity
  8
0
100
AcDbLine
 10
2284.538115
 20
1065.282704
 30
0.0
 11
2284.538115
 21
1002.782704
 31
0.0
  0
LINE
  5
1373B
100
AcDbEntity
  8
0
100
AcDbLine
 10
2307.531378
 20
976.887766
 30
0.0
 11
2317.316665
 21
985.530159
 31
0.0
  0
LINE
  5
1373C
100
AcDbEntity
  8
0
100
AcDbLine
 10
2307.538115
 20
976.887765
 30
0.0
 11
2307.538115
 21
992.358113
 31
0.0
  0
ARC
  5
1373D
100
AcDbEntity
  8
0
100
AcDbCircle
 10
2303.538115
 20
971.359078
 30
0.0
 40
5.0
100
AcDbArc
 50
97.0
 51
180.0
  0
LINE
  5
1373E
100
AcDbEntity
  8
0
100
AcDbLine
 10
2307.538115
 20
976.887765
 30
0.0
 11
2302.928769
 21
976.321809
 31
0.0
  0
LINE
  5
1373F
100
AcDbEntity
  8
0
100
AcDbLine
 10
2336.040782
 20
1011.782704
 30
0.0
 11
2336.040782
 21
993.782704
 31
0.0
  0
LINE
  5
13740
100
AcDbEntity
  8
0
100
AcDbLine
 10
2332.040782
 20
985.532704
 30
0.0
 11
2321.321286
 21
985.532704
 31
0.0
  0
LINE
  5
13741
100
AcDbEntity
  8
0
100
AcDbLine
 10
2332.040782
 20
985.532704
 30
0.0
 11
2317.316665
 21
985.532704
 31
0.0
  0
LINE
  5
13742
100
AcDbEntity
  8
0
100
AcDbLine
 10
2307.538115
 20
1028.677643
 30
0.0
 11
2317.321154
 21
1020.032704
 31
0.0
  0
ARC
  5
13743
100
AcDbEntity
  8
0
100
AcDbCircle
 10
2303.538115
 20
1034.206331
 30
0.0
 40
5.0
100
AcDbArc
 50
180.0
 51
263.0
  0
LINE
  5
13744
100
AcDbEntity
  8
0
100
AcDbLine
 10
2307.538115
 20
1028.677643
 30
0.0
 11
2302.928769
 21
1029.2436
 31
0.0
  0
LINE
  5
13745
100
AcDbEntity
  8
0
100
AcDbLine
 10
2284.538115
 20
1065.282704
 30
0.0
 11
2298.538115
 21
1065.282704
 31
0.0
  0
LINE
  5
13746
100
AcDbEntity
  8
0
100
AcDbLine
 10
2337.040782
 20
1025.782704
 30
0.0
 11
2337.040782
 21
1023.782704
 31
0.0
  0
LINE
  5
13747
100
AcDbEntity
  8
0
100
AcDbLine
 10
2332.04014
 20
1020.032704
 30
0.0
 11
2321.325775
 21
1020.032704
 31
0.0
  0
LINE
  5
13748
100
AcDbEntity
  8
0
100
AcDbLine
 10
2332.04014
 20
1020.032704
 30
0.0
 11
2317.321154
 21
1020.032704
 31
0.0
  0
LINE
  5
13749
100
AcDbEntity
  8
0
100
AcDbLine
 10
2346.040782
 20
1025.782704
 30
0.0
 11
2346.040782
 21
1011.782704
 31
0.0
  0
LINE
  5
1374A
100
AcDbEntity
  8
0
100
AcDbLine
 10
2351.040782
 20
1011.782704
 30
0.0
 11
2351.040782
 21
993.782704
 31
0.0
  0
ARC
  5
1374B
100
AcDbEntity
  8
0
100
AcDbCircle
 10
2354.040782
 20
976.782704
 30
0.0
 40
5.0
100
AcDbArc
 50
0.0
 51
90.0
  0
LINE
  5
1374C
100
AcDbEntity
  8
0
100
AcDbLine
 10
2359.040782
 20
976.782704
 30
0.0
 11
2359.040782
 21
961.782704
 31
0.0
  0
CIRCLE
  5
1374D
100
AcDbEntity
  8
0
100
AcDbCircle
 10
2402.041494
 20
995.281543
 30
0.0
 40
10.5
  0
LINE
  5
1374E
100
AcDbEntity
  8
0
100
AcDbLine
 10
2350.636284
 20
1050.572038
 30
0.0
 11
2371.420893
 21
1050.572038
 31
0.0
  0
ARC
  5
1374F
100
AcDbEntity
  8
0
100
AcDbCircle
 10
2351.935322
 20
1045.475143
 30
0.0
 40
5.096278
100
AcDbArc
 50
53.504105
 51
126.495895
  0
LINE
  5
13750
100
AcDbEntity
  8
0
100
AcDbLine
 10
2361.554885
 20
1050.571421
 30
0.0
 11
2351.363322
 21
1050.571421
 31
0.0
  0
LINE
  5
13751
100
AcDbEntity
  8
0
100
AcDbLine
 10
2346.040782
 20
1041.572038
 30
0.0
 11
2346.040782
 21
1027.572038
 31
0.0
  0
LINE
  5
13752
100
AcDbEntity
  8
0
100
AcDbLine
 10
2348.904233
 20
1049.572038
 30
0.0
 11
2348.904233
 21
1041.572038
 31
0.0
  0
LINE
  5
13753
100
AcDbEntity
  8
0
100
AcDbLine
 10
2348.904233
 20
1049.572038
 30
0.0
 11
2350.636284
 21
1050.572038
 31
0.0
  0
LINE
  5
13754
100
AcDbEntity
  8
0
100
AcDbLine
 10
2363.540782
 20
1027.572038
 30
0.0
 11
2363.540782
 21
1025.782704
 31
0.0
  0
ARC
  5
13755
100
AcDbEntity
  8
0
100
AcDbCircle
 10
2361.028589
 20
1031.685382
 30
0.0
 40
18.886039
100
AcDbArc
 50
71.277359
 51
108.722641
  0
LINE
  5
13756
100
AcDbEntity
  8
0
100
AcDbLine
 10
2354.966411
 20
1041.572038
 30
0.0
 11
2354.966411
 21
1049.572038
 31
0.0
  0
LINE
  5
13757
100
AcDbEntity
  8
0
100
AcDbLine
 10
2367.090766
 20
1041.572038
 30
0.0
 11
2367.090766
 21
1049.572038
 31
0.0
  0
LINE
  5
13758
100
AcDbEntity
  8
0
100
AcDbLine
 10
2373.152944
 20
1049.572038
 30
0.0
 11
2373.152944
 21
1041.572038
 31
0.0
  0
ARC
  5
13759
100
AcDbEntity
  8
0
100
AcDbCircle
 10
2370.121855
 20
1045.475143
 30
0.0
 40
5.096278
100
AcDbArc
 50
53.504105
 51
126.495895
  0
LINE
  5
1375A
100
AcDbEntity
  8
0
100
AcDbLine
 10
2373.152944
 20
1049.572038
 30
0.0
 11
2371.420893
 21
1050.572038
 31
0.0
  0
LINE
  5
1375B
100
AcDbEntity
  8
0
100
AcDbLine
 10
2388.040782
 20
1061.572038
 30
0.0
 11
2388.040782
 21
1041.572038
 31
0.0
  0
LINE
  5
1375C
100
AcDbEntity
  8
0
100
AcDbLine
 10
2410.371782
 20
1062.782704
 30
0.0
 11
2393.709782
 21
1062.782704
 31
0.0
  0
LINE
  5
1375D
100
AcDbEntity
  8
0
100
AcDbLine
 10
2394.565782
 20
1062.782704
 30
0.0
 11
2394.603597
 21
1061.572038
 31
0.0
  0
LINE
  5
1375E
100
AcDbEntity
  8
0
100
AcDbLine
 10
2393.709782
 20
1062.782704
 30
0.0
 11
2393.747597
 21
1061.572038
 31
0.0
  0
LINE
  5
1375F
100
AcDbEntity
  8
0
100
AcDbLine
 10
2409.515782
 20
1062.782704
 30
0.0
 11
2409.477966
 21
1061.572038
 31
0.0
  0
LINE
  5
13760
100
AcDbEntity
  8
0
100
AcDbLine
 10
2410.371782
 20
1062.782704
 30
0.0
 11
2410.333966
 21
1061.572038
 31
0.0
  0
LINE
  5
13761
100
AcDbEntity
  8
0
100
AcDbLine
 10
2284.538115
 20
1151.139835
 30
0.0
 11
2298.538115
 21
1151.139835
 31
0.0
  0
LINE
  5
13762
100
AcDbEntity
  8
0
100
AcDbLine
 10
2410.371782
 20
1071.782704
 30
0.0
 11
2393.709782
 21
1071.782704
 31
0.0
  0
ARC
  5
13763
100
AcDbEntity
  8
0
100
AcDbCircle
 10
2361.11974
 20
1171.639835
 30
0.0
 40
12.0
100
AcDbArc
 50
188.385539
 51
270.0
  0
LINE
  5
13764
100
AcDbEntity
  8
0
100
AcDbLine
 10
2473.405555
 20
981.782704
 30
0.0
 11
2487.040782
 21
981.782704
 31
0.0
  0
LINE
  5
13765
100
AcDbEntity
  8
0
100
AcDbLine
 10
2458.040782
 20
1023.782704
 30
0.0
 11
2487.040782
 21
1023.782704
 31
0.0
  0
LINE
  5
13766
100
AcDbEntity
  8
0
100
AcDbLine
 10
2458.040782
 20
1025.782704
 30
0.0
 11
2458.040782
 21
1011.782704
 31
0.0
  0
ARC
  5
13767
100
AcDbEntity
  8
0
100
AcDbCircle
 10
2443.379593
 20
986.214661
 30
0.0
 40
5.0
100
AcDbArc
 50
305.637046
 51
11.508499
  0
ARC
  5
13768
100
AcDbEntity
  8
0
100
AcDbCircle
 10
2504.790658
 20
998.71837
 30
0.0
 40
57.671059
100
AcDbArc
 50
174.05568
 51
191.508499
  0
LINE
  5
13769
100
AcDbEntity
  8
0
100
AcDbLine
 10
2445.040782
 20
979.712867
 30
0.0
 11
2445.040782
 21
961.782704
 31
0.0
  0
ARC
  5
1376A
100
AcDbEntity
  8
0
100
AcDbCircle
 10
2448.040782
 20
979.712867
 30
0.0
 40
3.0
100
AcDbArc
 50
125.637046
 51
180.0
  0
LINE
  5
1376B
100
AcDbEntity
  8
0
100
AcDbLine
 10
2468.040782
 20
1011.782704
 30
0.0
 11
2468.040782
 21
993.782704
 31
0.0
  0
LINE
  5
1376C
100
AcDbEntity
  8
0
100
AcDbLine
 10
2483.040782
 20
1011.782704
 30
0.0
 11
2483.040782
 21
993.782704
 31
0.0
  0
ARC
  5
1376D
100
AcDbEntity
  8
0
100
AcDbCircle
 10
2473.405555
 20
976.782704
 30
0.0
 40
5.0
100
AcDbArc
 50
90.0
 51
175.0
  0
LINE
  5
1376E
100
AcDbEntity
  8
0
100
AcDbLine
 10
2467.352653
 20
964.966282
 30
0.0
 11
2468.424581
 21
977.218483
 31
0.0
  0
LINE
  5
1376F
100
AcDbEntity
  8
0
100
AcDbLine
 10
2483.040782
 20
993.782704
 30
0.0
 11
2468.040782
 21
993.782704
 31
0.0
  0
LINE
  5
13770
100
AcDbEntity
  8
0
100
AcDbLine
 10
2483.040782
 20
1011.782704
 30
0.0
 11
2468.040782
 21
1011.782704
 31
0.0
  0
ARC
  5
13771
100
AcDbEntity
  8
0
100
AcDbCircle
 10
2443.052975
 20
1031.685382
 30
0.0
 40
18.886039
100
AcDbArc
 50
71.277359
 51
108.722641
  0
LINE
  5
13772
100
AcDbEntity
  8
0
100
AcDbLine
 10
2442.526679
 20
1050.571421
 30
0.0
 11
2452.718241
 21
1050.571421
 31
0.0
  0
LINE
  5
13773
100
AcDbEntity
  8
0
100
AcDbLine
 10
2453.44528
 20
1050.572038
 30
0.0
 11
2432.66067
 21
1050.572038
 31
0.0
  0
LINE
  5
13774
100
AcDbEntity
  8
0
100
AcDbLine
 10
2416.040782
 20
1057.572038
 30
0.0
 11
2458.040782
 21
1057.572038
 31
0.0
  0
LINE
  5
13775
100
AcDbEntity
  8
0
100
AcDbLine
 10
2440.540782
 20
1027.572038
 30
0.0
 11
2440.540782
 21
1025.782704
 31
0.0
  0
LINE
  5
13776
100
AcDbEntity
  8
0
100
AcDbLine
 10
2416.040782
 20
1061.572038
 30
0.0
 11
2416.040782
 21
1041.572038
 31
0.0
  0
LINE
  5
13777
100
AcDbEntity
  8
0
100
AcDbLine
 10
2430.92862
 20
1049.572038
 30
0.0
 11
2432.66067
 21
1050.572038
 31
0.0
  0
ARC
  5
13778
100
AcDbEntity
  8
0
100
AcDbCircle
 10
2433.959709
 20
1045.475143
 30
0.0
 40
5.096278
100
AcDbArc
 50
53.504105
 51
126.495895
  0
LINE
  5
13779
100
AcDbEntity
  8
0
100
AcDbLine
 10
2430.92862
 20
1049.572038
 30
0.0
 11
2430.92862
 21
1041.572038
 31
0.0
  0
LINE
  5
1377A
100
AcDbEntity
  8
0
100
AcDbLine
 10
2436.990797
 20
1041.572038
 30
0.0
 11
2436.990797
 21
1049.572038
 31
0.0
  0
LINE
  5
1377B
100
AcDbEntity
  8
0
100
AcDbLine
 10
2458.040782
 20
1057.572038
 30
0.0
 11
2458.040782
 21
1027.572038
 31
0.0
  0
LINE
  5
1377C
100
AcDbEntity
  8
0
100
AcDbLine
 10
2455.177331
 20
1049.572038
 30
0.0
 11
2453.44528
 21
1050.572038
 31
0.0
  0
LINE
  5
1377D
100
AcDbEntity
  8
0
100
AcDbLine
 10
2455.177331
 20
1049.572038
 30
0.0
 11
2455.177331
 21
1041.572038
 31
0.0
  0
LINE
  5
1377E
100
AcDbEntity
  8
0
100
AcDbLine
 10
2449.115153
 20
1041.572038
 30
0.0
 11
2449.115153
 21
1049.572038
 31
0.0
  0
ARC
  5
1377F
100
AcDbEntity
  8
0
100
AcDbCircle
 10
2452.146242
 20
1045.475143
 30
0.0
 40
5.096278
100
AcDbArc
 50
53.504105
 51
126.495895
  0
LINE
  5
13780
100
AcDbEntity
  8
0
100
AcDbLine
 10
2501.755077
 20
1020.032704
 30
0.0
 11
2501.759566
 21
985.530159
 31
0.0
  0
LINE
  5
13781
100
AcDbEntity
  8
0
100
AcDbLine
 10
2511.538115
 20
1028.677643
 30
0.0
 11
2511.538115
 21
976.887765
 31
0.0
  0
LINE
  5
13782
100
AcDbEntity
  8
0
100
AcDbLine
 10
2487.040782
 20
1023.782704
 30
0.0
 11
2487.040782
 21
981.782704
 31
0.0
  0
LINE
  5
13783
100
AcDbEntity
  8
0
100
AcDbLine
 10
2534.538115
 20
1065.282704
 30
0.0
 11
2534.538115
 21
1002.782704
 31
0.0
  0
ARC
  5
13784
100
AcDbEntity
  8
0
100
AcDbCircle
 10
2515.538115
 20
971.359078
 30
0.0
 40
5.0
100
AcDbArc
 50
0.0
 51
83.0
  0
LINE
  5
13785
100
AcDbEntity
  8
0
100
AcDbLine
 10
2511.538115
 20
976.887765
 30
0.0
 11
2511.538115
 21
992.358113
 31
0.0
  0
LINE
  5
13786
100
AcDbEntity
  8
0
100
AcDbLine
 10
2511.544853
 20
976.887766
 30
0.0
 11
2501.759566
 21
985.530159
 31
0.0
  0
LINE
  5
13787
100
AcDbEntity
  8
0
100
AcDbLine
 10
2511.538115
 20
976.887765
 30
0.0
 11
2516.147462
 21
976.321809
 31
0.0
  0
LINE
  5
13788
100
AcDbEntity
  8
0
100
AcDbLine
 10
2487.035449
 20
985.532704
 30
0.0
 11
2501.759565
 21
985.532704
 31
0.0
  0
ARC
  5
13789
100
AcDbEntity
  8
0
100
AcDbCircle
 10
2515.538115
 20
1034.206331
 30
0.0
 40
5.0
100
AcDbArc
 50
277.0
 51
0.0
  0
LINE
  5
1378A
100
AcDbEntity
  8
0
100
AcDbLine
 10
2511.538115
 20
1028.677643
 30
0.0
 11
2516.147462
 21
1029.2436
 31
0.0
  0
LINE
  5
1378B
100
AcDbEntity
  8
0
100
AcDbLine
 10
2511.538115
 20
1028.677643
 30
0.0
 11
2501.755077
 21
1020.032704
 31
0.0
  0
LINE
  5
1378C
100
AcDbEntity
  8
0
100
AcDbLine
 10
2487.036091
 20
1020.032704
 30
0.0
 11
2501.755077
 21
1020.032704
 31
0.0
  0
LINE
  5
1378D
100
AcDbEntity
  8
0
100
AcDbLine
 10
2534.538115
 20
1065.282704
 30
0.0
 11
2520.538115
 21
1065.282704
 31
0.0
  0
ARC
  5
1378E
100
AcDbEntity
  8
0
100
AcDbCircle
 10
2442.961824
 20
1171.639835
 30
0.0
 40
12.0
100
AcDbArc
 50
270.0
 51
351.614461
  0
LINE
  5
1378F
100
AcDbEntity
  8
0
100
AcDbLine
 10
2534.538115
 20
1151.139835
 30
0.0
 11
2520.538115
 21
1151.139835
 31
0.0
  0
CIRCLE
  5
13790
100
AcDbEntity
  8
0
100
AcDbCircle
 10
2402.040782
 20
1213.639835
 30
0.0
 40
14.0
  0
LINE
  5
13791
100
AcDbEntity
  8
0
100
AcDbLine
 10
2457.788362
 20
1201.335835
 30
0.0
 11
2408.719972
 21
1201.335835
 31
0.0
  0
LINE
  5
13792
100
AcDbEntity
  8
0
100
AcDbLine
 10
2457.788143
 20
1225.949168
 30
0.0
 11
2408.710138
 21
1225.949168
 31
0.0
  0
LINE
  5
13793
100
AcDbEntity
  8
0
100
AcDbLine
 10
2361.11974
 20
1267.639835
 30
0.0
 11
2442.961824
 21
1267.639835
 31
0.0
  0
ARC
  5
13794
100
AcDbEntity
  8
0
100
AcDbCircle
 10
2417.035449
 20
1382.350704
 30
0.0
 40
43.0
100
AcDbArc
 50
222.953187
 51
282.380799
  0
LINE
  5
13795
100
AcDbEntity
  8
0
100
AcDbLine
 10
2284.538115
 20
1276.139835
 30
0.0
 11
2284.538115
 21
1213.639835
 31
0.0
  0
LINE
  5
13796
100
AcDbEntity
  8
0
100
AcDbLine
 10
2332.035449
 20
1192.637168
 30
0.0
 11
2346.768298
 21
1192.637168
 31
0.0
  0
LINE
  5
13797
100
AcDbEntity
  8
0
100
AcDbLine
 10
2346.917593
 20
1190.608168
 30
0.0
 11
2336.035449
 21
1190.608168
 31
0.0
  0
ARC
  5
13798
100
AcDbEntity
  8
0
100
AcDbCircle
 10
2343.032395
 20
1213.637168
 30
0.0
 40
6.0
100
AcDbArc
 50
89.149041
 51
270.850959
  0
ARC
  5
13799
100
AcDbEntity
  8
0
100
AcDbCircle
 10
2343.166059
 20
1204.638161
 30
0.0
 40
3.0
100
AcDbArc
 50
1.701917
 51
90.850959
  0
LINE
  5
1379A
100
AcDbEntity
  8
0
100
AcDbLine
 10
2332.035449
 20
1234.637168
 30
0.0
 11
2346.768298
 21
1234.637168
 31
0.0
  0
ARC
  5
1379B
100
AcDbEntity
  8
0
100
AcDbCircle
 10
2343.166059
 20
1222.636176
 30
0.0
 40
3.0
100
AcDbArc
 50
269.149041
 51
358.298083
  0
LINE
  5
1379C
100
AcDbEntity
  8
0
100
AcDbLine
 10
2346.917593
 20
1236.666169
 30
0.0
 11
2336.035449
 21
1236.666169
 31
0.0
  0
LINE
  5
1379D
100
AcDbEntity
  8
0
100
AcDbLine
 10
2307.538115
 20
1239.534774
 30
0.0
 11
2307.538115
 21
1187.744896
 31
0.0
  0
LINE
  5
1379E
100
AcDbEntity
  8
0
100
AcDbLine
 10
2332.035449
 20
1234.637168
 30
0.0
 11
2332.035449
 21
1192.637168
 31
0.0
  0
LINE
  5
1379F
100
AcDbEntity
  8
0
100
AcDbLine
 10
2317.321154
 20
1230.889835
 30
0.0
 11
2317.316665
 21
1196.38729
 31
0.0
  0
LINE
  5
137A0
100
AcDbEntity
  8
0
100
AcDbLine
 10
2307.531378
 20
1187.744897
 30
0.0
 11
2317.316665
 21
1196.38729
 31
0.0
  0
LINE
  5
137A1
100
AcDbEntity
  8
0
100
AcDbLine
 10
2307.538115
 20
1187.744896
 30
0.0
 11
2307.538115
 21
1203.215244
 31
0.0
  0
ARC
  5
137A2
100
AcDbEntity
  8
0
100
AcDbCircle
 10
2303.538115
 20
1182.216209
 30
0.0
 40
5.0
100
AcDbArc
 50
97.0
 51
180.0
  0
LINE
  5
137A3
100
AcDbEntity
  8
0
100
AcDbLine
 10
2307.538115
 20
1187.744896
 30
0.0
 11
2302.928769
 21
1187.178939
 31
0.0
  0
LINE
  5
137A4
100
AcDbEntity
  8
0
100
AcDbLine
 10
2336.035449
 20
1190.608168
 30
0.0
 11
2336.035449
 21
1192.634502
 31
0.0
  0
LINE
  5
137A5
100
AcDbEntity
  8
0
100
AcDbLine
 10
2332.040782
 20
1196.389835
 30
0.0
 11
2317.316665
 21
1196.389835
 31
0.0
  0
LINE
  5
137A6
100
AcDbEntity
  8
0
100
AcDbLine
 10
2332.040782
 20
1196.389835
 30
0.0
 11
2321.321286
 21
1196.389835
 31
0.0
  0
LINE
  5
137A7
100
AcDbEntity
  8
0
100
AcDbLine
 10
2307.538115
 20
1239.534774
 30
0.0
 11
2317.321154
 21
1230.889835
 31
0.0
  0
ARC
  5
137A8
100
AcDbEntity
  8
0
100
AcDbCircle
 10
2303.538115
 20
1245.063461
 30
0.0
 40
5.0
100
AcDbArc
 50
180.0
 51
263.0
  0
LINE
  5
137A9
100
AcDbEntity
  8
0
100
AcDbLine
 10
2307.538115
 20
1239.534774
 30
0.0
 11
2302.928769
 21
1240.10073
 31
0.0
  0
LINE
  5
137AA
100
AcDbEntity
  8
0
100
AcDbLine
 10
2336.035449
 20
1236.666169
 30
0.0
 11
2336.035449
 21
1234.639835
 31
0.0
  0
LINE
  5
137AB
100
AcDbEntity
  8
0
100
AcDbLine
 10
2332.04014
 20
1230.889835
 30
0.0
 11
2317.321154
 21
1230.889835
 31
0.0
  0
CIRCLE
  5
137AC
100
AcDbEntity
  8
0
100
AcDbCircle
 10
2402.040782
 20
1213.639835
 30
0.0
 40
8.331
  0
POLYLINE
  5
137AD
100
AcDbEntity
  8
0
100
AcDb2dPolyline
 66
     1
 10
0.0
 20
0.0
 30
0.0
  0
VERTEX
  5
13A6C
100
AcDbEntity
  8
0
100
AcDbVertex
100
AcDb2dVertex
 10
2393.709782
 20
1213.639835
 30
0.0
  0
VERTEX
  5
13A6D
100
AcDbEntity
  8
0
100
AcDbVertex
100
AcDb2dVertex
 10
2402.040782
 20
1221.970835
 30
0.0
  0
SEQEND
  5
13A6E
100
AcDbEntity
  8
0
  0
POLYLINE
  5
137AE
100
AcDbEntity
  8
0
100
AcDb2dPolyline
 66
     1
 10
0.0
 20
0.0
 30
0.0
  0
VERTEX
  5
13A6F
100
AcDbEntity
  8
0
100
AcDbVertex
100
AcDb2dVertex
 10
2402.040782
 20
1221.969379
 30
0.0
  0
VERTEX
  5
13A70
100
AcDbEntity
  8
0
100
AcDbVertex
100
AcDb2dVertex
 10
2410.370326
 20
1213.639835
 30
0.0
  0
SEQEND
  5
13A71
100
AcDbEntity
  8
0
  0
POLYLINE
  5
137AF
100
AcDbEntity
  8
0
100
AcDb2dPolyline
 66
     1
 10
0.0
 20
0.0
 30
0.0
  0
VERTEX
  5
13A72
100
AcDbEntity
  8
0
100
AcDbVertex
100
AcDb2dVertex
 10
2410.370326
 20
1213.639835
 30
0.0
  0
VERTEX
  5
13A73
100
AcDbEntity
  8
0
100
AcDbVertex
100
AcDb2dVertex
 10
2402.040782
 20
1205.310291
 30
0.0
  0
SEQEND
  5
13A74
100
AcDbEntity
  8
0
  0
POLYLINE
  5
137B0
100
AcDbEntity
  8
0
100
AcDb2dPolyline
 66
     1
 10
0.0
 20
0.0
 30
0.0
  0
VERTEX
  5
13A75
100
AcDbEntity
  8
0
100
AcDbVertex
100
AcDb2dVertex
 10
2402.040782
 20
1205.310291
 30
0.0
  0
VERTEX
  5
13A76
100
AcDbEntity
  8
0
100
AcDbVertex
100
AcDb2dVertex
 10
2393.711238
 20
1213.639835
 30
0.0
  0
SEQEND
  5
13A77
100
AcDbEntity
  8
0
  0
CIRCLE
  5
137B1
100
AcDbEntity
  8
0
100
AcDbCircle
 10
2361.028589
 20
1254.652028
 30
0.0
 40
10.5
  0
POLYLINE
  5
137B2
100
AcDbEntity
  8
0
100
AcDb2dPolyline
 66
     1
 10
0.0
 20
0.0
 30
0.0
 70
     1
  0
VERTEX
  5
13A78
100
AcDbEntity
  8
0
100
AcDbVertex
100
AcDb2dVertex
 10
2367.090766
 20
1265.152028
 30
0.0
  0
VERTEX
  5
13A79
100
AcDbEntity
  8
0
100
AcDbVertex
100
AcDb2dVertex
 10
2373.152944
 20
1254.652028
 30
0.0
  0
VERTEX
  5
13A7A
100
AcDbEntity
  8
0
100
AcDbVertex
100
AcDb2dVertex
 10
2367.090766
 20
1244.152028
 30
0.0
  0
VERTEX
  5
13A7B
100
AcDbEntity
  8
0
100
AcDbVertex
100
AcDb2dVertex
 10
2354.966411
 20
1244.152028
 30
0.0
  0
VERTEX
  5
13A7C
100
AcDbEntity
  8
0
100
AcDbVertex
100
AcDb2dVertex
 10
2348.904233
 20
1254.652028
 30
0.0
  0
VERTEX
  5
13A7D
100
AcDbEntity
  8
0
100
AcDbVertex
100
AcDb2dVertex
 10
2354.966411
 20
1265.152028
 30
0.0
  0
SEQEND
  5
13A7E
100
AcDbEntity
  8
0
  0
ARC
  5
137B3
100
AcDbEntity
  8
0
100
AcDbCircle
 10
2361.11974
 20
1255.639835
 30
0.0
 40
12.0
100
AcDbArc
 50
90.0
 51
171.614461
  0
LINE
  5
137B4
100
AcDbEntity
  8
0
100
AcDbLine
 10
2349.178411
 20
1345.788378
 30
0.0
 11
2339.993185
 21
1380.079508
 31
0.0
  0
LINE
  5
137B5
100
AcDbEntity
  8
0
100
AcDbLine
 10
2321.999858
 20
1342.90583
 30
0.0
 11
2348.079855
 21
1349.893944
 31
0.0
  0
LINE
  5
137B6
100
AcDbEntity
  8
0
100
AcDbLine
 10
2341.99484
 20
1372.606746
 30
0.0
 11
2347.501669
 21
1374.081806
 31
0.0
  0
LINE
  5
137B7
100
AcDbEntity
  8
0
100
AcDbLine
 10
2342.597335
 20
1370.357454
 30
0.0
 11
2348.104164
 21
1371.832514
 31
0.0
  0
LINE
  5
137B8
100
AcDbEntity
  8
0
100
AcDbLine
 10
2284.538115
 20
1276.139835
 30
0.0
 11
2298.538115
 21
1276.139835
 31
0.0
  0
LINE
  5
137B9
100
AcDbEntity
  8
0
100
AcDbLine
 10
2284.538115
 20
1360.850704
 30
0.0
 11
2298.538115
 21
1360.850704
 31
0.0
  0
LINE
  5
137BA
100
AcDbEntity
  8
0
100
AcDbLine
 10
2321.999858
 20
1342.90583
 30
0.0
 11
2315.011744
 21
1368.985827
 31
0.0
  0
LINE
  5
137BB
100
AcDbEntity
  8
0
100
AcDbLine
 10
2315.011744
 20
1368.985827
 30
0.0
 11
2341.091741
 21
1375.973942
 31
0.0
  0
LINE
  5
137BC
100
AcDbEntity
  8
0
100
AcDbLine
 10
2380.609641
 20
1354.473105
 30
0.0
 11
2355.881826
 21
1347.847307
 31
0.0
  0
LINE
  5
137BD
100
AcDbEntity
  8
0
100
AcDbLine
 10
2355.35788
 20
1349.772931
 30
0.0
 11
2354.68524
 21
1347.263438
 31
0.0
  0
ARC
  5
137BE
100
AcDbEntity
  8
0
100
AcDbCircle
 10
2346.933617
 20
1349.19155
 30
0.0
 40
7.987821
100
AcDbArc
 50
346.031911
 51
43.958566
  0
LINE
  5
137BF
100
AcDbEntity
  8
0
100
AcDbLine
 10
2347.176756
 20
1353.26114
 30
0.0
 11
2352.683585
 21
1354.7362
 31
0.0
  0
LINE
  5
137C0
100
AcDbEntity
  8
0
100
AcDbLine
 10
2349.178411
 20
1345.788378
 30
0.0
 11
2354.68524
 21
1347.263438
 31
0.0
  0
LINE
  5
137C1
100
AcDbEntity
  8
0
100
AcDbLine
 10
2347.501669
 20
1374.081806
 30
0.0
 11
2348.104164
 21
1371.832514
 31
0.0
  0
LINE
  5
137C2
100
AcDbEntity
  8
0
100
AcDbLine
 10
2346.574261
 20
1355.510432
 30
0.0
 11
2352.08109
 21
1356.985492
 31
0.0
  0
LINE
  5
137C3
100
AcDbEntity
  8
0
100
AcDbLine
 10
2352.08109
 20
1356.985492
 30
0.0
 11
2352.683585
 21
1354.7362
 31
0.0
  0
ARC
  5
137C4
100
AcDbEntity
  8
0
100
AcDbCircle
 10
2322.022039
 20
1356.890012
 30
0.0
 40
30.059202
100
AcDbArc
 50
0.181995
 51
29.808483
  0
ARC
  5
137C5
100
AcDbEntity
  8
0
100
AcDbCircle
 10
2381.903736
 20
1349.643476
 30
0.0
 40
5.0
100
AcDbArc
 50
42.953187
 51
105.0
  0
LINE
  5
137C6
100
AcDbEntity
  8
0
100
AcDbLine
 10
2534.538115
 20
1276.139835
 30
0.0
 11
2534.538115
 21
1213.639835
 31
0.0
  0
LINE
  5
137C7
100
AcDbEntity
  8
0
100
AcDbLine
 10
2457.296306
 20
1192.634502
 30
0.0
 11
2487.035449
 21
1192.634502
 31
0.0
  0
LINE
  5
137C8
100
AcDbEntity
  8
0
100
AcDbLine
 10
2457.29668
 20
1234.634502
 30
0.0
 11
2487.035449
 21
1234.634502
 31
0.0
  0
LINE
  5
137C9
100
AcDbEntity
  8
0
100
AcDbLine
 10
2483.035449
 20
1190.608168
 30
0.0
 11
2483.035449
 21
1192.634502
 31
0.0
  0
LINE
  5
137CA
100
AcDbEntity
  8
0
100
AcDbLine
 10
2468.035449
 20
1190.608168
 30
0.0
 11
2468.035449
 21
1192.634502
 31
0.0
  0
LINE
  5
137CB
100
AcDbEntity
  8
0
100
AcDbLine
 10
2468.035449
 20
1190.608168
 30
0.0
 11
2483.035449
 21
1190.608168
 31
0.0
  0
POLYLINE
  5
137CC
100
AcDbEntity
  8
0
100
AcDb2dPolyline
 66
     1
 10
0.0
 20
0.0
 30
0.0
 70
     1
  0
VERTEX
  5
13A7F
100
AcDbEntity
  8
0
100
AcDbVertex
100
AcDb2dVertex
 10
2436.990797
 20
1265.152028
 30
0.0
  0
VERTEX
  5
13A80
100
AcDbEntity
  8
0
100
AcDbVertex
100
AcDb2dVertex
 10
2430.92862
 20
1254.652028
 30
0.0
  0
VERTEX
  5
13A81
100
AcDbEntity
  8
0
100
AcDbVertex
100
AcDb2dVertex
 10
2436.990797
 20
1244.152028
 30
0.0
  0
VERTEX
  5
13A82
100
AcDbEntity
  8
0
100
AcDbVertex
100
AcDb2dVertex
 10
2449.115153
 20
1244.152028
 30
0.0
  0
VERTEX
  5
13A83
100
AcDbEntity
  8
0
100
AcDbVertex
100
AcDb2dVertex
 10
2455.177331
 20
1254.652028
 30
0.0
  0
VERTEX
  5
13A84
100
AcDbEntity
  8
0
100
AcDbVertex
100
AcDb2dVertex
 10
2449.115153
 20
1265.152028
 30
0.0
  0
SEQEND
  5
13A85
100
AcDbEntity
  8
0
  0
CIRCLE
  5
137CD
100
AcDbEntity
  8
0
100
AcDbCircle
 10
2443.052975
 20
1254.652028
 30
0.0
 40
10.5
  0
ARC
  5
137CE
100
AcDbEntity
  8
0
100
AcDbCircle
 10
2442.961824
 20
1255.639835
 30
0.0
 40
12.0
100
AcDbArc
 50
8.385539
 51
90.0
  0
LINE
  5
137CF
100
AcDbEntity
  8
0
100
AcDbLine
 10
2483.035449
 20
1236.666169
 30
0.0
 11
2483.035449
 21
1234.639835
 31
0.0
  0
LINE
  5
137D0
100
AcDbEntity
  8
0
100
AcDbLine
 10
2468.035449
 20
1236.666169
 30
0.0
 11
2468.035449
 21
1234.639835
 31
0.0
  0
LINE
  5
137D1
100
AcDbEntity
  8
0
100
AcDbLine
 10
2468.035449
 20
1236.666169
 30
0.0
 11
2483.035449
 21
1236.666169
 31
0.0
  0
LINE
  5
137D2
100
AcDbEntity
  8
0
100
AcDbLine
 10
2511.538115
 20
1239.534774
 30
0.0
 11
2511.538115
 21
1187.744896
 31
0.0
  0
LINE
  5
137D3
100
AcDbEntity
  8
0
100
AcDbLine
 10
2501.755077
 20
1230.889835
 30
0.0
 11
2501.759566
 21
1196.38729
 31
0.0
  0
LINE
  5
137D4
100
AcDbEntity
  8
0
100
AcDbLine
 10
2487.035449
 20
1213.637168
 30
0.0
 11
2487.035449
 21
1234.634502
 31
0.0
  0
ARC
  5
137D5
100
AcDbEntity
  8
0
100
AcDbCircle
 10
2515.538115
 20
1182.216209
 30
0.0
 40
5.0
100
AcDbArc
 50
0.0
 51
83.0
  0
LINE
  5
137D6
100
AcDbEntity
  8
0
100
AcDbLine
 10
2511.544853
 20
1187.744897
 30
0.0
 11
2501.759566
 21
1196.38729
 31
0.0
  0
LINE
  5
137D7
100
AcDbEntity
  8
0
100
AcDbLine
 10
2511.538115
 20
1187.744896
 30
0.0
 11
2511.538115
 21
1203.215244
 31
0.0
  0
LINE
  5
137D8
100
AcDbEntity
  8
0
100
AcDbLine
 10
2487.035449
 20
1192.634502
 30
0.0
 11
2487.035449
 21
1213.637168
 31
0.0
  0
LINE
  5
137D9
100
AcDbEntity
  8
0
100
AcDbLine
 10
2511.538115
 20
1187.744896
 30
0.0
 11
2516.147462
 21
1187.178939
 31
0.0
  0
LINE
  5
137DA
100
AcDbEntity
  8
0
100
AcDbLine
 10
2487.035449
 20
1196.389835
 30
0.0
 11
2501.759565
 21
1196.389835
 31
0.0
  0
ARC
  5
137DB
100
AcDbEntity
  8
0
100
AcDbCircle
 10
2515.538115
 20
1245.063461
 30
0.0
 40
5.0
100
AcDbArc
 50
277.0
 51
0.0
  0
LINE
  5
137DC
100
AcDbEntity
  8
0
100
AcDbLine
 10
2511.538115
 20
1239.534774
 30
0.0
 11
2501.755077
 21
1230.889835
 31
0.0
  0
LINE
  5
137DD
100
AcDbEntity
  8
0
100
AcDbLine
 10
2487.036091
 20
1230.889835
 30
0.0
 11
2501.755077
 21
1230.889835
 31
0.0
  0
LINE
  5
137DE
100
AcDbEntity
  8
0
100
AcDbLine
 10
2511.538115
 20
1239.534774
 30
0.0
 11
2516.147462
 21
1240.10073
 31
0.0
  0
ARC
  5
137DF
100
AcDbEntity
  8
0
100
AcDbCircle
 10
2417.035449
 20
1382.350704
 30
0.0
 40
43.0
100
AcDbArc
 50
290.807612
 51
334.08702
  0
LINE
  5
137E0
100
AcDbEntity
  8
0
100
AcDbLine
 10
2459.035449
 20
1340.350704
 30
0.0
 11
2426.254993
 21
1340.350704
 31
0.0
  0
LINE
  5
137E6
100
AcDbEntity
  8
0
100
AcDbLine
 10
2459.035449
 20
1364.350704
 30
0.0
 11
2459.035449
 21
1340.350704
 31
0.0
  0
ARC
  5
137F2
100
AcDbEntity
  8
0
100
AcDbCircle
 10
2460.382591
 20
1367.031227
 30
0.0
 40
3.0
100
AcDbArc
 50
153.317411
 51
243.317411
  0
LINE
  5
137F7
100
AcDbEntity
  8
0
100
AcDbLine
 10
2534.538115
 20
1276.139835
 30
0.0
 11
2520.538115
 21
1276.139835
 31
0.0
  0
LINE
  5
137F8
100
AcDbEntity
  8
0
100
AcDbLine
 10
2534.538115
 20
1360.850704
 30
0.0
 11
2520.538115
 21
1360.850704
 31
0.0
  0
CIRCLE
  5
137F9
100
AcDbEntity
  8
0
100
AcDbCircle
 10
2694.932543
 20
1034.602509
 30
0.0
 40
9.5
  0
LINE
  5
137FA
100
AcDbEntity
  8
0
100
AcDbLine
 10
2654.781737
 20
1071.782704
 30
0.0
 11
2654.781737
 21
1064.724971
 31
0.0
  0
LINE
  5
137FB
100
AcDbEntity
  8
0
100
AcDbLine
 10
2663.112737
 20
1071.782704
 30
0.0
 11
2663.112737
 21
1065.282704
 31
0.0
  0
LINE
  5
137FC
100
AcDbEntity
  8
0
100
AcDbLine
 10
2671.443737
 20
1071.782704
 30
0.0
 11
2671.443737
 21
1064.724971
 31
0.0
  0
CIRCLE
  5
137FD
100
AcDbEntity
  8
0
100
AcDbCircle
 10
2631.292932
 20
1034.602509
 30
0.0
 40
9.5
  0
LINE
  5
137FE
100
AcDbEntity
  8
0
100
AcDbLine
 10
2609.112523
 20
1041.572705
 30
0.0
 11
2609.112523
 21
1034.250574
 31
0.0
  0
LINE
  5
137FF
100
AcDbEntity
  8
0
100
AcDbLine
 10
2614.106711
 20
1041.572644
 30
0.0
 11
2609.112523
 21
1041.572705
 31
0.0
  0
LINE
  5
13800
100
AcDbEntity
  8
0
100
AcDbLine
 10
2622.82887
 20
1050.568267
 30
0.0
 11
2612.125209
 21
1050.567429
 31
0.0
  0
LINE
  5
13801
100
AcDbEntity
  8
0
100
AcDbLine
 10
2612.125209
 20
1050.567429
 30
0.0
 11
2612.125914
 21
1041.568046
 31
0.0
  0
ARC
  5
13802
100
AcDbEntity
  8
0
100
AcDbCircle
 10
2617.376327
 20
1036.287207
 30
0.0
 40
14.28125
100
AcDbArc
 50
71.311224
 51
111.573082
  0
LINE
  5
13803
100
AcDbEntity
  8
0
100
AcDbLine
 10
2671.443737
 20
1071.782704
 30
0.0
 11
2654.781737
 21
1071.782704
 31
0.0
  0
LINE
  5
13804
100
AcDbEntity
  8
0
100
AcDbLine
 10
2717.112523
 20
1041.572705
 30
0.0
 11
2717.112523
 21
1034.25131
 31
0.0
  0
LINE
  5
13805
100
AcDbEntity
  8
0
100
AcDbLine
 10
2717.112523
 20
1041.571371
 30
0.0
 11
2712.119722
 21
1041.571433
 31
0.0
  0
LINE
  5
13806
100
AcDbEntity
  8
0
100
AcDbLine
 10
2714.099239
 20
1050.570814
 30
0.0
 11
2714.099132
 21
1041.571431
 31
0.0
  0
ARC
  5
13807
100
AcDbEntity
  8
0
100
AcDbCircle
 10
2708.849069
 20
1036.290243
 30
0.0
 40
14.28125
100
AcDbArc
 50
68.430722
 51
108.699134
  0
LINE
  5
13808
100
AcDbEntity
  8
0
100
AcDbLine
 10
2703.393433
 20
1050.570941
 30
0.0
 11
2714.099239
 21
1050.570814
 31
0.0
  0
INSERT
  5
13809
100
AcDbEntity
  8
0
100
AcDbBlockReference
  2
YA
 10
2549.443915
 20
1423.350704
 30
0.0
 41
-3.6
 42
3.6
 43
3.6
  0
LINE
  5
1380A
100
AcDbEntity
  8
0
100
AcDbLine
 10
2473.035449
 20
1432.350704
 30
0.0
 11
2361.035449
 21
1432.350704
 31
0.0
  0
LINE
  5
1380B
100
AcDbEntity
  8
0
100
AcDbLine
 10
2487.035449
 20
1402.350704
 30
0.0
 11
2377.043143
 21
1402.350704
 31
0.0
  0
LINE
  5
1380C
100
AcDbEntity
  8
0
100
AcDbLine
 10
2473.035449
 20
1462.140037
 30
0.0
 11
2361.035449
 21
1462.140037
 31
0.0
  0
LINE
  5
1380D
100
AcDbEntity
  8
0
100
AcDbLine
 10
2473.035449
 20
1448.140037
 30
0.0
 11
2361.035449
 21
1448.140037
 31
0.0
  0
LINE
  5
1380E
100
AcDbEntity
  8
0
100
AcDbLine
 10
2482.035449
 20
1446.350704
 30
0.0
 11
2361.035449
 21
1446.350704
 31
0.0
  0
LINE
  5
1380F
100
AcDbEntity
  8
0
100
AcDbLine
 10
2408.704449
 20
1483.350704
 30
0.0
 11
2425.366449
 21
1483.350704
 31
0.0
  0
LINE
  5
13810
100
AcDbEntity
  8
0
100
AcDbLine
 10
2431.035449
 20
1482.140037
 30
0.0
 11
2403.035449
 21
1482.140037
 31
0.0
  0
LINE
  5
13811
100
AcDbEntity
  8
0
100
AcDbLine
 10
2408.704449
 20
1492.350704
 30
0.0
 11
2425.366449
 21
1492.350704
 31
0.0
  0
LINE
  5
13812
100
AcDbEntity
  8
0
100
AcDbLine
 10
2284.538115
 20
1485.850704
 30
0.0
 11
2284.538115
 21
1423.350704
 31
0.0
  0
LINE
  5
13813
100
AcDbEntity
  8
0
100
AcDbLine
 10
2408.704449
 20
1492.350704
 30
0.0
 11
2408.704449
 21
1483.350704
 31
0.0
  0
LINE
  5
13814
100
AcDbEntity
  8
0
100
AcDbLine
 10
2361.035449
 20
1444.350704
 30
0.0
 11
2332.035449
 21
1444.350704
 31
0.0
  0
LINE
  5
13815
100
AcDbEntity
  8
0
100
AcDbLine
 10
2345.670676
 20
1402.350704
 30
0.0
 11
2332.035449
 21
1402.350704
 31
0.0
  0
LINE
  5
13816
100
AcDbEntity
  8
0
100
AcDbLine
 10
2336.035449
 20
1432.350704
 30
0.0
 11
2351.035449
 21
1432.350704
 31
0.0
  0
LINE
  5
13817
100
AcDbEntity
  8
0
100
AcDbLine
 10
2336.035449
 20
1414.350704
 30
0.0
 11
2351.035449
 21
1414.350704
 31
0.0
  0
LINE
  5
13818
100
AcDbEntity
  8
0
100
AcDbLine
 10
2317.321154
 20
1440.600704
 30
0.0
 11
2317.316665
 21
1406.098159
 31
0.0
  0
LINE
  5
13819
100
AcDbEntity
  8
0
100
AcDbLine
 10
2307.538115
 20
1449.245643
 30
0.0
 11
2307.538115
 21
1397.455765
 31
0.0
  0
LINE
  5
1381A
100
AcDbEntity
  8
0
100
AcDbLine
 10
2332.035449
 20
1444.350704
 30
0.0
 11
2332.035449
 21
1402.350704
 31
0.0
  0
LINE
  5
1381B
100
AcDbEntity
  8
0
100
AcDbLine
 10
2307.531378
 20
1397.455766
 30
0.0
 11
2317.316665
 21
1406.098159
 31
0.0
  0
ARC
  5
1381C
100
AcDbEntity
  8
0
100
AcDbCircle
 10
2303.538115
 20
1391.927077
 30
0.0
 40
5.0
100
AcDbArc
 50
97.0
 51
180.0
  0
LINE
  5
1381D
100
AcDbEntity
  8
0
100
AcDbLine
 10
2307.538115
 20
1397.455765
 30
0.0
 11
2307.538115
 21
1412.926112
 31
0.0
  0
LINE
  5
1381E
100
AcDbEntity
  8
0
100
AcDbLine
 10
2307.538115
 20
1397.455765
 30
0.0
 11
2302.928769
 21
1396.889808
 31
0.0
  0
LINE
  5
1381F
100
AcDbEntity
  8
0
100
AcDbLine
 10
2332.040782
 20
1406.100704
 30
0.0
 11
2317.316665
 21
1406.100704
 31
0.0
  0
LINE
  5
13820
100
AcDbEntity
  8
0
100
AcDbLine
 10
2336.035449
 20
1432.350704
 30
0.0
 11
2336.035449
 21
1414.350704
 31
0.0
  0
LINE
  5
13821
100
AcDbEntity
  8
0
100
AcDbLine
 10
2307.538115
 20
1449.245643
 30
0.0
 11
2317.321154
 21
1440.600704
 31
0.0
  0
ARC
  5
13822
100
AcDbEntity
  8
0
100
AcDbCircle
 10
2303.538115
 20
1454.77433
 30
0.0
 40
5.0
100
AcDbArc
 50
180.0
 51
263.0
  0
LINE
  5
13823
100
AcDbEntity
  8
0
100
AcDbLine
 10
2307.538115
 20
1449.245643
 30
0.0
 11
2302.928769
 21
1449.811599
 31
0.0
  0
LINE
  5
13824
100
AcDbEntity
  8
0
100
AcDbLine
 10
2332.04014
 20
1440.600704
 30
0.0
 11
2317.321154
 21
1440.600704
 31
0.0
  0
LINE
  5
13825
100
AcDbEntity
  8
0
100
AcDbLine
 10
2361.035449
 20
1446.350704
 30
0.0
 11
2361.035449
 21
1432.350704
 31
0.0
  0
LINE
  5
13826
100
AcDbEntity
  8
0
100
AcDbLine
 10
2351.723578
 20
1385.534281
 30
0.0
 11
2350.651649
 21
1397.786482
 31
0.0
  0
LINE
  5
13827
100
AcDbEntity
  8
0
100
AcDbLine
 10
2374.035449
 20
1400.280867
 30
0.0
 11
2374.035449
 21
1382.350704
 31
0.0
  0
LINE
  5
13828
100
AcDbEntity
  8
0
100
AcDbLine
 10
2349.511451
 20
1382.375036
 30
0.0
 11
2346.823159
 21
1381.654711
 31
0.0
  0
LINE
  5
13829
100
AcDbEntity
  8
0
100
AcDbLine
 10
2347.785187
 20
1381.912485
 30
0.0
 11
2348.552454
 21
1382.118074
 31
0.0
  0
ARC
  5
1382A
100
AcDbEntity
  8
0
100
AcDbCircle
 10
2348.734994
 20
1385.272814
 30
0.0
 40
3.0
100
AcDbArc
 50
285.0
 51
5.0
  0
ARC
  5
1382B
100
AcDbEntity
  8
0
100
AcDbCircle
 10
2345.670676
 20
1397.350704
 30
0.0
 40
5.0
100
AcDbArc
 50
5.0
 51
90.0
  0
LINE
  5
1382C
100
AcDbEntity
  8
0
100
AcDbLine
 10
2351.035449
 20
1432.350704
 30
0.0
 11
2351.035449
 21
1414.350704
 31
0.0
  0
ARC
  5
1382D
100
AcDbEntity
  8
0
100
AcDbCircle
 10
2314.285572
 20
1419.286369
 30
0.0
 40
57.671059
100
AcDbArc
 50
348.491501
 51
5.94432
  0
ARC
  5
1382E
100
AcDbEntity
  8
0
100
AcDbCircle
 10
2371.035449
 20
1400.280867
 30
0.0
 40
3.0
100
AcDbArc
 50
0.0
 51
54.362954
  0
ARC
  5
1382F
100
AcDbEntity
  8
0
100
AcDbCircle
 10
2375.696637
 20
1406.78266
 30
0.0
 40
5.0
100
AcDbArc
 50
168.491501
 51
234.362954
  0
LINE
  5
13830
100
AcDbEntity
  8
0
100
AcDbLine
 10
2365.63095
 20
1471.140037
 30
0.0
 11
2386.41556
 21
1471.140037
 31
0.0
  0
ARC
  5
13831
100
AcDbEntity
  8
0
100
AcDbCircle
 10
2376.023255
 20
1452.253381
 30
0.0
 40
18.886039
100
AcDbArc
 50
71.277359
 51
108.722641
  0
LINE
  5
13832
100
AcDbEntity
  8
0
100
AcDbLine
 10
2403.035449
 20
1478.140037
 30
0.0
 11
2361.035449
 21
1478.140037
 31
0.0
  0
LINE
  5
13833
100
AcDbEntity
  8
0
100
AcDbLine
 10
2361.035449
 20
1478.140037
 30
0.0
 11
2361.035449
 21
1448.140037
 31
0.0
  0
LINE
  5
13834
100
AcDbEntity
  8
0
100
AcDbLine
 10
2378.535449
 20
1448.140037
 30
0.0
 11
2378.535449
 21
1446.350704
 31
0.0
  0
ARC
  5
13835
100
AcDbEntity
  8
0
100
AcDbCircle
 10
2366.929989
 20
1466.043142
 30
0.0
 40
5.096278
100
AcDbArc
 50
53.504105
 51
126.495895
  0
LINE
  5
13836
100
AcDbEntity
  8
0
100
AcDbLine
 10
2376.549552
 20
1471.13942
 30
0.0
 11
2366.357989
 21
1471.13942
 31
0.0
  0
LINE
  5
13837
100
AcDbEntity
  8
0
100
AcDbLine
 10
2369.961077
 20
1462.140037
 30
0.0
 11
2369.961077
 21
1470.140037
 31
0.0
  0
LINE
  5
13838
100
AcDbEntity
  8
0
100
AcDbLine
 10
2363.8989
 20
1470.140037
 30
0.0
 11
2363.8989
 21
1462.140037
 31
0.0
  0
LINE
  5
13839
100
AcDbEntity
  8
0
100
AcDbLine
 10
2363.8989
 20
1470.140037
 30
0.0
 11
2365.63095
 21
1471.140037
 31
0.0
  0
LINE
  5
1383A
100
AcDbEntity
  8
0
100
AcDbLine
 10
2403.035449
 20
1482.140037
 30
0.0
 11
2403.035449
 21
1462.140037
 31
0.0
  0
LINE
  5
1383B
100
AcDbEntity
  8
0
100
AcDbLine
 10
2382.085433
 20
1462.140037
 30
0.0
 11
2382.085433
 21
1470.140037
 31
0.0
  0
LINE
  5
1383C
100
AcDbEntity
  8
0
100
AcDbLine
 10
2388.147611
 20
1470.140037
 30
0.0
 11
2388.147611
 21
1462.140037
 31
0.0
  0
ARC
  5
1383D
100
AcDbEntity
  8
0
100
AcDbCircle
 10
2385.116522
 20
1466.043142
 30
0.0
 40
5.096278
100
AcDbArc
 50
53.504105
 51
126.495895
  0
LINE
  5
1383E
100
AcDbEntity
  8
0
100
AcDbLine
 10
2388.147611
 20
1470.140037
 30
0.0
 11
2386.41556
 21
1471.140037
 31
0.0
  0
LINE
  5
1383F
100
AcDbEntity
  8
0
100
AcDbLine
 10
2408.704449
 20
1483.350704
 30
0.0
 11
2408.742264
 21
1482.140037
 31
0.0
  0
LINE
  5
13840
100
AcDbEntity
  8
0
100
AcDbLine
 10
2409.560449
 20
1483.350704
 30
0.0
 11
2409.598264
 21
1482.140037
 31
0.0
  0
LINE
  5
13841
100
AcDbEntity
  8
0
100
AcDbLine
 10
2284.538115
 20
1485.850704
 30
0.0
 11
2298.538115
 21
1485.850704
 31
0.0
  0
LINE
  5
13842
100
AcDbEntity
  8
0
100
AcDbLine
 10
2534.538115
 20
1485.850704
 30
0.0
 11
2534.538115
 21
1423.350704
 31
0.0
  0
LINE
  5
13843
100
AcDbEntity
  8
0
100
AcDbLine
 10
2425.366449
 20
1492.350704
 30
0.0
 11
2425.366449
 21
1483.350704
 31
0.0
  0
LINE
  5
13844
100
AcDbEntity
  8
0
100
AcDbLine
 10
2417.035449
 20
1492.350704
 30
0.0
 11
2417.035449
 21
1483.350704
 31
0.0
  0
LINE
  5
13845
100
AcDbEntity
  8
0
100
AcDbLine
 10
2487.035449
 20
1444.350704
 30
0.0
 11
2473.035449
 21
1444.350704
 31
0.0
  0
LINE
  5
13846
100
AcDbEntity
  8
0
100
AcDbLine
 10
2473.035449
 20
1446.350704
 30
0.0
 11
2473.035449
 21
1432.350704
 31
0.0
  0
LINE
  5
13847
100
AcDbEntity
  8
0
100
AcDbLine
 10
2460.035449
 20
1397.350704
 30
0.0
 11
2460.035449
 21
1382.350704
 31
0.0
  0
ARC
  5
13848
100
AcDbEntity
  8
0
100
AcDbCircle
 10
2465.035449
 20
1397.350704
 30
0.0
 40
5.0
100
AcDbArc
 50
90.0
 51
180.0
  0
LINE
  5
13849
100
AcDbEntity
  8
0
100
AcDbLine
 10
2468.035449
 20
1432.350704
 30
0.0
 11
2483.035449
 21
1432.350704
 31
0.0
  0
LINE
  5
1384A
100
AcDbEntity
  8
0
100
AcDbLine
 10
2468.035449
 20
1414.350704
 30
0.0
 11
2483.035449
 21
1414.350704
 31
0.0
  0
LINE
  5
1384B
100
AcDbEntity
  8
0
100
AcDbLine
 10
2468.035449
 20
1432.350704
 30
0.0
 11
2468.035449
 21
1414.350704
 31
0.0
  0
LINE
  5
1384C
100
AcDbEntity
  8
0
100
AcDbLine
 10
2483.035449
 20
1432.350704
 30
0.0
 11
2483.035449
 21
1414.350704
 31
0.0
  0
LINE
  5
1384D
100
AcDbEntity
  8
0
100
AcDbLine
 10
2468.439947
 20
1471.140037
 30
0.0
 11
2447.655337
 21
1471.140037
 31
0.0
  0
ARC
  5
1384E
100
AcDbEntity
  8
0
100
AcDbCircle
 10
2448.954375
 20
1466.043142
 30
0.0
 40
5.096278
100
AcDbArc
 50
53.504105
 51
126.495895
  0
LINE
  5
1384F
100
AcDbEntity
  8
0
100
AcDbLine
 10
2431.035449
 20
1482.140037
 30
0.0
 11
2431.035449
 21
1462.140037
 31
0.0
  0
LINE
  5
13850
100
AcDbEntity
  8
0
100
AcDbLine
 10
2445.923286
 20
1470.140037
 30
0.0
 11
2447.655337
 21
1471.140037
 31
0.0
  0
LINE
  5
13851
100
AcDbEntity
  8
0
100
AcDbLine
 10
2445.923286
 20
1470.140037
 30
0.0
 11
2445.923286
 21
1462.140037
 31
0.0
  0
LINE
  5
13852
100
AcDbEntity
  8
0
100
AcDbLine
 10
2424.510449
 20
1483.350704
 30
0.0
 11
2424.472633
 21
1482.140037
 31
0.0
  0
LINE
  5
13853
100
AcDbEntity
  8
0
100
AcDbLine
 10
2425.366449
 20
1483.350704
 30
0.0
 11
2425.328633
 21
1482.140037
 31
0.0
  0
LINE
  5
13854
100
AcDbEntity
  8
0
100
AcDbLine
 10
2457.521346
 20
1471.13942
 30
0.0
 11
2467.712908
 21
1471.13942
 31
0.0
  0
ARC
  5
13855
100
AcDbEntity
  8
0
100
AcDbCircle
 10
2467.140909
 20
1466.043142
 30
0.0
 40
5.096278
100
AcDbArc
 50
53.504105
 51
126.495895
  0
LINE
  5
13856
100
AcDbEntity
  8
0
100
AcDbLine
 10
2455.535449
 20
1448.140037
 30
0.0
 11
2455.535449
 21
1446.350704
 31
0.0
  0
LINE
  5
13857
100
AcDbEntity
  8
0
100
AcDbLine
 10
2451.985464
 20
1462.140037
 30
0.0
 11
2451.985464
 21
1470.140037
 31
0.0
  0
LINE
  5
13858
100
AcDbEntity
  8
0
100
AcDbLine
 10
2464.10982
 20
1462.140037
 30
0.0
 11
2464.10982
 21
1470.140037
 31
0.0
  0
ARC
  5
13859
100
AcDbEntity
  8
0
100
AcDbCircle
 10
2458.047642
 20
1452.253381
 30
0.0
 40
18.886039
100
AcDbArc
 50
71.277359
 51
108.722641
  0
LINE
  5
1385A
100
AcDbEntity
  8
0
100
AcDbLine
 10
2473.035449
 20
1462.140037
 30
0.0
 11
2473.035449
 21
1448.140037
 31
0.0
  0
LINE
  5
1385B
100
AcDbEntity
  8
0
100
AcDbLine
 10
2482.035449
 20
1446.350704
 30
0.0
 11
2482.035449
 21
1444.350704
 31
0.0
  0
LINE
  5
1385C
100
AcDbEntity
  8
0
100
AcDbLine
 10
2470.171998
 20
1470.140037
 30
0.0
 11
2468.439947
 21
1471.140037
 31
0.0
  0
LINE
  5
1385D
100
AcDbEntity
  8
0
100
AcDbLine
 10
2470.171998
 20
1470.140037
 30
0.0
 11
2470.171998
 21
1462.140037
 31
0.0
  0
LINE
  5
1385E
100
AcDbEntity
  8
0
100
AcDbLine
 10
2501.755077
 20
1440.600704
 30
0.0
 11
2501.759566
 21
1406.098159
 31
0.0
  0
LINE
  5
1385F
100
AcDbEntity
  8
0
100
AcDbLine
 10
2511.538115
 20
1449.245643
 30
0.0
 11
2511.538115
 21
1397.455765
 31
0.0
  0
LINE
  5
13860
100
AcDbEntity
  8
0
100
AcDbLine
 10
2487.035449
 20
1444.350704
 30
0.0
 11
2487.035449
 21
1402.350704
 31
0.0
  0
ARC
  5
13861
100
AcDbEntity
  8
0
100
AcDbCircle
 10
2515.538115
 20
1391.927077
 30
0.0
 40
5.0
100
AcDbArc
 50
0.0
 51
83.0
  0
LINE
  5
13862
100
AcDbEntity
  8
0
100
AcDbLine
 10
2511.538115
 20
1397.455765
 30
0.0
 11
2511.538115
 21
1412.926112
 31
0.0
  0
LINE
  5
13863
100
AcDbEntity
  8
0
100
AcDbLine
 10
2487.035449
 20
1406.100704
 30
0.0
 11
2501.759565
 21
1406.100704
 31
0.0
  0
LINE
  5
13864
100
AcDbEntity
  8
0
100
AcDbLine
 10
2487.035449
 20
1406.100704
 30
0.0
 11
2497.754944
 21
1406.100704
 31
0.0
  0
LINE
  5
13865
100
AcDbEntity
  8
0
100
AcDbLine
 10
2511.538115
 20
1397.455765
 30
0.0
 11
2516.147462
 21
1396.889808
 31
0.0
  0
LINE
  5
13866
100
AcDbEntity
  8
0
100
AcDbLine
 10
2511.544853
 20
1397.455766
 30
0.0
 11
2501.759566
 21
1406.098159
 31
0.0
  0
ARC
  5
13867
100
AcDbEntity
  8
0
100
AcDbCircle
 10
2515.538115
 20
1454.77433
 30
0.0
 40
5.0
100
AcDbArc
 50
277.0
 51
0.0
  0
LINE
  5
13868
100
AcDbEntity
  8
0
100
AcDbLine
 10
2487.036091
 20
1440.600704
 30
0.0
 11
2501.755077
 21
1440.600704
 31
0.0
  0
LINE
  5
13869
100
AcDbEntity
  8
0
100
AcDbLine
 10
2511.538115
 20
1449.245643
 30
0.0
 11
2516.147462
 21
1449.811599
 31
0.0
  0
LINE
  5
1386A
100
AcDbEntity
  8
0
100
AcDbLine
 10
2511.538115
 20
1449.245643
 30
0.0
 11
2501.755077
 21
1440.600704
 31
0.0
  0
LINE
  5
1386B
100
AcDbEntity
  8
0
100
AcDbLine
 10
2487.036091
 20
1440.600704
 30
0.0
 11
2497.750456
 21
1440.600704
 31
0.0
  0
LINE
  5
1386C
100
AcDbEntity
  8
0
100
AcDbLine
 10
2534.538115
 20
1485.850704
 30
0.0
 11
2520.538115
 21
1485.850704
 31
0.0
  0
CIRCLE
  5
1387F
100
AcDbEntity
  8
0
100
AcDbCircle
 10
450.731263
 20
931.785054
 30
0.0
 40
12.0
  0
CIRCLE
  5
13880
100
AcDbEntity
  8
0
100
AcDbCircle
 10
1304.477494
 20
931.782704
 30
0.0
 40
12.0
  0
ARC
  5
13881
100
AcDbEntity
  8
0
100
AcDbCircle
 10
2095.963648
 20
931.782704
 30
0.0
 40
12.0
100
AcDbArc
 50
131.371606
 51
48.628644
  0
VIEWPORT
  5
41
100
AcDbEntity
 67
     1
  8
0
100
AcDbViewport
 10
117.358407
 20
73.5
 30
0.0
 40
234.716814
 41
147.0
 68
    -1
 69
     1
1001
ACAD
1000
MVIEW
1002
{
1070
    16
1010
0.0
1020
0.0
1030
0.0
1010
0.0
1020
0.0
1030
1.0
1040
0.0
1040
147.0
1040
117.358407
1040
73.5
1040
50.0
1040
0.0
1040
0.0
1070
     0
1070
   100
1070
     1
1070
     1
1070
     0
1070
     0
1070
     0
1070
     0
1040
0.0
1040
0.0
1040
0.0
1040
1.0
1040
1.0
1040
0.0
1040
0.0
1070
     0
1002
{
1002
}
1002
}
  0
ENDSEC
  0
SECTION
  2
OBJECTS
  0
DICTIONARY
  5
C
100
AcDbDictionary
  3
ACAD_GROUP
350
D
  3
ACAD_MLINESTYLE
350
E
  0
DICTIONARY
  5
D
102
{ACAD_REACTORS
330
C
102
}
100
AcDbDictionary
  0
DICTIONARY
  5
E
102
{ACAD_REACTORS
330
C
102
}
100
AcDbDictionary
  3
STANDARD
350
1B
  0
MLINESTYLE
  5
1B
102
{ACAD_REACTORS
330
E
102
}
100
AcDbMlineStyle
  2
STANDARD
 70
     0
  3

 62
     0
 51
90.0
 52
90.0
 71
     2
 49
0.5
 62
   256
  6
BYLAYER
 49
-0.5
 62
   256
  6
BYLAYER
  0
ENDSEC
  0
EOF
