  0
SECTION
  2
HEADER
  9
$ACADVER
  1
AC1012
  9
$DWGCODEPAGE
  3
dos932
  9
$INSBASE
 10
0.0
 20
0.0
 30
0.0
  9
$EXTMIN
 10
88.0
 20
40.0
 30
0.0
  9
$EXTMAX
 10
2288.0
 20
1528.0
 30
0.0
  9
$LIMMIN
 10
0.0
 20
0.0
  9
$LIMMAX
 10
2376.0
 20
1680.0
  9
$ORTHOMODE
 70
     1
  9
$REGENMODE
 70
     1
  9
$FILLMODE
 70
     1
  9
$QTEXTMODE
 70
     0
  9
$MIRRTEXT
 70
     1
  9
$DRAGMODE
 70
     2
  9
$LTSCALE
 40
32.0
  9
$OSMODE
 70
   163
  9
$ATTMODE
 70
     1
  9
$TEXTSIZE
 40
32.0
  9
$TRACEWID
 40
0.05
  9
$TEXTSTYLE
  7
STANDARD
  9
$CLAYER
  8
0
  9
$CELTYPE
  6
BYLAYER
  9
$CECOLOR
 62
   256
  9
$CELTSCALE
 40
1.0
  9
$DELOBJ
 70
     1
  9
$DISPSILH
 70
     0
  9
$DIMSCALE
 40
8.0
  9
$DIMASZ
 40
2.8
  9
$DIMEXO
 40
1.0
  9
$DIMDLI
 40
5.0
  9
$DIMRND
 40
0.1
  9
$DIMDLE
 40
0.0
  9
$DIMEXE
 40
1.0
  9
$DIMTP
 40
0.0
  9
$DIMTM
 40
0.0
  9
$DIMTXT
 40
2.5
  9
$DIMCEN
 40
0.0
  9
$DIMTSZ
 40
0.0
  9
$DIMTOL
 70
     0
  9
$DIMLIM
 70
     0
  9
$DIMTIH
 70
     0
  9
$DIMTOH
 70
     0
  9
$DIMSE1
 70
     0
  9
$DIMSE2
 70
     0
  9
$DIMTAD
 70
     3
  9
$DIMZIN
 70
     8
  9
$DIMBLK
  1

  9
$DIMASO
 70
     1
  9
$DIMSHO
 70
     1
  9
$DIMPOST
  1

  9
$DIMAPOST
  1

  9
$DIMALT
 70
     0
  9
$DIMALTD
 70
     2
  9
$DIMALTF
 40
1.0
  9
$DIMLFAC
 40
1.0
  9
$DIMTOFL
 70
     1
  9
$DIMTVP
 40
0.0
  9
$DIMTIX
 70
     0
  9
$DIMSOXD
 70
     0
  9
$DIMSAH
 70
     1
  9
$DIMBLK1
  1
_OPEN
  9
$DIMBLK2
  1
_OPEN
  9
$DIMSTYLE
  2
DIM1
  9
$DIMCLRD
 70
     2
  9
$DIMCLRE
 70
     2
  9
$DIMCLRT
 70
     2
  9
$DIMTFAC
 40
0.7
  9
$DIMGAP
 40
0.85
  9
$DIMJUST
 70
     0
  9
$DIMSD1
 70
     0
  9
$DIMSD2
 70
     0
  9
$DIMTOLJ
 70
     1
  9
$DIMTZIN
 70
     8
  9
$DIMALTZ
 70
     8
  9
$DIMALTTZ
 70
     8
  9
$DIMFIT
 70
     3
  9
$DIMUPT
 70
     0
  9
$DIMUNIT
 70
     2
  9
$DIMDEC
 70
     2
  9
$DIMTDEC
 70
     3
  9
$DIMALTU
 70
     2
  9
$DIMALTTD
 70
     3
  9
$DIMTXSTY
  7
DIM
  9
$DIMAUNIT
 70
     0
  9
$LUNITS
 70
     2
  9
$LUPREC
 70
     4
  9
$SKETCHINC
 40
0.1
  9
$FILLETRAD
 40
0.0
  9
$AUNITS
 70
     0
  9
$AUPREC
 70
     0
  9
$MENU
  1
C:\ACADR13\WIN\SUPPORT\ACAD.mnc
  9
$ELEVATION
 40
0.0
  9
$PELEVATION
 40
0.0
  9
$THICKNESS
 40
0.0
  9
$LIMCHECK
 70
     0
  9
$BLIPMODE
 70
     1
  9
$CHAMFERA
 40
0.0
  9
$CHAMFERB
 40
0.0
  9
$CHAMFERC
 40
0.0
  9
$CHAMFERD
 40
0.0
  9
$SKPOLY
 70
     0
  9
$TDCREATE
 40
2451564.587411898
  9
$TDUPDATE
 40
2451967.665494965
  9
$TDINDWG
 40
0.0402698958
  9
$TDUSRTIMER
 40
0.0402698958
  9
$USRTIMER
 70
     1
  9
$ANGBASE
 50
0.0
  9
$ANGDIR
 70
     0
  9
$PDMODE
 70
     0
  9
$PDSIZE
 40
0.0
  9
$PLINEWID
 40
0.0
  9
$COORDS
 70
     1
  9
$SPLFRAME
 70
     0
  9
$SPLINETYPE
 70
     6
  9
$SPLINESEGS
 70
     8
  9
$ATTDIA
 70
     0
  9
$ATTREQ
 70
     1
  9
$HANDLING
 70
     1
  9
$HANDSEED
  5
5A27
  9
$SURFTAB1
 70
     6
  9
$SURFTAB2
 70
     6
  9
$SURFTYPE
 70
     6
  9
$SURFU
 70
     6
  9
$SURFV
 70
     6
  9
$UCSNAME
  2

  9
$UCSORG
 10
0.0
 20
0.0
 30
0.0
  9
$UCSXDIR
 10
1.0
 20
0.0
 30
0.0
  9
$UCSYDIR
 10
0.0
 20
1.0
 30
0.0
  9
$PUCSNAME
  2

  9
$PUCSORG
 10
0.0
 20
0.0
 30
0.0
  9
$PUCSXDIR
 10
1.0
 20
0.0
 30
0.0
  9
$PUCSYDIR
 10
0.0
 20
1.0
 30
0.0
  9
$USERI1
 70
     0
  9
$USERI2
 70
     0
  9
$USERI3
 70
     0
  9
$USERI4
 70
     0
  9
$USERI5
 70
     0
  9
$USERR1
 40
0.0
  9
$USERR2
 40
0.0
  9
$USERR3
 40
0.0
  9
$USERR4
 40
0.0
  9
$USERR5
 40
0.0
  9
$WORLDVIEW
 70
     1
  9
$SHADEDGE
 70
     3
  9
$SHADEDIF
 70
    70
  9
$TILEMODE
 70
     1
  9
$MAXACTVP
 70
    16
  9
$PINSBASE
 10
0.0
 20
0.0
 30
0.0
  9
$PLIMCHECK
 70
     0
  9
$PEXTMIN
 10
1.000000E+20
 20
1.000000E+20
 30
1.000000E+20
  9
$PEXTMAX
 10
-1.000000E+20
 20
-1.000000E+20
 30
-1.000000E+20
  9
$PLIMMIN
 10
0.0
 20
0.0
  9
$PLIMMAX
 10
20.0
 20
147.0
  9
$UNITMODE
 70
     0
  9
$VISRETAIN
 70
     0
  9
$PLINEGEN
 70
     0
  9
$PSLTSCALE
 70
     1
  9
$TREEDEPTH
 70
  3020
  9
$PICKSTYLE
 70
     1
  9
$CMLSTYLE
  2
STANDARD
  9
$CMLJUST
 70
     0
  9
$CMLSCALE
 40
1.0
  9
$SAVEIMAGES
 70
     1
  0
ENDSEC
  0
SECTION
  2
CLASSES
  0
CLASS
  1
LWPOLYLINE
  2
AcDbPolyline
  3
"AutoCAD"
 90
    32768
280
     0
281
     1
  0
ENDSEC
  0
SECTION
  2
TABLES
  0
TABLE
  2
VPORT
  5
8
100
AcDbSymbolTable
 70
     2
  0
VPORT
  5
5A26
100
AcDbSymbolTableRecord
100
AcDbViewportTableRecord
  2
*ACTIVE
 70
     0
 10
0.0
 20
0.0
 11
1.0
 21
1.0
 12
1532.606474
 22
869.7795
 13
0.0
 23
0.0
 14
1.0
 24
1.0
 15
0.0
 25
0.0
 16
0.0
 26
0.0
 36
1.0
 17
0.0
 27
0.0
 37
0.0
 40
1739.559
 41
1.762063
 42
50.0
 43
0.0
 44
0.0
 50
0.0
 51
0.0
 71
     0
 72
   100
 73
     1
 74
     1
 75
     0
 76
     0
 77
     0
 78
     0
  0
ENDTAB
  0
TABLE
  2
LTYPE
  5
5
100
AcDbSymbolTable
 70
     5
  0
LTYPE
  5
12
100
AcDbSymbolTableRecord
100
AcDbLinetypeTableRecord
  2
BYBLOCK
 70
     0
  3

 72
    65
 73
     0
 40
0.0
  0
LTYPE
  5
13
100
AcDbSymbolTableRecord
100
AcDbLinetypeTableRecord
  2
BYLAYER
 70
     0
  3

 72
    65
 73
     0
 40
0.0
  0
LTYPE
  5
14
100
AcDbSymbolTableRecord
100
AcDbLinetypeTableRecord
  2
CONTINUOUS
 70
     0
  3
Solid line
 72
    65
 73
     0
 40
0.0
  0
ENDTAB
  0
TABLE
  2
LAYER
  5
2
100
AcDbSymbolTable
 70
     3
  0
LAYER
  5
F
100
AcDbSymbolTableRecord
100
AcDbLayerTableRecord
  2
0
 70
     0
 62
     7
  6
CONTINUOUS
  0
ENDTAB
  0
TABLE
  2
STYLE
  5
3
100
AcDbSymbolTable
 70
     3
  0
STYLE
  5
10
100
AcDbSymbolTableRecord
100
AcDbTextStyleTableRecord
  2
STANDARD
 70
     0
 40
0.0
 41
0.8
 50
0.0
 71
     0
 42
32.0
  3
simplex
  4
extfont
  0
STYLE
  5
237C
100
AcDbSymbolTableRecord
100
AcDbTextStyleTableRecord
  2
PTSH
 70
     0
 40
0.0
 41
0.9
 50
0.0
 71
     0
 42
4.0
  3
SIMPLEX
  4
EXTFONT
  0
STYLE
  5
2592
100
AcDbSymbolTableRecord
100
AcDbTextStyleTableRecord
  2
DIM
 70
     0
 40
0.0
 41
0.8
 50
0.0
 71
     0
 42
4.0
  3
simplex
  4
extfont
  0
ENDTAB
  0
TABLE
  2
VIEW
  5
6
100
AcDbSymbolTable
 70
     0
  0
ENDTAB
  0
TABLE
  2
UCS
  5
7
100
AcDbSymbolTable
 70
     0
  0
ENDTAB
  0
TABLE
  2
APPID
  5
9
100
AcDbSymbolTable
 70
     1
  0
APPID
  5
11
100
AcDbSymbolTableRecord
100
AcDbRegAppTableRecord
  2
ACAD
 70
     0
  0
ENDTAB
  0
TABLE
  2
DIMSTYLE
  5
A
100
AcDbSymbolTable
 70
     1
  0
DIMSTYLE
105
2237
100
AcDbSymbolTableRecord
100
AcDbDimStyleTableRecord
  2
DIM1
 70
     0
  3

  4

  5

  6
_OPEN
  7
_OPEN
 40
8.0
 41
2.8
 42
1.0
 43
5.0
 44
1.0
 45
0.1
 46
0.0
 47
0.0
 48
0.0
140
2.5
141
0.0
142
0.0
143
1.0
144
1.0
145
0.0
146
0.7
147
0.85
 71
     0
 72
     0
 73
     0
 74
     0
 75
     0
 76
     0
 77
     3
 78
     8
170
     0
171
     2
172
     1
173
     1
174
     0
175
     0
176
     2
177
     2
178
     2
270
     2
271
     2
272
     3
273
     2
274
     3
340
2592
275
     0
280
     0
281
     0
282
     0
283
     1
284
     8
285
     8
286
     8
287
     3
288
     0
  0
ENDTAB
  0
TABLE
  2
BLOCK_RECORD
  5
1
100
AcDbSymbolTable
 70
     1
  0
BLOCK_RECORD
  5
18
100
AcDbSymbolTableRecord
100
AcDbBlockTableRecord
  2
*MODEL_SPACE
  0
BLOCK_RECORD
  5
15
100
AcDbSymbolTableRecord
100
AcDbBlockTableRecord
  2
*PAPER_SPACE
  0
BLOCK_RECORD
  5
2448
100
AcDbSymbolTableRecord
100
AcDbBlockTableRecord
  2
_OPEN
  0
ENDTAB
  0
ENDSEC
  0
SECTION
  2
BLOCKS
  0
BLOCK
  5
3C
100
AcDbEntity
  8
0
100
AcDbBlockBegin
  2
*MODEL_SPACE
 70
     0
 10
0.0
 20
0.0
 30
0.0
  3
*MODEL_SPACE
  1

  0
ENDBLK
  5
3D
100
AcDbEntity
  8
0
100
AcDbBlockEnd
  0
BLOCK
  5
3A
100
AcDbEntity
 67
     1
  8
0
100
AcDbBlockBegin
  2
*PAPER_SPACE
 70
     0
 10
0.0
 20
0.0
 30
0.0
  3
*PAPER_SPACE
  1

  0
ENDBLK
  5
3B
100
AcDbEntity
 67
     1
  8
0
100
AcDbBlockEnd
  0
BLOCK
  5
2449
100
AcDbEntity
  8
0
 48
4.0
100
AcDbBlockBegin
  2
_OPEN
 70
     0
 10
0.0
 20
0.0
 30
0.0
  3
_OPEN
  1
H1111.DWG
  0
LINE
  5
244A
100
AcDbEntity
  8
0
  6
BYBLOCK
 62
     0
 48
4.0
100
AcDbLine
 10
-1.0
 20
0.166667
 30
0.0
 11
0.0
 21
0.0
 31
0.0
  0
LINE
  5
244B
100
AcDbEntity
  8
0
  6
BYBLOCK
 62
     0
 48
4.0
100
AcDbLine
 10
0.0
 20
0.0
 30
0.0
 11
-1.0
 21
-0.166667
 31
0.0
  0
LINE
  5
244C
100
AcDbEntity
  8
0
  6
BYBLOCK
 62
     0
 48
4.0
100
AcDbLine
 10
0.0
 20
0.0
 30
0.0
 11
-1.0
 21
0.0
 31
0.0
  0
ENDBLK
  5
244D
100
AcDbEntity
  8
0
 48
4.0
100
AcDbBlockEnd
  0
ENDSEC
  0
SECTION
  2
ENTITIES
  0
MTEXT
  5
ADA
100
AcDbEntity
  8
0
100
AcDbMText
 10
3041.114238
 20
398.770489
 30
0.0
 40
1.6
 41
377.811719
 71
     1
 72
     1
  1

  0
MTEXT
  5
ADB
100
AcDbEntity
  8
0
100
AcDbMText
 10
3112.399465
 20
462.80635
 30
0.0
 40
1.6
 41
363.554673
 71
     1
 72
     1
  1

  0
MTEXT
  5
ADC
100
AcDbEntity
  8
0
100
AcDbMText
 10
3069.628329
 20
-383.889971
 30
0.0
 40
1.6
 41
413.454332
 71
     1
 72
     1
  1

  0
TEXT
  5
2529
100
AcDbEntity
  8
0
  6
CONTINUOUS
100
AcDbText
 10
2148.228571
 20
56.0
 30
0.0
 40
24.0
  1
MBT3N
 41
0.9
  7
PTSH
 72
     2
 11
2248.0
 21
68.0
 31
0.0
100
AcDbText
 73
     2
  0
POLYLINE
  5
2563
100
AcDbEntity
  8
0
100
AcDb2dPolyline
 66
     1
 10
0.0
 20
0.0
 30
0.0
 70
     1
  0
VERTEX
  5
59E8
100
AcDbEntity
  8
0
100
AcDbVertex
100
AcDb2dVertex
 10
88.0
 20
40.0
 30
0.0
  0
VERTEX
  5
59E9
100
AcDbEntity
  8
0
100
AcDbVertex
100
AcDb2dVertex
 10
2288.0
 20
40.0
 30
0.0
  0
VERTEX
  5
59EA
100
AcDbEntity
  8
0
100
AcDbVertex
100
AcDb2dVertex
 10
2288.0
 20
1528.0
 30
0.0
  0
VERTEX
  5
59EB
100
AcDbEntity
  8
0
100
AcDbVertex
100
AcDb2dVertex
 10
88.0
 20
1528.0
 30
0.0
  0
SEQEND
  5
59EC
100
AcDbEntity
  8
0
  0
TEXT
  5
28A0
100
AcDbEntity
  8
0
100
AcDbText
 10
1024.533333
 20
146.0
 30
0.0
 40
28.0
  1
TLV MBT3N (PT)
 72
     1
 11
1188.0
 21
160.0
 31
0.0
100
AcDbText
 73
     2
  0
TEXT
  5
5205
100
AcDbEntity
  8
0
100
AcDbText
 10
672.3595
 20
321.273374
 30
0.0
 40
20.0
  1
15A,20A
 72
     4
 11
731.407119
 21
329.368612
 31
0.0
100
AcDbText
  0
LINE
  5
5206
100
AcDbEntity
  8
0
100
AcDbLine
 10
501.000042
 20
394.72916
 30
0.0
 11
494.500042
 21
391.032191
 31
0.0
  0
LINE
  5
5207
100
AcDbEntity
  8
0
100
AcDbLine
 10
501.000042
 20
393.659583
 30
0.0
 11
494.500042
 21
389.962614
 31
0.0
  0
ELLIPSE
  5
5208
100
AcDbEntity
  8
0
100
AcDbEllipse
 10
443.975085
 20
401.851698
 30
0.0
 11
-15.00000000000005
 21
-0.0000000000000284
 31
0.0
210
0.0
220
0.0
230
1.0
 40
0.984798
 41
6.283185307179586
 42
7.853981633974482
  0
ELLIPSE
  5
5209
100
AcDbEntity
  8
0
100
AcDbEllipse
 10
443.975085
 20
400.179442
 30
0.0
 11
-15.00000000000005
 21
-0.0000000000000284
 31
0.0
210
0.0
220
0.0
230
1.0
 40
0.984798
 41
6.283185307179586
 42
7.853981633974482
  0
ELLIPSE
  5
520A
100
AcDbEntity
  8
0
100
AcDbEllipse
 10
443.975085
 20
399.919104
 30
0.0
 11
-15.00000000000005
 21
-0.0000000000000284
 31
0.0
210
0.0
220
0.0
230
1.0
 40
0.984798
 41
6.283185307179586
 42
7.853981633974482
  0
LINE
  5
520B
100
AcDbEntity
  8
0
100
AcDbLine
 10
432.950128
 20
393.659583
 30
0.0
 11
439.450128
 21
389.962614
 31
0.0
  0
LINE
  5
520C
100
AcDbEntity
  8
0
100
AcDbLine
 10
432.950128
 20
394.72916
 30
0.0
 11
439.450128
 21
391.032191
 31
0.0
  0
LINE
  5
520D
100
AcDbEntity
  8
0
100
AcDbLine
 10
445.950128
 20
393.659583
 30
0.0
 11
439.450128
 21
389.962614
 31
0.0
  0
LINE
  5
520E
100
AcDbEntity
  8
0
100
AcDbLine
 10
445.950128
 20
394.72916
 30
0.0
 11
439.450128
 21
391.032191
 31
0.0
  0
ELLIPSE
  5
520F
100
AcDbEntity
  8
0
100
AcDbEllipse
 10
489.975085
 20
401.851698
 30
0.0
 11
15.00000000000005
 21
-0.0000000000000284
 31
0.0
210
0.0
220
0.0
230
-1.0
 40
0.984798
 41
6.283185307179586
 42
7.853981633974482
  0
ELLIPSE
  5
5210
100
AcDbEntity
  8
0
100
AcDbEllipse
 10
489.975085
 20
400.179442
 30
0.0
 11
15.00000000000005
 21
-0.0000000000000284
 31
0.0
210
0.0
220
0.0
230
-1.0
 40
0.984798
 41
6.283185307179586
 42
7.853981633974482
  0
ELLIPSE
  5
5211
100
AcDbEntity
  8
0
100
AcDbEllipse
 10
489.975085
 20
399.919104
 30
0.0
 11
15.00000000000005
 21
-0.0000000000000284
 31
0.0
210
0.0
220
0.0
230
-1.0
 40
0.984798
 41
6.283185307179586
 42
7.853981633974482
  0
LINE
  5
5212
100
AcDbEntity
  8
0
100
AcDbLine
 10
488.000042
 20
394.72916
 30
0.0
 11
494.500042
 21
391.032191
 31
0.0
  0
LINE
  5
5213
100
AcDbEntity
  8
0
100
AcDbLine
 10
488.000042
 20
393.659583
 30
0.0
 11
494.500042
 21
389.962614
 31
0.0
  0
ELLIPSE
  5
5214
100
AcDbEntity
  8
0
100
AcDbEllipse
 10
443.975085
 20
398.180007
 30
0.0
 11
-15.00000000000005
 21
-0.0000000000000284
 31
0.0
210
0.0
220
0.0
230
1.0
 40
0.984798
 41
6.283185307179586
 42
7.853981633974482
  0
ELLIPSE
  5
5215
100
AcDbEntity
  8
0
100
AcDbEllipse
 10
489.975085
 20
398.180007
 30
0.0
 11
15.00000000000005
 21
-0.0000000000000284
 31
0.0
210
0.0
220
0.0
230
-1.0
 40
0.984798
 41
6.283185307179586
 42
7.853981633974482
  0
LINE
  5
5216
100
AcDbEntity
  8
0
100
AcDbLine
 10
418.975085
 20
407.583458
 30
0.0
 11
418.975085
 21
381.583458
 31
0.0
  0
LINE
  5
5217
100
AcDbEntity
  8
0
100
AcDbLine
 10
511.975085
 20
407.583458
 30
0.0
 11
511.975085
 21
381.583458
 31
0.0
  0
LINE
  5
5218
100
AcDbEntity
  8
0
100
AcDbLine
 10
509.975085
 20
379.583458
 30
0.0
 11
420.975085
 21
379.583458
 31
0.0
  0
ARC
  5
5219
100
AcDbEntity
  8
0
100
AcDbCircle
 10
420.975085
 20
381.583458
 30
0.0
 40
2.0
100
AcDbArc
 50
180.0
 51
270.0
  0
LINE
  5
521A
100
AcDbEntity
  8
0
100
AcDbLine
 10
489.975085
 20
387.07973
 30
0.0
 11
443.975085
 21
387.07973
 31
0.0
  0
LINE
  5
521B
100
AcDbEntity
  8
0
100
AcDbLine
 10
489.975085
 20
385.407475
 30
0.0
 11
443.975085
 21
385.407475
 31
0.0
  0
LINE
  5
521C
100
AcDbEntity
  8
0
100
AcDbLine
 10
489.975085
 20
385.147136
 30
0.0
 11
443.975085
 21
385.147136
 31
0.0
  0
LINE
  5
521D
100
AcDbEntity
  8
0
100
AcDbLine
 10
489.975085
 20
383.40804
 30
0.0
 11
443.975085
 21
383.40804
 31
0.0
  0
LINE
  5
521E
100
AcDbEntity
  8
0
100
AcDbLine
 10
439.450128
 20
391.032191
 30
0.0
 11
439.450128
 21
389.962614
 31
0.0
  0
ARC
  5
521F
100
AcDbEntity
  8
0
100
AcDbCircle
 10
509.975085
 20
381.583458
 30
0.0
 40
2.0
100
AcDbArc
 50
270.0
 51
0.0
  0
LINE
  5
5220
100
AcDbEntity
  8
0
100
AcDbLine
 10
494.500042
 20
391.032191
 30
0.0
 11
494.500042
 21
389.962614
 31
0.0
  0
TEXT
  5
5221
100
AcDbEntity
  8
0
100
AcDbText
 10
219.457722
 20
491.590704
 30
0.0
 40
28.0
  1
正面
100
AcDbText
  0
POLYLINE
  5
5222
100
AcDbEntity
  8
0
100
AcDb2dPolyline
 66
     1
 10
0.0
 20
0.0
 30
0.0
  0
VERTEX
  5
59ED
100
AcDbEntity
  8
0
100
AcDbVertex
100
AcDb2dVertex
 10
474.396994
 20
595.111372
 30
0.0
  0
VERTEX
  5
59EE
100
AcDbEntity
  8
0
100
AcDbVertex
100
AcDb2dVertex
 10
468.045169
 20
598.7786
 30
0.0
  0
SEQEND
  5
59EF
100
AcDbEntity
  8
0
  0
CIRCLE
  5
5223
100
AcDbEntity
  8
0
100
AcDbCircle
 10
466.975085
 20
589.590704
 30
0.0
 40
8.156094
  0
POLYLINE
  5
5224
100
AcDbEntity
  8
0
100
AcDb2dPolyline
 66
     1
 10
0.0
 20
0.0
 30
0.0
  0
VERTEX
  5
59F0
100
AcDbEntity
  8
0
100
AcDbVertex
100
AcDb2dVertex
 10
465.864683
 20
598.773814
 30
0.0
  0
VERTEX
  5
59F1
100
AcDbEntity
  8
0
100
AcDbVertex
100
AcDb2dVertex
 10
459.57748
 20
595.143896
 30
0.0
  0
SEQEND
  5
59F2
100
AcDbEntity
  8
0
  0
LINE
  5
5225
100
AcDbEntity
  8
0
100
AcDbLine
 10
413.475085
 20
579.590704
 30
0.0
 11
413.475085
 21
599.590704
 31
0.0
  0
LINE
  5
5226
100
AcDbEntity
  8
0
100
AcDbLine
 10
520.475085
 20
579.590704
 30
0.0
 11
520.475085
 21
599.590704
 31
0.0
  0
ARC
  5
5227
100
AcDbEntity
  8
0
100
AcDbCircle
 10
428.475085
 20
553.590704
 30
0.0
 40
15.0
100
AcDbArc
 50
180.0
 51
270.0
  0
ARC
  5
5228
100
AcDbEntity
  8
0
100
AcDbCircle
 10
428.475085
 20
550.590704
 30
0.0
 40
5.0
100
AcDbArc
 50
180.0
 51
270.0
  0
ARC
  5
5229
100
AcDbEntity
  8
0
100
AcDbCircle
 10
428.475085
 20
566.590704
 30
0.0
 40
5.0
100
AcDbArc
 50
90.0
 51
180.0
  0
LINE
  5
522A
100
AcDbEntity
  8
0
100
AcDbLine
 10
413.475085
 20
579.590704
 30
0.0
 11
520.475085
 21
579.590704
 31
0.0
  0
LINE
  5
522B
100
AcDbEntity
  8
0
100
AcDbLine
 10
520.475085
 20
571.590704
 30
0.0
 11
413.475085
 21
571.590704
 31
0.0
  0
ARC
  5
522C
100
AcDbEntity
  8
0
100
AcDbCircle
 10
436.975085
 20
414.686369
 30
0.0
 40
15.0
100
AcDbArc
 50
126.869898
 51
180.0
  0
ARC
  5
522D
100
AcDbEntity
  8
0
100
AcDbCircle
 10
435.975298
 20
407.11006
 30
0.0
 40
14.000213
100
AcDbArc
 50
180.002873
 51
241.908408
  0
LINE
  5
522E
100
AcDbEntity
  8
0
100
AcDbLine
 10
421.975085
 20
414.686369
 30
0.0
 11
421.975085
 21
407.109358
 31
0.0
  0
ARC
  5
522F
100
AcDbEntity
  8
0
100
AcDbCircle
 10
419.975085
 20
411.456441
 30
0.0
 40
2.0
100
AcDbArc
 50
284.477512
 51
0.0
  0
ARC
  5
5230
100
AcDbEntity
  8
0
100
AcDbCircle
 10
420.975085
 20
407.583458
 30
0.0
 40
2.0
100
AcDbArc
 50
104.477512
 51
180.0
  0
LINE
  5
5231
100
AcDbEntity
  8
0
100
AcDbLine
 10
421.975085
 20
413.50717
 30
0.0
 11
421.975085
 21
412.166034
 31
0.0
  0
LINE
  5
5232
100
AcDbEntity
  8
0
100
AcDbLine
 10
413.475085
 20
553.590704
 30
0.0
 11
413.475085
 21
579.590704
 31
0.0
  0
LINE
  5
5233
100
AcDbEntity
  8
0
100
AcDbLine
 10
423.475085
 20
550.590704
 30
0.0
 11
423.475085
 21
566.590704
 31
0.0
  0
POLYLINE
  5
5234
100
AcDbEntity
  8
0
100
AcDb2dPolyline
 66
     1
 10
0.0
 20
0.0
 30
0.0
 70
     1
  0
VERTEX
  5
59F3
100
AcDbEntity
  8
0
100
AcDbVertex
100
AcDb2dVertex
 10
485.975085
 20
502.560359
 30
0.0
  0
VERTEX
  5
59F4
100
AcDbEntity
  8
0
100
AcDbVertex
100
AcDb2dVertex
 10
466.975085
 20
513.530015
 30
0.0
  0
VERTEX
  5
59F5
100
AcDbEntity
  8
0
100
AcDbVertex
100
AcDb2dVertex
 10
447.975085
 20
502.560359
 30
0.0
  0
VERTEX
  5
59F6
100
AcDbEntity
  8
0
100
AcDbVertex
100
AcDb2dVertex
 10
447.975085
 20
480.621049
 30
0.0
  0
VERTEX
  5
59F7
100
AcDbEntity
  8
0
100
AcDbVertex
100
AcDb2dVertex
 10
466.975085
 20
469.651394
 30
0.0
  0
VERTEX
  5
59F8
100
AcDbEntity
  8
0
100
AcDbVertex
100
AcDb2dVertex
 10
485.975085
 20
480.621049
 30
0.0
  0
SEQEND
  5
59F9
100
AcDbEntity
  8
0
  0
POLYLINE
  5
5235
100
AcDbEntity
  8
0
100
AcDb2dPolyline
 66
     1
 10
0.0
 20
0.0
 30
0.0
 70
     1
  0
VERTEX
  5
59FA
100
AcDbEntity
  8
0
100
AcDbVertex
100
AcDb2dVertex
 10
485.975085
 20
502.560359
 30
0.0
  0
VERTEX
  5
59FB
100
AcDbEntity
  8
0
100
AcDbVertex
100
AcDb2dVertex
 10
466.975085
 20
513.530015
 30
0.0
  0
VERTEX
  5
59FC
100
AcDbEntity
  8
0
100
AcDbVertex
100
AcDb2dVertex
 10
447.975085
 20
502.560359
 30
0.0
  0
VERTEX
  5
59FD
100
AcDbEntity
  8
0
100
AcDbVertex
100
AcDb2dVertex
 10
447.975085
 20
480.621049
 30
0.0
  0
VERTEX
  5
59FE
100
AcDbEntity
  8
0
100
AcDbVertex
100
AcDb2dVertex
 10
466.975085
 20
469.651394
 30
0.0
  0
VERTEX
  5
59FF
100
AcDbEntity
  8
0
100
AcDbVertex
100
AcDb2dVertex
 10
485.975085
 20
480.621049
 30
0.0
  0
SEQEND
  5
5A00
100
AcDbEntity
  8
0
  0
ARC
  5
5236
100
AcDbEntity
  8
0
100
AcDbCircle
 10
442.975085
 20
491.590704
 30
0.0
 40
2.0
100
AcDbArc
 50
87.611985
 51
272.388015
  0
CIRCLE
  5
5237
100
AcDbEntity
  8
0
100
AcDbCircle
 10
466.975085
 20
491.590704
 30
0.0
 40
24.0
  0
ARC
  5
5238
100
AcDbEntity
  8
0
100
AcDbCircle
 10
490.975085
 20
491.590704
 30
0.0
 40
2.0
100
AcDbArc
 50
267.611985
 51
92.388015
  0
ELLIPSE
  5
5239
100
AcDbEntity
  8
0
100
AcDbEllipse
 10
489.975085
 20
447.27424
 30
0.0
 11
15.00000000000005
 21
0.0000000000000284
 31
0.0
210
0.0
220
0.0
230
1.0
 40
0.984798
 41
6.283185307179586
 42
7.853981633974482
  0
ELLIPSE
  5
523A
100
AcDbEntity
  8
0
100
AcDbEllipse
 10
494.500042
 20
452.901204
 30
0.0
 11
-6.300000000000011
 21
0.0
 31
0.0
210
0.0
220
0.0
230
1.0
 40
0.984808
 41
0.0
 42
6.283185307179586
  0
LINE
  5
523B
100
AcDbEntity
  8
0
100
AcDbLine
 10
488.000042
 20
448.078627
 30
0.0
 11
494.500042
 21
444.381659
 31
0.0
  0
LINE
  5
523C
100
AcDbEntity
  8
0
100
AcDbLine
 10
488.000042
 20
449.148204
 30
0.0
 11
494.500042
 21
445.451236
 31
0.0
  0
LINE
  5
523D
100
AcDbEntity
  8
0
100
AcDbLine
 10
488.000042
 20
456.596203
 30
0.0
 11
494.500042
 21
460.293171
 31
0.0
  0
LINE
  5
523E
100
AcDbEntity
  8
0
100
AcDbLine
 10
488.000042
 20
402.177158
 30
0.0
 11
494.500042
 21
405.874127
 31
0.0
  0
ELLIPSE
  5
523F
100
AcDbEntity
  8
0
100
AcDbEllipse
 10
494.500042
 20
398.48216
 30
0.0
 11
-6.300000000000011
 21
0.0
 31
0.0
210
0.0
220
0.0
230
1.0
 40
0.984808
 41
0.0
 42
6.283185307179586
  0
ARC
  5
5240
100
AcDbEntity
  8
0
100
AcDbCircle
 10
466.975085
 20
446.29381
 30
0.0
 40
33.0
100
AcDbArc
 50
25.368175
 51
59.082914
  0
LINE
  5
5241
100
AcDbEntity
  8
0
100
AcDbLine
 10
428.975085
 20
447.27424
 30
0.0
 11
428.975085
 21
398.180007
 31
0.0
  0
ELLIPSE
  5
5242
100
AcDbEntity
  8
0
100
AcDbEllipse
 10
466.975085
 20
424.566143
 30
0.0
 11
-25.0
 21
0.0
 31
0.0
210
0.0
220
0.0
230
1.0
 40
0.984808
 41
0.0
 42
6.283185307179586
  0
ELLIPSE
  5
5243
100
AcDbEntity
  8
0
100
AcDbEllipse
 10
439.450128
 20
398.48216
 30
0.0
 11
6.300000000000011
 21
0.0
 31
0.0
210
0.0
220
0.0
230
-1.0
 40
0.984808
 41
0.0
 42
6.283185307179586
  0
LINE
  5
5244
100
AcDbEntity
  8
0
100
AcDbLine
 10
445.950128
 20
402.177158
 30
0.0
 11
439.450128
 21
405.874127
 31
0.0
  0
LINE
  5
5245
100
AcDbEntity
  8
0
100
AcDbLine
 10
432.950128
 20
394.72916
 30
0.0
 11
432.950128
 21
402.177158
 31
0.0
  0
LINE
  5
5246
100
AcDbEntity
  8
0
100
AcDbLine
 10
432.950128
 20
394.72916
 30
0.0
 11
432.950128
 21
393.659583
 31
0.0
  0
LINE
  5
5247
100
AcDbEntity
  8
0
100
AcDbLine
 10
432.950128
 20
402.177158
 30
0.0
 11
439.450128
 21
405.874127
 31
0.0
  0
LINE
  5
5248
100
AcDbEntity
  8
0
100
AcDbLine
 10
445.950128
 20
394.72916
 30
0.0
 11
445.950128
 21
402.177158
 31
0.0
  0
LINE
  5
5249
100
AcDbEntity
  8
0
100
AcDbLine
 10
445.950128
 20
394.72916
 30
0.0
 11
445.950128
 21
393.659583
 31
0.0
  0
ARC
  5
524A
100
AcDbEntity
  8
0
100
AcDbCircle
 10
418.975085
 20
438.686369
 30
0.0
 40
15.0
100
AcDbArc
 50
306.869898
 51
311.810315
  0
LINE
  5
524B
100
AcDbEntity
  8
0
100
AcDbLine
 10
488.000042
 20
394.72916
 30
0.0
 11
488.000042
 21
402.177158
 31
0.0
  0
LINE
  5
524C
100
AcDbEntity
  8
0
100
AcDbLine
 10
488.000042
 20
394.72916
 30
0.0
 11
488.000042
 21
393.659583
 31
0.0
  0
LINE
  5
524D
100
AcDbEntity
  8
0
100
AcDbLine
 10
489.975085
 20
462.046207
 30
0.0
 11
443.975085
 21
462.046207
 31
0.0
  0
ARC
  5
524E
100
AcDbEntity
  8
0
100
AcDbCircle
 10
466.975085
 20
446.29381
 30
0.0
 40
33.0
100
AcDbArc
 50
120.917086
 51
154.631825
  0
LINE
  5
524F
100
AcDbEntity
  8
0
100
AcDbLine
 10
445.950128
 20
456.596203
 30
0.0
 11
439.450128
 21
460.293171
 31
0.0
  0
LINE
  5
5250
100
AcDbEntity
  8
0
100
AcDbLine
 10
445.950128
 20
449.148204
 30
0.0
 11
439.450128
 21
445.451236
 31
0.0
  0
LINE
  5
5251
100
AcDbEntity
  8
0
100
AcDbLine
 10
445.950128
 20
448.078627
 30
0.0
 11
439.450128
 21
444.381659
 31
0.0
  0
ELLIPSE
  5
5252
100
AcDbEntity
  8
0
100
AcDbEllipse
 10
443.975085
 20
447.27424
 30
0.0
 11
-15.00000000000005
 21
0.0000000000000284
 31
0.0
210
0.0
220
0.0
230
-1.0
 40
0.984798
 41
6.283185307179586
 42
7.853981633974482
  0
ELLIPSE
  5
5253
100
AcDbEntity
  8
0
100
AcDbEllipse
 10
439.450128
 20
452.901204
 30
0.0
 11
6.300000000000011
 21
0.0
 31
0.0
210
0.0
220
0.0
230
-1.0
 40
0.984808
 41
0.0
 42
6.283185307179586
  0
LINE
  5
5254
100
AcDbEntity
  8
0
100
AcDbLine
 10
432.950128
 20
456.596203
 30
0.0
 11
439.450128
 21
460.293171
 31
0.0
  0
LINE
  5
5255
100
AcDbEntity
  8
0
100
AcDbLine
 10
439.450128
 20
445.451236
 30
0.0
 11
439.450128
 21
444.381659
 31
0.0
  0
LINE
  5
5256
100
AcDbEntity
  8
0
100
AcDbLine
 10
432.950128
 20
449.148204
 30
0.0
 11
432.950128
 21
448.078627
 31
0.0
  0
LINE
  5
5257
100
AcDbEntity
  8
0
100
AcDbLine
 10
432.950128
 20
449.148204
 30
0.0
 11
439.450128
 21
445.451236
 31
0.0
  0
LINE
  5
5258
100
AcDbEntity
  8
0
100
AcDbLine
 10
432.950128
 20
448.078627
 30
0.0
 11
439.450128
 21
444.381659
 31
0.0
  0
LINE
  5
5259
100
AcDbEntity
  8
0
100
AcDbLine
 10
432.950128
 20
449.148204
 30
0.0
 11
432.950128
 21
456.596203
 31
0.0
  0
LINE
  5
525A
100
AcDbEntity
  8
0
100
AcDbLine
 10
445.950128
 20
449.148204
 30
0.0
 11
445.950128
 21
448.078627
 31
0.0
  0
LINE
  5
525B
100
AcDbEntity
  8
0
100
AcDbLine
 10
445.950128
 20
449.148204
 30
0.0
 11
445.950128
 21
456.596203
 31
0.0
  0
LINE
  5
525C
100
AcDbEntity
  8
0
100
AcDbLine
 10
442.910263
 20
489.591755
 30
0.0
 11
442.213588
 21
468.108215
 31
0.0
  0
LINE
  5
525D
100
AcDbEntity
  8
0
100
AcDbLine
 10
488.000042
 20
449.148204
 30
0.0
 11
488.000042
 21
448.078627
 31
0.0
  0
LINE
  5
525E
100
AcDbEntity
  8
0
100
AcDbLine
 10
488.000042
 20
449.148204
 30
0.0
 11
488.000042
 21
456.596203
 31
0.0
  0
LINE
  5
525F
100
AcDbEntity
  8
0
100
AcDbLine
 10
491.039908
 20
489.591755
 30
0.0
 11
491.736582
 21
468.108215
 31
0.0
  0
LINE
  5
5260
100
AcDbEntity
  8
0
100
AcDbLine
 10
504.975085
 20
447.27424
 30
0.0
 11
504.975085
 21
398.180007
 31
0.0
  0
ELLIPSE
  5
5261
100
AcDbEntity
  8
0
100
AcDbEllipse
 10
478.975085
 20
413.129755
 30
0.0
 11
28.0
 21
0.0
 31
0.0
210
0.0
220
0.0
230
-1.0
 40
0.984808
 41
5.902934100486658
 42
6.412149798160035
  0
ARC
  5
5262
100
AcDbEntity
  8
0
100
AcDbCircle
 10
509.975085
 20
407.583458
 30
0.0
 40
2.0
100
AcDbArc
 50
0.0
 51
90.0
  0
LINE
  5
5263
100
AcDbEntity
  8
0
100
AcDbLine
 10
509.975085
 20
409.583458
 30
0.0
 11
504.975085
 21
409.583458
 31
0.0
  0
LINE
  5
5264
100
AcDbEntity
  8
0
100
AcDbLine
 10
501.000042
 20
394.72916
 30
0.0
 11
501.000042
 21
402.177158
 31
0.0
  0
LINE
  5
5265
100
AcDbEntity
  8
0
100
AcDbLine
 10
501.000042
 20
394.72916
 30
0.0
 11
501.000042
 21
393.659583
 31
0.0
  0
LINE
  5
5266
100
AcDbEntity
  8
0
100
AcDbLine
 10
501.000042
 20
402.177158
 30
0.0
 11
494.500042
 21
405.874127
 31
0.0
  0
LINE
  5
5267
100
AcDbEntity
  8
0
100
AcDbLine
 10
501.000042
 20
456.596203
 30
0.0
 11
494.500042
 21
460.293171
 31
0.0
  0
LINE
  5
5268
100
AcDbEntity
  8
0
100
AcDbLine
 10
501.000042
 20
448.078627
 30
0.0
 11
494.500042
 21
444.381659
 31
0.0
  0
LINE
  5
5269
100
AcDbEntity
  8
0
100
AcDbLine
 10
501.000042
 20
449.148204
 30
0.0
 11
494.500042
 21
445.451236
 31
0.0
  0
LINE
  5
526A
100
AcDbEntity
  8
0
100
AcDbLine
 10
501.000042
 20
449.148204
 30
0.0
 11
501.000042
 21
448.078627
 31
0.0
  0
LINE
  5
526B
100
AcDbEntity
  8
0
100
AcDbLine
 10
494.500042
 20
445.451236
 30
0.0
 11
494.500042
 21
444.381659
 31
0.0
  0
LINE
  5
526C
100
AcDbEntity
  8
0
100
AcDbLine
 10
501.000042
 20
449.148204
 30
0.0
 11
501.000042
 21
456.596203
 31
0.0
  0
LINE
  5
526D
100
AcDbEntity
  8
0
100
AcDbLine
 10
488.460963
 20
569.590704
 30
0.0
 11
503.471963
 21
569.590704
 31
0.0
  0
ARC
  5
526E
100
AcDbEntity
  8
0
100
AcDbCircle
 10
495.965963
 20
576.596184
 30
0.0
 40
13.352467
100
AcDbArc
 50
253.680297
 51
286.319703
  0
LINE
  5
526F
100
AcDbEntity
  8
0
100
AcDbLine
 10
502.274963
 20
563.090704
 30
0.0
 11
489.656963
 21
563.090704
 31
0.0
  0
LINE
  5
5270
100
AcDbEntity
  8
0
100
AcDbLine
 10
486.975085
 20
538.590704
 30
0.0
 11
486.975085
 21
545.590704
 31
0.0
  0
LINE
  5
5271
100
AcDbEntity
  8
0
100
AcDbLine
 10
446.975085
 20
518.590704
 30
0.0
 11
486.975085
 21
518.590704
 31
0.0
  0
LINE
  5
5272
100
AcDbEntity
  8
0
100
AcDbLine
 10
446.975085
 20
518.590704
 30
0.0
 11
446.975085
 21
523.590704
 31
0.0
  0
LINE
  5
5273
100
AcDbEntity
  8
0
100
AcDbLine
 10
447.961973
 20
517.608648
 30
0.0
 11
447.961973
 21
518.590704
 31
0.0
  0
LINE
  5
5274
100
AcDbEntity
  8
0
100
AcDbLine
 10
447.961973
 20
517.608648
 30
0.0
 11
447.961973
 21
518.590704
 31
0.0
  0
LINE
  5
5275
100
AcDbEntity
  8
0
100
AcDbLine
 10
447.961973
 20
506.236576
 30
0.0
 11
447.961973
 21
518.590704
 31
0.0
  0
LINE
  5
5276
100
AcDbEntity
  8
0
100
AcDbLine
 10
441.11042
 20
535.761221
 30
0.0
 11
446.975085
 21
523.590704
 31
0.0
  0
LINE
  5
5277
100
AcDbEntity
  8
0
100
AcDbLine
 10
436.606104
 20
538.590704
 30
0.0
 11
428.475085
 21
538.590704
 31
0.0
  0
ARC
  5
5278
100
AcDbEntity
  8
0
100
AcDbCircle
 10
436.606104
 20
533.590704
 30
0.0
 40
5.0
100
AcDbArc
 50
25.728246
 51
90.0
  0
LINE
  5
5279
100
AcDbEntity
  8
0
100
AcDbLine
 10
486.975085
 20
518.590704
 30
0.0
 11
486.975085
 21
519.3825
 31
0.0
  0
LINE
  5
527A
100
AcDbEntity
  8
0
100
AcDbLine
 10
485.988198
 20
518.590704
 30
0.0
 11
485.988198
 21
506.236576
 31
0.0
  0
LINE
  5
527B
100
AcDbEntity
  8
0
100
AcDbLine
 10
484.975085
 20
533.090704
 30
0.0
 11
476.725085
 21
533.090704
 31
0.0
  0
LINE
  5
527C
100
AcDbEntity
  8
0
100
AcDbLine
 10
486.975085
 20
538.590704
 30
0.0
 11
476.725085
 21
538.590704
 31
0.0
  0
ARC
  5
527D
100
AcDbEntity
  8
0
100
AcDbCircle
 10
476.725085
 20
535.840704
 30
0.0
 40
2.75
100
AcDbArc
 50
90.0
 51
270.0
  0
CIRCLE
  5
527E
100
AcDbEntity
  8
0
100
AcDbCircle
 10
484.975085
 20
526.090704
 30
0.0
 40
3.5
  0
LINE
  5
527F
100
AcDbEntity
  8
0
100
AcDbLine
 10
478.975085
 20
538.590704
 30
0.0
 11
478.975085
 21
533.090704
 31
0.0
  0
ARC
  5
5280
100
AcDbEntity
  8
0
100
AcDbCircle
 10
484.975085
 20
526.090704
 30
0.0
 40
7.0
100
AcDbArc
 50
286.60155
 51
90.0
  0
POLYLINE
  5
5281
100
AcDbEntity
  8
0
100
AcDb2dPolyline
 66
     1
 10
0.0
 20
0.0
 30
0.0
  0
VERTEX
  5
5A01
100
AcDbEntity
  8
0
100
AcDbVertex
100
AcDb2dVertex
 10
459.57748
 20
584.037513
 30
0.0
  0
VERTEX
  5
5A02
100
AcDbEntity
  8
0
100
AcDbVertex
100
AcDb2dVertex
 10
465.864683
 20
580.407594
 30
0.0
  0
SEQEND
  5
5A03
100
AcDbEntity
  8
0
  0
LINE
  5
5282
100
AcDbEntity
  8
0
100
AcDbLine
 10
457.475085
 20
568.590704
 30
0.0
 11
476.475085
 21
568.590704
 31
0.0
  0
LINE
  5
5283
100
AcDbEntity
  8
0
100
AcDbLine
 10
457.475085
 20
566.090704
 30
0.0
 11
476.475085
 21
566.090704
 31
0.0
  0
LINE
  5
5284
100
AcDbEntity
  8
0
100
AcDbLine
 10
457.475085
 20
561.090704
 30
0.0
 11
476.475085
 21
561.090704
 31
0.0
  0
LINE
  5
5285
100
AcDbEntity
  8
0
100
AcDbLine
 10
457.475085
 20
563.590704
 30
0.0
 11
476.475085
 21
563.590704
 31
0.0
  0
LINE
  5
5286
100
AcDbEntity
  8
0
100
AcDbLine
 10
457.475085
 20
561.090704
 30
0.0
 11
476.475085
 21
561.090704
 31
0.0
  0
LINE
  5
5287
100
AcDbEntity
  8
0
100
AcDbLine
 10
457.475085
 20
563.590704
 30
0.0
 11
476.475085
 21
563.590704
 31
0.0
  0
LINE
  5
5288
100
AcDbEntity
  8
0
100
AcDbLine
 10
457.475085
 20
556.090704
 30
0.0
 11
476.475085
 21
556.090704
 31
0.0
  0
LINE
  5
5289
100
AcDbEntity
  8
0
100
AcDbLine
 10
457.475085
 20
558.590704
 30
0.0
 11
476.475085
 21
558.590704
 31
0.0
  0
LINE
  5
528A
100
AcDbEntity
  8
0
100
AcDbLine
 10
457.475085
 20
551.090704
 30
0.0
 11
476.475085
 21
551.090704
 31
0.0
  0
LINE
  5
528B
100
AcDbEntity
  8
0
100
AcDbLine
 10
457.475085
 20
553.590704
 30
0.0
 11
476.475085
 21
553.590704
 31
0.0
  0
LINE
  5
528C
100
AcDbEntity
  8
0
100
AcDbLine
 10
457.475085
 20
571.090704
 30
0.0
 11
476.475085
 21
571.090704
 31
0.0
  0
LINE
  5
528D
100
AcDbEntity
  8
0
100
AcDbLine
 10
486.975085
 20
545.590704
 30
0.0
 11
428.475085
 21
545.590704
 31
0.0
  0
LINE
  5
528E
100
AcDbEntity
  8
0
100
AcDbLine
 10
457.475085
 20
548.590704
 30
0.0
 11
476.475085
 21
548.590704
 31
0.0
  0
LINE
  5
528F
100
AcDbEntity
  8
0
100
AcDbLine
 10
445.489207
 20
571.590704
 30
0.0
 11
445.489207
 21
563.781704
 31
0.0
  0
LINE
  5
5290
100
AcDbEntity
  8
0
100
AcDbLine
 10
430.478207
 20
563.781704
 30
0.0
 11
430.478207
 21
571.590704
 31
0.0
  0
LINE
  5
5291
100
AcDbEntity
  8
0
100
AcDbLine
 10
457.975085
 20
571.090704
 30
0.0
 11
457.975085
 21
568.590704
 31
0.0
  0
LINE
  5
5292
100
AcDbEntity
  8
0
100
AcDbLine
 10
430.478207
 20
569.590704
 30
0.0
 11
445.489207
 21
569.590704
 31
0.0
  0
ARC
  5
5293
100
AcDbEntity
  8
0
100
AcDbCircle
 10
443.611707
 20
566.784663
 30
0.0
 40
3.541047
100
AcDbArc
 50
237.999406
 51
302.000594
  0
LINE
  5
5294
100
AcDbEntity
  8
0
100
AcDbLine
 10
444.292207
 20
563.090704
 30
0.0
 11
431.674207
 21
563.090704
 31
0.0
  0
ARC
  5
5295
100
AcDbEntity
  8
0
100
AcDbCircle
 10
443.475085
 20
550.590704
 30
0.0
 40
5.0
100
AcDbArc
 50
180.0
 51
270.0
  0
LINE
  5
5296
100
AcDbEntity
  8
0
100
AcDbLine
 10
431.674207
 20
563.090704
 30
0.0
 11
430.478207
 21
563.781704
 31
0.0
  0
ARC
  5
5297
100
AcDbEntity
  8
0
100
AcDbCircle
 10
437.983207
 20
576.596184
 30
0.0
 40
13.352467
100
AcDbArc
 50
253.680297
 51
286.319703
  0
ARC
  5
5298
100
AcDbEntity
  8
0
100
AcDbCircle
 10
432.354707
 20
566.784663
 30
0.0
 40
3.541047
100
AcDbArc
 50
237.999406
 51
302.000594
  0
LINE
  5
5299
100
AcDbEntity
  8
0
100
AcDbLine
 10
441.735207
 20
563.781704
 30
0.0
 11
441.735207
 21
569.590704
 31
0.0
  0
LINE
  5
529A
100
AcDbEntity
  8
0
100
AcDbLine
 10
434.231207
 20
563.781704
 30
0.0
 11
434.231207
 21
569.590704
 31
0.0
  0
LINE
  5
529B
100
AcDbEntity
  8
0
100
AcDbLine
 10
438.475085
 20
550.590704
 30
0.0
 11
438.475085
 21
563.090704
 31
0.0
  0
LINE
  5
529C
100
AcDbEntity
  8
0
100
AcDbLine
 10
445.489207
 20
563.781704
 30
0.0
 11
444.292207
 21
563.090704
 31
0.0
  0
LINE
  5
529D
100
AcDbEntity
  8
0
100
AcDbLine
 10
457.975085
 20
561.090704
 30
0.0
 11
457.975085
 21
558.590704
 31
0.0
  0
LINE
  5
529E
100
AcDbEntity
  8
0
100
AcDbLine
 10
457.975085
 20
556.090704
 30
0.0
 11
457.975085
 21
553.590704
 31
0.0
  0
LINE
  5
529F
100
AcDbEntity
  8
0
100
AcDbLine
 10
457.975085
 20
566.090704
 30
0.0
 11
457.975085
 21
563.590704
 31
0.0
  0
LINE
  5
52A0
100
AcDbEntity
  8
0
100
AcDbLine
 10
457.475085
 20
566.090704
 30
0.0
 11
457.475085
 21
568.590704
 31
0.0
  0
LINE
  5
52A1
100
AcDbEntity
  8
0
100
AcDbLine
 10
457.475085
 20
561.090704
 30
0.0
 11
457.475085
 21
563.590704
 31
0.0
  0
LINE
  5
52A2
100
AcDbEntity
  8
0
100
AcDbLine
 10
457.475085
 20
561.090704
 30
0.0
 11
457.475085
 21
563.590704
 31
0.0
  0
LINE
  5
52A3
100
AcDbEntity
  8
0
100
AcDbLine
 10
457.475085
 20
556.090704
 30
0.0
 11
457.475085
 21
558.590704
 31
0.0
  0
LINE
  5
52A4
100
AcDbEntity
  8
0
100
AcDbLine
 10
457.475085
 20
551.090704
 30
0.0
 11
457.475085
 21
553.590704
 31
0.0
  0
LINE
  5
52A5
100
AcDbEntity
  8
0
100
AcDbLine
 10
457.475085
 20
545.590704
 30
0.0
 11
457.475085
 21
548.590704
 31
0.0
  0
LINE
  5
52A6
100
AcDbEntity
  8
0
100
AcDbLine
 10
457.975085
 20
551.090704
 30
0.0
 11
457.975085
 21
548.590704
 31
0.0
  0
ARC
  5
52A7
100
AcDbEntity
  8
0
100
AcDbCircle
 10
466.975085
 20
589.590704
 30
0.0
 40
9.25
100
AcDbArc
 50
202.978669
 51
216.89461
  0
ARC
  5
52A8
100
AcDbEntity
  8
0
100
AcDbCircle
 10
466.975085
 20
589.590704
 30
0.0
 40
9.25
100
AcDbArc
 50
143.10539
 51
157.021331
  0
POLYLINE
  5
52A9
100
AcDbEntity
  8
0
100
AcDb2dPolyline
 66
     1
 10
0.0
 20
0.0
 30
0.0
  0
VERTEX
  5
5A04
100
AcDbEntity
  8
0
100
AcDbVertex
100
AcDb2dVertex
 10
458.45907
 20
593.201797
 30
0.0
  0
VERTEX
  5
5A05
100
AcDbEntity
  8
0
100
AcDbVertex
100
AcDb2dVertex
 10
458.45907
 20
585.979612
 30
0.0
  0
SEQEND
  5
5A06
100
AcDbEntity
  8
0
  0
LINE
  5
52AA
100
AcDbEntity
  8
0
100
AcDbLine
 10
457.475085
 20
571.090704
 30
0.0
 11
457.475085
 21
571.590704
 31
0.0
  0
LINE
  5
52AB
100
AcDbEntity
  8
0
100
AcDbLine
 10
475.975085
 20
571.090704
 30
0.0
 11
475.975085
 21
568.590704
 31
0.0
  0
LINE
  5
52AC
100
AcDbEntity
  8
0
100
AcDbLine
 10
488.460963
 20
563.781704
 30
0.0
 11
488.460963
 21
571.590704
 31
0.0
  0
LINE
  5
52AD
100
AcDbEntity
  8
0
100
AcDbLine
 10
475.975085
 20
561.090704
 30
0.0
 11
475.975085
 21
558.590704
 31
0.0
  0
LINE
  5
52AE
100
AcDbEntity
  8
0
100
AcDbLine
 10
475.975085
 20
556.090704
 30
0.0
 11
475.975085
 21
553.590704
 31
0.0
  0
LINE
  5
52AF
100
AcDbEntity
  8
0
100
AcDbLine
 10
475.975085
 20
566.090704
 30
0.0
 11
475.975085
 21
563.590704
 31
0.0
  0
LINE
  5
52B0
100
AcDbEntity
  8
0
100
AcDbLine
 10
476.475085
 20
566.090704
 30
0.0
 11
476.475085
 21
568.590704
 31
0.0
  0
LINE
  5
52B1
100
AcDbEntity
  8
0
100
AcDbLine
 10
476.475085
 20
561.090704
 30
0.0
 11
476.475085
 21
563.590704
 31
0.0
  0
LINE
  5
52B2
100
AcDbEntity
  8
0
100
AcDbLine
 10
476.475085
 20
561.090704
 30
0.0
 11
476.475085
 21
563.590704
 31
0.0
  0
LINE
  5
52B3
100
AcDbEntity
  8
0
100
AcDbLine
 10
476.475085
 20
556.090704
 30
0.0
 11
476.475085
 21
558.590704
 31
0.0
  0
LINE
  5
52B4
100
AcDbEntity
  8
0
100
AcDbLine
 10
476.475085
 20
551.090704
 30
0.0
 11
476.475085
 21
553.590704
 31
0.0
  0
LINE
  5
52B5
100
AcDbEntity
  8
0
100
AcDbLine
 10
476.475085
 20
545.590704
 30
0.0
 11
476.475085
 21
548.590704
 31
0.0
  0
LINE
  5
52B6
100
AcDbEntity
  8
0
100
AcDbLine
 10
475.975085
 20
551.090704
 30
0.0
 11
475.975085
 21
548.590704
 31
0.0
  0
LINE
  5
52B7
100
AcDbEntity
  8
0
100
AcDbLine
 10
489.656963
 20
563.090704
 30
0.0
 11
488.460963
 21
563.781704
 31
0.0
  0
ARC
  5
52B8
100
AcDbEntity
  8
0
100
AcDbCircle
 10
490.337463
 20
566.784663
 30
0.0
 40
3.541047
100
AcDbArc
 50
237.999406
 51
302.000594
  0
LINE
  5
52B9
100
AcDbEntity
  8
0
100
AcDbLine
 10
492.213963
 20
563.781704
 30
0.0
 11
492.213963
 21
569.590704
 31
0.0
  0
ARC
  5
52BA
100
AcDbEntity
  8
0
100
AcDbCircle
 10
466.975085
 20
589.590704
 30
0.0
 40
9.25
100
AcDbArc
 50
23.481672
 51
36.643119
  0
ARC
  5
52BB
100
AcDbEntity
  8
0
100
AcDbCircle
 10
466.975085
 20
589.590704
 30
0.0
 40
9.25
100
AcDbArc
 50
323.356881
 51
336.518328
  0
ARC
  5
52BC
100
AcDbEntity
  8
0
100
AcDbCircle
 10
466.975085
 20
589.590704
 30
0.0
 40
9.25
100
AcDbArc
 50
263.10539
 51
276.643119
  0
POLYLINE
  5
52BD
100
AcDbEntity
  8
0
100
AcDb2dPolyline
 66
     1
 10
0.0
 20
0.0
 30
0.0
  0
VERTEX
  5
5A07
100
AcDbEntity
  8
0
100
AcDbVertex
100
AcDb2dVertex
 10
475.45907
 20
585.904989
 30
0.0
  0
VERTEX
  5
5A08
100
AcDbEntity
  8
0
100
AcDbVertex
100
AcDb2dVertex
 10
475.45907
 20
593.27642
 30
0.0
  0
SEQEND
  5
5A09
100
AcDbEntity
  8
0
  0
POLYLINE
  5
52BE
100
AcDbEntity
  8
0
100
AcDb2dPolyline
 66
     1
 10
0.0
 20
0.0
 30
0.0
  0
VERTEX
  5
5A0A
100
AcDbEntity
  8
0
100
AcDbVertex
100
AcDb2dVertex
 10
468.045169
 20
580.402809
 30
0.0
  0
VERTEX
  5
5A0B
100
AcDbEntity
  8
0
100
AcDbVertex
100
AcDb2dVertex
 10
474.396994
 20
584.070037
 30
0.0
  0
SEQEND
  5
5A0C
100
AcDbEntity
  8
0
  0
LINE
  5
52BF
100
AcDbEntity
  8
0
100
AcDbLine
 10
476.475085
 20
571.090704
 30
0.0
 11
476.475085
 21
571.590704
 31
0.0
  0
LINE
  5
52C0
100
AcDbEntity
  8
0
100
AcDbLine
 10
503.471963
 20
571.590704
 30
0.0
 11
503.471963
 21
563.781704
 31
0.0
  0
LINE
  5
52C1
100
AcDbEntity
  8
0
100
AcDbLine
 10
503.471963
 20
563.781704
 30
0.0
 11
502.274963
 21
563.090704
 31
0.0
  0
ARC
  5
52C2
100
AcDbEntity
  8
0
100
AcDbCircle
 10
501.594463
 20
566.784663
 30
0.0
 40
3.541047
100
AcDbArc
 50
237.999406
 51
302.000594
  0
LINE
  5
52C3
100
AcDbEntity
  8
0
100
AcDbLine
 10
499.717963
 20
563.781704
 30
0.0
 11
499.717963
 21
569.590704
 31
0.0
  0
LINE
  5
52C4
100
AcDbEntity
  8
0
100
AcDbLine
 10
520.475085
 20
571.590704
 30
0.0
 11
520.475085
 21
579.590704
 31
0.0
  0
LINE
  5
52C5
100
AcDbEntity
  8
0
100
AcDbLine
 10
520.475085
 20
599.590704
 30
0.0
 11
413.475085
 21
599.590704
 31
0.0
  0
LINE
  5
52C6
100
AcDbEntity
  8
0
100
AcDbLine
 10
520.475085
 20
629.590704
 30
0.0
 11
413.475085
 21
629.590704
 31
0.0
  0
LINE
  5
52C7
100
AcDbEntity
  8
0
100
AcDbLine
 10
413.475085
 20
629.590704
 30
0.0
 11
426.564274
 21
726.179894
 31
0.0
  0
LINE
  5
52C8
100
AcDbEntity
  8
0
100
AcDbLine
 10
413.475085
 20
599.590704
 30
0.0
 11
413.475085
 21
629.590704
 31
0.0
  0
LINE
  5
52C9
100
AcDbEntity
  8
0
100
AcDbLine
 10
520.475085
 20
629.590704
 30
0.0
 11
507.385896
 21
726.179894
 31
0.0
  0
ARC
  5
52CA
100
AcDbEntity
  8
0
100
AcDbCircle
 10
466.975085
 20
589.590704
 30
0.0
 40
9.25
100
AcDbArc
 50
83.356881
 51
96.89461
  0
LINE
  5
52CB
100
AcDbEntity
  8
0
100
AcDbLine
 10
520.475085
 20
599.590704
 30
0.0
 11
520.475085
 21
629.590704
 31
0.0
  0
LINE
  5
52CC
100
AcDbEntity
  8
0
100
AcDbLine
 10
507.385896
 20
726.179894
 30
0.0
 11
426.564274
 21
726.179894
 31
0.0
  0
LINE
  5
52CD
100
AcDbEntity
  8
0
100
AcDbLine
 10
496.975085
 20
736.590704
 30
0.0
 11
436.975085
 21
736.590704
 31
0.0
  0
LINE
  5
52CE
100
AcDbEntity
  8
0
100
AcDbLine
 10
436.975085
 20
736.590704
 30
0.0
 11
426.564274
 21
726.179894
 31
0.0
  0
LINE
  5
52CF
100
AcDbEntity
  8
0
100
AcDbLine
 10
496.975085
 20
736.590704
 30
0.0
 11
507.385896
 21
726.179894
 31
0.0
  0
LINE
  5
52D0
100
AcDbEntity
  8
0
100
AcDbLine
 10
788.7454
 20
380.022498
 30
0.0
 11
800.766216
 21
392.043313
 31
0.0
  0
LINE
  5
52D1
100
AcDbEntity
  8
0
100
AcDbLine
 10
777.448872
 20
384.296708
 30
0.0
 11
796.492005
 21
403.339842
 31
0.0
  0
LINE
  5
52D2
100
AcDbEntity
  8
0
100
AcDbLine
 10
769.983724
 20
385.977868
 30
0.0
 11
795.851826
 21
411.86142
 31
0.0
  0
CIRCLE
  5
52D3
100
AcDbEntity
  8
0
100
AcDbCircle
 10
734.159017
 20
394.59381
 30
0.0
 40
15.010352
  0
ARC
  5
52D4
100
AcDbEntity
  8
0
100
AcDbCircle
 10
659.101603
 20
392.366497
 30
0.0
 40
3.541047
100
AcDbArc
 50
137.986212
 51
201.987401
  0
LINE
  5
52D5
100
AcDbEntity
  8
0
100
AcDbLine
 10
655.817936
 20
391.039734
 30
0.0
 11
655.34559
 21
392.338649
 31
0.0
  0
LINE
  5
52D6
100
AcDbEntity
  8
0
100
AcDbLine
 10
682.226351
 20
383.40804
 30
0.0
 11
695.425152
 21
458.299015
 31
0.0
  0
LINE
  5
52D7
100
AcDbEntity
  8
0
100
AcDbLine
 10
685.580189
 20
460.04812
 30
0.0
 11
672.367301
 21
385.147136
 31
0.0
  0
LINE
  5
52D8
100
AcDbEntity
  8
0
100
AcDbLine
 10
684.09449
 20
460.309131
 30
0.0
 11
670.895387
 21
385.407475
 31
0.0
  0
LINE
  5
52D9
100
AcDbEntity
  8
0
100
AcDbLine
 10
674.24635
 20
462.046303
 30
0.0
 11
661.030787
 21
387.14755
 31
0.0
  0
ARC
  5
52DA
100
AcDbEntity
  8
0
100
AcDbCircle
 10
1072.392594
 20
384.262128
 30
0.0
 40
10.0
100
AcDbArc
 50
95.287125
 51
138.365006
  0
ELLIPSE
  5
52DB
100
AcDbEntity
  8
0
100
AcDbEllipse
 10
1040.088923
 20
405.514616
 30
0.0
 11
-26.79129999999997
 21
0.0
 31
0.0
210
0.0
220
0.0
230
1.0
 40
0.698623
 41
8.415985257308701
 42
9.470080485211866
  0
ARC
  5
52DC
100
AcDbEntity
  8
0
100
AcDbCircle
 10
1070.088923
 20
409.155764
 30
0.0
 40
15.0
100
AcDbArc
 50
275.287125
 51
0.0
  0
ELLIPSE
  5
52DD
100
AcDbEntity
  8
0
100
AcDbEllipse
 10
1040.088923
 20
405.514616
 30
0.0
 11
-26.79129999999997
 21
0.0
 31
0.0
210
0.0
220
0.0
230
1.0
 40
0.698623
 41
6.237882782737512
 42
7.291978010640269
  0
ELLIPSE
  5
52DE
100
AcDbEntity
  8
0
100
AcDbEllipse
 10
1040.088923
 20
393.818275
 30
0.0
 11
-13.46000000000003
 21
0.0
 31
0.0
210
0.0
220
0.0
230
1.0
 40
0.707107
 41
2.254283521725644
 42
7.170494439043817
  0
ELLIPSE
  5
52DF
100
AcDbEntity
  8
0
100
AcDbEllipse
 10
1040.088923
 20
398.541532
 30
0.0
 11
-19.0
 21
0.0
 31
0.0
210
0.0
220
0.0
230
1.0
 40
0.707107
 41
2.056715815188956
 42
7.368062145580465
  0
ELLIPSE
  5
52E0
100
AcDbEntity
  8
0
100
AcDbEllipse
 10
1028.088923
 20
413.129755
 30
0.0
 11
-28.0
 21
0.0
 31
0.0
210
0.0
220
0.0
230
1.0
 40
0.984808
 41
5.668392056539574
 42
7.544633709209753
  0
LINE
  5
52E1
100
AcDbEntity
  8
0
100
AcDbLine
 10
1048.588923
 20
399.828683
 30
0.0
 11
1048.588923
 21
380.022498
 31
0.0
  0
LINE
  5
52E2
100
AcDbEntity
  8
0
100
AcDbLine
 10
1031.588923
 20
399.828683
 30
0.0
 11
1031.588923
 21
380.022498
 31
0.0
  0
LINE
  5
52E3
100
AcDbEntity
  8
0
100
AcDbLine
 10
995.088923
 20
407.583458
 30
0.0
 11
995.088923
 21
381.583458
 31
0.0
  0
LINE
  5
52E4
100
AcDbEntity
  8
0
100
AcDbLine
 10
1088.088923
 20
407.583458
 30
0.0
 11
1088.088923
 21
381.583458
 31
0.0
  0
LINE
  5
52E7
100
AcDbEntity
  8
0
100
AcDbLine
 10
683.094857
 20
388.336005
 30
0.0
 11
731.407119
 21
379.83363
 31
0.0
  0
LINE
  5
52E8
100
AcDbEntity
  8
0
100
AcDbLine
 10
670.895387
 20
385.407475
 30
0.0
 11
661.030771
 21
387.147455
 31
0.0
  0
LINE
  5
52E9
100
AcDbEntity
  8
0
100
AcDbLine
 10
661.538452
 20
390.029695
 30
0.0
 11
655.817936
 21
391.039734
 31
0.0
  0
LINE
  5
52EA
100
AcDbEntity
  8
0
100
AcDbLine
 10
672.366402
 20
385.147295
 30
0.0
 11
682.226351
 21
383.40804
 31
0.0
  0
LINE
  5
52EB
100
AcDbEntity
  8
0
100
AcDbLine
 10
673.166954
 20
389.680421
 30
0.0
 11
671.685932
 21
389.940601
 31
0.0
  0
LINE
  5
52EC
100
AcDbEntity
  8
0
100
AcDbLine
 10
752.521681
 20
387.438875
 30
0.0
 11
767.522026
 21
385.117274
 31
0.0
  0
ARC
  5
52ED
100
AcDbEntity
  8
0
100
AcDbCircle
 10
752.523532
 20
377.426744
 30
0.0
 40
10.012131
100
AcDbArc
 50
90.01059
 51
133.933444
  0
LINE
  5
52EE
100
AcDbEntity
  8
0
100
AcDbLine
 10
743.845698
 20
383.127386
 30
0.0
 11
745.576892
 21
384.636943
 31
0.0
  0
LINE
  5
52EF
100
AcDbEntity
  8
0
100
AcDbLine
 10
773.015815
 20
389.019966
 30
0.0
 11
777.448872
 21
384.296708
 31
0.0
  0
ARC
  5
52F0
100
AcDbEntity
  8
0
100
AcDbCircle
 10
768.117437
 20
387.36522
 30
0.0
 40
2.325462
100
AcDbArc
 50
255.164798
 51
323.373791
  0
LINE
  5
52F1
100
AcDbEntity
  8
0
100
AcDbLine
 10
780.960031
 20
387.807867
 30
0.0
 11
788.7454
 21
380.022498
 31
0.0
  0
LINE
  5
52F2
100
AcDbEntity
  8
0
100
AcDbLine
 10
1031.588923
 20
380.022498
 30
0.0
 11
1048.588923
 21
380.022498
 31
0.0
  0
LINE
  5
52F3
100
AcDbEntity
  8
0
100
AcDbLine
 10
997.088923
 20
379.583458
 30
0.0
 11
1086.088923
 21
379.583458
 31
0.0
  0
ARC
  5
52F4
100
AcDbEntity
  8
0
100
AcDbCircle
 10
997.088923
 20
381.583458
 30
0.0
 40
2.0
100
AcDbArc
 50
180.0
 51
270.0
  0
ELLIPSE
  5
52F5
100
AcDbEntity
  8
0
100
AcDbEllipse
 10
1040.088923
 20
412.312417
 30
0.0
 11
-33.0
 21
0.0
 31
0.0
210
0.0
220
0.0
230
1.0
 40
0.984808
 41
0.8995696233552447
 42
1.310283863427573
  0
ELLIPSE
  5
52F6
100
AcDbEntity
  8
0
100
AcDbEllipse
 10
1040.088923
 20
412.312417
 30
0.0
 11
-33.0
 21
0.0
 31
0.0
210
0.0
220
0.0
230
1.0
 40
0.984808
 41
1.831308790162253
 42
2.422519496535802
  0
ARC
  5
52F7
100
AcDbEntity
  8
0
100
AcDbCircle
 10
1086.088923
 20
381.583458
 30
0.0
 40
2.0
100
AcDbArc
 50
270.0
 51
0.0
  0
LINE
  5
52F8
100
AcDbEntity
  8
0
100
AcDbLine
 10
673.389176
 20
597.672005
 30
0.0
 11
673.389176
 21
581.509404
 31
0.0
  0
LINE
  5
52F9
100
AcDbEntity
  8
0
100
AcDbLine
 10
677.234704
 20
596.517534
 30
0.0
 11
677.234704
 21
582.663875
 31
0.0
  0
LINE
  5
52FA
100
AcDbEntity
  8
0
100
AcDbLine
 10
802.389176
 20
579.590704
 30
0.0
 11
802.389176
 21
599.590704
 31
0.0
  0
LINE
  5
52FB
100
AcDbEntity
  8
0
100
AcDbLine
 10
685.698119
 20
595.363062
 30
0.0
 11
682.234704
 21
594.395582
 31
0.0
  0
LINE
  5
52FC
100
AcDbEntity
  8
0
100
AcDbLine
 10
695.389176
 20
579.590704
 30
0.0
 11
695.389176
 21
599.590704
 31
0.0
  0
LINE
  5
52FD
100
AcDbEntity
  8
0
100
AcDbLine
 10
681.088363
 20
598.436233
 30
0.0
 11
681.088363
 21
581.12729
 31
0.0
  0
LINE
  5
52FE
100
AcDbEntity
  8
0
100
AcDbLine
 10
802.389176
 20
579.590704
 30
0.0
 11
695.389176
 21
579.590704
 31
0.0
  0
LINE
  5
52FF
100
AcDbEntity
  8
0
100
AcDbLine
 10
695.389176
 20
571.590704
 30
0.0
 11
802.389176
 21
571.590704
 31
0.0
  0
LINE
  5
5300
100
AcDbEntity
  8
0
100
AcDbLine
 10
700.645163
 20
508.602437
 30
0.0
 11
693.121456
 21
515.607267
 31
0.0
  0
LINE
  5
5301
100
AcDbEntity
  8
0
100
AcDbLine
 10
693.270818
 20
513.085528
 30
0.0
 11
693.270818
 21
468.985114
 31
0.0
  0
LINE
  5
5302
100
AcDbEntity
  8
0
100
AcDbLine
 10
667.633137
 20
491.590704
 30
0.0
 11
667.633137
 21
515.607267
 31
0.0
  0
LINE
  5
5303
100
AcDbEntity
  8
0
100
AcDbLine
 10
659.633137
 20
512.530015
 30
0.0
 11
659.633137
 21
470.651394
 31
0.0
  0
ARC
  5
5304
100
AcDbEntity
  8
0
100
AcDbCircle
 10
598.966471
 20
491.590704
 30
0.0
 40
60.666667
100
AcDbArc
 50
349.582562
 51
10.417438
  0
ARC
  5
5305
100
AcDbEntity
  8
0
100
AcDbCircle
 10
713.299804
 20
491.590704
 30
0.0
 40
60.666667
100
AcDbArc
 50
169.582562
 51
190.417438
  0
LINE
  5
5306
100
AcDbEntity
  8
0
100
AcDbLine
 10
652.633137
 20
512.530015
 30
0.0
 11
652.633137
 21
491.590704
 31
0.0
  0
LINE
  5
5307
100
AcDbEntity
  8
0
100
AcDbLine
 10
658.427973
 20
405.822083
 30
0.0
 11
664.148489
 21
404.812043
 31
0.0
  0
LINE
  5
5308
100
AcDbEntity
  8
0
100
AcDbLine
 10
657.77542
 20
402.12625
 30
0.0
 11
663.495936
 21
401.11621
 31
0.0
  0
LINE
  5
5309
100
AcDbEntity
  8
0
100
AcDbLine
 10
656.470663
 20
394.736552
 30
0.0
 11
662.191179
 21
393.726513
 31
0.0
  0
ARC
  5
530A
100
AcDbEntity
  8
0
100
AcDbCircle
 10
661.058913
 20
403.452027
 30
0.0
 40
3.541047
100
AcDbArc
 50
137.986212
 51
201.987401
  0
LINE
  5
530B
100
AcDbEntity
  8
0
100
AcDbLine
 10
657.539544
 20
404.764448
 30
0.0
 11
658.427973
 21
405.822083
 31
0.0
  0
ARC
  5
530C
100
AcDbEntity
  8
0
100
AcDbCircle
 10
669.742327
 20
396.203284
 30
0.0
 40
13.352467
100
AcDbArc
 50
153.667103
 51
186.30651
  0
LINE
  5
530D
100
AcDbEntity
  8
0
100
AcDbLine
 10
655.34559
 20
392.338649
 30
0.0
 11
657.539544
 21
404.764448
 31
0.0
  0
LINE
  5
530E
100
AcDbEntity
  8
0
100
AcDbLine
 10
659.633137
 20
474.966204
 30
0.0
 11
667.633137
 21
475.466204
 31
0.0
  0
LINE
  5
530F
100
AcDbEntity
  8
0
100
AcDbLine
 10
652.633137
 20
470.651394
 30
0.0
 11
653.633137
 21
469.651394
 31
0.0
  0
ARC
  5
5310
100
AcDbEntity
  8
0
100
AcDbCircle
 10
668.174804
 20
475.136222
 30
0.0
 40
15.541667
100
AcDbArc
 50
159.334522
 51
200.665478
  0
LINE
  5
5311
100
AcDbEntity
  8
0
100
AcDbLine
 10
653.633137
 20
469.651394
 30
0.0
 11
658.633137
 21
469.651394
 31
0.0
  0
LINE
  5
5312
100
AcDbEntity
  8
0
100
AcDbLine
 10
653.633137
 20
480.621049
 30
0.0
 11
658.633137
 21
480.621049
 31
0.0
  0
LINE
  5
5313
100
AcDbEntity
  8
0
100
AcDbLine
 10
652.633137
 20
491.590704
 30
0.0
 11
652.633137
 21
470.651394
 31
0.0
  0
LINE
  5
5314
100
AcDbEntity
  8
0
100
AcDbLine
 10
659.633137
 20
470.651394
 30
0.0
 11
658.633137
 21
469.651394
 31
0.0
  0
ARC
  5
5315
100
AcDbEntity
  8
0
100
AcDbCircle
 10
644.091471
 20
475.136222
 30
0.0
 40
15.541667
100
AcDbArc
 50
339.334522
 51
20.665478
  0
ARC
  5
5316
100
AcDbEntity
  8
0
100
AcDbCircle
 10
691.589618
 20
464.569999
 30
0.0
 40
3.004142
100
AcDbArc
 50
329.626963
 51
89.999218
  0
LINE
  5
5317
100
AcDbEntity
  8
0
100
AcDbLine
 10
667.633137
 20
467.574141
 30
0.0
 11
667.633137
 21
491.590704
 31
0.0
  0
LINE
  5
5318
100
AcDbEntity
  8
0
100
AcDbLine
 10
667.633137
 20
467.574141
 30
0.0
 11
691.589659
 21
467.574141
 31
0.0
  0
LINE
  5
5319
100
AcDbEntity
  8
0
100
AcDbLine
 10
674.246333
 20
462.046207
 30
0.0
 11
684.09449
 21
460.309131
 31
0.0
  0
ARC
  5
531A
100
AcDbEntity
  8
0
100
AcDbCircle
 10
668.69279
 20
446.716765
 30
0.0
 40
3.541047
100
AcDbArc
 50
137.999406
 51
202.000594
  0
LINE
  5
531B
100
AcDbEntity
  8
0
100
AcDbLine
 10
664.936784
 20
446.688052
 30
0.0
 11
665.409603
 21
445.390231
 31
0.0
  0
LINE
  5
531C
100
AcDbEntity
  8
0
100
AcDbLine
 10
665.409603
 20
445.390231
 30
0.0
 11
671.130351
 21
444.381509
 31
0.0
  0
LINE
  5
531D
100
AcDbEntity
  8
0
100
AcDbLine
 10
668.016235
 20
460.17318
 30
0.0
 11
667.127876
 21
459.114356
 31
0.0
  0
LINE
  5
531E
100
AcDbEntity
  8
0
100
AcDbLine
 10
673.736984
 20
459.164458
 30
0.0
 11
668.016235
 21
460.17318
 31
0.0
  0
LINE
  5
531F
100
AcDbEntity
  8
0
100
AcDbLine
 10
666.061304
 20
449.086215
 30
0.0
 11
671.782052
 21
448.077492
 31
0.0
  0
ARC
  5
5320
100
AcDbEntity
  8
0
100
AcDbCircle
 10
679.332631
 20
450.556002
 30
0.0
 40
13.352467
100
AcDbArc
 50
153.680297
 51
186.319703
  0
LINE
  5
5321
100
AcDbEntity
  8
0
100
AcDbLine
 10
667.36436
 20
456.476212
 30
0.0
 11
673.085108
 21
455.46749
 31
0.0
  0
ARC
  5
5322
100
AcDbEntity
  8
0
100
AcDbCircle
 10
670.647548
 20
457.802745
 30
0.0
 40
3.541047
100
AcDbArc
 50
137.999406
 51
202.000594
  0
LINE
  5
5323
100
AcDbEntity
  8
0
100
AcDbLine
 10
667.127876
 20
459.114356
 30
0.0
 11
664.936784
 21
446.688052
 31
0.0
  0
LINE
  5
5324
100
AcDbEntity
  8
0
100
AcDbLine
 10
683.293938
 20
455.776005
 30
0.0
 11
684.774959
 21
455.515825
 31
0.0
  0
LINE
  5
5325
100
AcDbEntity
  8
0
100
AcDbLine
 10
695.424958
 20
458.297916
 30
0.0
 11
685.575511
 21
460.048951
 31
0.0
  0
ARC
  5
5326
100
AcDbEntity
  8
0
100
AcDbCircle
 10
690.329242
 20
463.105756
 30
0.0
 40
3.852593
100
AcDbArc
 50
264.328754
 51
359.18597
  0
LINE
  5
5327
100
AcDbEntity
  8
0
100
AcDbLine
 10
659.633137
 20
508.215204
 30
0.0
 11
667.633137
 21
507.715204
 31
0.0
  0
ARC
  5
5328
100
AcDbEntity
  8
0
100
AcDbCircle
 10
668.174804
 20
508.045187
 30
0.0
 40
15.541667
100
AcDbArc
 50
159.334522
 51
200.665478
  0
LINE
  5
5329
100
AcDbEntity
  8
0
100
AcDbLine
 10
652.633137
 20
512.530015
 30
0.0
 11
653.633137
 21
513.530015
 31
0.0
  0
LINE
  5
532A
100
AcDbEntity
  8
0
100
AcDbLine
 10
653.633137
 20
502.560359
 30
0.0
 11
658.633137
 21
502.560359
 31
0.0
  0
LINE
  5
532B
100
AcDbEntity
  8
0
100
AcDbLine
 10
653.633137
 20
513.530015
 30
0.0
 11
658.633137
 21
513.530015
 31
0.0
  0
ARC
  5
532C
100
AcDbEntity
  8
0
100
AcDbCircle
 10
644.091471
 20
508.045187
 30
0.0
 40
15.541667
100
AcDbArc
 50
339.334522
 51
20.665478
  0
LINE
  5
532D
100
AcDbEntity
  8
0
100
AcDbLine
 10
659.633137
 20
512.530015
 30
0.0
 11
658.633137
 21
513.530015
 31
0.0
  0
LINE
  5
532E
100
AcDbEntity
  8
0
100
AcDbLine
 10
693.121456
 20
515.607267
 30
0.0
 11
667.633137
 21
515.607267
 31
0.0
  0
LINE
  5
532F
100
AcDbEntity
  8
0
100
AcDbLine
 10
681.088363
 20
582.663875
 30
0.0
 11
677.234704
 21
582.663875
 31
0.0
  0
LINE
  5
5330
100
AcDbEntity
  8
0
100
AcDbLine
 10
673.389176
 20
595.111372
 30
0.0
 11
677.234704
 21
595.111372
 31
0.0
  0
LINE
  5
5331
100
AcDbEntity
  8
0
100
AcDbLine
 10
673.389176
 20
593.27642
 30
0.0
 11
677.234704
 21
593.27642
 31
0.0
  0
LINE
  5
5332
100
AcDbEntity
  8
0
100
AcDbLine
 10
673.389176
 20
585.904989
 30
0.0
 11
677.234704
 21
585.904989
 31
0.0
  0
LINE
  5
5333
100
AcDbEntity
  8
0
100
AcDbLine
 10
673.389176
 20
584.070037
 30
0.0
 11
677.234704
 21
584.070037
 31
0.0
  0
LINE
  5
5334
100
AcDbEntity
  8
0
100
AcDbLine
 10
673.389176
 20
581.509404
 30
0.0
 11
674.161534
 21
580.363062
 31
0.0
  0
LINE
  5
5335
100
AcDbEntity
  8
0
100
AcDbLine
 10
674.161534
 20
580.363062
 30
0.0
 11
677.234704
 21
580.363062
 31
0.0
  0
LINE
  5
5336
100
AcDbEntity
  8
0
100
AcDbLine
 10
677.234704
 20
580.363062
 30
0.0
 11
677.234704
 21
582.663875
 31
0.0
  0
LINE
  5
5337
100
AcDbEntity
  8
0
100
AcDbLine
 10
682.234704
 20
594.395582
 30
0.0
 11
685.698119
 21
593.436233
 31
0.0
  0
LINE
  5
5338
100
AcDbEntity
  8
0
100
AcDbLine
 10
685.698119
 20
593.436233
 30
0.0
 11
691.852591
 21
593.436233
 31
0.0
  0
LINE
  5
5339
100
AcDbEntity
  8
0
100
AcDbLine
 10
685.698119
 20
579.590704
 30
0.0
 11
682.007062
 21
581.045989
 31
0.0
  0
LINE
  5
533A
100
AcDbEntity
  8
0
100
AcDbLine
 10
682.234704
 20
584.785826
 30
0.0
 11
685.698119
 21
583.818347
 31
0.0
  0
LINE
  5
533B
100
AcDbEntity
  8
0
100
AcDbLine
 10
685.698119
 20
585.745176
 30
0.0
 11
682.234704
 21
584.785826
 31
0.0
  0
LINE
  5
533C
100
AcDbEntity
  8
0
100
AcDbLine
 10
691.852591
 20
583.818347
 30
0.0
 11
691.852591
 21
579.590704
 31
0.0
  0
LINE
  5
533D
100
AcDbEntity
  8
0
100
AcDbLine
 10
685.698119
 20
583.818347
 30
0.0
 11
685.698119
 21
579.590704
 31
0.0
  0
LINE
  5
533E
100
AcDbEntity
  8
0
100
AcDbLine
 10
685.698119
 20
579.590704
 30
0.0
 11
695.389176
 21
579.590704
 31
0.0
  0
LINE
  5
533F
100
AcDbEntity
  8
0
100
AcDbLine
 10
691.852591
 20
585.745176
 30
0.0
 11
685.698119
 21
585.745176
 31
0.0
  0
LINE
  5
5340
100
AcDbEntity
  8
0
100
AcDbLine
 10
685.698119
 20
583.818347
 30
0.0
 11
691.852591
 21
583.818347
 31
0.0
  0
LINE
  5
5341
100
AcDbEntity
  8
0
100
AcDbLine
 10
695.389176
 20
571.590704
 30
0.0
 11
695.389176
 21
579.590704
 31
0.0
  0
LINE
  5
5342
100
AcDbEntity
  8
0
100
AcDbLine
 10
691.852591
 20
593.436233
 30
0.0
 11
691.852591
 21
585.745176
 31
0.0
  0
LINE
  5
5343
100
AcDbEntity
  8
0
100
AcDbLine
 10
685.698119
 20
593.436233
 30
0.0
 11
685.698119
 21
585.745176
 31
0.0
  0
LINE
  5
5344
100
AcDbEntity
  8
0
100
AcDbLine
 10
682.013836
 20
581.043318
 30
0.0
 11
681.088363
 21
581.12729
 31
0.0
  0
ARC
  5
5345
100
AcDbEntity
  8
0
100
AcDbCircle
 10
766.966471
 20
491.590704
 30
0.0
 40
60.666667
100
AcDbArc
 50
349.582562
 51
10.417438
  0
ARC
  5
5346
100
AcDbEntity
  8
0
100
AcDbCircle
 10
881.299804
 20
491.590704
 30
0.0
 40
60.666667
100
AcDbArc
 50
169.582562
 51
190.417438
  0
LINE
  5
5347
100
AcDbEntity
  8
0
100
AcDbLine
 10
820.633137
 20
512.530015
 30
0.0
 11
820.633137
 21
470.651394
 31
0.0
  0
LINE
  5
5348
100
AcDbEntity
  8
0
100
AcDbLine
 10
827.633137
 20
512.530015
 30
0.0
 11
827.633137
 21
491.590704
 31
0.0
  0
LINE
  5
5349
100
AcDbEntity
  8
0
100
AcDbLine
 10
812.633137
 20
491.590704
 30
0.0
 11
812.633137
 21
515.607267
 31
0.0
  0
LINE
  5
534A
100
AcDbEntity
  8
0
100
AcDbLine
 10
758.333137
 20
498.607267
 30
0.0
 11
758.333137
 21
469.607267
 31
0.0
  0
LINE
  5
534B
100
AcDbEntity
  8
0
100
AcDbLine
 10
761.597941
 20
502.598296
 30
0.0
 11
761.597941
 21
470.786357
 31
0.0
  0
LINE
  5
534C
100
AcDbEntity
  8
0
100
AcDbLine
 10
706.333137
 20
469.607267
 30
0.0
 11
706.333137
 21
498.607267
 31
0.0
  0
LINE
  5
534D
100
AcDbEntity
  8
0
100
AcDbLine
 10
698.654531
 20
506.62107
 30
0.0
 11
698.654531
 21
486.377109
 31
0.0
  0
LINE
  5
534E
100
AcDbEntity
  8
0
100
AcDbLine
 10
741.183862
 20
446.349504
 30
0.0
 11
741.183862
 21
427.646605
 31
0.0
  0
ARC
  5
534F
100
AcDbEntity
  8
0
100
AcDbCircle
 10
698.548189
 20
447.165321
 30
0.0
 40
8.003736
100
AcDbArc
 50
282.611099
 51
70.830929
  0
LINE
  5
5350
100
AcDbEntity
  8
0
100
AcDbLine
 10
761.297734
 20
468.364686
 30
0.0
 11
749.769783
 21
415.558268
 31
0.0
  0
ARC
  5
5351
100
AcDbEntity
  8
0
100
AcDbCircle
 10
729.681567
 20
413.555537
 30
0.0
 40
14.963232
100
AcDbArc
 50
350.419541
 51
216.140074
  0
ARC
  5
5352
100
AcDbEntity
  8
0
100
AcDbCircle
 10
701.388495
 20
434.474217
 30
0.0
 40
5.001319
100
AcDbArc
 50
102.621454
 51
170.009013
  0
LINE
  5
5353
100
AcDbEntity
  8
0
100
AcDbLine
 10
758.333137
 20
469.607267
 30
0.0
 11
706.333137
 21
469.607267
 31
0.0
  0
ARC
  5
5354
100
AcDbEntity
  8
0
100
AcDbCircle
 10
722.639292
 20
446.273754
 30
0.0
 40
18.544725
100
AcDbArc
 50
0.234037
 51
136.885973
  0
ARC
  5
5355
100
AcDbEntity
  8
0
100
AcDbCircle
 10
702.777851
 20
458.935088
 30
0.0
 40
4.50417
100
AcDbArc
 50
172.299808
 51
249.171167
  0
ARC
  5
5356
100
AcDbEntity
  8
0
100
AcDbCircle
 10
751.078294
 20
470.861002
 30
0.0
 40
10.519912
100
AcDbArc
 50
346.273094
 51
359.593446
  0
LINE
  5
5357
100
AcDbEntity
  8
0
100
AcDbLine
 10
795.851826
 20
411.86142
 30
0.0
 11
798.865652
 21
467.574141
 31
0.0
  0
LINE
  5
5358
100
AcDbEntity
  8
0
100
AcDbLine
 10
792.980846
 20
399.828683
 30
0.0
 11
800.766216
 21
392.043313
 31
0.0
  0
LINE
  5
5359
100
AcDbEntity
  8
0
100
AcDbLine
 10
796.492005
 20
403.339842
 30
0.0
 11
791.768748
 21
407.772899
 31
0.0
  0
LINE
  5
535A
100
AcDbEntity
  8
0
100
AcDbLine
 10
797.993041
 20
469.045156
 30
0.0
 11
786.845353
 21
480.583113
 31
0.0
  0
LINE
  5
535B
100
AcDbEntity
  8
0
100
AcDbLine
 10
812.633137
 20
467.574141
 30
0.0
 11
812.633137
 21
491.590704
 31
0.0
  0
LINE
  5
535C
100
AcDbEntity
  8
0
100
AcDbLine
 10
798.865652
 20
467.574141
 30
0.0
 11
812.633137
 21
467.574141
 31
0.0
  0
LINE
  5
535D
100
AcDbEntity
  8
0
100
AcDbLine
 10
820.633137
 20
474.966204
 30
0.0
 11
812.633137
 21
475.466204
 31
0.0
  0
LINE
  5
535E
100
AcDbEntity
  8
0
100
AcDbLine
 10
826.633137
 20
480.621049
 30
0.0
 11
821.633137
 21
480.621049
 31
0.0
  0
LINE
  5
535F
100
AcDbEntity
  8
0
100
AcDbLine
 10
826.633137
 20
469.651394
 30
0.0
 11
821.633137
 21
469.651394
 31
0.0
  0
ARC
  5
5360
100
AcDbEntity
  8
0
100
AcDbCircle
 10
836.174804
 20
475.136222
 30
0.0
 40
15.541667
100
AcDbArc
 50
159.334522
 51
200.665478
  0
LINE
  5
5361
100
AcDbEntity
  8
0
100
AcDbLine
 10
820.633137
 20
470.651394
 30
0.0
 11
821.633137
 21
469.651394
 31
0.0
  0
ARC
  5
5362
100
AcDbEntity
  8
0
100
AcDbCircle
 10
812.091471
 20
475.136222
 30
0.0
 40
15.541667
100
AcDbArc
 50
339.334522
 51
20.665478
  0
LINE
  5
5363
100
AcDbEntity
  8
0
100
AcDbLine
 10
827.633137
 20
470.651394
 30
0.0
 11
826.633137
 21
469.651394
 31
0.0
  0
LINE
  5
5364
100
AcDbEntity
  8
0
100
AcDbLine
 10
827.633137
 20
491.590704
 30
0.0
 11
827.633137
 21
470.651394
 31
0.0
  0
LINE
  5
5365
100
AcDbEntity
  8
0
100
AcDbLine
 10
728.889176
 20
545.590704
 30
0.0
 11
768.889176
 21
545.590704
 31
0.0
  0
LINE
  5
5366
100
AcDbEntity
  8
0
100
AcDbLine
 10
750.889176
 20
533.090704
 30
0.0
 11
767.889176
 21
533.090704
 31
0.0
  0
LINE
  5
5367
100
AcDbEntity
  8
0
100
AcDbLine
 10
728.889176
 20
538.590704
 30
0.0
 11
768.889176
 21
538.590704
 31
0.0
  0
LINE
  5
5368
100
AcDbEntity
  8
0
100
AcDbLine
 10
767.902288
 20
518.590704
 30
0.0
 11
729.876063
 21
518.590704
 31
0.0
  0
ARC
  5
5369
100
AcDbEntity
  8
0
100
AcDbCircle
 10
774.724013
 20
502.481196
 30
0.0
 40
13.126594
100
AcDbArc
 50
90.511133
 51
179.488867
  0
LINE
  5
536A
100
AcDbEntity
  8
0
100
AcDbLine
 10
728.889176
 20
571.590704
 30
0.0
 11
728.889176
 21
538.590704
 31
0.0
  0
ARC
  5
536B
100
AcDbEntity
  8
0
100
AcDbCircle
 10
726.886522
 20
511.591978
 30
0.0
 40
2.989568
100
AcDbArc
 50
269.759885
 51
0.240115
  0
LINE
  5
536C
100
AcDbEntity
  8
0
100
AcDbLine
 10
706.333137
 20
498.607267
 30
0.0
 11
758.333137
 21
498.607267
 31
0.0
  0
LINE
  5
536D
100
AcDbEntity
  8
0
100
AcDbLine
 10
726.873993
 20
508.602437
 30
0.0
 11
700.645163
 21
508.602437
 31
0.0
  0
LINE
  5
536E
100
AcDbEntity
  8
0
100
AcDbLine
 10
750.889176
 20
518.590704
 30
0.0
 11
750.889176
 21
533.090704
 31
0.0
  0
LINE
  5
536F
100
AcDbEntity
  8
0
100
AcDbLine
 10
753.436968
 20
533.090704
 30
0.0
 11
753.436968
 21
518.590704
 31
0.0
  0
LINE
  5
5370
100
AcDbEntity
  8
0
100
AcDbLine
 10
744.341384
 20
533.090704
 30
0.0
 11
744.341384
 21
518.590704
 31
0.0
  0
LINE
  5
5371
100
AcDbEntity
  8
0
100
AcDbLine
 10
746.889176
 20
518.590704
 30
0.0
 11
746.889176
 21
533.090704
 31
0.0
  0
LINE
  5
5372
100
AcDbEntity
  8
0
100
AcDbLine
 10
729.889176
 20
538.590704
 30
0.0
 11
729.889176
 21
518.590704
 31
0.0
  0
LINE
  5
5373
100
AcDbEntity
  8
0
100
AcDbLine
 10
729.876063
 20
508.602437
 30
0.0
 11
740.09311
 21
499.456129
 31
0.0
  0
LINE
  5
5374
100
AcDbEntity
  8
0
100
AcDbLine
 10
729.876063
 20
518.590704
 30
0.0
 11
729.876063
 21
511.604507
 31
0.0
  0
LINE
  5
5375
100
AcDbEntity
  8
0
100
AcDbLine
 10
729.889176
 20
533.090704
 30
0.0
 11
746.889176
 21
533.090704
 31
0.0
  0
LINE
  5
5376
100
AcDbEntity
  8
0
100
AcDbLine
 10
736.889176
 20
538.590704
 30
0.0
 11
736.889176
 21
533.090704
 31
0.0
  0
LINE
  5
5377
100
AcDbEntity
  8
0
100
AcDbLine
 10
760.889176
 20
538.590704
 30
0.0
 11
760.889176
 21
533.090704
 31
0.0
  0
LINE
  5
5378
100
AcDbEntity
  8
0
100
AcDbLine
 10
750.889176
 20
529.340704
 30
0.0
 11
746.889176
 21
529.340704
 31
0.0
  0
LINE
  5
5379
100
AcDbEntity
  8
0
100
AcDbLine
 10
750.889176
 20
522.340704
 30
0.0
 11
746.889176
 21
522.340704
 31
0.0
  0
LINE
  5
537A
100
AcDbEntity
  8
0
100
AcDbLine
 10
727.403298
 20
563.781704
 30
0.0
 11
727.403298
 21
571.590704
 31
0.0
  0
LINE
  5
537B
100
AcDbEntity
  8
0
100
AcDbLine
 10
712.392298
 20
571.590704
 30
0.0
 11
712.392298
 21
563.781704
 31
0.0
  0
LINE
  5
537C
100
AcDbEntity
  8
0
100
AcDbLine
 10
727.403298
 20
569.590704
 30
0.0
 11
712.392298
 21
569.590704
 31
0.0
  0
LINE
  5
537D
100
AcDbEntity
  8
0
100
AcDbLine
 10
712.392298
 20
563.781704
 30
0.0
 11
713.589298
 21
563.090704
 31
0.0
  0
ARC
  5
537E
100
AcDbEntity
  8
0
100
AcDbCircle
 10
714.269798
 20
566.784663
 30
0.0
 40
3.541047
100
AcDbArc
 50
237.999406
 51
302.000594
  0
LINE
  5
537F
100
AcDbEntity
  8
0
100
AcDbLine
 10
726.207298
 20
563.090704
 30
0.0
 11
727.403298
 21
563.781704
 31
0.0
  0
ARC
  5
5380
100
AcDbEntity
  8
0
100
AcDbCircle
 10
719.898298
 20
576.596184
 30
0.0
 40
13.352467
100
AcDbArc
 50
253.680297
 51
286.319703
  0
ARC
  5
5381
100
AcDbEntity
  8
0
100
AcDbCircle
 10
725.526798
 20
566.784663
 30
0.0
 40
3.541047
100
AcDbArc
 50
237.999406
 51
302.000594
  0
LINE
  5
5382
100
AcDbEntity
  8
0
100
AcDbLine
 10
713.589298
 20
563.090704
 30
0.0
 11
726.207298
 21
563.090704
 31
0.0
  0
LINE
  5
5383
100
AcDbEntity
  8
0
100
AcDbLine
 10
716.146298
 20
563.781704
 30
0.0
 11
716.146298
 21
569.590704
 31
0.0
  0
LINE
  5
5384
100
AcDbEntity
  8
0
100
AcDbLine
 10
723.650298
 20
563.781704
 30
0.0
 11
723.650298
 21
569.590704
 31
0.0
  0
LINE
  5
5385
100
AcDbEntity
  8
0
100
AcDbLine
 10
757.889176
 20
571.090704
 30
0.0
 11
757.889176
 21
568.590704
 31
0.0
  0
LINE
  5
5386
100
AcDbEntity
  8
0
100
AcDbLine
 10
739.889176
 20
571.090704
 30
0.0
 11
739.889176
 21
568.590704
 31
0.0
  0
LINE
  5
5387
100
AcDbEntity
  8
0
100
AcDbLine
 10
760.889176
 20
566.090704
 30
0.0
 11
736.889176
 21
566.090704
 31
0.0
  0
LINE
  5
5388
100
AcDbEntity
  8
0
100
AcDbLine
 10
760.889176
 20
568.590704
 30
0.0
 11
736.889176
 21
568.590704
 31
0.0
  0
LINE
  5
5389
100
AcDbEntity
  8
0
100
AcDbLine
 10
760.889176
 20
548.590704
 30
0.0
 11
736.889176
 21
548.590704
 31
0.0
  0
LINE
  5
538A
100
AcDbEntity
  8
0
100
AcDbLine
 10
760.889176
 20
553.590704
 30
0.0
 11
736.889176
 21
553.590704
 31
0.0
  0
LINE
  5
538B
100
AcDbEntity
  8
0
100
AcDbLine
 10
760.889176
 20
551.090704
 30
0.0
 11
736.889176
 21
551.090704
 31
0.0
  0
LINE
  5
538C
100
AcDbEntity
  8
0
100
AcDbLine
 10
760.889176
 20
556.090704
 30
0.0
 11
736.889176
 21
556.090704
 31
0.0
  0
LINE
  5
538D
100
AcDbEntity
  8
0
100
AcDbLine
 10
760.889176
 20
561.090704
 30
0.0
 11
736.889176
 21
561.090704
 31
0.0
  0
LINE
  5
538E
100
AcDbEntity
  8
0
100
AcDbLine
 10
760.889176
 20
558.590704
 30
0.0
 11
736.889176
 21
558.590704
 31
0.0
  0
LINE
  5
538F
100
AcDbEntity
  8
0
100
AcDbLine
 10
760.889176
 20
563.590704
 30
0.0
 11
736.889176
 21
563.590704
 31
0.0
  0
LINE
  5
5390
100
AcDbEntity
  8
0
100
AcDbLine
 10
736.889176
 20
568.590704
 30
0.0
 11
736.889176
 21
566.090704
 31
0.0
  0
LINE
  5
5391
100
AcDbEntity
  8
0
100
AcDbLine
 10
736.889176
 20
563.590704
 30
0.0
 11
736.889176
 21
561.090704
 31
0.0
  0
LINE
  5
5392
100
AcDbEntity
  8
0
100
AcDbLine
 10
739.889176
 20
561.090704
 30
0.0
 11
739.889176
 21
558.590704
 31
0.0
  0
LINE
  5
5393
100
AcDbEntity
  8
0
100
AcDbLine
 10
739.889176
 20
556.090704
 30
0.0
 11
739.889176
 21
553.590704
 31
0.0
  0
LINE
  5
5394
100
AcDbEntity
  8
0
100
AcDbLine
 10
736.889176
 20
548.590704
 30
0.0
 11
736.889176
 21
545.590704
 31
0.0
  0
LINE
  5
5395
100
AcDbEntity
  8
0
100
AcDbLine
 10
739.889176
 20
551.090704
 30
0.0
 11
739.889176
 21
548.590704
 31
0.0
  0
LINE
  5
5396
100
AcDbEntity
  8
0
100
AcDbLine
 10
736.889176
 20
553.590704
 30
0.0
 11
736.889176
 21
551.090704
 31
0.0
  0
LINE
  5
5397
100
AcDbEntity
  8
0
100
AcDbLine
 10
736.889176
 20
558.590704
 30
0.0
 11
736.889176
 21
556.090704
 31
0.0
  0
LINE
  5
5398
100
AcDbEntity
  8
0
100
AcDbLine
 10
739.889176
 20
566.090704
 30
0.0
 11
739.889176
 21
563.590704
 31
0.0
  0
LINE
  5
5399
100
AcDbEntity
  8
0
100
AcDbLine
 10
760.889176
 20
568.590704
 30
0.0
 11
760.889176
 21
566.090704
 31
0.0
  0
LINE
  5
539A
100
AcDbEntity
  8
0
100
AcDbLine
 10
760.889176
 20
563.590704
 30
0.0
 11
760.889176
 21
561.090704
 31
0.0
  0
LINE
  5
539B
100
AcDbEntity
  8
0
100
AcDbLine
 10
757.889176
 20
561.090704
 30
0.0
 11
757.889176
 21
558.590704
 31
0.0
  0
LINE
  5
539C
100
AcDbEntity
  8
0
100
AcDbLine
 10
757.889176
 20
556.090704
 30
0.0
 11
757.889176
 21
553.590704
 31
0.0
  0
LINE
  5
539D
100
AcDbEntity
  8
0
100
AcDbLine
 10
757.889176
 20
551.090704
 30
0.0
 11
757.889176
 21
548.590704
 31
0.0
  0
LINE
  5
539E
100
AcDbEntity
  8
0
100
AcDbLine
 10
760.889176
 20
548.590704
 30
0.0
 11
760.889176
 21
545.590704
 31
0.0
  0
LINE
  5
539F
100
AcDbEntity
  8
0
100
AcDbLine
 10
760.889176
 20
553.590704
 30
0.0
 11
760.889176
 21
551.090704
 31
0.0
  0
LINE
  5
53A0
100
AcDbEntity
  8
0
100
AcDbLine
 10
760.889176
 20
558.590704
 30
0.0
 11
760.889176
 21
556.090704
 31
0.0
  0
LINE
  5
53A1
100
AcDbEntity
  8
0
100
AcDbLine
 10
757.889176
 20
566.090704
 30
0.0
 11
757.889176
 21
563.590704
 31
0.0
  0
LINE
  5
53A2
100
AcDbEntity
  8
0
100
AcDbLine
 10
760.889176
 20
571.090704
 30
0.0
 11
736.889176
 21
571.090704
 31
0.0
  0
LINE
  5
53A3
100
AcDbEntity
  8
0
100
AcDbLine
 10
736.889176
 20
571.590704
 30
0.0
 11
736.889176
 21
571.090704
 31
0.0
  0
LINE
  5
53A4
100
AcDbEntity
  8
0
100
AcDbLine
 10
760.889176
 20
571.590704
 30
0.0
 11
760.889176
 21
571.090704
 31
0.0
  0
LINE
  5
53A5
100
AcDbEntity
  8
0
100
AcDbLine
 10
768.889176
 20
571.590704
 30
0.0
 11
768.889176
 21
538.590704
 31
0.0
  0
LINE
  5
53A6
100
AcDbEntity
  8
0
100
AcDbLine
 10
812.633137
 20
515.607267
 30
0.0
 11
769.903669
 21
515.607267
 31
0.0
  0
LINE
  5
53A7
100
AcDbEntity
  8
0
100
AcDbLine
 10
767.889176
 20
538.590704
 30
0.0
 11
767.889176
 21
518.590704
 31
0.0
  0
LINE
  5
53A8
100
AcDbEntity
  8
0
100
AcDbLine
 10
767.902288
 20
517.608648
 30
0.0
 11
767.902288
 21
518.590704
 31
0.0
  0
ARC
  5
53A9
100
AcDbEntity
  8
0
100
AcDbCircle
 10
769.884131
 20
517.58911
 30
0.0
 40
1.981939
100
AcDbArc
 50
179.435189
 51
270.564811
  0
LINE
  5
53AA
100
AcDbEntity
  8
0
100
AcDbLine
 10
820.633137
 20
508.215204
 30
0.0
 11
812.633137
 21
507.715204
 31
0.0
  0
LINE
  5
53AB
100
AcDbEntity
  8
0
100
AcDbLine
 10
826.633137
 20
513.530015
 30
0.0
 11
821.633137
 21
513.530015
 31
0.0
  0
LINE
  5
53AC
100
AcDbEntity
  8
0
100
AcDbLine
 10
826.633137
 20
502.560359
 30
0.0
 11
821.633137
 21
502.560359
 31
0.0
  0
LINE
  5
53AD
100
AcDbEntity
  8
0
100
AcDbLine
 10
820.633137
 20
512.530015
 30
0.0
 11
821.633137
 21
513.530015
 31
0.0
  0
ARC
  5
53AE
100
AcDbEntity
  8
0
100
AcDbCircle
 10
836.174804
 20
508.045187
 30
0.0
 40
15.541667
100
AcDbArc
 50
159.334522
 51
200.665478
  0
LINE
  5
53AF
100
AcDbEntity
  8
0
100
AcDbLine
 10
827.633137
 20
512.530015
 30
0.0
 11
826.633137
 21
513.530015
 31
0.0
  0
ARC
  5
53B0
100
AcDbEntity
  8
0
100
AcDbCircle
 10
812.091471
 20
508.045187
 30
0.0
 40
15.541667
100
AcDbArc
 50
339.334522
 51
20.665478
  0
LINE
  5
53B1
100
AcDbEntity
  8
0
100
AcDbLine
 10
770.375054
 20
571.590704
 30
0.0
 11
770.375054
 21
563.781704
 31
0.0
  0
LINE
  5
53B2
100
AcDbEntity
  8
0
100
AcDbLine
 10
785.386054
 20
563.781704
 30
0.0
 11
785.386054
 21
571.590704
 31
0.0
  0
LINE
  5
53B3
100
AcDbEntity
  8
0
100
AcDbLine
 10
785.386054
 20
569.590704
 30
0.0
 11
770.375054
 21
569.590704
 31
0.0
  0
LINE
  5
53B4
100
AcDbEntity
  8
0
100
AcDbLine
 10
771.572054
 20
563.090704
 30
0.0
 11
784.190054
 21
563.090704
 31
0.0
  0
ARC
  5
53B5
100
AcDbEntity
  8
0
100
AcDbCircle
 10
777.881054
 20
576.596184
 30
0.0
 40
13.352467
100
AcDbArc
 50
253.680297
 51
286.319703
  0
ARC
  5
53B6
100
AcDbEntity
  8
0
100
AcDbCircle
 10
772.252554
 20
566.784663
 30
0.0
 40
3.541047
100
AcDbArc
 50
237.999406
 51
302.000594
  0
LINE
  5
53B7
100
AcDbEntity
  8
0
100
AcDbLine
 10
770.375054
 20
563.781704
 30
0.0
 11
771.572054
 21
563.090704
 31
0.0
  0
LINE
  5
53B8
100
AcDbEntity
  8
0
100
AcDbLine
 10
774.129054
 20
563.781704
 30
0.0
 11
774.129054
 21
569.590704
 31
0.0
  0
LINE
  5
53B9
100
AcDbEntity
  8
0
100
AcDbLine
 10
784.190054
 20
563.090704
 30
0.0
 11
785.386054
 21
563.781704
 31
0.0
  0
ARC
  5
53BA
100
AcDbEntity
  8
0
100
AcDbCircle
 10
783.509554
 20
566.784663
 30
0.0
 40
3.541047
100
AcDbArc
 50
237.999406
 51
302.000594
  0
LINE
  5
53BB
100
AcDbEntity
  8
0
100
AcDbLine
 10
781.633054
 20
563.781704
 30
0.0
 11
781.633054
 21
569.590704
 31
0.0
  0
LINE
  5
53BC
100
AcDbEntity
  8
0
100
AcDbLine
 10
802.389176
 20
571.590704
 30
0.0
 11
802.389176
 21
579.590704
 31
0.0
  0
LINE
  5
53BD
100
AcDbEntity
  8
0
100
AcDbLine
 10
695.389176
 20
629.590704
 30
0.0
 11
802.389176
 21
629.590704
 31
0.0
  0
LINE
  5
53BE
100
AcDbEntity
  8
0
100
AcDbLine
 10
695.389176
 20
629.590704
 30
0.0
 11
708.478365
 21
726.179894
 31
0.0
  0
LINE
  5
53BF
100
AcDbEntity
  8
0
100
AcDbLine
 10
695.389176
 20
599.590704
 30
0.0
 11
802.389176
 21
599.590704
 31
0.0
  0
LINE
  5
53C0
100
AcDbEntity
  8
0
100
AcDbLine
 10
695.389176
 20
599.590704
 30
0.0
 11
695.389176
 21
629.590704
 31
0.0
  0
LINE
  5
53C1
100
AcDbEntity
  8
0
100
AcDbLine
 10
677.234704
 20
596.517534
 30
0.0
 11
681.088363
 21
596.517534
 31
0.0
  0
LINE
  5
53C2
100
AcDbEntity
  8
0
100
AcDbLine
 10
677.234704
 20
598.818347
 30
0.0
 11
674.161534
 21
598.818347
 31
0.0
  0
LINE
  5
53C3
100
AcDbEntity
  8
0
100
AcDbLine
 10
674.161534
 20
598.818347
 30
0.0
 11
673.389176
 21
597.672005
 31
0.0
  0
LINE
  5
53C4
100
AcDbEntity
  8
0
100
AcDbLine
 10
677.234704
 20
596.517534
 30
0.0
 11
677.234704
 21
598.818347
 31
0.0
  0
LINE
  5
53C5
100
AcDbEntity
  8
0
100
AcDbLine
 10
682.004141
 20
598.516684
 30
0.0
 11
685.698119
 21
599.590704
 31
0.0
  0
LINE
  5
53C6
100
AcDbEntity
  8
0
100
AcDbLine
 10
695.389176
 20
599.590704
 30
0.0
 11
685.698119
 21
599.590704
 31
0.0
  0
LINE
  5
53C7
100
AcDbEntity
  8
0
100
AcDbLine
 10
691.852591
 20
595.363062
 30
0.0
 11
685.698119
 21
595.363062
 31
0.0
  0
LINE
  5
53C8
100
AcDbEntity
  8
0
100
AcDbLine
 10
685.698119
 20
599.590704
 30
0.0
 11
685.698119
 21
595.363062
 31
0.0
  0
LINE
  5
53C9
100
AcDbEntity
  8
0
100
AcDbLine
 10
691.852591
 20
599.590704
 30
0.0
 11
691.852591
 21
595.363062
 31
0.0
  0
LINE
  5
53CA
100
AcDbEntity
  8
0
100
AcDbLine
 10
682.004141
 20
598.516684
 30
0.0
 11
681.088363
 21
598.436233
 31
0.0
  0
LINE
  5
53CB
100
AcDbEntity
  8
0
100
AcDbLine
 10
802.389176
 20
629.590704
 30
0.0
 11
789.299987
 21
726.179894
 31
0.0
  0
LINE
  5
53CC
100
AcDbEntity
  8
0
100
AcDbLine
 10
802.389176
 20
599.590704
 30
0.0
 11
802.389176
 21
629.590704
 31
0.0
  0
LINE
  5
53CD
100
AcDbEntity
  8
0
100
AcDbLine
 10
708.478365
 20
726.179894
 30
0.0
 11
789.299987
 21
726.179894
 31
0.0
  0
LINE
  5
53CE
100
AcDbEntity
  8
0
100
AcDbLine
 10
718.889176
 20
736.590704
 30
0.0
 11
778.889176
 21
736.590704
 31
0.0
  0
LINE
  5
53CF
100
AcDbEntity
  8
0
100
AcDbLine
 10
718.889176
 20
736.590704
 30
0.0
 11
708.478365
 21
726.179894
 31
0.0
  0
LINE
  5
53D0
100
AcDbEntity
  8
0
100
AcDbLine
 10
778.889176
 20
736.590704
 30
0.0
 11
789.299987
 21
726.179894
 31
0.0
  0
LINE
  5
53D1
100
AcDbEntity
  8
0
100
AcDbLine
 10
1093.588923
 20
579.590704
 30
0.0
 11
1093.588923
 21
599.590704
 31
0.0
  0
LINE
  5
53D2
100
AcDbEntity
  8
0
100
AcDbLine
 10
986.588923
 20
579.590704
 30
0.0
 11
986.588923
 21
599.590704
 31
0.0
  0
POLYLINE
  5
53D3
100
AcDbEntity
  8
0
100
AcDb2dPolyline
 66
     1
 10
0.0
 20
0.0
 30
0.0
 70
     1
  0
VERTEX
  5
5A0D
100
AcDbEntity
  8
0
100
AcDbVertex
100
AcDb2dVertex
 10
1059.088923
 20
502.560359
 30
0.0
  0
VERTEX
  5
5A0E
100
AcDbEntity
  8
0
100
AcDbVertex
100
AcDb2dVertex
 10
1040.088923
 20
513.530015
 30
0.0
  0
VERTEX
  5
5A0F
100
AcDbEntity
  8
0
100
AcDbVertex
100
AcDb2dVertex
 10
1021.088923
 20
502.560359
 30
0.0
  0
VERTEX
  5
5A10
100
AcDbEntity
  8
0
100
AcDbVertex
100
AcDb2dVertex
 10
1021.088923
 20
480.621049
 30
0.0
  0
VERTEX
  5
5A11
100
AcDbEntity
  8
0
100
AcDbVertex
100
AcDb2dVertex
 10
1040.088923
 20
469.651394
 30
0.0
  0
VERTEX
  5
5A12
100
AcDbEntity
  8
0
100
AcDbVertex
100
AcDb2dVertex
 10
1059.088923
 20
480.621049
 30
0.0
  0
SEQEND
  5
5A13
100
AcDbEntity
  8
0
  0
ARC
  5
53D4
100
AcDbEntity
  8
0
100
AcDbCircle
 10
1064.088923
 20
491.590704
 30
0.0
 40
2.0
100
AcDbArc
 50
267.611985
 51
92.388015
  0
ARC
  5
53D5
100
AcDbEntity
  8
0
100
AcDbCircle
 10
1016.088923
 20
491.590704
 30
0.0
 40
2.0
100
AcDbArc
 50
87.611985
 51
272.388015
  0
CIRCLE
  5
53D6
100
AcDbEntity
  8
0
100
AcDbCircle
 10
1040.088923
 20
491.590704
 30
0.0
 40
24.0
  0
LINE
  5
53D7
100
AcDbEntity
  8
0
100
AcDbLine
 10
1031.588923
 20
399.828683
 30
0.0
 11
1048.588923
 21
399.828683
 31
0.0
  0
LINE
  5
53D8
100
AcDbEntity
  8
0
100
AcDbLine
 10
1031.588923
 20
392.043313
 30
0.0
 11
1048.588923
 21
392.043313
 31
0.0
  0
ELLIPSE
  5
53D9
100
AcDbEntity
  8
0
100
AcDbEllipse
 10
1040.088923
 20
398.255242
 30
0.0
 11
-13.46000000000003
 21
0.0
 31
0.0
210
0.0
220
0.0
230
1.0
 40
0.707107
 41
3.141592653589793
 42
6.283185307179586
  0
LINE
  5
53DA
100
AcDbEntity
  8
0
100
AcDbLine
 10
1007.088923
 20
446.29381
 30
0.0
 11
1007.088923
 21
434.861326
 31
0.0
  0
LINE
  5
53DB
100
AcDbEntity
  8
0
100
AcDbLine
 10
1002.088923
 20
447.27424
 30
0.0
 11
1002.088923
 21
423.364177
 31
0.0
  0
LINE
  5
53DC
100
AcDbEntity
  8
0
100
AcDbLine
 10
1016.0241
 20
489.591755
 30
0.0
 11
1013.297623
 21
405.514616
 31
0.0
  0
ARC
  5
53DD
100
AcDbEntity
  8
0
100
AcDbCircle
 10
997.088923
 20
412.583458
 30
0.0
 40
3.0
100
AcDbArc
 50
270.0
 51
0.0
  0
ARC
  5
53DE
100
AcDbEntity
  8
0
100
AcDbCircle
 10
997.088923
 20
407.583458
 30
0.0
 40
2.0
100
AcDbArc
 50
90.0
 51
180.0
  0
LINE
  5
53DF
100
AcDbEntity
  8
0
100
AcDbLine
 10
997.088923
 20
409.583458
 30
0.0
 11
997.088923
 21
409.583458
 31
0.0
  0
LINE
  5
53E0
100
AcDbEntity
  8
0
100
AcDbLine
 10
1000.088923
 20
413.129755
 30
0.0
 11
1000.088923
 21
412.583458
 31
0.0
  0
LINE
  5
53E1
100
AcDbEntity
  8
0
100
AcDbLine
 10
1026.628923
 20
393.818275
 30
0.0
 11
1026.628923
 21
398.255242
 31
0.0
  0
ARC
  5
53E2
100
AcDbEntity
  8
0
100
AcDbCircle
 10
997.088923
 20
434.861326
 30
0.0
 40
10.0
100
AcDbArc
 50
324.360613
 51
0.0
  0
ARC
  5
53E3
100
AcDbEntity
  8
0
100
AcDbCircle
 10
1040.088923
 20
446.29381
 30
0.0
 40
33.0
100
AcDbArc
 50
138.620566
 51
180.0
  0
ELLIPSE
  5
53E4
100
AcDbEntity
  8
0
100
AcDbEllipse
 10
1017.088923
 20
447.27424
 30
0.0
 11
-15.00000000000005
 21
0.0000000000000284
 31
0.0
210
0.0
220
0.0
230
-1.0
 40
0.984798
 41
6.283185307179586
 42
7.382139219865484
  0
ELLIPSE
  5
53E5
100
AcDbEntity
  8
0
100
AcDbEllipse
 10
1017.088923
 20
445.276153
 30
0.0
 11
-15.00000000000005
 21
0.0000000000000284
 31
0.0
210
0.0
220
0.0
230
-1.0
 40
0.984798
 41
6.283185307179586
 42
7.297616549881664
  0
ELLIPSE
  5
53E6
100
AcDbEntity
  8
0
100
AcDbEllipse
 10
1017.088923
 20
443.527048
 30
0.0
 11
-15.00000000000005
 21
0.0000000000000284
 31
0.0
210
0.0
220
0.0
230
-1.0
 40
0.984798
 41
6.283185307179586
 42
7.238111907842699
  0
LINE
  5
53E7
100
AcDbEntity
  8
0
100
AcDbLine
 10
1073.088923
 20
446.29381
 30
0.0
 11
1073.088923
 21
438.686369
 31
0.0
  0
LINE
  5
53E8
100
AcDbEntity
  8
0
100
AcDbLine
 10
1078.088923
 20
447.27424
 30
0.0
 11
1078.088923
 21
427.506029
 31
0.0
  0
LINE
  5
53E9
100
AcDbEntity
  8
0
100
AcDbLine
 10
1064.153745
 20
489.591755
 30
0.0
 11
1066.852736
 21
406.362254
 31
0.0
  0
LINE
  5
53EA
100
AcDbEntity
  8
0
100
AcDbLine
 10
1053.548923
 20
393.818275
 30
0.0
 11
1053.548923
 21
398.255242
 31
0.0
  0
ARC
  5
53EB
100
AcDbEntity
  8
0
100
AcDbCircle
 10
1070.088923
 20
414.686369
 30
0.0
 40
15.0
100
AcDbArc
 50
0.0
 51
53.130102
  0
LINE
  5
53EC
100
AcDbEntity
  8
0
100
AcDbLine
 10
1085.088923
 20
413.50717
 30
0.0
 11
1085.088923
 21
409.155764
 31
0.0
  0
LINE
  5
53ED
100
AcDbEntity
  8
0
100
AcDbLine
 10
1085.088923
 20
411.083458
 30
0.0
 11
1085.104923
 21
410.865458
 31
0.0
  0
ARC
  5
53EE
100
AcDbEntity
  8
0
100
AcDbCircle
 10
1086.088923
 20
407.583458
 30
0.0
 40
2.0
100
AcDbArc
 50
0.0
 51
75.522488
  0
ARC
  5
53EF
100
AcDbEntity
  8
0
100
AcDbCircle
 10
1087.088923
 20
411.456441
 30
0.0
 40
2.0
100
AcDbArc
 50
180.0
 51
255.522488
  0
LINE
  5
53F0
100
AcDbEntity
  8
0
100
AcDbLine
 10
1085.088923
 20
414.686369
 30
0.0
 11
1085.088923
 21
411.456441
 31
0.0
  0
ARC
  5
53F1
100
AcDbEntity
  8
0
100
AcDbCircle
 10
1088.088923
 20
438.686369
 30
0.0
 40
15.0
100
AcDbArc
 50
180.0
 51
233.130102
  0
ARC
  5
53F2
100
AcDbEntity
  8
0
100
AcDbCircle
 10
1040.088923
 20
446.29381
 30
0.0
 40
33.0
100
AcDbArc
 50
0.0
 51
41.379434
  0
ELLIPSE
  5
53F3
100
AcDbEntity
  8
0
100
AcDbEllipse
 10
1063.088923
 20
447.27424
 30
0.0
 11
15.00000000000005
 21
0.0000000000000284
 31
0.0
210
0.0
220
0.0
230
1.0
 40
0.984798
 41
6.283185307179586
 42
7.382139219865466
  0
ELLIPSE
  5
53F4
100
AcDbEntity
  8
0
100
AcDbEllipse
 10
1063.088923
 20
443.527048
 30
0.0
 11
15.00000000000005
 21
0.0000000000000284
 31
0.0
210
0.0
220
0.0
230
1.0
 40
0.984798
 41
6.283185307179586
 42
7.238111907842669
  0
ELLIPSE
  5
53F5
100
AcDbEntity
  8
0
100
AcDbEllipse
 10
1063.088923
 20
445.276153
 30
0.0
 11
15.00000000000005
 21
0.0000000000000284
 31
0.0
210
0.0
220
0.0
230
1.0
 40
0.984798
 41
6.283185307179586
 42
7.297616549881648
  0
ARC
  5
53F6
100
AcDbEntity
  8
0
100
AcDbCircle
 10
1030.338923
 20
535.840704
 30
0.0
 40
2.75
100
AcDbArc
 50
270.0
 51
90.0
  0
LINE
  5
53F7
100
AcDbEntity
  8
0
100
AcDbLine
 10
1049.588923
 20
548.590704
 30
0.0
 11
1030.588923
 21
548.590704
 31
0.0
  0
LINE
  5
53F8
100
AcDbEntity
  8
0
100
AcDbLine
 10
1049.588923
 20
553.590704
 30
0.0
 11
1030.588923
 21
553.590704
 31
0.0
  0
LINE
  5
53F9
100
AcDbEntity
  8
0
100
AcDbLine
 10
1049.588923
 20
551.090704
 30
0.0
 11
1030.588923
 21
551.090704
 31
0.0
  0
LINE
  5
53FA
100
AcDbEntity
  8
0
100
AcDbLine
 10
1049.588923
 20
558.590704
 30
0.0
 11
1030.588923
 21
558.590704
 31
0.0
  0
LINE
  5
53FB
100
AcDbEntity
  8
0
100
AcDbLine
 10
1049.588923
 20
556.090704
 30
0.0
 11
1030.588923
 21
556.090704
 31
0.0
  0
LINE
  5
53FC
100
AcDbEntity
  8
0
100
AcDbLine
 10
1049.588923
 20
563.590704
 30
0.0
 11
1030.588923
 21
563.590704
 31
0.0
  0
LINE
  5
53FD
100
AcDbEntity
  8
0
100
AcDbLine
 10
1049.588923
 20
561.090704
 30
0.0
 11
1030.588923
 21
561.090704
 31
0.0
  0
LINE
  5
53FE
100
AcDbEntity
  8
0
100
AcDbLine
 10
1049.588923
 20
563.590704
 30
0.0
 11
1030.588923
 21
563.590704
 31
0.0
  0
LINE
  5
53FF
100
AcDbEntity
  8
0
100
AcDbLine
 10
1049.588923
 20
561.090704
 30
0.0
 11
1030.588923
 21
561.090704
 31
0.0
  0
LINE
  5
5400
100
AcDbEntity
  8
0
100
AcDbLine
 10
1020.088923
 20
545.590704
 30
0.0
 11
1078.588923
 21
545.590704
 31
0.0
  0
LINE
  5
5401
100
AcDbEntity
  8
0
100
AcDbLine
 10
1049.588923
 20
568.590704
 30
0.0
 11
1030.588923
 21
568.590704
 31
0.0
  0
LINE
  5
5402
100
AcDbEntity
  8
0
100
AcDbLine
 10
1049.588923
 20
571.090704
 30
0.0
 11
1030.588923
 21
571.090704
 31
0.0
  0
LINE
  5
5403
100
AcDbEntity
  8
0
100
AcDbLine
 10
1049.588923
 20
566.090704
 30
0.0
 11
1030.588923
 21
566.090704
 31
0.0
  0
LINE
  5
5404
100
AcDbEntity
  8
0
100
AcDbLine
 10
986.588923
 20
571.590704
 30
0.0
 11
1093.588923
 21
571.590704
 31
0.0
  0
LINE
  5
5405
100
AcDbEntity
  8
0
100
AcDbLine
 10
1093.588923
 20
579.590704
 30
0.0
 11
986.588923
 21
579.590704
 31
0.0
  0
LINE
  5
5406
100
AcDbEntity
  8
0
100
AcDbLine
 10
1060.088923
 20
518.590704
 30
0.0
 11
1020.088923
 21
518.590704
 31
0.0
  0
LINE
  5
5407
100
AcDbEntity
  8
0
100
AcDbLine
 10
1020.088923
 20
538.590704
 30
0.0
 11
1020.088923
 21
545.590704
 31
0.0
  0
LINE
  5
5408
100
AcDbEntity
  8
0
100
AcDbLine
 10
1020.088923
 20
518.590704
 30
0.0
 11
1020.088923
 21
519.3825
 31
0.0
  0
LINE
  5
5409
100
AcDbEntity
  8
0
100
AcDbLine
 10
1021.07581
 20
518.590704
 30
0.0
 11
1021.07581
 21
506.236576
 31
0.0
  0
ARC
  5
540A
100
AcDbEntity
  8
0
100
AcDbCircle
 10
1022.088923
 20
526.090704
 30
0.0
 40
7.0
100
AcDbArc
 50
90.0
 51
253.39845
  0
CIRCLE
  5
540B
100
AcDbEntity
  8
0
100
AcDbCircle
 10
1022.088923
 20
526.090704
 30
0.0
 40
3.5
  0
LINE
  5
540C
100
AcDbEntity
  8
0
100
AcDbLine
 10
1028.088923
 20
538.590704
 30
0.0
 11
1028.088923
 21
533.090704
 31
0.0
  0
LINE
  5
540D
100
AcDbEntity
  8
0
100
AcDbLine
 10
1022.088923
 20
533.090704
 30
0.0
 11
1030.338923
 21
533.090704
 31
0.0
  0
LINE
  5
540E
100
AcDbEntity
  8
0
100
AcDbLine
 10
1020.088923
 20
538.590704
 30
0.0
 11
1030.338923
 21
538.590704
 31
0.0
  0
LINE
  5
540F
100
AcDbEntity
  8
0
100
AcDbLine
 10
986.588923
 20
571.590704
 30
0.0
 11
986.588923
 21
579.590704
 31
0.0
  0
LINE
  5
5410
100
AcDbEntity
  8
0
100
AcDbLine
 10
1031.088923
 20
571.090704
 30
0.0
 11
1031.088923
 21
568.590704
 31
0.0
  0
LINE
  5
5411
100
AcDbEntity
  8
0
100
AcDbLine
 10
1018.603045
 20
563.781704
 30
0.0
 11
1018.603045
 21
571.590704
 31
0.0
  0
LINE
  5
5412
100
AcDbEntity
  8
0
100
AcDbLine
 10
1003.592045
 20
571.590704
 30
0.0
 11
1003.592045
 21
563.781704
 31
0.0
  0
LINE
  5
5413
100
AcDbEntity
  8
0
100
AcDbLine
 10
1004.789045
 20
563.090704
 30
0.0
 11
1017.407045
 21
563.090704
 31
0.0
  0
ARC
  5
5414
100
AcDbEntity
  8
0
100
AcDbCircle
 10
1016.726545
 20
566.784663
 30
0.0
 40
3.541047
100
AcDbArc
 50
237.999406
 51
302.000594
  0
LINE
  5
5415
100
AcDbEntity
  8
0
100
AcDbLine
 10
1018.603045
 20
569.590704
 30
0.0
 11
1003.592045
 21
569.590704
 31
0.0
  0
LINE
  5
5416
100
AcDbEntity
  8
0
100
AcDbLine
 10
1014.850045
 20
563.781704
 30
0.0
 11
1014.850045
 21
569.590704
 31
0.0
  0
LINE
  5
5417
100
AcDbEntity
  8
0
100
AcDbLine
 10
1007.346045
 20
563.781704
 30
0.0
 11
1007.346045
 21
569.590704
 31
0.0
  0
ARC
  5
5418
100
AcDbEntity
  8
0
100
AcDbCircle
 10
1011.098045
 20
576.596184
 30
0.0
 40
13.352467
100
AcDbArc
 50
253.680297
 51
286.319703
  0
ARC
  5
5419
100
AcDbEntity
  8
0
100
AcDbCircle
 10
1005.469545
 20
566.784663
 30
0.0
 40
3.541047
100
AcDbArc
 50
237.999406
 51
302.000594
  0
LINE
  5
541A
100
AcDbEntity
  8
0
100
AcDbLine
 10
1003.592045
 20
563.781704
 30
0.0
 11
1004.789045
 21
563.090704
 31
0.0
  0
LINE
  5
541B
100
AcDbEntity
  8
0
100
AcDbLine
 10
1030.588923
 20
545.590704
 30
0.0
 11
1030.588923
 21
548.590704
 31
0.0
  0
LINE
  5
541C
100
AcDbEntity
  8
0
100
AcDbLine
 10
1030.588923
 20
551.090704
 30
0.0
 11
1030.588923
 21
553.590704
 31
0.0
  0
LINE
  5
541D
100
AcDbEntity
  8
0
100
AcDbLine
 10
1030.588923
 20
556.090704
 30
0.0
 11
1030.588923
 21
558.590704
 31
0.0
  0
LINE
  5
541E
100
AcDbEntity
  8
0
100
AcDbLine
 10
1030.588923
 20
561.090704
 30
0.0
 11
1030.588923
 21
563.590704
 31
0.0
  0
LINE
  5
541F
100
AcDbEntity
  8
0
100
AcDbLine
 10
1030.588923
 20
561.090704
 30
0.0
 11
1030.588923
 21
563.590704
 31
0.0
  0
LINE
  5
5420
100
AcDbEntity
  8
0
100
AcDbLine
 10
1030.588923
 20
566.090704
 30
0.0
 11
1030.588923
 21
568.590704
 31
0.0
  0
LINE
  5
5421
100
AcDbEntity
  8
0
100
AcDbLine
 10
1031.088923
 20
566.090704
 30
0.0
 11
1031.088923
 21
563.590704
 31
0.0
  0
LINE
  5
5422
100
AcDbEntity
  8
0
100
AcDbLine
 10
1031.088923
 20
556.090704
 30
0.0
 11
1031.088923
 21
553.590704
 31
0.0
  0
LINE
  5
5423
100
AcDbEntity
  8
0
100
AcDbLine
 10
1031.088923
 20
561.090704
 30
0.0
 11
1031.088923
 21
558.590704
 31
0.0
  0
LINE
  5
5424
100
AcDbEntity
  8
0
100
AcDbLine
 10
1017.407045
 20
563.090704
 30
0.0
 11
1018.603045
 21
563.781704
 31
0.0
  0
LINE
  5
5425
100
AcDbEntity
  8
0
100
AcDbLine
 10
1031.088923
 20
551.090704
 30
0.0
 11
1031.088923
 21
548.590704
 31
0.0
  0
LINE
  5
5426
100
AcDbEntity
  8
0
100
AcDbLine
 10
1030.588923
 20
571.090704
 30
0.0
 11
1030.588923
 21
571.590704
 31
0.0
  0
ARC
  5
5427
100
AcDbEntity
  8
0
100
AcDbCircle
 10
1078.588923
 20
553.590704
 30
0.0
 40
15.0
100
AcDbArc
 50
270.0
 51
0.0
  0
ARC
  5
5428
100
AcDbEntity
  8
0
100
AcDbCircle
 10
1070.457904
 20
533.590704
 30
0.0
 40
5.0
100
AcDbArc
 50
90.0
 51
154.271754
  0
LINE
  5
5429
100
AcDbEntity
  8
0
100
AcDbLine
 10
1060.088923
 20
518.590704
 30
0.0
 11
1060.088923
 21
523.590704
 31
0.0
  0
LINE
  5
542A
100
AcDbEntity
  8
0
100
AcDbLine
 10
1059.102035
 20
517.608648
 30
0.0
 11
1059.102035
 21
518.590704
 31
0.0
  0
LINE
  5
542B
100
AcDbEntity
  8
0
100
AcDbLine
 10
1059.102035
 20
517.608648
 30
0.0
 11
1059.102035
 21
518.590704
 31
0.0
  0
LINE
  5
542C
100
AcDbEntity
  8
0
100
AcDbLine
 10
1059.102035
 20
506.236576
 30
0.0
 11
1059.088923
 21
518.590704
 31
0.0
  0
LINE
  5
542D
100
AcDbEntity
  8
0
100
AcDbLine
 10
1065.953588
 20
535.761221
 30
0.0
 11
1060.088923
 21
523.590704
 31
0.0
  0
LINE
  5
542E
100
AcDbEntity
  8
0
100
AcDbLine
 10
1070.457904
 20
538.590704
 30
0.0
 11
1078.588923
 21
538.590704
 31
0.0
  0
ARC
  5
542F
100
AcDbEntity
  8
0
100
AcDbCircle
 10
1063.588923
 20
550.590704
 30
0.0
 40
5.0
100
AcDbArc
 50
270.0
 51
0.0
  0
ARC
  5
5430
100
AcDbEntity
  8
0
100
AcDbCircle
 10
1069.080801
 20
576.596184
 30
0.0
 40
13.352467
100
AcDbArc
 50
253.680297
 51
286.319703
  0
LINE
  5
5431
100
AcDbEntity
  8
0
100
AcDbLine
 10
1062.771801
 20
563.090704
 30
0.0
 11
1075.389801
 21
563.090704
 31
0.0
  0
LINE
  5
5432
100
AcDbEntity
  8
0
100
AcDbLine
 10
1076.585801
 20
569.590704
 30
0.0
 11
1061.574801
 21
569.590704
 31
0.0
  0
LINE
  5
5433
100
AcDbEntity
  8
0
100
AcDbLine
 10
1049.088923
 20
571.090704
 30
0.0
 11
1049.088923
 21
568.590704
 31
0.0
  0
LINE
  5
5434
100
AcDbEntity
  8
0
100
AcDbLine
 10
1061.574801
 20
571.590704
 30
0.0
 11
1061.574801
 21
563.781704
 31
0.0
  0
LINE
  5
5435
100
AcDbEntity
  8
0
100
AcDbLine
 10
1049.088923
 20
566.090704
 30
0.0
 11
1049.088923
 21
563.590704
 31
0.0
  0
LINE
  5
5436
100
AcDbEntity
  8
0
100
AcDbLine
 10
1049.088923
 20
556.090704
 30
0.0
 11
1049.088923
 21
553.590704
 31
0.0
  0
LINE
  5
5437
100
AcDbEntity
  8
0
100
AcDbLine
 10
1049.088923
 20
561.090704
 30
0.0
 11
1049.088923
 21
558.590704
 31
0.0
  0
LINE
  5
5438
100
AcDbEntity
  8
0
100
AcDbLine
 10
1049.088923
 20
551.090704
 30
0.0
 11
1049.088923
 21
548.590704
 31
0.0
  0
LINE
  5
5439
100
AcDbEntity
  8
0
100
AcDbLine
 10
1049.588923
 20
545.590704
 30
0.0
 11
1049.588923
 21
548.590704
 31
0.0
  0
LINE
  5
543A
100
AcDbEntity
  8
0
100
AcDbLine
 10
1049.588923
 20
551.090704
 30
0.0
 11
1049.588923
 21
553.590704
 31
0.0
  0
LINE
  5
543B
100
AcDbEntity
  8
0
100
AcDbLine
 10
1049.588923
 20
556.090704
 30
0.0
 11
1049.588923
 21
558.590704
 31
0.0
  0
LINE
  5
543C
100
AcDbEntity
  8
0
100
AcDbLine
 10
1049.588923
 20
561.090704
 30
0.0
 11
1049.588923
 21
563.590704
 31
0.0
  0
LINE
  5
543D
100
AcDbEntity
  8
0
100
AcDbLine
 10
1049.588923
 20
561.090704
 30
0.0
 11
1049.588923
 21
563.590704
 31
0.0
  0
LINE
  5
543E
100
AcDbEntity
  8
0
100
AcDbLine
 10
1049.588923
 20
566.090704
 30
0.0
 11
1049.588923
 21
568.590704
 31
0.0
  0
LINE
  5
543F
100
AcDbEntity
  8
0
100
AcDbLine
 10
1065.328801
 20
563.781704
 30
0.0
 11
1065.328801
 21
569.590704
 31
0.0
  0
LINE
  5
5440
100
AcDbEntity
  8
0
100
AcDbLine
 10
1061.574801
 20
563.781704
 30
0.0
 11
1062.771801
 21
563.090704
 31
0.0
  0
ARC
  5
5441
100
AcDbEntity
  8
0
100
AcDbCircle
 10
1063.452301
 20
566.784663
 30
0.0
 40
3.541047
100
AcDbArc
 50
237.999406
 51
302.000594
  0
LINE
  5
5442
100
AcDbEntity
  8
0
100
AcDbLine
 10
1049.588923
 20
571.090704
 30
0.0
 11
1049.588923
 21
571.590704
 31
0.0
  0
ARC
  5
5443
100
AcDbEntity
  8
0
100
AcDbCircle
 10
1078.588923
 20
566.590704
 30
0.0
 40
5.0
100
AcDbArc
 50
0.0
 51
90.0
  0
LINE
  5
5444
100
AcDbEntity
  8
0
100
AcDbLine
 10
1093.588923
 20
553.590704
 30
0.0
 11
1093.588923
 21
579.590704
 31
0.0
  0
LINE
  5
5445
100
AcDbEntity
  8
0
100
AcDbLine
 10
1076.585801
 20
563.781704
 30
0.0
 11
1076.585801
 21
571.590704
 31
0.0
  0
ARC
  5
5446
100
AcDbEntity
  8
0
100
AcDbCircle
 10
1078.588923
 20
550.590704
 30
0.0
 40
5.0
100
AcDbArc
 50
270.0
 51
0.0
  0
LINE
  5
5447
100
AcDbEntity
  8
0
100
AcDbLine
 10
1068.588923
 20
550.590704
 30
0.0
 11
1068.588923
 21
563.090704
 31
0.0
  0
LINE
  5
5448
100
AcDbEntity
  8
0
100
AcDbLine
 10
1072.832801
 20
563.781704
 30
0.0
 11
1072.832801
 21
569.590704
 31
0.0
  0
ARC
  5
5449
100
AcDbEntity
  8
0
100
AcDbCircle
 10
1074.709301
 20
566.784663
 30
0.0
 40
3.541047
100
AcDbArc
 50
237.999406
 51
302.000594
  0
LINE
  5
544A
100
AcDbEntity
  8
0
100
AcDbLine
 10
1075.389801
 20
563.090704
 30
0.0
 11
1076.585801
 21
563.781704
 31
0.0
  0
LINE
  5
544B
100
AcDbEntity
  8
0
100
AcDbLine
 10
1083.588923
 20
550.590704
 30
0.0
 11
1083.588923
 21
566.590704
 31
0.0
  0
LINE
  5
544C
100
AcDbEntity
  8
0
100
AcDbLine
 10
986.588923
 20
629.590704
 30
0.0
 11
999.678112
 21
726.179894
 31
0.0
  0
LINE
  5
544D
100
AcDbEntity
  8
0
100
AcDbLine
 10
1093.588923
 20
629.590704
 30
0.0
 11
1080.499734
 21
726.179894
 31
0.0
  0
LINE
  5
544E
100
AcDbEntity
  8
0
100
AcDbLine
 10
986.588923
 20
599.590704
 30
0.0
 11
1093.588923
 21
599.590704
 31
0.0
  0
LINE
  5
544F
100
AcDbEntity
  8
0
100
AcDbLine
 10
986.588923
 20
629.590704
 30
0.0
 11
1093.588923
 21
629.590704
 31
0.0
  0
LINE
  5
5450
100
AcDbEntity
  8
0
100
AcDbLine
 10
986.588923
 20
599.590704
 30
0.0
 11
986.588923
 21
629.590704
 31
0.0
  0
LINE
  5
5451
100
AcDbEntity
  8
0
100
AcDbLine
 10
1093.588923
 20
599.590704
 30
0.0
 11
1093.588923
 21
629.590704
 31
0.0
  0
LINE
  5
5452
100
AcDbEntity
  8
0
100
AcDbLine
 10
1010.088923
 20
736.590704
 30
0.0
 11
1070.088923
 21
736.590704
 31
0.0
  0
LINE
  5
5453
100
AcDbEntity
  8
0
100
AcDbLine
 10
999.678112
 20
726.179894
 30
0.0
 11
1080.499734
 21
726.179894
 31
0.0
  0
LINE
  5
5454
100
AcDbEntity
  8
0
100
AcDbLine
 10
1010.088923
 20
736.590704
 30
0.0
 11
999.678112
 21
726.179894
 31
0.0
  0
LINE
  5
5455
100
AcDbEntity
  8
0
100
AcDbLine
 10
1070.088923
 20
736.590704
 30
0.0
 11
1080.499734
 21
726.179894
 31
0.0
  0
TEXT
  5
5456
100
AcDbEntity
  8
0
100
AcDbText
 10
219.457722
 20
1205.194563
 30
0.0
 40
28.0
  1
背面
100
AcDbText
  0
TEXT
  5
5457
100
AcDbEntity
  8
0
100
AcDbText
 10
219.457722
 20
881.350344
 30
0.0
 40
28.0
  1
平面
100
AcDbText
  0
LINE
  5
5458
100
AcDbEntity
  8
0
100
AcDbLine
 10
812.633137
 20
1205.194563
 30
0.0
 11
812.633137
 21
1229.211126
 31
0.0
  0
LINE
  5
5459
100
AcDbEntity
  8
0
100
AcDbLine
 10
820.633137
 20
1226.133873
 30
0.0
 11
820.633137
 21
1184.255253
 31
0.0
  0
ARC
  5
545A
100
AcDbEntity
  8
0
100
AcDbCircle
 10
881.299804
 20
1205.194563
 30
0.0
 40
60.666667
100
AcDbArc
 50
169.582562
 51
190.417438
  0
ARC
  5
545B
100
AcDbEntity
  8
0
100
AcDbCircle
 10
766.966471
 20
1205.194563
 30
0.0
 40
60.666667
100
AcDbArc
 50
349.582562
 51
10.417438
  0
LINE
  5
545C
100
AcDbEntity
  8
0
100
AcDbLine
 10
827.633137
 20
1226.133873
 30
0.0
 11
827.633137
 21
1205.194563
 31
0.0
  0
LINE
  5
545D
100
AcDbEntity
  8
0
100
AcDbLine
 10
786.995456
 20
1226.689387
 30
0.0
 11
786.995456
 21
1182.588973
 31
0.0
  0
LINE
  5
545E
100
AcDbEntity
  8
0
100
AcDbLine
 10
781.611743
 20
1220.224929
 30
0.0
 11
781.611743
 21
1199.980968
 31
0.0
  0
LINE
  5
545F
100
AcDbEntity
  8
0
100
AcDbLine
 10
718.668334
 20
1216.202155
 30
0.0
 11
718.668334
 21
1184.390215
 31
0.0
  0
LINE
  5
5460
100
AcDbEntity
  8
0
100
AcDbLine
 10
667.633137
 20
1205.194563
 30
0.0
 11
667.633137
 21
1229.211126
 31
0.0
  0
ARC
  5
5461
100
AcDbEntity
  8
0
100
AcDbCircle
 10
713.299804
 20
1205.194563
 30
0.0
 40
60.666667
100
AcDbArc
 50
169.582562
 51
190.417438
  0
ARC
  5
5462
100
AcDbEntity
  8
0
100
AcDbCircle
 10
598.966471
 20
1205.194563
 30
0.0
 40
60.666667
100
AcDbArc
 50
349.582562
 51
10.417438
  0
LINE
  5
5463
100
AcDbEntity
  8
0
100
AcDbLine
 10
667.633137
 20
1205.194563
 30
0.0
 11
667.633137
 21
1229.211126
 31
0.0
  0
LINE
  5
5464
100
AcDbEntity
  8
0
100
AcDbLine
 10
659.633137
 20
1226.133873
 30
0.0
 11
659.633137
 21
1184.255253
 31
0.0
  0
LINE
  5
5465
100
AcDbEntity
  8
0
100
AcDbLine
 10
652.633137
 20
1226.133873
 30
0.0
 11
652.633137
 21
1205.194563
 31
0.0
  0
ARC
  5
5466
100
AcDbEntity
  8
0
100
AcDbCircle
 10
678.461491
 20
911.776069
 30
0.0
 40
16.931357
100
AcDbArc
 50
0.468467
 51
26.673184
  0
LINE
  5
5467
100
AcDbEntity
  8
0
100
AcDbLine
 10
699.292353
 20
901.410384
 30
0.0
 11
694.131412
 21
904.566355
 31
0.0
  0
LINE
  5
5468
100
AcDbEntity
  8
0
100
AcDbLine
 10
706.797058
 20
914.373118
 30
0.0
 11
695.166888
 21
914.373118
 31
0.0
  0
LINE
  5
5469
100
AcDbEntity
  8
0
100
AcDbLine
 10
696.332064
 20
891.350344
 30
0.0
 11
685.698119
 21
891.350344
 31
0.0
  0
LINE
  5
546A
100
AcDbEntity
  8
0
100
AcDbLine
 10
694.131412
 20
858.134333
 30
0.0
 11
699.292353
 21
861.290304
 31
0.0
  0
LINE
  5
546B
100
AcDbEntity
  8
0
100
AcDbLine
 10
685.698119
 20
871.350344
 30
0.0
 11
696.332064
 21
871.350344
 31
0.0
  0
LINE
  5
546C
100
AcDbEntity
  8
0
100
AcDbLine
 10
706.797058
 20
848.32757
 30
0.0
 11
695.322233
 21
848.32757
 31
0.0
  0
ARC
  5
546D
100
AcDbEntity
  8
0
100
AcDbCircle
 10
678.143887
 20
850.988166
 30
0.0
 40
17.405441
100
AcDbArc
 50
333.875396
 51
1.618407
  0
CIRCLE
  5
546E
100
AcDbEntity
  8
0
100
AcDbCircle
 10
748.889176
 20
881.350344
 30
0.0
 40
53.5
  0
LINE
  5
546F
100
AcDbEntity
  8
0
100
AcDbLine
 10
693.270818
 20
905.126741
 30
0.0
 11
693.270818
 21
891.350344
 31
0.0
  0
LINE
  5
5470
100
AcDbEntity
  8
0
100
AcDbLine
 10
661.388831
 20
902.364837
 30
0.0
 11
661.388831
 21
897.865113
 31
0.0
  0
LINE
  5
5471
100
AcDbEntity
  8
0
100
AcDbLine
 10
667.633137
 20
881.350344
 30
0.0
 11
667.633137
 21
905.366907
 31
0.0
  0
ARC
  5
5472
100
AcDbEntity
  8
0
100
AcDbCircle
 10
668.174804
 20
897.804827
 30
0.0
 40
15.541667
100
AcDbArc
 50
159.334522
 51
200.665478
  0
ARC
  5
5473
100
AcDbEntity
  8
0
100
AcDbCircle
 10
644.091471
 20
897.804827
 30
0.0
 40
15.541667
100
AcDbArc
 50
339.334522
 51
20.665478
  0
LINE
  5
5474
100
AcDbEntity
  8
0
100
AcDbLine
 10
652.633137
 20
902.289654
 30
0.0
 11
652.633137
 21
881.350344
 31
0.0
  0
ARC
  5
5475
100
AcDbEntity
  8
0
100
AcDbCircle
 10
758.720548
 20
881.295893
 30
0.0
 40
95.470449
100
AcDbArc
 50
165.597708
 51
194.430647
  0
LINE
  5
5476
100
AcDbEntity
  8
0
100
AcDbLine
 10
659.633137
 20
902.289654
 30
0.0
 11
659.633137
 21
860.411034
 31
0.0
  0
LINE
  5
5477
100
AcDbEntity
  8
0
100
AcDbLine
 10
673.737347
 20
853.831365
 30
0.0
 11
672.266333
 21
847.326879
 31
0.0
  0
ARC
  5
5478
100
AcDbEntity
  8
0
100
AcDbCircle
 10
641.047632
 20
852.570496
 30
0.0
 40
34.72985
100
AcDbArc
 50
344.559522
 51
1.882358
  0
ARC
  5
5479
100
AcDbEntity
  8
0
100
AcDbCircle
 10
643.126874
 20
852.938504
 30
0.0
 40
41.72529
100
AcDbArc
 50
346.678138
 51
1.061214
  0
ARC
  5
547A
100
AcDbEntity
  8
0
100
AcDbCircle
 10
641.991886
 20
853.071788
 30
0.0
 40
43.572329
100
AcDbArc
 50
347.072827
 51
358.853875
  0
LINE
  5
547B
100
AcDbEntity
  8
0
100
AcDbLine
 10
666.062054
 20
853.821358
 30
0.0
 11
666.682482
 21
847.326879
 31
0.0
  0
LINE
  5
547C
100
AcDbEntity
  8
0
100
AcDbLine
 10
656.475442
 20
853.821358
 30
0.0
 11
657.09587
 21
847.326879
 31
0.0
  0
LINE
  5
547D
100
AcDbEntity
  8
0
100
AcDbLine
 10
662.679721
 20
847.326879
 30
0.0
 11
664.150736
 21
853.831365
 31
0.0
  0
LINE
  5
547E
100
AcDbEntity
  8
0
100
AcDbLine
 10
659.557568
 20
853.831365
 30
0.0
 11
658.086553
 21
847.326879
 31
0.0
  0
LINE
  5
547F
100
AcDbEntity
  8
0
100
AcDbLine
 10
667.673165
 20
847.326879
 30
0.0
 11
669.144179
 21
853.831365
 31
0.0
  0
LINE
  5
5480
100
AcDbEntity
  8
0
100
AcDbLine
 10
663.190073
 20
843.324119
 30
0.0
 11
661.769093
 21
847.326879
 31
0.0
  0
LINE
  5
5481
100
AcDbEntity
  8
0
100
AcDbLine
 10
657.09587
 20
847.326879
 30
0.0
 11
662.679721
 21
847.326879
 31
0.0
  0
LINE
  5
5482
100
AcDbEntity
  8
0
100
AcDbLine
 10
693.771163
 20
843.324119
 30
0.0
 11
663.190073
 21
843.324119
 31
0.0
  0
LINE
  5
5483
100
AcDbEntity
  8
0
100
AcDbLine
 10
666.682482
 20
847.326879
 30
0.0
 11
672.266333
 21
847.326879
 31
0.0
  0
LINE
  5
5484
100
AcDbEntity
  8
0
100
AcDbLine
 10
659.633137
 20
897.974844
 30
0.0
 11
667.633137
 21
897.474844
 31
0.0
  0
LINE
  5
5485
100
AcDbEntity
  8
0
100
AcDbLine
 10
659.557568
 20
853.831365
 30
0.0
 11
664.150736
 21
853.831365
 31
0.0
  0
LINE
  5
5486
100
AcDbEntity
  8
0
100
AcDbLine
 10
659.633137
 20
864.725844
 30
0.0
 11
667.633137
 21
865.225844
 31
0.0
  0
LINE
  5
5487
100
AcDbEntity
  8
0
100
AcDbLine
 10
659.557955
 20
860.335851
 30
0.0
 11
662.599666
 21
860.335851
 31
0.0
  0
ARC
  5
5488
100
AcDbEntity
  8
0
100
AcDbCircle
 10
598.966471
 20
881.350344
 30
0.0
 40
60.666667
100
AcDbArc
 50
349.582562
 51
10.417438
  0
ARC
  5
5489
100
AcDbEntity
  8
0
100
AcDbCircle
 10
713.299804
 20
881.350344
 30
0.0
 40
60.666667
100
AcDbArc
 50
169.582562
 51
190.417438
  0
LINE
  5
548A
100
AcDbEntity
  8
0
100
AcDbLine
 10
652.633137
 20
881.350344
 30
0.0
 11
652.633137
 21
860.411034
 31
0.0
  0
LINE
  5
548B
100
AcDbEntity
  8
0
100
AcDbLine
 10
652.633137
 20
860.411034
 30
0.0
 11
653.633137
 21
859.411034
 31
0.0
  0
ARC
  5
548C
100
AcDbEntity
  8
0
100
AcDbCircle
 10
668.174804
 20
864.895861
 30
0.0
 40
15.541667
100
AcDbArc
 50
159.334522
 51
200.665478
  0
LINE
  5
548D
100
AcDbEntity
  8
0
100
AcDbLine
 10
659.633137
 20
860.411034
 30
0.0
 11
658.633137
 21
859.411034
 31
0.0
  0
ARC
  5
548E
100
AcDbEntity
  8
0
100
AcDbCircle
 10
644.091471
 20
864.895861
 30
0.0
 40
15.541667
100
AcDbArc
 50
339.334522
 51
20.665478
  0
LINE
  5
548F
100
AcDbEntity
  8
0
100
AcDbLine
 10
653.633137
 20
859.411034
 30
0.0
 11
658.633137
 21
859.411034
 31
0.0
  0
LINE
  5
5490
100
AcDbEntity
  8
0
100
AcDbLine
 10
653.633137
 20
870.380689
 30
0.0
 11
658.633137
 21
870.380689
 31
0.0
  0
LINE
  5
5491
100
AcDbEntity
  8
0
100
AcDbLine
 10
661.388831
 20
864.835575
 30
0.0
 11
661.388831
 21
860.335851
 31
0.0
  0
LINE
  5
5492
100
AcDbEntity
  8
0
100
AcDbLine
 10
659.557568
 20
853.831365
 30
0.0
 11
658.227032
 21
859.411034
 31
0.0
  0
LINE
  5
5493
100
AcDbEntity
  8
0
100
AcDbLine
 10
657.007792
 20
859.411034
 30
0.0
 11
656.475442
 21
853.821358
 31
0.0
  0
LINE
  5
5494
100
AcDbEntity
  8
0
100
AcDbLine
 10
653.633137
 20
892.319999
 30
0.0
 11
658.633137
 21
892.319999
 31
0.0
  0
LINE
  5
5495
100
AcDbEntity
  8
0
100
AcDbLine
 10
673.389176
 20
889.431645
 30
0.0
 11
673.389176
 21
873.269043
 31
0.0
  0
LINE
  5
5496
100
AcDbEntity
  8
0
100
AcDbLine
 10
677.234704
 20
888.277173
 30
0.0
 11
677.234704
 21
874.423515
 31
0.0
  0
LINE
  5
5497
100
AcDbEntity
  8
0
100
AcDbLine
 10
667.633137
 20
857.333781
 30
0.0
 11
667.633137
 21
881.350344
 31
0.0
  0
LINE
  5
5498
100
AcDbEntity
  8
0
100
AcDbLine
 10
685.698119
 20
875.577986
 30
0.0
 11
685.698119
 21
871.350344
 31
0.0
  0
LINE
  5
5499
100
AcDbEntity
  8
0
100
AcDbLine
 10
691.852591
 20
875.577986
 30
0.0
 11
691.852591
 21
871.350344
 31
0.0
  0
LINE
  5
549A
100
AcDbEntity
  8
0
100
AcDbLine
 10
695.389176
 20
871.350344
 30
0.0
 11
695.389176
 21
891.350344
 31
0.0
  0
LINE
  5
549B
100
AcDbEntity
  8
0
100
AcDbLine
 10
681.088363
 20
890.195872
 30
0.0
 11
681.088363
 21
872.886929
 31
0.0
  0
LINE
  5
549C
100
AcDbEntity
  8
0
100
AcDbLine
 10
681.088363
 20
874.423515
 30
0.0
 11
677.234704
 21
874.423515
 31
0.0
  0
LINE
  5
549D
100
AcDbEntity
  8
0
100
AcDbLine
 10
667.633137
 20
857.333781
 30
0.0
 11
692.090004
 21
857.333781
 31
0.0
  0
LINE
  5
549E
100
AcDbEntity
  8
0
100
AcDbLine
 10
673.389176
 20
873.269043
 30
0.0
 11
674.161534
 21
872.122702
 31
0.0
  0
LINE
  5
549F
100
AcDbEntity
  8
0
100
AcDbLine
 10
674.161534
 20
872.122702
 30
0.0
 11
677.234704
 21
872.122702
 31
0.0
  0
LINE
  5
54A0
100
AcDbEntity
  8
0
100
AcDbLine
 10
677.234704
 20
872.122702
 30
0.0
 11
677.234704
 21
874.423515
 31
0.0
  0
LINE
  5
54A1
100
AcDbEntity
  8
0
100
AcDbLine
 10
669.144179
 20
853.831365
 30
0.0
 11
673.737347
 21
853.831365
 31
0.0
  0
LINE
  5
54A2
100
AcDbEntity
  8
0
100
AcDbLine
 10
669.144179
 20
853.831365
 30
0.0
 11
668.308076
 21
857.333781
 31
0.0
  0
LINE
  5
54A3
100
AcDbEntity
  8
0
100
AcDbLine
 10
675.758741
 20
857.333781
 30
0.0
 11
675.758741
 21
853.711282
 31
0.0
  0
LINE
  5
54A4
100
AcDbEntity
  8
0
100
AcDbLine
 10
672.908273
 20
857.333781
 30
0.0
 11
673.737347
 21
853.831365
 31
0.0
  0
LINE
  5
54A5
100
AcDbEntity
  8
0
100
AcDbLine
 10
666.682482
 20
860.335851
 30
0.0
 11
666.062054
 21
853.821358
 31
0.0
  0
LINE
  5
54A6
100
AcDbEntity
  8
0
100
AcDbLine
 10
667.59311
 20
860.335851
 30
0.0
 11
666.682482
 21
860.335851
 31
0.0
  0
LINE
  5
54A7
100
AcDbEntity
  8
0
100
AcDbLine
 10
667.633137
 20
860.335851
 30
0.0
 11
667.633137
 21
860.335851
 31
0.0
  0
ARC
  5
54A8
100
AcDbEntity
  8
0
100
AcDbCircle
 10
672.5745
 20
860.894226
 30
0.0
 40
5.012587
100
AcDbArc
 50
186.395706
 51
189.670239
  0
LINE
  5
54A9
100
AcDbEntity
  8
0
100
AcDbLine
 10
662.599666
 20
860.335851
 30
0.0
 11
664.150736
 21
853.831365
 31
0.0
  0
ARC
  5
54AA
100
AcDbEntity
  8
0
100
AcDbCircle
 10
692.09839
 20
860.315467
 30
0.0
 40
2.981698
100
AcDbArc
 50
269.838855
 51
312.987084
  0
LINE
  5
54AB
100
AcDbEntity
  8
0
100
AcDbLine
 10
693.270818
 20
871.350344
 30
0.0
 11
693.270818
 21
857.573946
 31
0.0
  0
LINE
  5
54AC
100
AcDbEntity
  8
0
100
AcDbLine
 10
695.582413
 20
851.479744
 30
0.0
 11
695.582413
 21
858.904864
 31
0.0
  0
LINE
  5
54AD
100
AcDbEntity
  8
0
100
AcDbLine
 10
682.013836
 20
872.802958
 30
0.0
 11
681.088363
 21
872.886929
 31
0.0
  0
LINE
  5
54AE
100
AcDbEntity
  8
0
100
AcDbLine
 10
685.698119
 20
871.350344
 30
0.0
 11
682.007062
 21
872.805628
 31
0.0
  0
LINE
  5
54AF
100
AcDbEntity
  8
0
100
AcDbLine
 10
684.845008
 20
857.333781
 30
0.0
 11
684.845008
 21
853.711282
 31
0.0
  0
LINE
  5
54B0
100
AcDbEntity
  8
0
100
AcDbLine
 10
685.5883
 20
857.333781
 30
0.0
 11
685.555498
 21
852.20024
 31
0.0
  0
LINE
  5
54B1
100
AcDbEntity
  8
0
100
AcDbLine
 10
685.575511
 20
853.711282
 30
0.0
 11
685.575511
 21
853.711282
 31
0.0
  0
LINE
  5
54B2
100
AcDbEntity
  8
0
100
AcDbLine
 10
684.845008
 20
853.711282
 30
0.0
 11
684.845008
 21
853.711282
 31
0.0
  0
LINE
  5
54B3
100
AcDbEntity
  8
0
100
AcDbLine
 10
677.234704
 20
888.277173
 30
0.0
 11
681.088363
 21
888.277173
 31
0.0
  0
LINE
  5
54B4
100
AcDbEntity
  8
0
100
AcDbLine
 10
673.389176
 20
886.871011
 30
0.0
 11
677.234704
 21
886.871011
 31
0.0
  0
LINE
  5
54B5
100
AcDbEntity
  8
0
100
AcDbLine
 10
677.234704
 20
890.577986
 30
0.0
 11
674.161534
 21
890.577986
 31
0.0
  0
LINE
  5
54B6
100
AcDbEntity
  8
0
100
AcDbLine
 10
674.161534
 20
890.577986
 30
0.0
 11
673.389176
 21
889.431645
 31
0.0
  0
LINE
  5
54B7
100
AcDbEntity
  8
0
100
AcDbLine
 10
673.389176
 20
885.036059
 30
0.0
 11
677.234704
 21
885.036059
 31
0.0
  0
LINE
  5
54B8
100
AcDbEntity
  8
0
100
AcDbLine
 10
677.234704
 20
888.277173
 30
0.0
 11
677.234704
 21
890.577986
 31
0.0
  0
LINE
  5
54B9
100
AcDbEntity
  8
0
100
AcDbLine
 10
673.389176
 20
877.664629
 30
0.0
 11
677.234704
 21
877.664629
 31
0.0
  0
LINE
  5
54BA
100
AcDbEntity
  8
0
100
AcDbLine
 10
673.389176
 20
875.829677
 30
0.0
 11
677.234704
 21
875.829677
 31
0.0
  0
LINE
  5
54BB
100
AcDbEntity
  8
0
100
AcDbLine
 10
691.852591
 20
891.350344
 30
0.0
 11
691.852591
 21
887.122702
 31
0.0
  0
LINE
  5
54BC
100
AcDbEntity
  8
0
100
AcDbLine
 10
691.852591
 20
885.195872
 30
0.0
 11
691.852591
 21
877.504815
 31
0.0
  0
LINE
  5
54BD
100
AcDbEntity
  8
0
100
AcDbLine
 10
685.698119
 20
891.350344
 30
0.0
 11
685.698119
 21
887.122702
 31
0.0
  0
LINE
  5
54BE
100
AcDbEntity
  8
0
100
AcDbLine
 10
682.004141
 20
890.276324
 30
0.0
 11
681.088363
 21
890.195872
 31
0.0
  0
LINE
  5
54BF
100
AcDbEntity
  8
0
100
AcDbLine
 10
682.004141
 20
890.276324
 30
0.0
 11
685.698119
 21
891.350344
 31
0.0
  0
LINE
  5
54C0
100
AcDbEntity
  8
0
100
AcDbLine
 10
685.698119
 20
885.195872
 30
0.0
 11
685.698119
 21
877.504815
 31
0.0
  0
LINE
  5
54C1
100
AcDbEntity
  8
0
100
AcDbLine
 10
682.234704
 20
876.545466
 30
0.0
 11
685.698119
 21
875.577986
 31
0.0
  0
LINE
  5
54C2
100
AcDbEntity
  8
0
100
AcDbLine
 10
685.698119
 20
877.504815
 30
0.0
 11
682.234704
 21
876.545466
 31
0.0
  0
LINE
  5
54C3
100
AcDbEntity
  8
0
100
AcDbLine
 10
682.234704
 20
886.155222
 30
0.0
 11
685.698119
 21
885.195872
 31
0.0
  0
LINE
  5
54C4
100
AcDbEntity
  8
0
100
AcDbLine
 10
685.698119
 20
887.122702
 30
0.0
 11
682.234704
 21
886.155222
 31
0.0
  0
LINE
  5
54C5
100
AcDbEntity
  8
0
100
AcDbLine
 10
691.852591
 20
887.122702
 30
0.0
 11
685.698119
 21
887.122702
 31
0.0
  0
LINE
  5
54C6
100
AcDbEntity
  8
0
100
AcDbLine
 10
685.698119
 20
875.577986
 30
0.0
 11
691.852591
 21
875.577986
 31
0.0
  0
LINE
  5
54C7
100
AcDbEntity
  8
0
100
AcDbLine
 10
691.852591
 20
877.504815
 30
0.0
 11
685.698119
 21
877.504815
 31
0.0
  0
LINE
  5
54C8
100
AcDbEntity
  8
0
100
AcDbLine
 10
685.698119
 20
885.195872
 30
0.0
 11
691.852591
 21
885.195872
 31
0.0
  0
LINE
  5
54C9
100
AcDbEntity
  8
0
100
AcDbLine
 10
658.006498
 20
915.373808
 30
0.0
 11
662.599666
 21
915.373808
 31
0.0
  0
LINE
  5
54CA
100
AcDbEntity
  8
0
100
AcDbLine
 10
659.557568
 20
908.869323
 30
0.0
 11
664.150736
 21
908.869323
 31
0.0
  0
ARC
  5
54CB
100
AcDbEntity
  8
0
100
AcDbCircle
 10
670.131429
 20
914.658783
 30
0.0
 40
8.39285
100
AcDbArc
 50
145.797488
 51
175.112787
  0
LINE
  5
54CC
100
AcDbEntity
  8
0
100
AcDbLine
 10
659.557955
 20
902.364837
 30
0.0
 11
662.679721
 21
902.364837
 31
0.0
  0
LINE
  5
54CD
100
AcDbEntity
  8
0
100
AcDbLine
 10
657.09587
 20
915.373808
 30
0.0
 11
656.475442
 21
908.859316
 31
0.0
  0
LINE
  5
54CE
100
AcDbEntity
  8
0
100
AcDbLine
 10
659.557568
 20
908.869323
 30
0.0
 11
658.006498
 21
915.373808
 31
0.0
  0
LINE
  5
54CF
100
AcDbEntity
  8
0
100
AcDbLine
 10
658.006498
 20
915.373808
 30
0.0
 11
657.09587
 21
915.373808
 31
0.0
  0
LINE
  5
54D0
100
AcDbEntity
  8
0
100
AcDbLine
 10
652.633137
 20
902.289654
 30
0.0
 11
653.633137
 21
903.289654
 31
0.0
  0
LINE
  5
54D1
100
AcDbEntity
  8
0
100
AcDbLine
 10
659.633137
 20
902.289654
 30
0.0
 11
658.633137
 21
903.289654
 31
0.0
  0
LINE
  5
54D2
100
AcDbEntity
  8
0
100
AcDbLine
 10
653.633137
 20
903.289654
 30
0.0
 11
658.633137
 21
903.289654
 31
0.0
  0
LINE
  5
54D3
100
AcDbEntity
  8
0
100
AcDbLine
 10
656.475442
 20
908.859316
 30
0.0
 11
657.007521
 21
903.289654
 31
0.0
  0
LINE
  5
54D4
100
AcDbEntity
  8
0
100
AcDbLine
 10
659.557568
 20
908.869323
 30
0.0
 11
658.295704
 21
903.289654
 31
0.0
  0
LINE
  5
54D5
100
AcDbEntity
  8
0
100
AcDbLine
 10
693.591039
 20
919.376569
 30
0.0
 11
675.758741
 21
919.376569
 31
0.0
  0
LINE
  5
54D6
100
AcDbEntity
  8
0
100
AcDbLine
 10
692.090004
 20
905.366907
 30
0.0
 11
667.633137
 21
905.366907
 31
0.0
  0
LINE
  5
54D7
100
AcDbEntity
  8
0
100
AcDbLine
 10
673.737347
 20
908.869323
 30
0.0
 11
669.144179
 21
908.869323
 31
0.0
  0
LINE
  5
54D8
100
AcDbEntity
  8
0
100
AcDbLine
 10
668.352095
 20
905.366907
 30
0.0
 11
669.144179
 21
908.869323
 31
0.0
  0
LINE
  5
54D9
100
AcDbEntity
  8
0
100
AcDbLine
 10
670.635208
 20
905.366907
 30
0.0
 11
670.635208
 21
905.366907
 31
0.0
  0
LINE
  5
54DA
100
AcDbEntity
  8
0
100
AcDbLine
 10
673.737347
 20
908.869323
 30
0.0
 11
672.943696
 21
905.366907
 31
0.0
  0
LINE
  5
54DB
100
AcDbEntity
  8
0
100
AcDbLine
 10
672.186277
 20
915.373808
 30
0.0
 11
673.737347
 21
908.869323
 31
0.0
  0
ARC
  5
54DC
100
AcDbEntity
  8
0
100
AcDbCircle
 10
641.047632
 20
910.130192
 30
0.0
 40
34.72985
100
AcDbArc
 50
358.117642
 51
15.440478
  0
LINE
  5
54DD
100
AcDbEntity
  8
0
100
AcDbLine
 10
675.758741
 20
905.366907
 30
0.0
 11
675.758741
 21
908.989405
 31
0.0
  0
LINE
  5
54DE
100
AcDbEntity
  8
0
100
AcDbLine
 10
666.062054
 20
908.859316
 30
0.0
 11
666.682482
 21
902.364837
 31
0.0
  0
LINE
  5
54DF
100
AcDbEntity
  8
0
100
AcDbLine
 10
666.682482
 20
902.364837
 30
0.0
 11
667.633137
 21
902.364837
 31
0.0
  0
LINE
  5
54E0
100
AcDbEntity
  8
0
100
AcDbLine
 10
666.682482
 20
915.373808
 30
0.0
 11
666.062054
 21
908.859316
 31
0.0
  0
LINE
  5
54E1
100
AcDbEntity
  8
0
100
AcDbLine
 10
667.59311
 20
915.373808
 30
0.0
 11
666.682482
 21
915.373808
 31
0.0
  0
LINE
  5
54E2
100
AcDbEntity
  8
0
100
AcDbLine
 10
662.679721
 20
902.364837
 30
0.0
 11
664.150736
 21
908.869323
 31
0.0
  0
LINE
  5
54E3
100
AcDbEntity
  8
0
100
AcDbLine
 10
662.599666
 20
915.373808
 30
0.0
 11
664.150736
 21
908.869323
 31
0.0
  0
LINE
  5
54E4
100
AcDbEntity
  8
0
100
AcDbLine
 10
664.360881
 20
919.376569
 30
0.0
 11
663.190073
 21
919.376569
 31
0.0
  0
LINE
  5
54E5
100
AcDbEntity
  8
0
100
AcDbLine
 10
667.59311
 20
915.373808
 30
0.0
 11
672.186277
 21
915.373808
 31
0.0
  0
LINE
  5
54E6
100
AcDbEntity
  8
0
100
AcDbLine
 10
675.758741
 20
919.376569
 30
0.0
 11
664.360881
 21
919.376569
 31
0.0
  0
LINE
  5
54E7
100
AcDbEntity
  8
0
100
AcDbLine
 10
669.144179
 20
908.869323
 30
0.0
 11
667.59311
 21
915.373808
 31
0.0
  0
ARC
  5
54E8
100
AcDbEntity
  8
0
100
AcDbCircle
 10
692.09839
 20
902.38522
 30
0.0
 40
2.981698
100
AcDbArc
 50
47.012916
 51
90.161145
  0
LINE
  5
54E9
100
AcDbEntity
  8
0
100
AcDbLine
 10
695.392282
 20
911.914503
 30
0.0
 11
695.392282
 21
903.795824
 31
0.0
  0
ARC
  5
54EA
100
AcDbEntity
  8
0
100
AcDbCircle
 10
643.126874
 20
909.762184
 30
0.0
 40
41.72529
100
AcDbArc
 50
358.938786
 51
13.321862
  0
ARC
  5
54EB
100
AcDbEntity
  8
0
100
AcDbCircle
 10
641.991886
 20
909.6289
 30
0.0
 40
43.572329
100
AcDbArc
 50
1.146125
 51
12.927173
  0
LINE
  5
54EC
100
AcDbEntity
  8
0
100
AcDbLine
 10
684.845008
 20
908.989405
 30
0.0
 11
684.845008
 21
908.989405
 31
0.0
  0
LINE
  5
54ED
100
AcDbEntity
  8
0
100
AcDbLine
 10
685.575511
 20
908.989405
 30
0.0
 11
685.575511
 21
908.989405
 31
0.0
  0
LINE
  5
54EE
100
AcDbEntity
  8
0
100
AcDbLine
 10
685.5883
 20
905.366907
 30
0.0
 11
685.555498
 21
910.500447
 31
0.0
  0
LINE
  5
54EF
100
AcDbEntity
  8
0
100
AcDbLine
 10
684.845008
 20
905.366907
 30
0.0
 11
684.845008
 21
908.989405
 31
0.0
  0
ARC
  5
54F0
100
AcDbEntity
  8
0
100
AcDbCircle
 10
836.174804
 20
897.804827
 30
0.0
 40
15.541667
100
AcDbArc
 50
159.334522
 51
200.665478
  0
ARC
  5
54F1
100
AcDbEntity
  8
0
100
AcDbCircle
 10
812.091471
 20
897.804827
 30
0.0
 40
15.541667
100
AcDbArc
 50
339.334522
 51
20.665478
  0
LINE
  5
54F2
100
AcDbEntity
  8
0
100
AcDbLine
 10
827.633137
 20
902.289654
 30
0.0
 11
827.633137
 21
881.350344
 31
0.0
  0
CIRCLE
  5
54F3
100
AcDbEntity
  8
0
100
AcDbCircle
 10
748.889176
 20
881.350344
 30
0.0
 40
40.410811
  0
CIRCLE
  5
54F4
100
AcDbEntity
  8
0
100
AcDbCircle
 10
748.889176
 20
881.350344
 30
0.0
 40
30.0
  0
LINE
  5
54F5
100
AcDbEntity
  8
0
100
AcDbLine
 10
812.633137
 20
857.333781
 30
0.0
 11
812.633137
 21
905.366907
 31
0.0
  0
LINE
  5
54F6
100
AcDbEntity
  8
0
100
AcDbLine
 10
820.633137
 20
902.289654
 30
0.0
 11
820.633137
 21
860.411034
 31
0.0
  0
LINE
  5
54F7
100
AcDbEntity
  8
0
100
AcDbLine
 10
719.148665
 20
836.87842
 30
0.0
 11
719.148665
 21
836.319288
 31
0.0
  0
LINE
  5
54F8
100
AcDbEntity
  8
0
100
AcDbLine
 10
719.148665
 20
836.319288
 30
0.0
 11
720.002258
 21
836.319288
 31
0.0
  0
ARC
  5
54F9
100
AcDbEntity
  8
0
100
AcDbCircle
 10
722.891991
 20
881.002171
 30
0.0
 40
32.626068
100
AcDbArc
 50
219.382799
 51
229.372547
  0
LINE
  5
54FA
100
AcDbEntity
  8
0
100
AcDbLine
 10
796.695605
 20
857.333781
 30
0.0
 11
812.633137
 21
857.333781
 31
0.0
  0
ARC
  5
54FB
100
AcDbEntity
  8
0
100
AcDbCircle
 10
766.966471
 20
881.350344
 30
0.0
 40
60.666667
100
AcDbArc
 50
349.582562
 51
10.417438
  0
ARC
  5
54FC
100
AcDbEntity
  8
0
100
AcDbCircle
 10
881.299804
 20
881.350344
 30
0.0
 40
60.666667
100
AcDbArc
 50
169.582562
 51
190.417438
  0
LINE
  5
54FD
100
AcDbEntity
  8
0
100
AcDbLine
 10
827.633137
 20
881.350344
 30
0.0
 11
827.633137
 21
860.411034
 31
0.0
  0
LINE
  5
54FE
100
AcDbEntity
  8
0
100
AcDbLine
 10
820.633137
 20
864.725844
 30
0.0
 11
812.633137
 21
865.225844
 31
0.0
  0
LINE
  5
54FF
100
AcDbEntity
  8
0
100
AcDbLine
 10
826.633137
 20
870.380689
 30
0.0
 11
821.633137
 21
870.380689
 31
0.0
  0
LINE
  5
5500
100
AcDbEntity
  8
0
100
AcDbLine
 10
826.633137
 20
859.411034
 30
0.0
 11
821.633137
 21
859.411034
 31
0.0
  0
ARC
  5
5501
100
AcDbEntity
  8
0
100
AcDbCircle
 10
812.091471
 20
864.895861
 30
0.0
 40
15.541667
100
AcDbArc
 50
339.334522
 51
20.665478
  0
LINE
  5
5502
100
AcDbEntity
  8
0
100
AcDbLine
 10
827.633137
 20
860.411034
 30
0.0
 11
826.633137
 21
859.411034
 31
0.0
  0
ARC
  5
5503
100
AcDbEntity
  8
0
100
AcDbCircle
 10
836.174804
 20
864.895861
 30
0.0
 40
15.541667
100
AcDbArc
 50
159.334522
 51
200.665478
  0
LINE
  5
5504
100
AcDbEntity
  8
0
100
AcDbLine
 10
820.633137
 20
860.411034
 30
0.0
 11
821.633137
 21
859.411034
 31
0.0
  0
LINE
  5
5505
100
AcDbEntity
  8
0
100
AcDbLine
 10
820.633137
 20
897.974844
 30
0.0
 11
812.633137
 21
897.474844
 31
0.0
  0
LINE
  5
5506
100
AcDbEntity
  8
0
100
AcDbLine
 10
826.633137
 20
892.319999
 30
0.0
 11
821.633137
 21
892.319999
 31
0.0
  0
LINE
  5
5507
100
AcDbEntity
  8
0
100
AcDbLine
 10
719.148665
 20
925.822268
 30
0.0
 11
719.148665
 21
929.38347
 31
0.0
  0
LINE
  5
5508
100
AcDbEntity
  8
0
100
AcDbLine
 10
719.148665
 20
929.38347
 30
0.0
 11
725.329278
 21
929.38347
 31
0.0
  0
LINE
  5
5509
100
AcDbEntity
  8
0
100
AcDbLine
 10
812.633137
 20
905.366907
 30
0.0
 11
796.695605
 21
905.366907
 31
0.0
  0
LINE
  5
550A
100
AcDbEntity
  8
0
100
AcDbLine
 10
826.633137
 20
903.289654
 30
0.0
 11
821.633137
 21
903.289654
 31
0.0
  0
LINE
  5
550B
100
AcDbEntity
  8
0
100
AcDbLine
 10
827.633137
 20
902.289654
 30
0.0
 11
826.633137
 21
903.289654
 31
0.0
  0
LINE
  5
550C
100
AcDbEntity
  8
0
100
AcDbLine
 10
820.633137
 20
902.289654
 30
0.0
 11
821.633137
 21
903.289654
 31
0.0
  0
LINE
  5
550D
100
AcDbEntity
  8
0
100
AcDbLine
 10
699.309261
 20
1101.408708
 30
0.0
 11
691.770641
 21
1093.37659
 31
0.0
  0
LINE
  5
550E
100
AcDbEntity
  8
0
100
AcDbLine
 10
702.817402
 20
1097.900567
 30
0.0
 11
683.774269
 21
1116.943701
 31
0.0
  0
LINE
  5
550F
100
AcDbEntity
  8
0
100
AcDbLine
 10
710.282551
 20
1099.581727
 30
0.0
 11
684.414449
 21
1125.465279
 31
0.0
  0
LINE
  5
5510
100
AcDbEntity
  8
0
100
AcDbLine
 10
691.770641
 20
1093.37659
 30
0.0
 11
679.74379
 21
1105.403441
 31
0.0
  0
LINE
  5
5511
100
AcDbEntity
  8
0
100
AcDbLine
 10
684.414449
 20
1125.465279
 30
0.0
 11
681.400623
 21
1181.178
 31
0.0
  0
LINE
  5
5512
100
AcDbEntity
  8
0
100
AcDbLine
 10
683.774269
 20
1116.943701
 30
0.0
 11
688.497526
 21
1121.376758
 31
0.0
  0
LINE
  5
5513
100
AcDbEntity
  8
0
100
AcDbLine
 10
687.28241
 20
1113.43556
 30
0.0
 11
679.74379
 21
1105.403441
 31
0.0
  0
LINE
  5
5514
100
AcDbEntity
  8
0
100
AcDbLine
 10
659.633137
 20
1188.570063
 30
0.0
 11
667.633137
 21
1189.070063
 31
0.0
  0
LINE
  5
5515
100
AcDbEntity
  8
0
100
AcDbLine
 10
653.633137
 20
1194.224908
 30
0.0
 11
658.633137
 21
1194.224908
 31
0.0
  0
LINE
  5
5516
100
AcDbEntity
  8
0
100
AcDbLine
 10
653.633137
 20
1183.255253
 30
0.0
 11
658.633137
 21
1183.255253
 31
0.0
  0
ARC
  5
5517
100
AcDbEntity
  8
0
100
AcDbCircle
 10
644.091471
 20
1188.740081
 30
0.0
 40
15.541667
100
AcDbArc
 50
339.334522
 51
20.665478
  0
LINE
  5
5518
100
AcDbEntity
  8
0
100
AcDbLine
 10
659.633137
 20
1184.255253
 30
0.0
 11
658.633137
 21
1183.255253
 31
0.0
  0
ARC
  5
5519
100
AcDbEntity
  8
0
100
AcDbCircle
 10
668.174804
 20
1188.740081
 30
0.0
 40
15.541667
100
AcDbArc
 50
159.334522
 51
200.665478
  0
LINE
  5
551A
100
AcDbEntity
  8
0
100
AcDbLine
 10
652.633137
 20
1184.255253
 30
0.0
 11
653.633137
 21
1183.255253
 31
0.0
  0
LINE
  5
551B
100
AcDbEntity
  8
0
100
AcDbLine
 10
652.633137
 20
1205.194563
 30
0.0
 11
652.633137
 21
1184.255253
 31
0.0
  0
LINE
  5
551C
100
AcDbEntity
  8
0
100
AcDbLine
 10
681.400623
 20
1181.178
 30
0.0
 11
667.633137
 21
1181.178
 31
0.0
  0
LINE
  5
551D
100
AcDbEntity
  8
0
100
AcDbLine
 10
667.633137
 20
1181.178
 30
0.0
 11
667.633137
 21
1205.194563
 31
0.0
  0
LINE
  5
551E
100
AcDbEntity
  8
0
100
AcDbLine
 10
682.273234
 20
1182.649015
 30
0.0
 11
693.420922
 21
1194.186972
 31
0.0
  0
LINE
  5
551F
100
AcDbEntity
  8
0
100
AcDbLine
 10
818.727823
 20
1103.633554
 30
0.0
 11
824.448338
 21
1104.643593
 31
0.0
  0
CIRCLE
  5
5520
100
AcDbEntity
  8
0
100
AcDbCircle
 10
746.107257
 20
1108.197669
 30
0.0
 40
15.010352
  0
LINE
  5
5521
100
AcDbEntity
  8
0
100
AcDbLine
 10
798.039923
 20
1097.011899
 30
0.0
 11
784.841122
 21
1171.902874
 31
0.0
  0
LINE
  5
5522
100
AcDbEntity
  8
0
100
AcDbLine
 10
794.686085
 20
1173.651979
 30
0.0
 11
807.898974
 21
1098.750995
 31
0.0
  0
LINE
  5
5523
100
AcDbEntity
  8
0
100
AcDbLine
 10
796.171785
 20
1173.91299
 30
0.0
 11
809.370887
 21
1099.011333
 31
0.0
  0
LINE
  5
5524
100
AcDbEntity
  8
0
100
AcDbLine
 10
806.019924
 20
1175.650162
 30
0.0
 11
819.235487
 21
1100.751409
 31
0.0
  0
LINE
  5
5525
100
AcDbEntity
  8
0
100
AcDbLine
 10
797.171418
 20
1101.939863
 30
0.0
 11
748.859155
 21
1093.437489
 31
0.0
  0
ARC
  5
5526
100
AcDbEntity
  8
0
100
AcDbCircle
 10
727.742743
 20
1091.030603
 30
0.0
 40
10.012131
100
AcDbArc
 50
46.066556
 51
89.98941
  0
ARC
  5
5527
100
AcDbEntity
  8
0
100
AcDbCircle
 10
712.148838
 20
1100.969079
 30
0.0
 40
2.325462
100
AcDbArc
 50
216.626209
 51
284.835202
  0
LINE
  5
5528
100
AcDbEntity
  8
0
100
AcDbLine
 10
707.25046
 20
1102.623825
 30
0.0
 11
702.817402
 21
1097.900567
 31
0.0
  0
LINE
  5
5529
100
AcDbEntity
  8
0
100
AcDbLine
 10
727.744593
 20
1101.042734
 30
0.0
 11
712.744248
 21
1098.721133
 31
0.0
  0
LINE
  5
552A
100
AcDbEntity
  8
0
100
AcDbLine
 10
736.420577
 20
1096.731244
 30
0.0
 11
734.689383
 21
1098.240802
 31
0.0
  0
LINE
  5
552B
100
AcDbEntity
  8
0
100
AcDbLine
 10
809.370887
 20
1099.011333
 30
0.0
 11
819.235504
 21
1100.751314
 31
0.0
  0
LINE
  5
552C
100
AcDbEntity
  8
0
100
AcDbLine
 10
807.099321
 20
1103.28428
 30
0.0
 11
808.580342
 21
1103.54446
 31
0.0
  0
LINE
  5
552D
100
AcDbEntity
  8
0
100
AcDbLine
 10
807.899873
 20
1098.751154
 30
0.0
 11
798.039923
 21
1097.011899
 31
0.0
  0
ARC
  5
552E
100
AcDbEntity
  8
0
100
AcDbCircle
 10
757.626982
 20
1159.877613
 30
0.0
 40
18.544725
100
AcDbArc
 50
43.114027
 51
179.765963
  0
ARC
  5
552F
100
AcDbEntity
  8
0
100
AcDbCircle
 10
750.584708
 20
1127.159396
 30
0.0
 40
14.963232
100
AcDbArc
 50
323.859926
 51
189.580459
  0
LINE
  5
5530
100
AcDbEntity
  8
0
100
AcDbLine
 10
739.082413
 20
1159.953362
 30
0.0
 11
739.082413
 21
1141.250464
 31
0.0
  0
LINE
  5
5531
100
AcDbEntity
  8
0
100
AcDbLine
 10
718.968541
 20
1181.968545
 30
0.0
 11
730.496491
 21
1129.162127
 31
0.0
  0
ARC
  5
5532
100
AcDbEntity
  8
0
100
AcDbCircle
 10
729.187981
 20
1184.464861
 30
0.0
 40
10.519912
100
AcDbArc
 50
180.406554
 51
193.726906
  0
ARC
  5
5533
100
AcDbEntity
  8
0
100
AcDbCircle
 10
781.718085
 20
1160.76918
 30
0.0
 40
8.003736
100
AcDbArc
 50
109.169071
 51
257.388901
  0
ARC
  5
5534
100
AcDbEntity
  8
0
100
AcDbCircle
 10
778.87778
 20
1148.078076
 30
0.0
 40
5.001319
100
AcDbArc
 50
9.990987
 51
77.378546
  0
LINE
  5
5535
100
AcDbEntity
  8
0
100
AcDbLine
 10
821.838302
 20
1119.425942
 30
0.0
 11
816.117786
 21
1118.415902
 31
0.0
  0
ARC
  5
5536
100
AcDbEntity
  8
0
100
AcDbCircle
 10
819.207361
 20
1117.055886
 30
0.0
 40
3.541047
100
AcDbArc
 50
338.012599
 51
42.013788
  0
LINE
  5
5537
100
AcDbEntity
  8
0
100
AcDbLine
 10
822.72673
 20
1118.368307
 30
0.0
 11
821.838302
 21
1119.425942
 31
0.0
  0
LINE
  5
5538
100
AcDbEntity
  8
0
100
AcDbLine
 10
822.490854
 20
1115.730108
 30
0.0
 11
816.770338
 21
1114.720069
 31
0.0
  0
ARC
  5
5539
100
AcDbEntity
  8
0
100
AcDbCircle
 10
821.164672
 20
1105.970355
 30
0.0
 40
3.541047
100
AcDbArc
 50
338.012599
 51
42.013788
  0
LINE
  5
553A
100
AcDbEntity
  8
0
100
AcDbLine
 10
824.448338
 20
1104.643593
 30
0.0
 11
824.920685
 21
1105.942508
 31
0.0
  0
LINE
  5
553B
100
AcDbEntity
  8
0
100
AcDbLine
 10
823.795612
 20
1108.340411
 30
0.0
 11
818.075096
 21
1107.330372
 31
0.0
  0
ARC
  5
553C
100
AcDbEntity
  8
0
100
AcDbCircle
 10
810.523947
 20
1109.807143
 30
0.0
 40
13.352467
100
AcDbArc
 50
353.69349
 51
26.332897
  0
LINE
  5
553D
100
AcDbEntity
  8
0
100
AcDbLine
 10
824.920685
 20
1105.942508
 30
0.0
 11
822.72673
 21
1118.368307
 31
0.0
  0
LINE
  5
553E
100
AcDbEntity
  8
0
100
AcDbLine
 10
796.972337
 20
1169.379863
 30
0.0
 11
795.491315
 21
1169.119684
 31
0.0
  0
LINE
  5
553F
100
AcDbEntity
  8
0
100
AcDbLine
 10
812.633137
 20
1181.178
 30
0.0
 11
788.676616
 21
1181.178
 31
0.0
  0
LINE
  5
5540
100
AcDbEntity
  8
0
100
AcDbLine
 10
806.019941
 20
1175.650066
 30
0.0
 11
796.171785
 21
1173.91299
 31
0.0
  0
ARC
  5
5541
100
AcDbEntity
  8
0
100
AcDbCircle
 10
788.676657
 20
1178.173858
 30
0.0
 40
3.004142
100
AcDbArc
 50
90.000782
 51
210.373037
  0
ARC
  5
5542
100
AcDbEntity
  8
0
100
AcDbCircle
 10
777.488423
 20
1172.538947
 30
0.0
 40
4.50417
100
AcDbArc
 50
290.828833
 51
7.700192
  0
LINE
  5
5543
100
AcDbEntity
  8
0
100
AcDbLine
 10
784.841316
 20
1171.901775
 30
0.0
 11
794.690763
 21
1173.65281
 31
0.0
  0
ARC
  5
5544
100
AcDbEntity
  8
0
100
AcDbCircle
 10
789.937033
 20
1176.709615
 30
0.0
 40
3.852593
100
AcDbArc
 50
180.81403
 51
275.671246
  0
LINE
  5
5545
100
AcDbEntity
  8
0
100
AcDbLine
 10
813.138398
 20
1172.718215
 30
0.0
 11
815.329491
 21
1160.291911
 31
0.0
  0
LINE
  5
5546
100
AcDbEntity
  8
0
100
AcDbLine
 10
814.20497
 20
1162.690073
 30
0.0
 11
808.484222
 21
1161.681351
 31
0.0
  0
ARC
  5
5547
100
AcDbEntity
  8
0
100
AcDbCircle
 10
800.933644
 20
1164.159861
 30
0.0
 40
13.352467
100
AcDbArc
 50
353.680297
 51
26.319703
  0
LINE
  5
5548
100
AcDbEntity
  8
0
100
AcDbLine
 10
814.856672
 20
1158.99409
 30
0.0
 11
809.135924
 21
1157.985368
 31
0.0
  0
ARC
  5
5549
100
AcDbEntity
  8
0
100
AcDbCircle
 10
809.618727
 20
1171.406604
 30
0.0
 40
3.541047
100
AcDbArc
 50
337.999406
 51
42.000594
  0
LINE
  5
554A
100
AcDbEntity
  8
0
100
AcDbLine
 10
812.901914
 20
1170.080071
 30
0.0
 11
807.181166
 21
1169.071349
 31
0.0
  0
LINE
  5
554B
100
AcDbEntity
  8
0
100
AcDbLine
 10
806.529291
 20
1172.768317
 30
0.0
 11
812.250039
 21
1173.777039
 31
0.0
  0
LINE
  5
554C
100
AcDbEntity
  8
0
100
AcDbLine
 10
812.250039
 20
1173.777039
 30
0.0
 11
813.138398
 21
1172.718215
 31
0.0
  0
ARC
  5
554D
100
AcDbEntity
  8
0
100
AcDbCircle
 10
811.573484
 20
1160.320623
 30
0.0
 40
3.541047
100
AcDbArc
 50
337.999406
 51
42.000594
  0
LINE
  5
554E
100
AcDbEntity
  8
0
100
AcDbLine
 10
815.329491
 20
1160.291911
 30
0.0
 11
814.856672
 21
1158.99409
 31
0.0
  0
LINE
  5
554F
100
AcDbEntity
  8
0
100
AcDbLine
 10
820.633137
 20
1188.570063
 30
0.0
 11
812.633137
 21
1189.070063
 31
0.0
  0
LINE
  5
5550
100
AcDbEntity
  8
0
100
AcDbLine
 10
812.633137
 20
1181.178
 30
0.0
 11
812.633137
 21
1205.194563
 31
0.0
  0
LINE
  5
5551
100
AcDbEntity
  8
0
100
AcDbLine
 10
827.633137
 20
1184.255253
 30
0.0
 11
826.633137
 21
1183.255253
 31
0.0
  0
ARC
  5
5552
100
AcDbEntity
  8
0
100
AcDbCircle
 10
812.091471
 20
1188.740081
 30
0.0
 40
15.541667
100
AcDbArc
 50
339.334522
 51
20.665478
  0
LINE
  5
5553
100
AcDbEntity
  8
0
100
AcDbLine
 10
827.633137
 20
1205.194563
 30
0.0
 11
827.633137
 21
1184.255253
 31
0.0
  0
LINE
  5
5554
100
AcDbEntity
  8
0
100
AcDbLine
 10
820.633137
 20
1184.255253
 30
0.0
 11
821.633137
 21
1183.255253
 31
0.0
  0
ARC
  5
5555
100
AcDbEntity
  8
0
100
AcDbCircle
 10
836.174804
 20
1188.740081
 30
0.0
 40
15.541667
100
AcDbArc
 50
159.334522
 51
200.665478
  0
LINE
  5
5556
100
AcDbEntity
  8
0
100
AcDbLine
 10
826.633137
 20
1183.255253
 30
0.0
 11
821.633137
 21
1183.255253
 31
0.0
  0
LINE
  5
5557
100
AcDbEntity
  8
0
100
AcDbLine
 10
826.633137
 20
1194.224908
 30
0.0
 11
821.633137
 21
1194.224908
 31
0.0
  0
LINE
  5
5558
100
AcDbEntity
  8
0
100
AcDbLine
 10
677.877099
 20
1343.194563
 30
0.0
 11
690.966288
 21
1439.783752
 31
0.0
  0
LINE
  5
5559
100
AcDbEntity
  8
0
100
AcDbLine
 10
784.877099
 20
1343.194563
 30
0.0
 11
771.787909
 21
1439.783752
 31
0.0
  0
LINE
  5
555A
100
AcDbEntity
  8
0
100
AcDbLine
 10
784.877099
 20
1343.194563
 30
0.0
 11
677.877099
 21
1343.194563
 31
0.0
  0
LINE
  5
555B
100
AcDbEntity
  8
0
100
AcDbLine
 10
694.880221
 20
1283.194563
 30
0.0
 11
709.891221
 21
1283.194563
 31
0.0
  0
LINE
  5
555C
100
AcDbEntity
  8
0
100
AcDbLine
 10
696.076221
 20
1276.694563
 30
0.0
 11
694.880221
 21
1277.385563
 31
0.0
  0
ARC
  5
555D
100
AcDbEntity
  8
0
100
AcDbCircle
 10
696.756721
 20
1280.388522
 30
0.0
 40
3.541047
100
AcDbArc
 50
237.999406
 51
302.000594
  0
LINE
  5
555E
100
AcDbEntity
  8
0
100
AcDbLine
 10
784.877099
 20
1285.194563
 30
0.0
 11
677.877099
 21
1285.194563
 31
0.0
  0
LINE
  5
555F
100
AcDbEntity
  8
0
100
AcDbLine
 10
784.877099
 20
1313.194563
 30
0.0
 11
677.877099
 21
1313.194563
 31
0.0
  0
LINE
  5
5560
100
AcDbEntity
  8
0
100
AcDbLine
 10
677.877099
 20
1293.194563
 30
0.0
 11
784.877099
 21
1293.194563
 31
0.0
  0
LINE
  5
5561
100
AcDbEntity
  8
0
100
AcDbLine
 10
667.633137
 20
1229.211126
 30
0.0
 11
710.362606
 21
1229.211126
 31
0.0
  0
LINE
  5
5562
100
AcDbEntity
  8
0
100
AcDbLine
 10
677.877099
 20
1293.194563
 30
0.0
 11
677.877099
 21
1313.194563
 31
0.0
  0
LINE
  5
5563
100
AcDbEntity
  8
0
100
AcDbLine
 10
659.633137
 20
1221.819063
 30
0.0
 11
667.633137
 21
1221.319063
 31
0.0
  0
LINE
  5
5564
100
AcDbEntity
  8
0
100
AcDbLine
 10
653.633137
 20
1227.133873
 30
0.0
 11
658.633137
 21
1227.133873
 31
0.0
  0
LINE
  5
5565
100
AcDbEntity
  8
0
100
AcDbLine
 10
653.633137
 20
1216.164218
 30
0.0
 11
658.633137
 21
1216.164218
 31
0.0
  0
LINE
  5
5566
100
AcDbEntity
  8
0
100
AcDbLine
 10
659.633137
 20
1226.133873
 30
0.0
 11
658.633137
 21
1227.133873
 31
0.0
  0
ARC
  5
5567
100
AcDbEntity
  8
0
100
AcDbCircle
 10
644.091471
 20
1221.649046
 30
0.0
 40
15.541667
100
AcDbArc
 50
339.334522
 51
20.665478
  0
LINE
  5
5568
100
AcDbEntity
  8
0
100
AcDbLine
 10
652.633137
 20
1226.133873
 30
0.0
 11
653.633137
 21
1227.133873
 31
0.0
  0
ARC
  5
5569
100
AcDbEntity
  8
0
100
AcDbCircle
 10
668.174804
 20
1221.649046
 30
0.0
 40
15.541667
100
AcDbArc
 50
159.334522
 51
200.665478
  0
LINE
  5
556A
100
AcDbEntity
  8
0
100
AcDbLine
 10
694.880221
 20
1277.385563
 30
0.0
 11
694.880221
 21
1285.194563
 31
0.0
  0
LINE
  5
556B
100
AcDbEntity
  8
0
100
AcDbLine
 10
677.877099
 20
1285.194563
 30
0.0
 11
677.877099
 21
1293.194563
 31
0.0
  0
LINE
  5
556C
100
AcDbEntity
  8
0
100
AcDbLine
 10
677.877099
 20
1313.194563
 30
0.0
 11
677.877099
 21
1343.194563
 31
0.0
  0
LINE
  5
556D
100
AcDbEntity
  8
0
100
AcDbLine
 10
806.877099
 20
1295.113262
 30
0.0
 11
806.877099
 21
1311.275864
 31
0.0
  0
LINE
  5
556E
100
AcDbEntity
  8
0
100
AcDbLine
 10
803.03157
 20
1296.267734
 30
0.0
 11
803.03157
 21
1310.121392
 31
0.0
  0
LINE
  5
556F
100
AcDbEntity
  8
0
100
AcDbLine
 10
798.03157
 20
1307.999441
 30
0.0
 11
794.568156
 21
1307.040092
 31
0.0
  0
LINE
  5
5570
100
AcDbEntity
  8
0
100
AcDbLine
 10
799.177912
 20
1312.040092
 30
0.0
 11
799.177912
 21
1294.731149
 31
0.0
  0
LINE
  5
5571
100
AcDbEntity
  8
0
100
AcDbLine
 10
784.877099
 20
1293.194563
 30
0.0
 11
784.877099
 21
1313.194563
 31
0.0
  0
LINE
  5
5572
100
AcDbEntity
  8
0
100
AcDbLine
 10
752.862977
 20
1283.194563
 30
0.0
 11
767.873977
 21
1283.194563
 31
0.0
  0
ARC
  5
5573
100
AcDbEntity
  8
0
100
AcDbCircle
 10
760.367977
 20
1290.200043
 30
0.0
 40
13.352467
100
AcDbArc
 50
253.680297
 51
286.319703
  0
LINE
  5
5574
100
AcDbEntity
  8
0
100
AcDbLine
 10
766.676977
 20
1276.694563
 30
0.0
 11
754.058977
 21
1276.694563
 31
0.0
  0
LINE
  5
5575
100
AcDbEntity
  8
0
100
AcDbLine
 10
753.392282
 20
1222.206295
 30
0.0
 11
779.621111
 21
1222.206295
 31
0.0
  0
LINE
  5
5576
100
AcDbEntity
  8
0
100
AcDbLine
 10
751.377099
 20
1285.194563
 30
0.0
 11
751.377099
 21
1252.194563
 31
0.0
  0
LINE
  5
5577
100
AcDbEntity
  8
0
100
AcDbLine
 10
711.377099
 20
1285.194563
 30
0.0
 11
711.377099
 21
1252.194563
 31
0.0
  0
LINE
  5
5578
100
AcDbEntity
  8
0
100
AcDbLine
 10
729.377099
 20
1235.944563
 30
0.0
 11
733.377099
 21
1235.944563
 31
0.0
  0
LINE
  5
5579
100
AcDbEntity
  8
0
100
AcDbLine
 10
729.377099
 20
1242.944563
 30
0.0
 11
733.377099
 21
1242.944563
 31
0.0
  0
LINE
  5
557A
100
AcDbEntity
  8
0
100
AcDbLine
 10
750.390211
 20
1232.194563
 30
0.0
 11
712.363986
 21
1232.194563
 31
0.0
  0
LINE
  5
557B
100
AcDbEntity
  8
0
100
AcDbLine
 10
750.377099
 20
1232.194563
 30
0.0
 11
712.377099
 21
1232.194563
 31
0.0
  0
LINE
  5
557C
100
AcDbEntity
  8
0
100
AcDbLine
 10
712.377099
 20
1232.194563
 30
0.0
 11
750.377099
 21
1232.194563
 31
0.0
  0
LINE
  5
557D
100
AcDbEntity
  8
0
100
AcDbLine
 10
751.377099
 20
1252.194563
 30
0.0
 11
711.377099
 21
1252.194563
 31
0.0
  0
LINE
  5
557E
100
AcDbEntity
  8
0
100
AcDbLine
 10
712.363986
 20
1231.212507
 30
0.0
 11
712.363986
 21
1232.194563
 31
0.0
  0
ARC
  5
557F
100
AcDbEntity
  8
0
100
AcDbCircle
 10
705.542262
 20
1216.085054
 30
0.0
 40
13.126594
100
AcDbArc
 50
0.511133
 51
89.488867
  0
ARC
  5
5580
100
AcDbEntity
  8
0
100
AcDbCircle
 10
710.382143
 20
1231.192969
 30
0.0
 40
1.981939
100
AcDbArc
 50
269.435189
 51
0.564811
  0
LINE
  5
5581
100
AcDbEntity
  8
0
100
AcDbLine
 10
729.377099
 20
1246.694563
 30
0.0
 11
712.377099
 21
1246.694563
 31
0.0
  0
LINE
  5
5582
100
AcDbEntity
  8
0
100
AcDbLine
 10
712.377099
 20
1252.194563
 30
0.0
 11
712.377099
 21
1232.194563
 31
0.0
  0
LINE
  5
5583
100
AcDbEntity
  8
0
100
AcDbLine
 10
726.829307
 20
1246.694563
 30
0.0
 11
726.829307
 21
1232.194563
 31
0.0
  0
LINE
  5
5584
100
AcDbEntity
  8
0
100
AcDbLine
 10
719.377099
 20
1252.194563
 30
0.0
 11
719.377099
 21
1246.694563
 31
0.0
  0
LINE
  5
5585
100
AcDbEntity
  8
0
100
AcDbLine
 10
729.377099
 20
1232.194563
 30
0.0
 11
729.377099
 21
1246.694563
 31
0.0
  0
LINE
  5
5586
100
AcDbEntity
  8
0
100
AcDbLine
 10
750.390211
 20
1232.194563
 30
0.0
 11
750.390211
 21
1225.208366
 31
0.0
  0
LINE
  5
5587
100
AcDbEntity
  8
0
100
AcDbLine
 10
750.390211
 20
1222.206295
 30
0.0
 11
740.173165
 21
1213.059988
 31
0.0
  0
ARC
  5
5588
100
AcDbEntity
  8
0
100
AcDbCircle
 10
753.379753
 20
1225.195837
 30
0.0
 40
2.989568
100
AcDbArc
 50
179.759885
 51
270.240115
  0
LINE
  5
5589
100
AcDbEntity
  8
0
100
AcDbLine
 10
750.377099
 20
1246.694563
 30
0.0
 11
733.377099
 21
1246.694563
 31
0.0
  0
LINE
  5
558A
100
AcDbEntity
  8
0
100
AcDbLine
 10
743.377099
 20
1252.194563
 30
0.0
 11
743.377099
 21
1246.694563
 31
0.0
  0
LINE
  5
558B
100
AcDbEntity
  8
0
100
AcDbLine
 10
733.377099
 20
1232.194563
 30
0.0
 11
733.377099
 21
1246.694563
 31
0.0
  0
LINE
  5
558C
100
AcDbEntity
  8
0
100
AcDbLine
 10
735.92489
 20
1246.694563
 30
0.0
 11
735.92489
 21
1232.194563
 31
0.0
  0
LINE
  5
558D
100
AcDbEntity
  8
0
100
AcDbLine
 10
750.377099
 20
1252.194563
 30
0.0
 11
750.377099
 21
1232.194563
 31
0.0
  0
LINE
  5
558E
100
AcDbEntity
  8
0
100
AcDbLine
 10
719.377099
 20
1279.694563
 30
0.0
 11
743.377099
 21
1279.694563
 31
0.0
  0
LINE
  5
558F
100
AcDbEntity
  8
0
100
AcDbLine
 10
719.377099
 20
1282.194563
 30
0.0
 11
743.377099
 21
1282.194563
 31
0.0
  0
LINE
  5
5590
100
AcDbEntity
  8
0
100
AcDbLine
 10
719.377099
 20
1284.694563
 30
0.0
 11
743.377099
 21
1284.694563
 31
0.0
  0
LINE
  5
5591
100
AcDbEntity
  8
0
100
AcDbLine
 10
719.377099
 20
1277.194563
 30
0.0
 11
743.377099
 21
1277.194563
 31
0.0
  0
LINE
  5
5592
100
AcDbEntity
  8
0
100
AcDbLine
 10
719.377099
 20
1269.694563
 30
0.0
 11
743.377099
 21
1269.694563
 31
0.0
  0
LINE
  5
5593
100
AcDbEntity
  8
0
100
AcDbLine
 10
719.377099
 20
1272.194563
 30
0.0
 11
743.377099
 21
1272.194563
 31
0.0
  0
LINE
  5
5594
100
AcDbEntity
  8
0
100
AcDbLine
 10
719.377099
 20
1274.694563
 30
0.0
 11
743.377099
 21
1274.694563
 31
0.0
  0
LINE
  5
5595
100
AcDbEntity
  8
0
100
AcDbLine
 10
719.377099
 20
1264.694563
 30
0.0
 11
743.377099
 21
1264.694563
 31
0.0
  0
LINE
  5
5596
100
AcDbEntity
  8
0
100
AcDbLine
 10
719.377099
 20
1267.194563
 30
0.0
 11
743.377099
 21
1267.194563
 31
0.0
  0
LINE
  5
5597
100
AcDbEntity
  8
0
100
AcDbLine
 10
719.377099
 20
1262.194563
 30
0.0
 11
743.377099
 21
1262.194563
 31
0.0
  0
LINE
  5
5598
100
AcDbEntity
  8
0
100
AcDbLine
 10
751.377099
 20
1259.194563
 30
0.0
 11
711.377099
 21
1259.194563
 31
0.0
  0
LINE
  5
5599
100
AcDbEntity
  8
0
100
AcDbLine
 10
722.377099
 20
1284.694563
 30
0.0
 11
722.377099
 21
1282.194563
 31
0.0
  0
LINE
  5
559A
100
AcDbEntity
  8
0
100
AcDbLine
 10
709.891221
 20
1285.194563
 30
0.0
 11
709.891221
 21
1277.385563
 31
0.0
  0
LINE
  5
559B
100
AcDbEntity
  8
0
100
AcDbLine
 10
698.633221
 20
1277.385563
 30
0.0
 11
698.633221
 21
1283.194563
 31
0.0
  0
LINE
  5
559C
100
AcDbEntity
  8
0
100
AcDbLine
 10
706.137221
 20
1277.385563
 30
0.0
 11
706.137221
 21
1283.194563
 31
0.0
  0
ARC
  5
559D
100
AcDbEntity
  8
0
100
AcDbCircle
 10
708.013721
 20
1280.388522
 30
0.0
 40
3.541047
100
AcDbArc
 50
237.999406
 51
302.000594
  0
LINE
  5
559E
100
AcDbEntity
  8
0
100
AcDbLine
 10
708.694221
 20
1276.694563
 30
0.0
 11
696.076221
 21
1276.694563
 31
0.0
  0
ARC
  5
559F
100
AcDbEntity
  8
0
100
AcDbCircle
 10
702.385221
 20
1290.200043
 30
0.0
 40
13.352467
100
AcDbArc
 50
253.680297
 51
286.319703
  0
LINE
  5
55A0
100
AcDbEntity
  8
0
100
AcDbLine
 10
709.891221
 20
1277.385563
 30
0.0
 11
708.694221
 21
1276.694563
 31
0.0
  0
LINE
  5
55A1
100
AcDbEntity
  8
0
100
AcDbLine
 10
719.377099
 20
1282.194563
 30
0.0
 11
719.377099
 21
1279.694563
 31
0.0
  0
LINE
  5
55A2
100
AcDbEntity
  8
0
100
AcDbLine
 10
719.377099
 20
1262.194563
 30
0.0
 11
719.377099
 21
1259.194563
 31
0.0
  0
LINE
  5
55A3
100
AcDbEntity
  8
0
100
AcDbLine
 10
722.377099
 20
1274.694563
 30
0.0
 11
722.377099
 21
1272.194563
 31
0.0
  0
LINE
  5
55A4
100
AcDbEntity
  8
0
100
AcDbLine
 10
719.377099
 20
1272.194563
 30
0.0
 11
719.377099
 21
1269.694563
 31
0.0
  0
LINE
  5
55A5
100
AcDbEntity
  8
0
100
AcDbLine
 10
719.377099
 20
1267.194563
 30
0.0
 11
719.377099
 21
1264.694563
 31
0.0
  0
LINE
  5
55A6
100
AcDbEntity
  8
0
100
AcDbLine
 10
722.377099
 20
1264.694563
 30
0.0
 11
722.377099
 21
1262.194563
 31
0.0
  0
LINE
  5
55A7
100
AcDbEntity
  8
0
100
AcDbLine
 10
722.377099
 20
1269.694563
 30
0.0
 11
722.377099
 21
1267.194563
 31
0.0
  0
LINE
  5
55A8
100
AcDbEntity
  8
0
100
AcDbLine
 10
719.377099
 20
1277.194563
 30
0.0
 11
719.377099
 21
1274.694563
 31
0.0
  0
LINE
  5
55A9
100
AcDbEntity
  8
0
100
AcDbLine
 10
722.377099
 20
1279.694563
 30
0.0
 11
722.377099
 21
1277.194563
 31
0.0
  0
LINE
  5
55AA
100
AcDbEntity
  8
0
100
AcDbLine
 10
719.377099
 20
1285.194563
 30
0.0
 11
719.377099
 21
1284.694563
 31
0.0
  0
LINE
  5
55AB
100
AcDbEntity
  8
0
100
AcDbLine
 10
740.377099
 20
1284.694563
 30
0.0
 11
740.377099
 21
1282.194563
 31
0.0
  0
LINE
  5
55AC
100
AcDbEntity
  8
0
100
AcDbLine
 10
756.615977
 20
1277.385563
 30
0.0
 11
756.615977
 21
1283.194563
 31
0.0
  0
LINE
  5
55AD
100
AcDbEntity
  8
0
100
AcDbLine
 10
752.862977
 20
1277.385563
 30
0.0
 11
752.862977
 21
1285.194563
 31
0.0
  0
LINE
  5
55AE
100
AcDbEntity
  8
0
100
AcDbLine
 10
743.377099
 20
1282.194563
 30
0.0
 11
743.377099
 21
1279.694563
 31
0.0
  0
LINE
  5
55AF
100
AcDbEntity
  8
0
100
AcDbLine
 10
743.377099
 20
1262.194563
 30
0.0
 11
743.377099
 21
1259.194563
 31
0.0
  0
LINE
  5
55B0
100
AcDbEntity
  8
0
100
AcDbLine
 10
740.377099
 20
1274.694563
 30
0.0
 11
740.377099
 21
1272.194563
 31
0.0
  0
LINE
  5
55B1
100
AcDbEntity
  8
0
100
AcDbLine
 10
743.377099
 20
1272.194563
 30
0.0
 11
743.377099
 21
1269.694563
 31
0.0
  0
LINE
  5
55B2
100
AcDbEntity
  8
0
100
AcDbLine
 10
740.377099
 20
1264.694563
 30
0.0
 11
740.377099
 21
1262.194563
 31
0.0
  0
LINE
  5
55B3
100
AcDbEntity
  8
0
100
AcDbLine
 10
743.377099
 20
1267.194563
 30
0.0
 11
743.377099
 21
1264.694563
 31
0.0
  0
LINE
  5
55B4
100
AcDbEntity
  8
0
100
AcDbLine
 10
740.377099
 20
1269.694563
 30
0.0
 11
740.377099
 21
1267.194563
 31
0.0
  0
LINE
  5
55B5
100
AcDbEntity
  8
0
100
AcDbLine
 10
743.377099
 20
1277.194563
 30
0.0
 11
743.377099
 21
1274.694563
 31
0.0
  0
LINE
  5
55B6
100
AcDbEntity
  8
0
100
AcDbLine
 10
740.377099
 20
1279.694563
 30
0.0
 11
740.377099
 21
1277.194563
 31
0.0
  0
LINE
  5
55B7
100
AcDbEntity
  8
0
100
AcDbLine
 10
754.058977
 20
1276.694563
 30
0.0
 11
752.862977
 21
1277.385563
 31
0.0
  0
ARC
  5
55B8
100
AcDbEntity
  8
0
100
AcDbCircle
 10
754.739477
 20
1280.388522
 30
0.0
 40
3.541047
100
AcDbArc
 50
237.999406
 51
302.000594
  0
LINE
  5
55B9
100
AcDbEntity
  8
0
100
AcDbLine
 10
743.377099
 20
1285.194563
 30
0.0
 11
743.377099
 21
1284.694563
 31
0.0
  0
LINE
  5
55BA
100
AcDbEntity
  8
0
100
AcDbLine
 10
787.144818
 20
1229.211126
 30
0.0
 11
812.633137
 21
1229.211126
 31
0.0
  0
LINE
  5
55BB
100
AcDbEntity
  8
0
100
AcDbLine
 10
779.621111
 20
1222.206295
 30
0.0
 11
787.144818
 21
1229.211126
 31
0.0
  0
LINE
  5
55BC
100
AcDbEntity
  8
0
100
AcDbLine
 10
820.633137
 20
1221.819063
 30
0.0
 11
812.633137
 21
1221.319063
 31
0.0
  0
ARC
  5
55BD
100
AcDbEntity
  8
0
100
AcDbCircle
 10
812.091471
 20
1221.649046
 30
0.0
 40
15.541667
100
AcDbArc
 50
339.334522
 51
20.665478
  0
LINE
  5
55BE
100
AcDbEntity
  8
0
100
AcDbLine
 10
827.633137
 20
1226.133873
 30
0.0
 11
826.633137
 21
1227.133873
 31
0.0
  0
ARC
  5
55BF
100
AcDbEntity
  8
0
100
AcDbCircle
 10
836.174804
 20
1221.649046
 30
0.0
 40
15.541667
100
AcDbArc
 50
159.334522
 51
200.665478
  0
LINE
  5
55C0
100
AcDbEntity
  8
0
100
AcDbLine
 10
820.633137
 20
1226.133873
 30
0.0
 11
821.633137
 21
1227.133873
 31
0.0
  0
LINE
  5
55C1
100
AcDbEntity
  8
0
100
AcDbLine
 10
826.633137
 20
1216.164218
 30
0.0
 11
821.633137
 21
1216.164218
 31
0.0
  0
LINE
  5
55C2
100
AcDbEntity
  8
0
100
AcDbLine
 10
826.633137
 20
1227.133873
 30
0.0
 11
821.633137
 21
1227.133873
 31
0.0
  0
LINE
  5
55C3
100
AcDbEntity
  8
0
100
AcDbLine
 10
794.568156
 20
1299.349035
 30
0.0
 11
798.03157
 21
1298.389685
 31
0.0
  0
LINE
  5
55C4
100
AcDbEntity
  8
0
100
AcDbLine
 10
798.03157
 20
1298.389685
 30
0.0
 11
794.568156
 21
1297.422205
 31
0.0
  0
LINE
  5
55C5
100
AcDbEntity
  8
0
100
AcDbLine
 10
794.568156
 20
1293.194563
 30
0.0
 11
798.259212
 21
1294.649848
 31
0.0
  0
LINE
  5
55C6
100
AcDbEntity
  8
0
100
AcDbLine
 10
767.873977
 20
1285.194563
 30
0.0
 11
767.873977
 21
1277.385563
 31
0.0
  0
LINE
  5
55C7
100
AcDbEntity
  8
0
100
AcDbLine
 10
764.119977
 20
1277.385563
 30
0.0
 11
764.119977
 21
1283.194563
 31
0.0
  0
ARC
  5
55C8
100
AcDbEntity
  8
0
100
AcDbCircle
 10
765.996477
 20
1280.388522
 30
0.0
 40
3.541047
100
AcDbArc
 50
237.999406
 51
302.000594
  0
LINE
  5
55C9
100
AcDbEntity
  8
0
100
AcDbLine
 10
767.873977
 20
1277.385563
 30
0.0
 11
766.676977
 21
1276.694563
 31
0.0
  0
LINE
  5
55CA
100
AcDbEntity
  8
0
100
AcDbLine
 10
794.568156
 20
1307.040092
 30
0.0
 11
788.413684
 21
1307.040092
 31
0.0
  0
LINE
  5
55CB
100
AcDbEntity
  8
0
100
AcDbLine
 10
784.877099
 20
1285.194563
 30
0.0
 11
784.877099
 21
1293.194563
 31
0.0
  0
LINE
  5
55CC
100
AcDbEntity
  8
0
100
AcDbLine
 10
794.568156
 20
1297.422205
 30
0.0
 11
788.413684
 21
1297.422205
 31
0.0
  0
LINE
  5
55CD
100
AcDbEntity
  8
0
100
AcDbLine
 10
788.413684
 20
1299.349035
 30
0.0
 11
794.568156
 21
1299.349035
 31
0.0
  0
LINE
  5
55CE
100
AcDbEntity
  8
0
100
AcDbLine
 10
794.568156
 20
1293.194563
 30
0.0
 11
784.877099
 21
1293.194563
 31
0.0
  0
LINE
  5
55CF
100
AcDbEntity
  8
0
100
AcDbLine
 10
788.413684
 20
1297.422205
 30
0.0
 11
788.413684
 21
1293.194563
 31
0.0
  0
LINE
  5
55D0
100
AcDbEntity
  8
0
100
AcDbLine
 10
794.568156
 20
1297.422205
 30
0.0
 11
794.568156
 21
1293.194563
 31
0.0
  0
LINE
  5
55D1
100
AcDbEntity
  8
0
100
AcDbLine
 10
788.413684
 20
1307.040092
 30
0.0
 11
788.413684
 21
1299.349035
 31
0.0
  0
LINE
  5
55D2
100
AcDbEntity
  8
0
100
AcDbLine
 10
794.568156
 20
1307.040092
 30
0.0
 11
794.568156
 21
1299.349035
 31
0.0
  0
LINE
  5
55D3
100
AcDbEntity
  8
0
100
AcDbLine
 10
806.877099
 20
1297.673896
 30
0.0
 11
803.03157
 21
1297.673896
 31
0.0
  0
LINE
  5
55D4
100
AcDbEntity
  8
0
100
AcDbLine
 10
803.03157
 20
1293.966921
 30
0.0
 11
806.104741
 21
1293.966921
 31
0.0
  0
LINE
  5
55D5
100
AcDbEntity
  8
0
100
AcDbLine
 10
806.104741
 20
1293.966921
 30
0.0
 11
806.877099
 21
1295.113262
 31
0.0
  0
LINE
  5
55D6
100
AcDbEntity
  8
0
100
AcDbLine
 10
806.877099
 20
1299.508848
 30
0.0
 11
803.03157
 21
1299.508848
 31
0.0
  0
LINE
  5
55D7
100
AcDbEntity
  8
0
100
AcDbLine
 10
803.03157
 20
1296.267734
 30
0.0
 11
803.03157
 21
1293.966921
 31
0.0
  0
LINE
  5
55D8
100
AcDbEntity
  8
0
100
AcDbLine
 10
803.03157
 20
1296.267734
 30
0.0
 11
799.177912
 21
1296.267734
 31
0.0
  0
LINE
  5
55D9
100
AcDbEntity
  8
0
100
AcDbLine
 10
806.877099
 20
1306.880278
 30
0.0
 11
803.03157
 21
1306.880278
 31
0.0
  0
LINE
  5
55DA
100
AcDbEntity
  8
0
100
AcDbLine
 10
798.252439
 20
1294.647177
 30
0.0
 11
799.177912
 21
1294.731149
 31
0.0
  0
LINE
  5
55DB
100
AcDbEntity
  8
0
100
AcDbLine
 10
798.262133
 20
1312.120543
 30
0.0
 11
794.568156
 21
1313.194563
 31
0.0
  0
LINE
  5
55DC
100
AcDbEntity
  8
0
100
AcDbLine
 10
794.568156
 20
1308.966921
 30
0.0
 11
798.03157
 21
1307.999441
 31
0.0
  0
LINE
  5
55DD
100
AcDbEntity
  8
0
100
AcDbLine
 10
784.877099
 20
1313.194563
 30
0.0
 11
784.877099
 21
1343.194563
 31
0.0
  0
LINE
  5
55DE
100
AcDbEntity
  8
0
100
AcDbLine
 10
788.413684
 20
1313.194563
 30
0.0
 11
788.413684
 21
1308.966921
 31
0.0
  0
LINE
  5
55DF
100
AcDbEntity
  8
0
100
AcDbLine
 10
794.568156
 20
1313.194563
 30
0.0
 11
794.568156
 21
1308.966921
 31
0.0
  0
LINE
  5
55E0
100
AcDbEntity
  8
0
100
AcDbLine
 10
788.413684
 20
1308.966921
 30
0.0
 11
794.568156
 21
1308.966921
 31
0.0
  0
LINE
  5
55E1
100
AcDbEntity
  8
0
100
AcDbLine
 10
784.877099
 20
1313.194563
 30
0.0
 11
794.568156
 21
1313.194563
 31
0.0
  0
LINE
  5
55E2
100
AcDbEntity
  8
0
100
AcDbLine
 10
806.877099
 20
1308.71523
 30
0.0
 11
803.03157
 21
1308.71523
 31
0.0
  0
LINE
  5
55E3
100
AcDbEntity
  8
0
100
AcDbLine
 10
806.877099
 20
1311.275864
 30
0.0
 11
806.104741
 21
1312.422205
 31
0.0
  0
LINE
  5
55E4
100
AcDbEntity
  8
0
100
AcDbLine
 10
806.104741
 20
1312.422205
 30
0.0
 11
803.03157
 21
1312.422205
 31
0.0
  0
LINE
  5
55E5
100
AcDbEntity
  8
0
100
AcDbLine
 10
803.03157
 20
1312.422205
 30
0.0
 11
803.03157
 21
1310.121392
 31
0.0
  0
LINE
  5
55E6
100
AcDbEntity
  8
0
100
AcDbLine
 10
799.177912
 20
1310.121392
 30
0.0
 11
803.03157
 21
1310.121392
 31
0.0
  0
LINE
  5
55E7
100
AcDbEntity
  8
0
100
AcDbLine
 10
798.262133
 20
1312.120543
 30
0.0
 11
799.177912
 21
1312.040092
 31
0.0
  0
LINE
  5
55E8
100
AcDbEntity
  8
0
100
AcDbLine
 10
701.377099
 20
1450.194563
 30
0.0
 11
690.966288
 21
1439.783752
 31
0.0
  0
LINE
  5
55E9
100
AcDbEntity
  8
0
100
AcDbLine
 10
771.787909
 20
1439.783752
 30
0.0
 11
690.966288
 21
1439.783752
 31
0.0
  0
LINE
  5
55EA
100
AcDbEntity
  8
0
100
AcDbLine
 10
761.377099
 20
1450.194563
 30
0.0
 11
771.787909
 21
1439.783752
 31
0.0
  0
LINE
  5
55EB
100
AcDbEntity
  8
0
100
AcDbLine
 10
761.377099
 20
1450.194563
 30
0.0
 11
701.377099
 21
1450.194563
 31
0.0
  0
LINE
  5
55EC
100
AcDbEntity
  8
0
100
AcDbLine
 10
1760.582391
 20
736.590704
 30
0.0
 11
1750.17158
 21
726.179894
 31
0.0
  0
LINE
  5
55ED
100
AcDbEntity
  8
0
100
AcDbLine
 10
1750.17158
 20
726.179894
 30
0.0
 11
1830.993202
 21
726.179894
 31
0.0
  0
LINE
  5
55EE
100
AcDbEntity
  8
0
100
AcDbLine
 10
1737.082391
 20
629.590704
 30
0.0
 11
1844.082391
 21
629.590704
 31
0.0
  0
LINE
  5
55EF
100
AcDbEntity
  8
0
100
AcDbLine
 10
1737.082391
 20
599.590704
 30
0.0
 11
1844.082391
 21
599.590704
 31
0.0
  0
LINE
  5
55F0
100
AcDbEntity
  8
0
100
AcDbLine
 10
1844.082391
 20
579.590704
 30
0.0
 11
1737.082391
 21
579.590704
 31
0.0
  0
ARC
  5
55F1
100
AcDbEntity
  8
0
100
AcDbCircle
 10
1755.963013
 20
566.784663
 30
0.0
 40
3.541047
100
AcDbArc
 50
237.999406
 51
302.000594
  0
LINE
  5
55F2
100
AcDbEntity
  8
0
100
AcDbLine
 10
1769.096513
 20
569.590704
 30
0.0
 11
1754.085513
 21
569.590704
 31
0.0
  0
LINE
  5
55F3
100
AcDbEntity
  8
0
100
AcDbLine
 10
1755.282513
 20
563.090704
 30
0.0
 11
1767.900513
 21
563.090704
 31
0.0
  0
LINE
  5
55F4
100
AcDbEntity
  8
0
100
AcDbLine
 10
1768.567208
 20
508.602437
 30
0.0
 11
1742.338379
 21
508.602437
 31
0.0
  0
LINE
  5
55F5
100
AcDbEntity
  8
0
100
AcDbLine
 10
1748.026353
 20
498.607267
 30
0.0
 11
1800.026353
 21
498.607267
 31
0.0
  0
ARC
  5
55F6
100
AcDbEntity
  8
0
100
AcDbCircle
 10
1764.332507
 20
446.273754
 30
0.0
 40
18.544725
100
AcDbArc
 50
0.234037
 51
136.885973
  0
LINE
  5
55F7
100
AcDbEntity
  8
0
100
AcDbLine
 10
1800.026353
 20
469.607267
 30
0.0
 11
1748.026353
 21
469.607267
 31
0.0
  0
ARC
  5
55F8
100
AcDbEntity
  8
0
100
AcDbCircle
 10
1771.374782
 20
413.555537
 30
0.0
 40
14.963232
100
AcDbArc
 50
350.419541
 51
216.140074
  0
LINE
  5
55F9
100
AcDbEntity
  8
0
100
AcDbLine
 10
1737.082391
 20
571.590704
 30
0.0
 11
1844.082391
 21
571.590704
 31
0.0
  0
LINE
  5
55FA
100
AcDbEntity
  8
0
100
AcDbLine
 10
1724.788072
 20
388.336005
 30
0.0
 11
1773.100335
 21
379.83363
 31
0.0
  0
LINE
  5
55FD
100
AcDbEntity
  8
0
100
AcDbLine
 10
1697.511152
 20
391.039734
 30
0.0
 11
1697.038805
 21
392.338649
 31
0.0
  0
ARC
  5
55FE
100
AcDbEntity
  8
0
100
AcDbCircle
 10
1700.794818
 20
392.366497
 30
0.0
 40
3.541047
100
AcDbArc
 50
137.986212
 51
201.987401
  0
LINE
  5
55FF
100
AcDbEntity
  8
0
100
AcDbLine
 10
1715.939565
 20
462.046303
 30
0.0
 11
1702.724003
 21
387.14755
 31
0.0
  0
LINE
  5
5600
100
AcDbEntity
  8
0
100
AcDbLine
 10
1725.787705
 20
460.309131
 30
0.0
 11
1712.588602
 21
385.407475
 31
0.0
  0
LINE
  5
5601
100
AcDbEntity
  8
0
100
AcDbLine
 10
1727.273405
 20
460.04812
 30
0.0
 11
1714.060516
 21
385.147136
 31
0.0
  0
LINE
  5
5602
100
AcDbEntity
  8
0
100
AcDbLine
 10
1723.919566
 20
383.40804
 30
0.0
 11
1737.118367
 21
458.299015
 31
0.0
  0
LINE
  5
5603
100
AcDbEntity
  8
0
100
AcDbLine
 10
1475.6683
 20
407.583458
 30
0.0
 11
1475.6683
 21
381.583458
 31
0.0
  0
LINE
  5
5604
100
AcDbEntity
  8
0
100
AcDbLine
 10
1557.693258
 20
393.659583
 30
0.0
 11
1551.193258
 21
389.962614
 31
0.0
  0
LINE
  5
5605
100
AcDbEntity
  8
0
100
AcDbLine
 10
1557.693258
 20
394.72916
 30
0.0
 11
1551.193258
 21
391.032191
 31
0.0
  0
LINE
  5
5606
100
AcDbEntity
  8
0
100
AcDbLine
 10
1544.693258
 20
393.659583
 30
0.0
 11
1551.193258
 21
389.962614
 31
0.0
  0
LINE
  5
5607
100
AcDbEntity
  8
0
100
AcDbLine
 10
1544.693258
 20
394.72916
 30
0.0
 11
1551.193258
 21
391.032191
 31
0.0
  0
LINE
  5
5608
100
AcDbEntity
  8
0
100
AcDbLine
 10
1502.643343
 20
394.72916
 30
0.0
 11
1496.143343
 21
391.032191
 31
0.0
  0
LINE
  5
5609
100
AcDbEntity
  8
0
100
AcDbLine
 10
1502.643343
 20
393.659583
 30
0.0
 11
1496.143343
 21
389.962614
 31
0.0
  0
LINE
  5
560A
100
AcDbEntity
  8
0
100
AcDbLine
 10
1489.643343
 20
394.72916
 30
0.0
 11
1496.143343
 21
391.032191
 31
0.0
  0
LINE
  5
560B
100
AcDbEntity
  8
0
100
AcDbLine
 10
1489.643343
 20
393.659583
 30
0.0
 11
1496.143343
 21
389.962614
 31
0.0
  0
ELLIPSE
  5
560C
100
AcDbEntity
  8
0
100
AcDbEllipse
 10
1546.6683
 20
398.180007
 30
0.0
 11
15.00000000000005
 21
-0.0000000000000284
 31
0.0
210
0.0
220
0.0
230
-1.0
 40
0.984798
 41
6.283185307179586
 42
7.853981633974482
  0
ELLIPSE
  5
560D
100
AcDbEntity
  8
0
100
AcDbEllipse
 10
1500.6683
 20
398.180007
 30
0.0
 11
-15.00000000000005
 21
-0.0000000000000284
 31
0.0
210
0.0
220
0.0
230
1.0
 40
0.984798
 41
6.283185307179586
 42
7.853981633974482
  0
ELLIPSE
  5
560E
100
AcDbEntity
  8
0
100
AcDbEllipse
 10
1546.6683
 20
399.919104
 30
0.0
 11
15.00000000000005
 21
-0.0000000000000284
 31
0.0
210
0.0
220
0.0
230
-1.0
 40
0.984798
 41
6.283185307179586
 42
7.853981633974482
  0
ELLIPSE
  5
560F
100
AcDbEntity
  8
0
100
AcDbEllipse
 10
1500.6683
 20
399.919104
 30
0.0
 11
-15.00000000000005
 21
-0.0000000000000284
 31
0.0
210
0.0
220
0.0
230
1.0
 40
0.984798
 41
6.283185307179586
 42
7.853981633974482
  0
ELLIPSE
  5
5610
100
AcDbEntity
  8
0
100
AcDbEllipse
 10
1546.6683
 20
400.179442
 30
0.0
 11
15.00000000000005
 21
-0.0000000000000284
 31
0.0
210
0.0
220
0.0
230
-1.0
 40
0.984798
 41
6.283185307179586
 42
7.853981633974482
  0
ELLIPSE
  5
5611
100
AcDbEntity
  8
0
100
AcDbEllipse
 10
1500.6683
 20
400.179442
 30
0.0
 11
-15.00000000000005
 21
-0.0000000000000284
 31
0.0
210
0.0
220
0.0
230
1.0
 40
0.984798
 41
6.283185307179586
 42
7.853981633974482
  0
ELLIPSE
  5
5612
100
AcDbEntity
  8
0
100
AcDbEllipse
 10
1500.6683
 20
401.851698
 30
0.0
 11
-15.00000000000005
 21
-0.0000000000000284
 31
0.0
210
0.0
220
0.0
230
1.0
 40
0.984798
 41
6.283185307179586
 42
7.853981633974482
  0
ELLIPSE
  5
5613
100
AcDbEntity
  8
0
100
AcDbEllipse
 10
1546.6683
 20
401.851698
 30
0.0
 11
15.00000000000005
 21
-0.0000000000000284
 31
0.0
210
0.0
220
0.0
230
-1.0
 40
0.984798
 41
6.283185307179586
 42
7.853981633974482
  0
LINE
  5
5614
100
AcDbEntity
  8
0
100
AcDbLine
 10
1568.6683
 20
407.583458
 30
0.0
 11
1568.6683
 21
381.583458
 31
0.0
  0
LINE
  5
5615
100
AcDbEntity
  8
0
100
AcDbLine
 10
1566.6683
 20
379.583458
 30
0.0
 11
1477.6683
 21
379.583458
 31
0.0
  0
ARC
  5
5616
100
AcDbEntity
  8
0
100
AcDbCircle
 10
1477.6683
 20
381.583458
 30
0.0
 40
2.0
100
AcDbArc
 50
180.0
 51
270.0
  0
LINE
  5
5617
100
AcDbEntity
  8
0
100
AcDbLine
 10
1546.6683
 20
383.40804
 30
0.0
 11
1500.6683
 21
383.40804
 31
0.0
  0
LINE
  5
5618
100
AcDbEntity
  8
0
100
AcDbLine
 10
1546.6683
 20
385.147136
 30
0.0
 11
1500.6683
 21
385.147136
 31
0.0
  0
LINE
  5
5619
100
AcDbEntity
  8
0
100
AcDbLine
 10
1546.6683
 20
385.407475
 30
0.0
 11
1500.6683
 21
385.407475
 31
0.0
  0
LINE
  5
561A
100
AcDbEntity
  8
0
100
AcDbLine
 10
1546.6683
 20
387.07973
 30
0.0
 11
1500.6683
 21
387.07973
 31
0.0
  0
LINE
  5
561B
100
AcDbEntity
  8
0
100
AcDbLine
 10
1496.143343
 20
391.032191
 30
0.0
 11
1496.143343
 21
389.962614
 31
0.0
  0
LINE
  5
561C
100
AcDbEntity
  8
0
100
AcDbLine
 10
1551.193258
 20
391.032191
 30
0.0
 11
1551.193258
 21
389.962614
 31
0.0
  0
ARC
  5
561D
100
AcDbEntity
  8
0
100
AcDbCircle
 10
1566.6683
 20
381.583458
 30
0.0
 40
2.0
100
AcDbArc
 50
270.0
 51
0.0
  0
LINE
  5
561E
100
AcDbEntity
  8
0
100
AcDbLine
 10
1714.059617
 20
385.147295
 30
0.0
 11
1723.919566
 21
383.40804
 31
0.0
  0
LINE
  5
561F
100
AcDbEntity
  8
0
100
AcDbLine
 10
1712.588602
 20
385.407475
 30
0.0
 11
1702.723986
 21
387.147455
 31
0.0
  0
LINE
  5
5620
100
AcDbEntity
  8
0
100
AcDbLine
 10
1703.231667
 20
390.029695
 30
0.0
 11
1697.511152
 21
391.039734
 31
0.0
  0
LINE
  5
5621
100
AcDbEntity
  8
0
100
AcDbLine
 10
1714.860169
 20
389.680421
 30
0.0
 11
1713.379148
 21
389.940601
 31
0.0
  0
LINE
  5
5622
100
AcDbEntity
  8
0
100
AcDbLine
 10
1493.299319
 20
538.590704
 30
0.0
 11
1485.1683
 21
538.590704
 31
0.0
  0
LINE
  5
5623
100
AcDbEntity
  8
0
100
AcDbLine
 10
1493.6683
 20
736.590704
 30
0.0
 11
1483.25749
 21
726.179894
 31
0.0
  0
ARC
  5
5624
100
AcDbEntity
  8
0
100
AcDbCircle
 10
1489.047922
 20
566.784663
 30
0.0
 40
3.541047
100
AcDbArc
 50
237.999406
 51
302.000594
  0
LINE
  5
5625
100
AcDbEntity
  8
0
100
AcDbLine
 10
1488.367422
 20
563.090704
 30
0.0
 11
1487.171422
 21
563.781704
 31
0.0
  0
LINE
  5
5626
100
AcDbEntity
  8
0
100
AcDbLine
 10
1487.171422
 20
569.590704
 30
0.0
 11
1502.182422
 21
569.590704
 31
0.0
  0
LINE
  5
5627
100
AcDbEntity
  8
0
100
AcDbLine
 10
1543.6683
 20
545.590704
 30
0.0
 11
1485.1683
 21
545.590704
 31
0.0
  0
LINE
  5
5628
100
AcDbEntity
  8
0
100
AcDbLine
 10
1577.1683
 20
571.590704
 30
0.0
 11
1470.1683
 21
571.590704
 31
0.0
  0
LINE
  5
5629
100
AcDbEntity
  8
0
100
AcDbLine
 10
1577.1683
 20
629.590704
 30
0.0
 11
1470.1683
 21
629.590704
 31
0.0
  0
LINE
  5
562A
100
AcDbEntity
  8
0
100
AcDbLine
 10
1577.1683
 20
599.590704
 30
0.0
 11
1470.1683
 21
599.590704
 31
0.0
  0
LINE
  5
562B
100
AcDbEntity
  8
0
100
AcDbLine
 10
1470.1683
 20
579.590704
 30
0.0
 11
1577.1683
 21
579.590704
 31
0.0
  0
LINE
  5
562C
100
AcDbEntity
  8
0
100
AcDbLine
 10
1564.079111
 20
726.179894
 30
0.0
 11
1483.25749
 21
726.179894
 31
0.0
  0
ELLIPSE
  5
562D
100
AcDbEntity
  8
0
100
AcDbEllipse
 10
1500.6683
 20
447.27424
 30
0.0
 11
-15.00000000000005
 21
0.0000000000000284
 31
0.0
210
0.0
220
0.0
230
-1.0
 40
0.984798
 41
6.283185307179586
 42
7.853981633974482
  0
LINE
  5
562E
100
AcDbEntity
  8
0
100
AcDbLine
 10
1470.1683
 20
579.590704
 30
0.0
 11
1470.1683
 21
599.590704
 31
0.0
  0
LINE
  5
562F
100
AcDbEntity
  8
0
100
AcDbLine
 10
1485.6683
 20
447.27424
 30
0.0
 11
1485.6683
 21
398.180007
 31
0.0
  0
ARC
  5
5630
100
AcDbEntity
  8
0
100
AcDbCircle
 10
1493.6683
 20
414.686369
 30
0.0
 40
15.0
100
AcDbArc
 50
126.869898
 51
180.0
  0
LINE
  5
5631
100
AcDbEntity
  8
0
100
AcDbLine
 10
1478.6683
 20
413.50717
 30
0.0
 11
1478.6683
 21
409.155764
 31
0.0
  0
ARC
  5
5632
100
AcDbEntity
  8
0
100
AcDbCircle
 10
1477.6683
 20
407.583458
 30
0.0
 40
2.0
100
AcDbArc
 50
104.477512
 51
180.0
  0
ARC
  5
5633
100
AcDbEntity
  8
0
100
AcDbCircle
 10
1476.6683
 20
411.456441
 30
0.0
 40
2.0
100
AcDbArc
 50
284.477512
 51
0.0
  0
LINE
  5
5634
100
AcDbEntity
  8
0
100
AcDbLine
 10
1478.6683
 20
414.686369
 30
0.0
 11
1478.6683
 21
411.456441
 31
0.0
  0
ARC
  5
5635
100
AcDbEntity
  8
0
100
AcDbCircle
 10
1493.6683
 20
409.155764
 30
0.0
 40
15.0
100
AcDbArc
 50
180.0
 51
238.261903
  0
ARC
  5
5636
100
AcDbEntity
  8
0
100
AcDbCircle
 10
1475.6683
 20
438.686369
 30
0.0
 40
15.0
100
AcDbArc
 50
306.869898
 51
311.810315
  0
ARC
  5
5637
100
AcDbEntity
  8
0
100
AcDbCircle
 10
1485.1683
 20
553.590704
 30
0.0
 40
15.0
100
AcDbArc
 50
180.0
 51
270.0
  0
LINE
  5
5638
100
AcDbEntity
  8
0
100
AcDbLine
 10
1487.171422
 20
563.781704
 30
0.0
 11
1487.171422
 21
571.590704
 31
0.0
  0
ARC
  5
5639
100
AcDbEntity
  8
0
100
AcDbCircle
 10
1485.1683
 20
566.590704
 30
0.0
 40
5.0
100
AcDbArc
 50
90.0
 51
180.0
  0
LINE
  5
563A
100
AcDbEntity
  8
0
100
AcDbLine
 10
1470.1683
 20
553.590704
 30
0.0
 11
1470.1683
 21
579.590704
 31
0.0
  0
LINE
  5
563B
100
AcDbEntity
  8
0
100
AcDbLine
 10
1480.1683
 20
550.590704
 30
0.0
 11
1480.1683
 21
566.590704
 31
0.0
  0
ARC
  5
563C
100
AcDbEntity
  8
0
100
AcDbCircle
 10
1485.1683
 20
550.590704
 30
0.0
 40
5.0
100
AcDbArc
 50
180.0
 51
270.0
  0
LINE
  5
563D
100
AcDbEntity
  8
0
100
AcDbLine
 10
1470.1683
 20
629.590704
 30
0.0
 11
1483.25749
 21
726.179894
 31
0.0
  0
LINE
  5
563E
100
AcDbEntity
  8
0
100
AcDbLine
 10
1470.1683
 20
599.590704
 30
0.0
 11
1470.1683
 21
629.590704
 31
0.0
  0
LINE
  5
563F
100
AcDbEntity
  8
0
100
AcDbLine
 10
1715.082391
 20
597.672005
 30
0.0
 11
1715.082391
 21
581.509404
 31
0.0
  0
LINE
  5
5640
100
AcDbEntity
  8
0
100
AcDbLine
 10
1718.92792
 20
596.517534
 30
0.0
 11
1718.92792
 21
582.663875
 31
0.0
  0
POLYLINE
  5
5641
100
AcDbEntity
  8
0
100
AcDb2dPolyline
 66
     1
 10
0.0
 20
0.0
 30
0.0
  0
VERTEX
  5
5A14
100
AcDbEntity
  8
0
100
AcDbVertex
100
AcDb2dVertex
 10
1522.557898
 20
598.773814
 30
0.0
  0
VERTEX
  5
5A15
100
AcDbEntity
  8
0
100
AcDbVertex
100
AcDb2dVertex
 10
1516.270695
 20
595.143896
 30
0.0
  0
SEQEND
  5
5A16
100
AcDbEntity
  8
0
  0
POLYLINE
  5
5642
100
AcDbEntity
  8
0
100
AcDb2dPolyline
 66
     1
 10
0.0
 20
0.0
 30
0.0
  0
VERTEX
  5
5A17
100
AcDbEntity
  8
0
100
AcDbVertex
100
AcDb2dVertex
 10
1531.090209
 20
595.111372
 30
0.0
  0
VERTEX
  5
5A18
100
AcDbEntity
  8
0
100
AcDbVertex
100
AcDb2dVertex
 10
1524.738384
 20
598.7786
 30
0.0
  0
SEQEND
  5
5A19
100
AcDbEntity
  8
0
  0
CIRCLE
  5
5643
100
AcDbEntity
  8
0
100
AcDbCircle
 10
1523.6683
 20
589.590704
 30
0.0
 40
8.156094
  0
LINE
  5
5644
100
AcDbEntity
  8
0
100
AcDbLine
 10
1577.1683
 20
579.590704
 30
0.0
 11
1577.1683
 21
599.590704
 31
0.0
  0
LINE
  5
5645
100
AcDbEntity
  8
0
100
AcDbLine
 10
1727.391334
 20
595.363062
 30
0.0
 11
1723.92792
 21
594.395582
 31
0.0
  0
LINE
  5
5646
100
AcDbEntity
  8
0
100
AcDbLine
 10
1737.082391
 20
579.590704
 30
0.0
 11
1737.082391
 21
599.590704
 31
0.0
  0
LINE
  5
5647
100
AcDbEntity
  8
0
100
AcDbLine
 10
1722.781578
 20
598.436233
 30
0.0
 11
1722.781578
 21
581.12729
 31
0.0
  0
ARC
  5
5648
100
AcDbEntity
  8
0
100
AcDbCircle
 10
1499.6683
 20
491.590704
 30
0.0
 40
2.0
100
AcDbArc
 50
87.611985
 51
272.388015
  0
ARC
  5
5649
100
AcDbEntity
  8
0
100
AcDbCircle
 10
1547.6683
 20
491.590704
 30
0.0
 40
2.0
100
AcDbArc
 50
267.611985
 51
92.388015
  0
CIRCLE
  5
564A
100
AcDbEntity
  8
0
100
AcDbCircle
 10
1523.6683
 20
491.590704
 30
0.0
 40
24.0
  0
LINE
  5
564B
100
AcDbEntity
  8
0
100
AcDbLine
 10
1557.693258
 20
402.177158
 30
0.0
 11
1551.193258
 21
405.874127
 31
0.0
  0
ELLIPSE
  5
564C
100
AcDbEntity
  8
0
100
AcDbEllipse
 10
1551.193258
 20
398.48216
 30
0.0
 11
-6.300000000000011
 21
0.0
 31
0.0
210
0.0
220
0.0
230
1.0
 40
0.984808
 41
0.0
 42
6.283185307179586
  0
LINE
  5
564D
100
AcDbEntity
  8
0
100
AcDbLine
 10
1557.693258
 20
448.078627
 30
0.0
 11
1551.193258
 21
444.381659
 31
0.0
  0
ELLIPSE
  5
564E
100
AcDbEntity
  8
0
100
AcDbEllipse
 10
1551.193258
 20
452.901204
 30
0.0
 11
-6.300000000000011
 21
0.0
 31
0.0
210
0.0
220
0.0
230
1.0
 40
0.984808
 41
0.0
 42
6.283185307179586
  0
LINE
  5
564F
100
AcDbEntity
  8
0
100
AcDbLine
 10
1557.693258
 20
449.148204
 30
0.0
 11
1551.193258
 21
445.451236
 31
0.0
  0
LINE
  5
5650
100
AcDbEntity
  8
0
100
AcDbLine
 10
1557.693258
 20
456.596203
 30
0.0
 11
1551.193258
 21
460.293171
 31
0.0
  0
ELLIPSE
  5
5651
100
AcDbEntity
  8
0
100
AcDbEllipse
 10
1546.6683
 20
447.27424
 30
0.0
 11
15.00000000000005
 21
0.0000000000000284
 31
0.0
210
0.0
220
0.0
230
1.0
 40
0.984798
 41
6.283185307179586
 42
7.853981633974482
  0
ELLIPSE
  5
5652
100
AcDbEntity
  8
0
100
AcDbEllipse
 10
1523.6683
 20
424.566143
 30
0.0
 11
-25.0
 21
0.0
 31
0.0
210
0.0
220
0.0
230
1.0
 40
0.984808
 41
0.0
 42
6.283185307179586
  0
LINE
  5
5653
100
AcDbEntity
  8
0
100
AcDbLine
 10
1502.643343
 20
402.177158
 30
0.0
 11
1496.143343
 21
405.874127
 31
0.0
  0
LINE
  5
5654
100
AcDbEntity
  8
0
100
AcDbLine
 10
1489.643343
 20
402.177158
 30
0.0
 11
1496.143343
 21
405.874127
 31
0.0
  0
LINE
  5
5655
100
AcDbEntity
  8
0
100
AcDbLine
 10
1502.643343
 20
394.72916
 30
0.0
 11
1502.643343
 21
393.659583
 31
0.0
  0
LINE
  5
5656
100
AcDbEntity
  8
0
100
AcDbLine
 10
1489.643343
 20
394.72916
 30
0.0
 11
1489.643343
 21
393.659583
 31
0.0
  0
ELLIPSE
  5
5657
100
AcDbEntity
  8
0
100
AcDbEllipse
 10
1496.143343
 20
398.48216
 30
0.0
 11
6.300000000000011
 21
0.0
 31
0.0
210
0.0
220
0.0
230
-1.0
 40
0.984808
 41
0.0
 42
6.283185307179586
  0
LINE
  5
5658
100
AcDbEntity
  8
0
100
AcDbLine
 10
1502.643343
 20
394.72916
 30
0.0
 11
1502.643343
 21
402.177158
 31
0.0
  0
LINE
  5
5659
100
AcDbEntity
  8
0
100
AcDbLine
 10
1489.643343
 20
394.72916
 30
0.0
 11
1489.643343
 21
402.177158
 31
0.0
  0
LINE
  5
565A
100
AcDbEntity
  8
0
100
AcDbLine
 10
1544.693258
 20
394.72916
 30
0.0
 11
1544.693258
 21
393.659583
 31
0.0
  0
LINE
  5
565B
100
AcDbEntity
  8
0
100
AcDbLine
 10
1544.693258
 20
394.72916
 30
0.0
 11
1544.693258
 21
402.177158
 31
0.0
  0
LINE
  5
565C
100
AcDbEntity
  8
0
100
AcDbLine
 10
1544.693258
 20
402.177158
 30
0.0
 11
1551.193258
 21
405.874127
 31
0.0
  0
LINE
  5
565D
100
AcDbEntity
  8
0
100
AcDbLine
 10
1546.6683
 20
462.046207
 30
0.0
 11
1500.6683
 21
462.046207
 31
0.0
  0
ARC
  5
565E
100
AcDbEntity
  8
0
100
AcDbCircle
 10
1523.6683
 20
446.29381
 30
0.0
 40
33.0
100
AcDbArc
 50
120.917086
 51
154.631825
  0
LINE
  5
565F
100
AcDbEntity
  8
0
100
AcDbLine
 10
1489.643343
 20
456.596203
 30
0.0
 11
1496.143343
 21
460.293171
 31
0.0
  0
LINE
  5
5660
100
AcDbEntity
  8
0
100
AcDbLine
 10
1489.643343
 20
448.078627
 30
0.0
 11
1496.143343
 21
444.381659
 31
0.0
  0
LINE
  5
5661
100
AcDbEntity
  8
0
100
AcDbLine
 10
1489.643343
 20
449.148204
 30
0.0
 11
1496.143343
 21
445.451236
 31
0.0
  0
LINE
  5
5662
100
AcDbEntity
  8
0
100
AcDbLine
 10
1489.643343
 20
449.148204
 30
0.0
 11
1489.643343
 21
448.078627
 31
0.0
  0
LINE
  5
5663
100
AcDbEntity
  8
0
100
AcDbLine
 10
1496.143343
 20
445.451236
 30
0.0
 11
1496.143343
 21
444.381659
 31
0.0
  0
LINE
  5
5664
100
AcDbEntity
  8
0
100
AcDbLine
 10
1489.643343
 20
449.148204
 30
0.0
 11
1489.643343
 21
456.596203
 31
0.0
  0
LINE
  5
5665
100
AcDbEntity
  8
0
100
AcDbLine
 10
1502.643343
 20
449.148204
 30
0.0
 11
1502.643343
 21
448.078627
 31
0.0
  0
LINE
  5
5666
100
AcDbEntity
  8
0
100
AcDbLine
 10
1502.643343
 20
449.148204
 30
0.0
 11
1502.643343
 21
456.596203
 31
0.0
  0
ELLIPSE
  5
5667
100
AcDbEntity
  8
0
100
AcDbEllipse
 10
1496.143343
 20
452.901204
 30
0.0
 11
6.300000000000011
 21
0.0
 31
0.0
210
0.0
220
0.0
230
-1.0
 40
0.984808
 41
0.0
 42
6.283185307179586
  0
LINE
  5
5668
100
AcDbEntity
  8
0
100
AcDbLine
 10
1502.643343
 20
448.078627
 30
0.0
 11
1496.143343
 21
444.381659
 31
0.0
  0
LINE
  5
5669
100
AcDbEntity
  8
0
100
AcDbLine
 10
1502.643343
 20
449.148204
 30
0.0
 11
1496.143343
 21
445.451236
 31
0.0
  0
LINE
  5
566A
100
AcDbEntity
  8
0
100
AcDbLine
 10
1502.643343
 20
456.596203
 30
0.0
 11
1496.143343
 21
460.293171
 31
0.0
  0
LINE
  5
566B
100
AcDbEntity
  8
0
100
AcDbLine
 10
1499.603478
 20
489.591755
 30
0.0
 11
1498.906803
 21
468.108215
 31
0.0
  0
ARC
  5
566C
100
AcDbEntity
  8
0
100
AcDbCircle
 10
1523.6683
 20
446.29381
 30
0.0
 40
33.0
100
AcDbArc
 50
25.368175
 51
59.082914
  0
LINE
  5
566D
100
AcDbEntity
  8
0
100
AcDbLine
 10
1551.193258
 20
445.451236
 30
0.0
 11
1551.193258
 21
444.381659
 31
0.0
  0
LINE
  5
566E
100
AcDbEntity
  8
0
100
AcDbLine
 10
1544.693258
 20
449.148204
 30
0.0
 11
1544.693258
 21
448.078627
 31
0.0
  0
LINE
  5
566F
100
AcDbEntity
  8
0
100
AcDbLine
 10
1544.693258
 20
448.078627
 30
0.0
 11
1551.193258
 21
444.381659
 31
0.0
  0
LINE
  5
5670
100
AcDbEntity
  8
0
100
AcDbLine
 10
1544.693258
 20
449.148204
 30
0.0
 11
1551.193258
 21
445.451236
 31
0.0
  0
LINE
  5
5671
100
AcDbEntity
  8
0
100
AcDbLine
 10
1544.693258
 20
449.148204
 30
0.0
 11
1544.693258
 21
456.596203
 31
0.0
  0
LINE
  5
5672
100
AcDbEntity
  8
0
100
AcDbLine
 10
1544.693258
 20
456.596203
 30
0.0
 11
1551.193258
 21
460.293171
 31
0.0
  0
LINE
  5
5673
100
AcDbEntity
  8
0
100
AcDbLine
 10
1547.733123
 20
489.591755
 30
0.0
 11
1548.429797
 21
468.108215
 31
0.0
  0
LINE
  5
5674
100
AcDbEntity
  8
0
100
AcDbLine
 10
1561.6683
 20
447.27424
 30
0.0
 11
1561.6683
 21
398.180007
 31
0.0
  0
ELLIPSE
  5
5675
100
AcDbEntity
  8
0
100
AcDbEllipse
 10
1535.6683
 20
413.129755
 30
0.0
 11
28.0
 21
0.0
 31
0.0
210
0.0
220
0.0
230
-1.0
 40
0.984808
 41
5.902934100486658
 42
6.412149798160035
  0
ARC
  5
5676
100
AcDbEntity
  8
0
100
AcDbCircle
 10
1566.6683
 20
407.583458
 30
0.0
 40
2.0
100
AcDbArc
 50
0.0
 51
90.0
  0
LINE
  5
5677
100
AcDbEntity
  8
0
100
AcDbLine
 10
1557.693258
 20
394.72916
 30
0.0
 11
1557.693258
 21
393.659583
 31
0.0
  0
LINE
  5
5678
100
AcDbEntity
  8
0
100
AcDbLine
 10
1557.693258
 20
394.72916
 30
0.0
 11
1557.693258
 21
402.177158
 31
0.0
  0
LINE
  5
5679
100
AcDbEntity
  8
0
100
AcDbLine
 10
1566.6683
 20
409.583458
 30
0.0
 11
1561.6683
 21
409.583458
 31
0.0
  0
LINE
  5
567A
100
AcDbEntity
  8
0
100
AcDbLine
 10
1557.693258
 20
449.148204
 30
0.0
 11
1557.693258
 21
448.078627
 31
0.0
  0
LINE
  5
567B
100
AcDbEntity
  8
0
100
AcDbLine
 10
1557.693258
 20
449.148204
 30
0.0
 11
1557.693258
 21
456.596203
 31
0.0
  0
LINE
  5
567C
100
AcDbEntity
  8
0
100
AcDbLine
 10
1558.968178
 20
563.090704
 30
0.0
 11
1546.350178
 21
563.090704
 31
0.0
  0
ARC
  5
567D
100
AcDbEntity
  8
0
100
AcDbCircle
 10
1552.659178
 20
576.596184
 30
0.0
 40
13.352467
100
AcDbArc
 50
253.680297
 51
286.319703
  0
LINE
  5
567E
100
AcDbEntity
  8
0
100
AcDbLine
 10
1545.154178
 20
569.590704
 30
0.0
 11
1560.165178
 21
569.590704
 31
0.0
  0
LINE
  5
567F
100
AcDbEntity
  8
0
100
AcDbLine
 10
1543.6683
 20
538.590704
 30
0.0
 11
1543.6683
 21
545.590704
 31
0.0
  0
LINE
  5
5680
100
AcDbEntity
  8
0
100
AcDbLine
 10
1503.6683
 20
518.590704
 30
0.0
 11
1543.6683
 21
518.590704
 31
0.0
  0
LINE
  5
5681
100
AcDbEntity
  8
0
100
AcDbLine
 10
1503.6683
 20
518.590704
 30
0.0
 11
1503.6683
 21
523.590704
 31
0.0
  0
LINE
  5
5682
100
AcDbEntity
  8
0
100
AcDbLine
 10
1504.655188
 20
517.608648
 30
0.0
 11
1504.655188
 21
518.590704
 31
0.0
  0
LINE
  5
5683
100
AcDbEntity
  8
0
100
AcDbLine
 10
1504.655188
 20
517.608648
 30
0.0
 11
1504.655188
 21
518.590704
 31
0.0
  0
LINE
  5
5684
100
AcDbEntity
  8
0
100
AcDbLine
 10
1504.655188
 20
506.236576
 30
0.0
 11
1504.655188
 21
518.590704
 31
0.0
  0
ARC
  5
5685
100
AcDbEntity
  8
0
100
AcDbCircle
 10
1493.299319
 20
533.590704
 30
0.0
 40
5.0
100
AcDbArc
 50
25.728246
 51
90.0
  0
LINE
  5
5686
100
AcDbEntity
  8
0
100
AcDbLine
 10
1497.803635
 20
535.761221
 30
0.0
 11
1503.6683
 21
523.590704
 31
0.0
  0
LINE
  5
5687
100
AcDbEntity
  8
0
100
AcDbLine
 10
1543.6683
 20
518.590704
 30
0.0
 11
1543.6683
 21
519.3825
 31
0.0
  0
LINE
  5
5688
100
AcDbEntity
  8
0
100
AcDbLine
 10
1542.681413
 20
518.590704
 30
0.0
 11
1542.681413
 21
506.236576
 31
0.0
  0
CIRCLE
  5
5689
100
AcDbEntity
  8
0
100
AcDbCircle
 10
1541.6683
 20
526.090704
 30
0.0
 40
3.5
  0
LINE
  5
568A
100
AcDbEntity
  8
0
100
AcDbLine
 10
1541.6683
 20
533.090704
 30
0.0
 11
1533.4183
 21
533.090704
 31
0.0
  0
LINE
  5
568B
100
AcDbEntity
  8
0
100
AcDbLine
 10
1543.6683
 20
538.590704
 30
0.0
 11
1533.4183
 21
538.590704
 31
0.0
  0
LINE
  5
568C
100
AcDbEntity
  8
0
100
AcDbLine
 10
1535.6683
 20
538.590704
 30
0.0
 11
1535.6683
 21
533.090704
 31
0.0
  0
ARC
  5
568D
100
AcDbEntity
  8
0
100
AcDbCircle
 10
1533.4183
 20
535.840704
 30
0.0
 40
2.75
100
AcDbArc
 50
90.0
 51
270.0
  0
ARC
  5
568E
100
AcDbEntity
  8
0
100
AcDbCircle
 10
1541.6683
 20
526.090704
 30
0.0
 40
7.0
100
AcDbArc
 50
286.60155
 51
90.0
  0
POLYLINE
  5
568F
100
AcDbEntity
  8
0
100
AcDb2dPolyline
 66
     1
 10
0.0
 20
0.0
 30
0.0
  0
VERTEX
  5
5A1A
100
AcDbEntity
  8
0
100
AcDbVertex
100
AcDb2dVertex
 10
1516.270695
 20
584.037513
 30
0.0
  0
VERTEX
  5
5A1B
100
AcDbEntity
  8
0
100
AcDbVertex
100
AcDb2dVertex
 10
1522.557898
 20
580.407594
 30
0.0
  0
SEQEND
  5
5A1C
100
AcDbEntity
  8
0
  0
LINE
  5
5690
100
AcDbEntity
  8
0
100
AcDbLine
 10
1514.1683
 20
548.590704
 30
0.0
 11
1533.1683
 21
548.590704
 31
0.0
  0
LINE
  5
5691
100
AcDbEntity
  8
0
100
AcDbLine
 10
1514.1683
 20
571.090704
 30
0.0
 11
1533.1683
 21
571.090704
 31
0.0
  0
LINE
  5
5692
100
AcDbEntity
  8
0
100
AcDbLine
 10
1514.1683
 20
553.590704
 30
0.0
 11
1533.1683
 21
553.590704
 31
0.0
  0
LINE
  5
5693
100
AcDbEntity
  8
0
100
AcDbLine
 10
1514.1683
 20
551.090704
 30
0.0
 11
1533.1683
 21
551.090704
 31
0.0
  0
LINE
  5
5694
100
AcDbEntity
  8
0
100
AcDbLine
 10
1514.1683
 20
558.590704
 30
0.0
 11
1533.1683
 21
558.590704
 31
0.0
  0
LINE
  5
5695
100
AcDbEntity
  8
0
100
AcDbLine
 10
1514.1683
 20
556.090704
 30
0.0
 11
1533.1683
 21
556.090704
 31
0.0
  0
LINE
  5
5696
100
AcDbEntity
  8
0
100
AcDbLine
 10
1514.1683
 20
563.590704
 30
0.0
 11
1533.1683
 21
563.590704
 31
0.0
  0
LINE
  5
5697
100
AcDbEntity
  8
0
100
AcDbLine
 10
1514.1683
 20
561.090704
 30
0.0
 11
1533.1683
 21
561.090704
 31
0.0
  0
LINE
  5
5698
100
AcDbEntity
  8
0
100
AcDbLine
 10
1514.1683
 20
563.590704
 30
0.0
 11
1533.1683
 21
563.590704
 31
0.0
  0
LINE
  5
5699
100
AcDbEntity
  8
0
100
AcDbLine
 10
1514.1683
 20
561.090704
 30
0.0
 11
1533.1683
 21
561.090704
 31
0.0
  0
LINE
  5
569A
100
AcDbEntity
  8
0
100
AcDbLine
 10
1514.1683
 20
566.090704
 30
0.0
 11
1533.1683
 21
566.090704
 31
0.0
  0
LINE
  5
569B
100
AcDbEntity
  8
0
100
AcDbLine
 10
1514.1683
 20
568.590704
 30
0.0
 11
1533.1683
 21
568.590704
 31
0.0
  0
LINE
  5
569C
100
AcDbEntity
  8
0
100
AcDbLine
 10
1514.6683
 20
571.090704
 30
0.0
 11
1514.6683
 21
568.590704
 31
0.0
  0
LINE
  5
569D
100
AcDbEntity
  8
0
100
AcDbLine
 10
1502.182422
 20
571.590704
 30
0.0
 11
1502.182422
 21
563.781704
 31
0.0
  0
LINE
  5
569E
100
AcDbEntity
  8
0
100
AcDbLine
 10
1495.1683
 20
550.590704
 30
0.0
 11
1495.1683
 21
563.090704
 31
0.0
  0
LINE
  5
569F
100
AcDbEntity
  8
0
100
AcDbLine
 10
1490.924422
 20
563.781704
 30
0.0
 11
1490.924422
 21
569.590704
 31
0.0
  0
LINE
  5
56A0
100
AcDbEntity
  8
0
100
AcDbLine
 10
1498.428422
 20
563.781704
 30
0.0
 11
1498.428422
 21
569.590704
 31
0.0
  0
ARC
  5
56A1
100
AcDbEntity
  8
0
100
AcDbCircle
 10
1494.676422
 20
576.596184
 30
0.0
 40
13.352467
100
AcDbArc
 50
253.680297
 51
286.319703
  0
LINE
  5
56A2
100
AcDbEntity
  8
0
100
AcDbLine
 10
1502.182422
 20
563.781704
 30
0.0
 11
1500.985422
 21
563.090704
 31
0.0
  0
LINE
  5
56A3
100
AcDbEntity
  8
0
100
AcDbLine
 10
1500.985422
 20
563.090704
 30
0.0
 11
1488.367422
 21
563.090704
 31
0.0
  0
ARC
  5
56A4
100
AcDbEntity
  8
0
100
AcDbCircle
 10
1500.304922
 20
566.784663
 30
0.0
 40
3.541047
100
AcDbArc
 50
237.999406
 51
302.000594
  0
ARC
  5
56A5
100
AcDbEntity
  8
0
100
AcDbCircle
 10
1500.1683
 20
550.590704
 30
0.0
 40
5.0
100
AcDbArc
 50
180.0
 51
270.0
  0
LINE
  5
56A6
100
AcDbEntity
  8
0
100
AcDbLine
 10
1514.1683
 20
551.090704
 30
0.0
 11
1514.1683
 21
553.590704
 31
0.0
  0
LINE
  5
56A7
100
AcDbEntity
  8
0
100
AcDbLine
 10
1514.1683
 20
556.090704
 30
0.0
 11
1514.1683
 21
558.590704
 31
0.0
  0
LINE
  5
56A8
100
AcDbEntity
  8
0
100
AcDbLine
 10
1514.1683
 20
561.090704
 30
0.0
 11
1514.1683
 21
563.590704
 31
0.0
  0
LINE
  5
56A9
100
AcDbEntity
  8
0
100
AcDbLine
 10
1514.1683
 20
561.090704
 30
0.0
 11
1514.1683
 21
563.590704
 31
0.0
  0
LINE
  5
56AA
100
AcDbEntity
  8
0
100
AcDbLine
 10
1514.1683
 20
566.090704
 30
0.0
 11
1514.1683
 21
568.590704
 31
0.0
  0
LINE
  5
56AB
100
AcDbEntity
  8
0
100
AcDbLine
 10
1514.6683
 20
566.090704
 30
0.0
 11
1514.6683
 21
563.590704
 31
0.0
  0
LINE
  5
56AC
100
AcDbEntity
  8
0
100
AcDbLine
 10
1514.6683
 20
556.090704
 30
0.0
 11
1514.6683
 21
553.590704
 31
0.0
  0
LINE
  5
56AD
100
AcDbEntity
  8
0
100
AcDbLine
 10
1514.6683
 20
561.090704
 30
0.0
 11
1514.6683
 21
558.590704
 31
0.0
  0
LINE
  5
56AE
100
AcDbEntity
  8
0
100
AcDbLine
 10
1514.1683
 20
545.590704
 30
0.0
 11
1514.1683
 21
548.590704
 31
0.0
  0
LINE
  5
56AF
100
AcDbEntity
  8
0
100
AcDbLine
 10
1514.6683
 20
551.090704
 30
0.0
 11
1514.6683
 21
548.590704
 31
0.0
  0
ARC
  5
56B0
100
AcDbEntity
  8
0
100
AcDbCircle
 10
1523.6683
 20
589.590704
 30
0.0
 40
9.25
100
AcDbArc
 50
202.978669
 51
216.89461
  0
ARC
  5
56B1
100
AcDbEntity
  8
0
100
AcDbCircle
 10
1523.6683
 20
589.590704
 30
0.0
 40
9.25
100
AcDbArc
 50
143.10539
 51
157.021331
  0
POLYLINE
  5
56B2
100
AcDbEntity
  8
0
100
AcDb2dPolyline
 66
     1
 10
0.0
 20
0.0
 30
0.0
  0
VERTEX
  5
5A1D
100
AcDbEntity
  8
0
100
AcDbVertex
100
AcDb2dVertex
 10
1515.152285
 20
593.201797
 30
0.0
  0
VERTEX
  5
5A1E
100
AcDbEntity
  8
0
100
AcDbVertex
100
AcDb2dVertex
 10
1515.152285
 20
585.979612
 30
0.0
  0
SEQEND
  5
5A1F
100
AcDbEntity
  8
0
  0
LINE
  5
56B3
100
AcDbEntity
  8
0
100
AcDbLine
 10
1514.1683
 20
571.090704
 30
0.0
 11
1514.1683
 21
571.590704
 31
0.0
  0
LINE
  5
56B4
100
AcDbEntity
  8
0
100
AcDbLine
 10
1545.154178
 20
563.781704
 30
0.0
 11
1545.154178
 21
571.590704
 31
0.0
  0
LINE
  5
56B5
100
AcDbEntity
  8
0
100
AcDbLine
 10
1532.6683
 20
571.090704
 30
0.0
 11
1532.6683
 21
568.590704
 31
0.0
  0
LINE
  5
56B6
100
AcDbEntity
  8
0
100
AcDbLine
 10
1533.1683
 20
551.090704
 30
0.0
 11
1533.1683
 21
553.590704
 31
0.0
  0
LINE
  5
56B7
100
AcDbEntity
  8
0
100
AcDbLine
 10
1533.1683
 20
556.090704
 30
0.0
 11
1533.1683
 21
558.590704
 31
0.0
  0
LINE
  5
56B8
100
AcDbEntity
  8
0
100
AcDbLine
 10
1533.1683
 20
561.090704
 30
0.0
 11
1533.1683
 21
563.590704
 31
0.0
  0
LINE
  5
56B9
100
AcDbEntity
  8
0
100
AcDbLine
 10
1533.1683
 20
561.090704
 30
0.0
 11
1533.1683
 21
563.590704
 31
0.0
  0
LINE
  5
56BA
100
AcDbEntity
  8
0
100
AcDbLine
 10
1533.1683
 20
566.090704
 30
0.0
 11
1533.1683
 21
568.590704
 31
0.0
  0
LINE
  5
56BB
100
AcDbEntity
  8
0
100
AcDbLine
 10
1532.6683
 20
566.090704
 30
0.0
 11
1532.6683
 21
563.590704
 31
0.0
  0
LINE
  5
56BC
100
AcDbEntity
  8
0
100
AcDbLine
 10
1532.6683
 20
556.090704
 30
0.0
 11
1532.6683
 21
553.590704
 31
0.0
  0
LINE
  5
56BD
100
AcDbEntity
  8
0
100
AcDbLine
 10
1532.6683
 20
561.090704
 30
0.0
 11
1532.6683
 21
558.590704
 31
0.0
  0
LINE
  5
56BE
100
AcDbEntity
  8
0
100
AcDbLine
 10
1533.1683
 20
545.590704
 30
0.0
 11
1533.1683
 21
548.590704
 31
0.0
  0
LINE
  5
56BF
100
AcDbEntity
  8
0
100
AcDbLine
 10
1532.6683
 20
551.090704
 30
0.0
 11
1532.6683
 21
548.590704
 31
0.0
  0
LINE
  5
56C0
100
AcDbEntity
  8
0
100
AcDbLine
 10
1548.907178
 20
563.781704
 30
0.0
 11
1548.907178
 21
569.590704
 31
0.0
  0
ARC
  5
56C1
100
AcDbEntity
  8
0
100
AcDbCircle
 10
1547.030678
 20
566.784663
 30
0.0
 40
3.541047
100
AcDbArc
 50
237.999406
 51
302.000594
  0
LINE
  5
56C2
100
AcDbEntity
  8
0
100
AcDbLine
 10
1546.350178
 20
563.090704
 30
0.0
 11
1545.154178
 21
563.781704
 31
0.0
  0
ARC
  5
56C3
100
AcDbEntity
  8
0
100
AcDbCircle
 10
1523.6683
 20
589.590704
 30
0.0
 40
9.25
100
AcDbArc
 50
23.481672
 51
36.643119
  0
ARC
  5
56C4
100
AcDbEntity
  8
0
100
AcDbCircle
 10
1523.6683
 20
589.590704
 30
0.0
 40
9.25
100
AcDbArc
 50
323.356881
 51
336.518328
  0
POLYLINE
  5
56C5
100
AcDbEntity
  8
0
100
AcDb2dPolyline
 66
     1
 10
0.0
 20
0.0
 30
0.0
  0
VERTEX
  5
5A20
100
AcDbEntity
  8
0
100
AcDbVertex
100
AcDb2dVertex
 10
1532.152285
 20
585.904989
 30
0.0
  0
VERTEX
  5
5A21
100
AcDbEntity
  8
0
100
AcDbVertex
100
AcDb2dVertex
 10
1532.152285
 20
593.27642
 30
0.0
  0
SEQEND
  5
5A22
100
AcDbEntity
  8
0
  0
ARC
  5
56C6
100
AcDbEntity
  8
0
100
AcDbCircle
 10
1523.6683
 20
589.590704
 30
0.0
 40
9.25
100
AcDbArc
 50
263.10539
 51
276.643119
  0
POLYLINE
  5
56C7
100
AcDbEntity
  8
0
100
AcDb2dPolyline
 66
     1
 10
0.0
 20
0.0
 30
0.0
  0
VERTEX
  5
5A23
100
AcDbEntity
  8
0
100
AcDbVertex
100
AcDb2dVertex
 10
1524.738384
 20
580.402809
 30
0.0
  0
VERTEX
  5
5A24
100
AcDbEntity
  8
0
100
AcDbVertex
100
AcDb2dVertex
 10
1531.090209
 20
584.070037
 30
0.0
  0
SEQEND
  5
5A25
100
AcDbEntity
  8
0
  0
LINE
  5
56C8
100
AcDbEntity
  8
0
100
AcDbLine
 10
1533.1683
 20
571.090704
 30
0.0
 11
1533.1683
 21
571.590704
 31
0.0
  0
LINE
  5
56C9
100
AcDbEntity
  8
0
100
AcDbLine
 10
1560.165178
 20
571.590704
 30
0.0
 11
1560.165178
 21
563.781704
 31
0.0
  0
LINE
  5
56CA
100
AcDbEntity
  8
0
100
AcDbLine
 10
1556.411178
 20
563.781704
 30
0.0
 11
1556.411178
 21
569.590704
 31
0.0
  0
ARC
  5
56CB
100
AcDbEntity
  8
0
100
AcDbCircle
 10
1558.287678
 20
566.784663
 30
0.0
 40
3.541047
100
AcDbArc
 50
237.999406
 51
302.000594
  0
LINE
  5
56CC
100
AcDbEntity
  8
0
100
AcDbLine
 10
1560.165178
 20
563.781704
 30
0.0
 11
1558.968178
 21
563.090704
 31
0.0
  0
LINE
  5
56CD
100
AcDbEntity
  8
0
100
AcDbLine
 10
1577.1683
 20
571.590704
 30
0.0
 11
1577.1683
 21
579.590704
 31
0.0
  0
LINE
  5
56CE
100
AcDbEntity
  8
0
100
AcDbLine
 10
1748.026353
 20
469.607267
 30
0.0
 11
1748.026353
 21
498.607267
 31
0.0
  0
LINE
  5
56CF
100
AcDbEntity
  8
0
100
AcDbLine
 10
1709.326353
 20
491.590704
 30
0.0
 11
1709.326353
 21
515.607267
 31
0.0
  0
LINE
  5
56D0
100
AcDbEntity
  8
0
100
AcDbLine
 10
1740.347747
 20
506.62107
 30
0.0
 11
1740.347747
 21
486.377109
 31
0.0
  0
LINE
  5
56D1
100
AcDbEntity
  8
0
100
AcDbLine
 10
1734.964034
 20
513.085528
 30
0.0
 11
1734.964034
 21
468.985114
 31
0.0
  0
ARC
  5
56D2
100
AcDbEntity
  8
0
100
AcDbCircle
 10
1740.241405
 20
447.165321
 30
0.0
 40
8.003736
100
AcDbArc
 50
282.611099
 51
70.830929
  0
LINE
  5
56D3
100
AcDbEntity
  8
0
100
AcDbLine
 10
1699.232759
 20
404.764448
 30
0.0
 11
1700.121188
 21
405.822083
 31
0.0
  0
ARC
  5
56D4
100
AcDbEntity
  8
0
100
AcDbCircle
 10
1702.752129
 20
403.452027
 30
0.0
 40
3.541047
100
AcDbArc
 50
137.986212
 51
201.987401
  0
LINE
  5
56D5
100
AcDbEntity
  8
0
100
AcDbLine
 10
1699.468636
 20
402.12625
 30
0.0
 11
1705.189151
 21
401.11621
 31
0.0
  0
LINE
  5
56D6
100
AcDbEntity
  8
0
100
AcDbLine
 10
1700.121188
 20
405.822083
 30
0.0
 11
1705.841704
 21
404.812043
 31
0.0
  0
LINE
  5
56D7
100
AcDbEntity
  8
0
100
AcDbLine
 10
1698.163878
 20
394.736552
 30
0.0
 11
1703.884394
 21
393.726513
 31
0.0
  0
LINE
  5
56D8
100
AcDbEntity
  8
0
100
AcDbLine
 10
1697.038805
 20
392.338649
 30
0.0
 11
1699.232759
 21
404.764448
 31
0.0
  0
ARC
  5
56D9
100
AcDbEntity
  8
0
100
AcDbCircle
 10
1711.435543
 20
396.203284
 30
0.0
 40
13.352467
100
AcDbArc
 50
153.667103
 51
186.30651
  0
ARC
  5
56DA
100
AcDbEntity
  8
0
100
AcDbCircle
 10
1743.08171
 20
434.474217
 30
0.0
 40
5.001319
100
AcDbArc
 50
102.621454
 51
170.009013
  0
LINE
  5
56DB
100
AcDbEntity
  8
0
100
AcDbLine
 10
1715.939549
 20
462.046207
 30
0.0
 11
1725.787705
 21
460.309131
 31
0.0
  0
LINE
  5
56DC
100
AcDbEntity
  8
0
100
AcDbLine
 10
1709.326353
 20
467.574141
 30
0.0
 11
1733.282874
 21
467.574141
 31
0.0
  0
LINE
  5
56DD
100
AcDbEntity
  8
0
100
AcDbLine
 10
1709.326353
 20
467.574141
 30
0.0
 11
1709.326353
 21
491.590704
 31
0.0
  0
LINE
  5
56DE
100
AcDbEntity
  8
0
100
AcDbLine
 10
1706.629999
 20
446.688052
 30
0.0
 11
1707.102818
 21
445.390231
 31
0.0
  0
ARC
  5
56DF
100
AcDbEntity
  8
0
100
AcDbCircle
 10
1710.386005
 20
446.716765
 30
0.0
 40
3.541047
100
AcDbArc
 50
137.999406
 51
202.000594
  0
LINE
  5
56E0
100
AcDbEntity
  8
0
100
AcDbLine
 10
1708.821092
 20
459.114356
 30
0.0
 11
1706.629999
 21
446.688052
 31
0.0
  0
LINE
  5
56E1
100
AcDbEntity
  8
0
100
AcDbLine
 10
1709.709451
 20
460.17318
 30
0.0
 11
1708.821092
 21
459.114356
 31
0.0
  0
LINE
  5
56E2
100
AcDbEntity
  8
0
100
AcDbLine
 10
1715.430199
 20
459.164458
 30
0.0
 11
1709.709451
 21
460.17318
 31
0.0
  0
ARC
  5
56E3
100
AcDbEntity
  8
0
100
AcDbCircle
 10
1721.025846
 20
450.556002
 30
0.0
 40
13.352467
100
AcDbArc
 50
153.680297
 51
186.319703
  0
LINE
  5
56E4
100
AcDbEntity
  8
0
100
AcDbLine
 10
1707.102818
 20
445.390231
 30
0.0
 11
1712.823566
 21
444.381509
 31
0.0
  0
LINE
  5
56E5
100
AcDbEntity
  8
0
100
AcDbLine
 10
1707.754519
 20
449.086215
 30
0.0
 11
1713.475268
 21
448.077492
 31
0.0
  0
LINE
  5
56E6
100
AcDbEntity
  8
0
100
AcDbLine
 10
1709.057575
 20
456.476212
 30
0.0
 11
1714.778324
 21
455.46749
 31
0.0
  0
ARC
  5
56E7
100
AcDbEntity
  8
0
100
AcDbCircle
 10
1712.340763
 20
457.802745
 30
0.0
 40
3.541047
100
AcDbArc
 50
137.999406
 51
202.000594
  0
ARC
  5
56E8
100
AcDbEntity
  8
0
100
AcDbCircle
 10
1733.282833
 20
464.569999
 30
0.0
 40
3.004142
100
AcDbArc
 50
329.626963
 51
89.999218
  0
ARC
  5
56E9
100
AcDbEntity
  8
0
100
AcDbCircle
 10
1744.471067
 20
458.935088
 30
0.0
 40
4.50417
100
AcDbArc
 50
172.299808
 51
249.171167
  0
LINE
  5
56EA
100
AcDbEntity
  8
0
100
AcDbLine
 10
1724.987153
 20
455.776005
 30
0.0
 11
1726.468175
 21
455.515825
 31
0.0
  0
ARC
  5
56EB
100
AcDbEntity
  8
0
100
AcDbCircle
 10
1732.022457
 20
463.105756
 30
0.0
 40
3.852593
100
AcDbArc
 50
264.328754
 51
359.18597
  0
LINE
  5
56EC
100
AcDbEntity
  8
0
100
AcDbLine
 10
1737.118174
 20
458.297916
 30
0.0
 11
1727.268727
 21
460.048951
 31
0.0
  0
LINE
  5
56ED
100
AcDbEntity
  8
0
100
AcDbLine
 10
1734.814671
 20
515.607267
 30
0.0
 11
1709.326353
 21
515.607267
 31
0.0
  0
LINE
  5
56EE
100
AcDbEntity
  8
0
100
AcDbLine
 10
1742.338379
 20
508.602437
 30
0.0
 11
1734.814671
 21
515.607267
 31
0.0
  0
LINE
  5
56EF
100
AcDbEntity
  8
0
100
AcDbLine
 10
1727.391334
 20
579.590704
 30
0.0
 11
1723.700277
 21
581.045989
 31
0.0
  0
LINE
  5
56F0
100
AcDbEntity
  8
0
100
AcDbLine
 10
1715.082391
 20
595.111372
 30
0.0
 11
1718.92792
 21
595.111372
 31
0.0
  0
LINE
  5
56F1
100
AcDbEntity
  8
0
100
AcDbLine
 10
1715.082391
 20
584.070037
 30
0.0
 11
1718.92792
 21
584.070037
 31
0.0
  0
LINE
  5
56F2
100
AcDbEntity
  8
0
100
AcDbLine
 10
1715.082391
 20
585.904989
 30
0.0
 11
1718.92792
 21
585.904989
 31
0.0
  0
LINE
  5
56F3
100
AcDbEntity
  8
0
100
AcDbLine
 10
1715.082391
 20
593.27642
 30
0.0
 11
1718.92792
 21
593.27642
 31
0.0
  0
LINE
  5
56F4
100
AcDbEntity
  8
0
100
AcDbLine
 10
1718.92792
 20
580.363062
 30
0.0
 11
1718.92792
 21
582.663875
 31
0.0
  0
LINE
  5
56F5
100
AcDbEntity
  8
0
100
AcDbLine
 10
1715.082391
 20
581.509404
 30
0.0
 11
1715.854749
 21
580.363062
 31
0.0
  0
LINE
  5
56F6
100
AcDbEntity
  8
0
100
AcDbLine
 10
1715.854749
 20
580.363062
 30
0.0
 11
1718.92792
 21
580.363062
 31
0.0
  0
LINE
  5
56F7
100
AcDbEntity
  8
0
100
AcDbLine
 10
1718.92792
 20
582.663875
 30
0.0
 11
1722.781578
 21
582.663875
 31
0.0
  0
LINE
  5
56F8
100
AcDbEntity
  8
0
100
AcDbLine
 10
1723.707051
 20
581.043318
 30
0.0
 11
1722.781578
 21
581.12729
 31
0.0
  0
LINE
  5
56F9
100
AcDbEntity
  8
0
100
AcDbLine
 10
1754.085513
 20
571.590704
 30
0.0
 11
1754.085513
 21
563.781704
 31
0.0
  0
LINE
  5
56FA
100
AcDbEntity
  8
0
100
AcDbLine
 10
1754.085513
 20
563.781704
 30
0.0
 11
1755.282513
 21
563.090704
 31
0.0
  0
LINE
  5
56FB
100
AcDbEntity
  8
0
100
AcDbLine
 10
1727.391334
 20
583.818347
 30
0.0
 11
1733.545806
 21
583.818347
 31
0.0
  0
LINE
  5
56FC
100
AcDbEntity
  8
0
100
AcDbLine
 10
1733.545806
 20
585.745176
 30
0.0
 11
1727.391334
 21
585.745176
 31
0.0
  0
LINE
  5
56FD
100
AcDbEntity
  8
0
100
AcDbLine
 10
1727.391334
 20
593.436233
 30
0.0
 11
1733.545806
 21
593.436233
 31
0.0
  0
LINE
  5
56FE
100
AcDbEntity
  8
0
100
AcDbLine
 10
1727.391334
 20
579.590704
 30
0.0
 11
1737.082391
 21
579.590704
 31
0.0
  0
LINE
  5
56FF
100
AcDbEntity
  8
0
100
AcDbLine
 10
1727.391334
 20
593.436233
 30
0.0
 11
1727.391334
 21
585.745176
 31
0.0
  0
LINE
  5
5700
100
AcDbEntity
  8
0
100
AcDbLine
 10
1727.391334
 20
583.818347
 30
0.0
 11
1727.391334
 21
579.590704
 31
0.0
  0
LINE
  5
5701
100
AcDbEntity
  8
0
100
AcDbLine
 10
1733.545806
 20
593.436233
 30
0.0
 11
1733.545806
 21
585.745176
 31
0.0
  0
LINE
  5
5702
100
AcDbEntity
  8
0
100
AcDbLine
 10
1733.545806
 20
583.818347
 30
0.0
 11
1733.545806
 21
579.590704
 31
0.0
  0
LINE
  5
5703
100
AcDbEntity
  8
0
100
AcDbLine
 10
1727.391334
 20
585.745176
 30
0.0
 11
1723.92792
 21
584.785826
 31
0.0
  0
LINE
  5
5704
100
AcDbEntity
  8
0
100
AcDbLine
 10
1723.92792
 20
584.785826
 30
0.0
 11
1727.391334
 21
583.818347
 31
0.0
  0
LINE
  5
5705
100
AcDbEntity
  8
0
100
AcDbLine
 10
1723.92792
 20
594.395582
 30
0.0
 11
1727.391334
 21
593.436233
 31
0.0
  0
LINE
  5
5706
100
AcDbEntity
  8
0
100
AcDbLine
 10
1737.082391
 20
571.590704
 30
0.0
 11
1737.082391
 21
579.590704
 31
0.0
  0
LINE
  5
5707
100
AcDbEntity
  8
0
100
AcDbLine
 10
1577.1683
 20
629.590704
 30
0.0
 11
1564.079111
 21
726.179894
 31
0.0
  0
ARC
  5
5708
100
AcDbEntity
  8
0
100
AcDbCircle
 10
1523.6683
 20
589.590704
 30
0.0
 40
9.25
100
AcDbArc
 50
83.356881
 51
96.89461
  0
LINE
  5
5709
100
AcDbEntity
  8
0
100
AcDbLine
 10
1577.1683
 20
599.590704
 30
0.0
 11
1577.1683
 21
629.590704
 31
0.0
  0
LINE
  5
570A
100
AcDbEntity
  8
0
100
AcDbLine
 10
1553.6683
 20
736.590704
 30
0.0
 11
1564.079111
 21
726.179894
 31
0.0
  0
LINE
  5
570B
100
AcDbEntity
  8
0
100
AcDbLine
 10
1553.6683
 20
736.590704
 30
0.0
 11
1493.6683
 21
736.590704
 31
0.0
  0
LINE
  5
570C
100
AcDbEntity
  8
0
100
AcDbLine
 10
1737.082391
 20
629.590704
 30
0.0
 11
1750.17158
 21
726.179894
 31
0.0
  0
LINE
  5
570D
100
AcDbEntity
  8
0
100
AcDbLine
 10
1723.697356
 20
598.516684
 30
0.0
 11
1727.391334
 21
599.590704
 31
0.0
  0
LINE
  5
570E
100
AcDbEntity
  8
0
100
AcDbLine
 10
1718.92792
 20
598.818347
 30
0.0
 11
1715.854749
 21
598.818347
 31
0.0
  0
LINE
  5
570F
100
AcDbEntity
  8
0
100
AcDbLine
 10
1718.92792
 20
596.517534
 30
0.0
 11
1718.92792
 21
598.818347
 31
0.0
  0
LINE
  5
5710
100
AcDbEntity
  8
0
100
AcDbLine
 10
1715.854749
 20
598.818347
 30
0.0
 11
1715.082391
 21
597.672005
 31
0.0
  0
LINE
  5
5711
100
AcDbEntity
  8
0
100
AcDbLine
 10
1723.697356
 20
598.516684
 30
0.0
 11
1722.781578
 21
598.436233
 31
0.0
  0
LINE
  5
5712
100
AcDbEntity
  8
0
100
AcDbLine
 10
1722.781578
 20
596.517534
 30
0.0
 11
1718.92792
 21
596.517534
 31
0.0
  0
LINE
  5
5713
100
AcDbEntity
  8
0
100
AcDbLine
 10
1737.082391
 20
599.590704
 30
0.0
 11
1737.082391
 21
629.590704
 31
0.0
  0
LINE
  5
5714
100
AcDbEntity
  8
0
100
AcDbLine
 10
1737.082391
 20
599.590704
 30
0.0
 11
1727.391334
 21
599.590704
 31
0.0
  0
LINE
  5
5715
100
AcDbEntity
  8
0
100
AcDbLine
 10
1733.545806
 20
595.363062
 30
0.0
 11
1727.391334
 21
595.363062
 31
0.0
  0
LINE
  5
5716
100
AcDbEntity
  8
0
100
AcDbLine
 10
1733.545806
 20
599.590704
 30
0.0
 11
1733.545806
 21
595.363062
 31
0.0
  0
LINE
  5
5717
100
AcDbEntity
  8
0
100
AcDbLine
 10
1727.391334
 20
599.590704
 30
0.0
 11
1727.391334
 21
595.363062
 31
0.0
  0
LINE
  5
5718
100
AcDbEntity
  8
0
100
AcDbLine
 10
1834.294883
 20
399.449277
 30
0.0
 11
1842.080252
 21
391.663908
 31
0.0
  0
LINE
  5
5719
100
AcDbEntity
  8
0
100
AcDbLine
 10
1819.142088
 20
384.296708
 30
0.0
 11
1838.185221
 21
403.339842
 31
0.0
  0
LINE
  5
571A
100
AcDbEntity
  8
0
100
AcDbLine
 10
1811.676939
 20
385.977868
 30
0.0
 11
1837.545041
 21
411.86142
 31
0.0
  0
CIRCLE
  5
571B
100
AcDbEntity
  8
0
100
AcDbCircle
 10
1775.852232
 20
394.59381
 30
0.0
 40
15.010352
  0
ARC
  5
571C
100
AcDbEntity
  8
0
100
AcDbCircle
 10
2056.577241
 20
384.262128
 30
0.0
 40
10.0
100
AcDbArc
 50
95.287125
 51
138.365006
  0
ARC
  5
571D
100
AcDbEntity
  8
0
100
AcDbCircle
 10
2054.27357
 20
409.155764
 30
0.0
 40
15.0
100
AcDbArc
 50
275.287125
 51
0.0
  0
ELLIPSE
  5
571E
100
AcDbEntity
  8
0
100
AcDbEllipse
 10
2024.27357
 20
405.514616
 30
0.0
 11
-26.79129999999997
 21
0.0
 31
0.0
210
0.0
220
0.0
230
1.0
 40
0.698623
 41
8.415985257308701
 42
9.470080485211866
  0
ELLIPSE
  5
571F
100
AcDbEntity
  8
0
100
AcDbEllipse
 10
2012.27357
 20
413.129755
 30
0.0
 11
-28.0
 21
0.0
 31
0.0
210
0.0
220
0.0
230
1.0
 40
0.984808
 41
5.668392056539574
 42
7.544633709209753
  0
ELLIPSE
  5
5720
100
AcDbEntity
  8
0
100
AcDbEllipse
 10
2024.27357
 20
405.514616
 30
0.0
 11
-26.79129999999997
 21
0.0
 31
0.0
210
0.0
220
0.0
230
1.0
 40
0.698623
 41
6.237882782737512
 42
7.291978010640269
  0
LINE
  5
5721
100
AcDbEntity
  8
0
100
AcDbLine
 10
2032.77357
 20
399.828683
 30
0.0
 11
2032.77357
 21
380.022498
 31
0.0
  0
LINE
  5
5722
100
AcDbEntity
  8
0
100
AcDbLine
 10
2015.77357
 20
399.828683
 30
0.0
 11
2015.77357
 21
380.022498
 31
0.0
  0
ELLIPSE
  5
5723
100
AcDbEntity
  8
0
100
AcDbEllipse
 10
2024.27357
 20
393.818275
 30
0.0
 11
-13.46000000000003
 21
0.0
 31
0.0
210
0.0
220
0.0
230
1.0
 40
0.707107
 41
2.254283521725644
 42
7.170494439043817
  0
ELLIPSE
  5
5724
100
AcDbEntity
  8
0
100
AcDbEllipse
 10
2024.27357
 20
398.541532
 30
0.0
 11
-19.0
 21
0.0
 31
0.0
210
0.0
220
0.0
230
1.0
 40
0.707107
 41
2.056715815188956
 42
7.368062145580465
  0
LINE
  5
5725
100
AcDbEntity
  8
0
100
AcDbLine
 10
2072.27357
 20
407.583458
 30
0.0
 11
2072.27357
 21
381.583458
 31
0.0
  0
LINE
  5
5726
100
AcDbEntity
  8
0
100
AcDbLine
 10
1979.27357
 20
407.583458
 30
0.0
 11
1979.27357
 21
381.583458
 31
0.0
  0
LINE
  5
5727
100
AcDbEntity
  8
0
100
AcDbLine
 10
2015.77357
 20
380.022498
 30
0.0
 11
2032.77357
 21
380.022498
 31
0.0
  0
LINE
  5
5728
100
AcDbEntity
  8
0
100
AcDbLine
 10
1981.27357
 20
379.583458
 30
0.0
 11
2070.27357
 21
379.583458
 31
0.0
  0
TEXT
  5
5729
100
AcDbEntity
  8
0
100
AcDbText
 10
1746.433668
 20
319.368612
 30
0.0
 40
20.0
  1
25A
 72
     4
 11
1773.100335
 21
329.368612
 31
0.0
100
AcDbText
  0
LINE
  5
572A
100
AcDbEntity
  8
0
100
AcDbLine
 10
1822.274068
 20
387.428462
 30
0.0
 11
1830.059437
 21
379.643093
 31
0.0
  0
ARC
  5
572B
100
AcDbEntity
  8
0
100
AcDbCircle
 10
1794.216747
 20
377.426744
 30
0.0
 40
10.012131
100
AcDbArc
 50
90.01059
 51
133.933444
  0
LINE
  5
572C
100
AcDbEntity
  8
0
100
AcDbLine
 10
1785.538913
 20
383.127386
 30
0.0
 11
1787.270107
 21
384.636943
 31
0.0
  0
LINE
  5
572D
100
AcDbEntity
  8
0
100
AcDbLine
 10
1794.214896
 20
387.438875
 30
0.0
 11
1809.215241
 21
385.117274
 31
0.0
  0
ARC
  5
572E
100
AcDbEntity
  8
0
100
AcDbCircle
 10
1809.810652
 20
387.36522
 30
0.0
 40
2.325462
100
AcDbArc
 50
255.164798
 51
323.373791
  0
LINE
  5
572F
100
AcDbEntity
  8
0
100
AcDbLine
 10
1814.70903
 20
389.019966
 30
0.0
 11
1819.142088
 21
384.296708
 31
0.0
  0
LINE
  5
5730
100
AcDbEntity
  8
0
100
AcDbLine
 10
1830.059437
 20
379.643093
 30
0.0
 11
1842.080252
 21
391.663908
 31
0.0
  0
ARC
  5
5731
100
AcDbEntity
  8
0
100
AcDbCircle
 10
1981.27357
 20
381.583458
 30
0.0
 40
2.0
100
AcDbArc
 50
180.0
 51
270.0
  0
ELLIPSE
  5
5732
100
AcDbEntity
  8
0
100
AcDbEllipse
 10
2024.27357
 20
412.312417
 30
0.0
 11
-33.0
 21
0.0
 31
0.0
210
0.0
220
0.0
230
1.0
 40
0.984808
 41
0.8995696233552447
 42
1.310283863427573
  0
ELLIPSE
  5
5733
100
AcDbEntity
  8
0
100
AcDbEllipse
 10
2024.27357
 20
412.312417
 30
0.0
 11
-33.0
 21
0.0
 31
0.0
210
0.0
220
0.0
230
1.0
 40
0.984808
 41
1.831308790162253
 42
2.422519496535802
  0
ARC
  5
5734
100
AcDbEntity
  8
0
100
AcDbCircle
 10
2070.27357
 20
381.583458
 30
0.0
 40
2.0
100
AcDbArc
 50
270.0
 51
0.0
  0
LINE
  5
5735
100
AcDbEntity
  8
0
100
AcDbLine
 10
1983.862759
 20
726.179894
 30
0.0
 11
2064.684381
 21
726.179894
 31
0.0
  0
LINE
  5
5736
100
AcDbEntity
  8
0
100
AcDbLine
 10
1994.27357
 20
736.590704
 30
0.0
 11
2054.27357
 21
736.590704
 31
0.0
  0
LINE
  5
5737
100
AcDbEntity
  8
0
100
AcDbLine
 10
2077.77357
 20
579.590704
 30
0.0
 11
1970.77357
 21
579.590704
 31
0.0
  0
LINE
  5
5738
100
AcDbEntity
  8
0
100
AcDbLine
 10
1970.77357
 20
599.590704
 30
0.0
 11
2077.77357
 21
599.590704
 31
0.0
  0
LINE
  5
5739
100
AcDbEntity
  8
0
100
AcDbLine
 10
2033.77357
 20
568.590704
 30
0.0
 11
2014.77357
 21
568.590704
 31
0.0
  0
LINE
  5
573A
100
AcDbEntity
  8
0
100
AcDbLine
 10
2033.77357
 20
566.090704
 30
0.0
 11
2014.77357
 21
566.090704
 31
0.0
  0
LINE
  5
573B
100
AcDbEntity
  8
0
100
AcDbLine
 10
2033.77357
 20
561.090704
 30
0.0
 11
2014.77357
 21
561.090704
 31
0.0
  0
LINE
  5
573C
100
AcDbEntity
  8
0
100
AcDbLine
 10
2033.77357
 20
563.590704
 30
0.0
 11
2014.77357
 21
563.590704
 31
0.0
  0
LINE
  5
573D
100
AcDbEntity
  8
0
100
AcDbLine
 10
2033.77357
 20
561.090704
 30
0.0
 11
2014.77357
 21
561.090704
 31
0.0
  0
LINE
  5
573E
100
AcDbEntity
  8
0
100
AcDbLine
 10
2033.77357
 20
563.590704
 30
0.0
 11
2014.77357
 21
563.590704
 31
0.0
  0
LINE
  5
573F
100
AcDbEntity
  8
0
100
AcDbLine
 10
2033.77357
 20
556.090704
 30
0.0
 11
2014.77357
 21
556.090704
 31
0.0
  0
LINE
  5
5740
100
AcDbEntity
  8
0
100
AcDbLine
 10
2033.77357
 20
558.590704
 30
0.0
 11
2014.77357
 21
558.590704
 31
0.0
  0
LINE
  5
5741
100
AcDbEntity
  8
0
100
AcDbLine
 10
2033.77357
 20
551.090704
 30
0.0
 11
2014.77357
 21
551.090704
 31
0.0
  0
LINE
  5
5742
100
AcDbEntity
  8
0
100
AcDbLine
 10
2033.77357
 20
553.590704
 30
0.0
 11
2014.77357
 21
553.590704
 31
0.0
  0
LINE
  5
5743
100
AcDbEntity
  8
0
100
AcDbLine
 10
2033.77357
 20
571.090704
 30
0.0
 11
2014.77357
 21
571.090704
 31
0.0
  0
LINE
  5
5744
100
AcDbEntity
  8
0
100
AcDbLine
 10
1970.77357
 20
629.590704
 30
0.0
 11
2077.77357
 21
629.590704
 31
0.0
  0
LINE
  5
5745
100
AcDbEntity
  8
0
100
AcDbLine
 10
1970.77357
 20
571.590704
 30
0.0
 11
2077.77357
 21
571.590704
 31
0.0
  0
LINE
  5
5746
100
AcDbEntity
  8
0
100
AcDbLine
 10
2004.27357
 20
545.590704
 30
0.0
 11
2062.77357
 21
545.590704
 31
0.0
  0
LINE
  5
5747
100
AcDbEntity
  8
0
100
AcDbLine
 10
2033.77357
 20
548.590704
 30
0.0
 11
2014.77357
 21
548.590704
 31
0.0
  0
LINE
  5
5748
100
AcDbEntity
  8
0
100
AcDbLine
 10
2044.27357
 20
518.590704
 30
0.0
 11
2004.27357
 21
518.590704
 31
0.0
  0
LINE
  5
5749
100
AcDbEntity
  8
0
100
AcDbLine
 10
2015.77357
 20
399.828683
 30
0.0
 11
2032.77357
 21
399.828683
 31
0.0
  0
LINE
  5
574A
100
AcDbEntity
  8
0
100
AcDbLine
 10
2015.77357
 20
392.043313
 30
0.0
 11
2032.77357
 21
392.043313
 31
0.0
  0
ELLIPSE
  5
574B
100
AcDbEntity
  8
0
100
AcDbEllipse
 10
2024.27357
 20
398.255242
 30
0.0
 11
-13.46000000000003
 21
0.0
 31
0.0
210
0.0
220
0.0
230
1.0
 40
0.707107
 41
3.141592653589793
 42
6.283185307179586
  0
CIRCLE
  5
574C
100
AcDbEntity
  8
0
100
AcDbCircle
 10
2024.27357
 20
491.590704
 30
0.0
 40
24.0
  0
LINE
  5
574D
100
AcDbEntity
  8
0
100
AcDbLine
 10
1970.77357
 20
579.590704
 30
0.0
 11
1970.77357
 21
599.590704
 31
0.0
  0
LINE
  5
574E
100
AcDbEntity
  8
0
100
AcDbLine
 10
1844.082391
 20
579.590704
 30
0.0
 11
1844.082391
 21
599.590704
 31
0.0
  0
LINE
  5
574F
100
AcDbEntity
  8
0
100
AcDbLine
 10
1854.326353
 20
491.590704
 30
0.0
 11
1854.326353
 21
515.607267
 31
0.0
  0
LINE
  5
5750
100
AcDbEntity
  8
0
100
AcDbLine
 10
1803.291156
 20
502.598296
 30
0.0
 11
1803.291156
 21
470.786357
 31
0.0
  0
LINE
  5
5751
100
AcDbEntity
  8
0
100
AcDbLine
 10
1800.026353
 20
498.607267
 30
0.0
 11
1800.026353
 21
469.607267
 31
0.0
  0
LINE
  5
5752
100
AcDbEntity
  8
0
100
AcDbLine
 10
1782.877077
 20
446.349504
 30
0.0
 11
1782.877077
 21
427.646605
 31
0.0
  0
LINE
  5
5753
100
AcDbEntity
  8
0
100
AcDbLine
 10
1802.990949
 20
468.364686
 30
0.0
 11
1791.462999
 21
415.558268
 31
0.0
  0
ARC
  5
5754
100
AcDbEntity
  8
0
100
AcDbCircle
 10
1792.771509
 20
470.861002
 30
0.0
 40
10.519912
100
AcDbArc
 50
346.273094
 51
359.593446
  0
LINE
  5
5755
100
AcDbEntity
  8
0
100
AcDbLine
 10
1837.545041
 20
411.86142
 30
0.0
 11
1840.558867
 21
467.574141
 31
0.0
  0
LINE
  5
5756
100
AcDbEntity
  8
0
100
AcDbLine
 10
1838.185221
 20
403.339842
 30
0.0
 11
1833.461963
 21
407.772899
 31
0.0
  0
LINE
  5
5757
100
AcDbEntity
  8
0
100
AcDbLine
 10
1854.326353
 20
467.574141
 30
0.0
 11
1854.326353
 21
491.590704
 31
0.0
  0
LINE
  5
5758
100
AcDbEntity
  8
0
100
AcDbLine
 10
1840.558867
 20
467.574141
 30
0.0
 11
1854.326353
 21
467.574141
 31
0.0
  0
LINE
  5
5759
100
AcDbEntity
  8
0
100
AcDbLine
 10
1839.686256
 20
469.045156
 30
0.0
 11
1828.538568
 21
480.583113
 31
0.0
  0
ARC
  5
575A
100
AcDbEntity
  8
0
100
AcDbCircle
 10
1825.202769
 20
566.784663
 30
0.0
 40
3.541047
100
AcDbArc
 50
237.999406
 51
302.000594
  0
LINE
  5
575B
100
AcDbEntity
  8
0
100
AcDbLine
 10
1827.079269
 20
569.590704
 30
0.0
 11
1812.068269
 21
569.590704
 31
0.0
  0
LINE
  5
575C
100
AcDbEntity
  8
0
100
AcDbLine
 10
1813.265269
 20
563.090704
 30
0.0
 11
1825.883269
 21
563.090704
 31
0.0
  0
LINE
  5
575D
100
AcDbEntity
  8
0
100
AcDbLine
 10
1854.326353
 20
515.607267
 30
0.0
 11
1811.596884
 21
515.607267
 31
0.0
  0
LINE
  5
575E
100
AcDbEntity
  8
0
100
AcDbLine
 10
1810.582391
 20
571.590704
 30
0.0
 11
1810.582391
 21
538.590704
 31
0.0
  0
LINE
  5
575F
100
AcDbEntity
  8
0
100
AcDbLine
 10
1770.582391
 20
571.590704
 30
0.0
 11
1770.582391
 21
538.590704
 31
0.0
  0
LINE
  5
5760
100
AcDbEntity
  8
0
100
AcDbLine
 10
1792.582391
 20
522.340704
 30
0.0
 11
1788.582391
 21
522.340704
 31
0.0
  0
LINE
  5
5761
100
AcDbEntity
  8
0
100
AcDbLine
 10
1792.582391
 20
529.340704
 30
0.0
 11
1788.582391
 21
529.340704
 31
0.0
  0
LINE
  5
5762
100
AcDbEntity
  8
0
100
AcDbLine
 10
1809.595504
 20
518.590704
 30
0.0
 11
1771.569279
 21
518.590704
 31
0.0
  0
LINE
  5
5763
100
AcDbEntity
  8
0
100
AcDbLine
 10
1771.582391
 20
518.590704
 30
0.0
 11
1809.582391
 21
518.590704
 31
0.0
  0
LINE
  5
5764
100
AcDbEntity
  8
0
100
AcDbLine
 10
1809.582391
 20
518.590704
 30
0.0
 11
1771.582391
 21
518.590704
 31
0.0
  0
LINE
  5
5765
100
AcDbEntity
  8
0
100
AcDbLine
 10
1770.582391
 20
538.590704
 30
0.0
 11
1810.582391
 21
538.590704
 31
0.0
  0
LINE
  5
5766
100
AcDbEntity
  8
0
100
AcDbLine
 10
1788.582391
 20
518.590704
 30
0.0
 11
1788.582391
 21
533.090704
 31
0.0
  0
LINE
  5
5767
100
AcDbEntity
  8
0
100
AcDbLine
 10
1786.0346
 20
533.090704
 30
0.0
 11
1786.0346
 21
518.590704
 31
0.0
  0
LINE
  5
5768
100
AcDbEntity
  8
0
100
AcDbLine
 10
1771.582391
 20
538.590704
 30
0.0
 11
1771.582391
 21
518.590704
 31
0.0
  0
LINE
  5
5769
100
AcDbEntity
  8
0
100
AcDbLine
 10
1771.569279
 20
508.602437
 30
0.0
 11
1781.786325
 21
499.456129
 31
0.0
  0
ARC
  5
576A
100
AcDbEntity
  8
0
100
AcDbCircle
 10
1768.579737
 20
511.591978
 30
0.0
 40
2.989568
100
AcDbArc
 50
269.759885
 51
0.240115
  0
LINE
  5
576B
100
AcDbEntity
  8
0
100
AcDbLine
 10
1771.569279
 20
518.590704
 30
0.0
 11
1771.569279
 21
511.604507
 31
0.0
  0
LINE
  5
576C
100
AcDbEntity
  8
0
100
AcDbLine
 10
1771.582391
 20
533.090704
 30
0.0
 11
1788.582391
 21
533.090704
 31
0.0
  0
LINE
  5
576D
100
AcDbEntity
  8
0
100
AcDbLine
 10
1778.582391
 20
538.590704
 30
0.0
 11
1778.582391
 21
533.090704
 31
0.0
  0
LINE
  5
576E
100
AcDbEntity
  8
0
100
AcDbLine
 10
1795.130183
 20
533.090704
 30
0.0
 11
1795.130183
 21
518.590704
 31
0.0
  0
LINE
  5
576F
100
AcDbEntity
  8
0
100
AcDbLine
 10
1809.582391
 20
538.590704
 30
0.0
 11
1809.582391
 21
518.590704
 31
0.0
  0
LINE
  5
5770
100
AcDbEntity
  8
0
100
AcDbLine
 10
1792.582391
 20
518.590704
 30
0.0
 11
1792.582391
 21
533.090704
 31
0.0
  0
ARC
  5
5771
100
AcDbEntity
  8
0
100
AcDbCircle
 10
1816.417228
 20
502.481196
 30
0.0
 40
13.126594
100
AcDbArc
 50
90.511133
 51
179.488867
  0
ARC
  5
5772
100
AcDbEntity
  8
0
100
AcDbCircle
 10
1811.577347
 20
517.58911
 30
0.0
 40
1.981939
100
AcDbArc
 50
179.435189
 51
270.564811
  0
LINE
  5
5773
100
AcDbEntity
  8
0
100
AcDbLine
 10
1809.595504
 20
517.608648
 30
0.0
 11
1809.595504
 21
518.590704
 31
0.0
  0
LINE
  5
5774
100
AcDbEntity
  8
0
100
AcDbLine
 10
1792.582391
 20
533.090704
 30
0.0
 11
1809.582391
 21
533.090704
 31
0.0
  0
LINE
  5
5775
100
AcDbEntity
  8
0
100
AcDbLine
 10
1802.582391
 20
538.590704
 30
0.0
 11
1802.582391
 21
533.090704
 31
0.0
  0
LINE
  5
5776
100
AcDbEntity
  8
0
100
AcDbLine
 10
1802.582391
 20
566.090704
 30
0.0
 11
1778.582391
 21
566.090704
 31
0.0
  0
LINE
  5
5777
100
AcDbEntity
  8
0
100
AcDbLine
 10
1802.582391
 20
568.590704
 30
0.0
 11
1778.582391
 21
568.590704
 31
0.0
  0
LINE
  5
5778
100
AcDbEntity
  8
0
100
AcDbLine
 10
1802.582391
 20
571.090704
 30
0.0
 11
1778.582391
 21
571.090704
 31
0.0
  0
LINE
  5
5779
100
AcDbEntity
  8
0
100
AcDbLine
 10
1802.582391
 20
563.590704
 30
0.0
 11
1778.582391
 21
563.590704
 31
0.0
  0
LINE
  5
577A
100
AcDbEntity
  8
0
100
AcDbLine
 10
1802.582391
 20
558.590704
 30
0.0
 11
1778.582391
 21
558.590704
 31
0.0
  0
LINE
  5
577B
100
AcDbEntity
  8
0
100
AcDbLine
 10
1802.582391
 20
561.090704
 30
0.0
 11
1778.582391
 21
561.090704
 31
0.0
  0
LINE
  5
577C
100
AcDbEntity
  8
0
100
AcDbLine
 10
1802.582391
 20
556.090704
 30
0.0
 11
1778.582391
 21
556.090704
 31
0.0
  0
LINE
  5
577D
100
AcDbEntity
  8
0
100
AcDbLine
 10
1802.582391
 20
551.090704
 30
0.0
 11
1778.582391
 21
551.090704
 31
0.0
  0
LINE
  5
577E
100
AcDbEntity
  8
0
100
AcDbLine
 10
1802.582391
 20
553.590704
 30
0.0
 11
1778.582391
 21
553.590704
 31
0.0
  0
LINE
  5
577F
100
AcDbEntity
  8
0
100
AcDbLine
 10
1802.582391
 20
548.590704
 30
0.0
 11
1778.582391
 21
548.590704
 31
0.0
  0
LINE
  5
5780
100
AcDbEntity
  8
0
100
AcDbLine
 10
1770.582391
 20
545.590704
 30
0.0
 11
1810.582391
 21
545.590704
 31
0.0
  0
LINE
  5
5781
100
AcDbEntity
  8
0
100
AcDbLine
 10
1781.582391
 20
571.090704
 30
0.0
 11
1781.582391
 21
568.590704
 31
0.0
  0
LINE
  5
5782
100
AcDbEntity
  8
0
100
AcDbLine
 10
1769.096513
 20
563.781704
 30
0.0
 11
1769.096513
 21
571.590704
 31
0.0
  0
LINE
  5
5783
100
AcDbEntity
  8
0
100
AcDbLine
 10
1767.900513
 20
563.090704
 30
0.0
 11
1769.096513
 21
563.781704
 31
0.0
  0
LINE
  5
5784
100
AcDbEntity
  8
0
100
AcDbLine
 10
1765.343513
 20
563.781704
 30
0.0
 11
1765.343513
 21
569.590704
 31
0.0
  0
LINE
  5
5785
100
AcDbEntity
  8
0
100
AcDbLine
 10
1757.839513
 20
563.781704
 30
0.0
 11
1757.839513
 21
569.590704
 31
0.0
  0
ARC
  5
5786
100
AcDbEntity
  8
0
100
AcDbCircle
 10
1761.591513
 20
576.596184
 30
0.0
 40
13.352467
100
AcDbArc
 50
253.680297
 51
286.319703
  0
ARC
  5
5787
100
AcDbEntity
  8
0
100
AcDbCircle
 10
1767.220013
 20
566.784663
 30
0.0
 40
3.541047
100
AcDbArc
 50
237.999406
 51
302.000594
  0
LINE
  5
5788
100
AcDbEntity
  8
0
100
AcDbLine
 10
1781.582391
 20
561.090704
 30
0.0
 11
1781.582391
 21
558.590704
 31
0.0
  0
LINE
  5
5789
100
AcDbEntity
  8
0
100
AcDbLine
 10
1781.582391
 20
566.090704
 30
0.0
 11
1781.582391
 21
563.590704
 31
0.0
  0
LINE
  5
578A
100
AcDbEntity
  8
0
100
AcDbLine
 10
1778.582391
 20
568.590704
 30
0.0
 11
1778.582391
 21
566.090704
 31
0.0
  0
LINE
  5
578B
100
AcDbEntity
  8
0
100
AcDbLine
 10
1778.582391
 20
563.590704
 30
0.0
 11
1778.582391
 21
561.090704
 31
0.0
  0
LINE
  5
578C
100
AcDbEntity
  8
0
100
AcDbLine
 10
1781.582391
 20
551.090704
 30
0.0
 11
1781.582391
 21
548.590704
 31
0.0
  0
LINE
  5
578D
100
AcDbEntity
  8
0
100
AcDbLine
 10
1781.582391
 20
556.090704
 30
0.0
 11
1781.582391
 21
553.590704
 31
0.0
  0
LINE
  5
578E
100
AcDbEntity
  8
0
100
AcDbLine
 10
1778.582391
 20
553.590704
 30
0.0
 11
1778.582391
 21
551.090704
 31
0.0
  0
LINE
  5
578F
100
AcDbEntity
  8
0
100
AcDbLine
 10
1778.582391
 20
548.590704
 30
0.0
 11
1778.582391
 21
545.590704
 31
0.0
  0
LINE
  5
5790
100
AcDbEntity
  8
0
100
AcDbLine
 10
1778.582391
 20
558.590704
 30
0.0
 11
1778.582391
 21
556.090704
 31
0.0
  0
LINE
  5
5791
100
AcDbEntity
  8
0
100
AcDbLine
 10
1778.582391
 20
571.590704
 30
0.0
 11
1778.582391
 21
571.090704
 31
0.0
  0
LINE
  5
5792
100
AcDbEntity
  8
0
100
AcDbLine
 10
1812.068269
 20
571.590704
 30
0.0
 11
1812.068269
 21
563.781704
 31
0.0
  0
LINE
  5
5793
100
AcDbEntity
  8
0
100
AcDbLine
 10
1799.582391
 20
571.090704
 30
0.0
 11
1799.582391
 21
568.590704
 31
0.0
  0
LINE
  5
5794
100
AcDbEntity
  8
0
100
AcDbLine
 10
1799.582391
 20
561.090704
 30
0.0
 11
1799.582391
 21
558.590704
 31
0.0
  0
LINE
  5
5795
100
AcDbEntity
  8
0
100
AcDbLine
 10
1802.582391
 20
568.590704
 30
0.0
 11
1802.582391
 21
566.090704
 31
0.0
  0
LINE
  5
5796
100
AcDbEntity
  8
0
100
AcDbLine
 10
1802.582391
 20
563.590704
 30
0.0
 11
1802.582391
 21
561.090704
 31
0.0
  0
LINE
  5
5797
100
AcDbEntity
  8
0
100
AcDbLine
 10
1799.582391
 20
566.090704
 30
0.0
 11
1799.582391
 21
563.590704
 31
0.0
  0
LINE
  5
5798
100
AcDbEntity
  8
0
100
AcDbLine
 10
1802.582391
 20
553.590704
 30
0.0
 11
1802.582391
 21
551.090704
 31
0.0
  0
LINE
  5
5799
100
AcDbEntity
  8
0
100
AcDbLine
 10
1802.582391
 20
548.590704
 30
0.0
 11
1802.582391
 21
545.590704
 31
0.0
  0
LINE
  5
579A
100
AcDbEntity
  8
0
100
AcDbLine
 10
1799.582391
 20
551.090704
 30
0.0
 11
1799.582391
 21
548.590704
 31
0.0
  0
LINE
  5
579B
100
AcDbEntity
  8
0
100
AcDbLine
 10
1799.582391
 20
556.090704
 30
0.0
 11
1799.582391
 21
553.590704
 31
0.0
  0
LINE
  5
579C
100
AcDbEntity
  8
0
100
AcDbLine
 10
1802.582391
 20
558.590704
 30
0.0
 11
1802.582391
 21
556.090704
 31
0.0
  0
LINE
  5
579D
100
AcDbEntity
  8
0
100
AcDbLine
 10
1823.326269
 20
563.781704
 30
0.0
 11
1823.326269
 21
569.590704
 31
0.0
  0
ARC
  5
579E
100
AcDbEntity
  8
0
100
AcDbCircle
 10
1813.945769
 20
566.784663
 30
0.0
 40
3.541047
100
AcDbArc
 50
237.999406
 51
302.000594
  0
LINE
  5
579F
100
AcDbEntity
  8
0
100
AcDbLine
 10
1812.068269
 20
563.781704
 30
0.0
 11
1813.265269
 21
563.090704
 31
0.0
  0
LINE
  5
57A0
100
AcDbEntity
  8
0
100
AcDbLine
 10
1815.822269
 20
563.781704
 30
0.0
 11
1815.822269
 21
569.590704
 31
0.0
  0
ARC
  5
57A1
100
AcDbEntity
  8
0
100
AcDbCircle
 10
1819.574269
 20
576.596184
 30
0.0
 40
13.352467
100
AcDbArc
 50
253.680297
 51
286.319703
  0
LINE
  5
57A2
100
AcDbEntity
  8
0
100
AcDbLine
 10
1802.582391
 20
571.590704
 30
0.0
 11
1802.582391
 21
571.090704
 31
0.0
  0
LINE
  5
57A3
100
AcDbEntity
  8
0
100
AcDbLine
 10
1827.079269
 20
563.781704
 30
0.0
 11
1827.079269
 21
571.590704
 31
0.0
  0
LINE
  5
57A4
100
AcDbEntity
  8
0
100
AcDbLine
 10
1825.883269
 20
563.090704
 30
0.0
 11
1827.079269
 21
563.781704
 31
0.0
  0
LINE
  5
57A5
100
AcDbEntity
  8
0
100
AcDbLine
 10
1844.082391
 20
571.590704
 30
0.0
 11
1844.082391
 21
579.590704
 31
0.0
  0
ARC
  5
57A6
100
AcDbEntity
  8
0
100
AcDbCircle
 10
2000.27357
 20
491.590704
 30
0.0
 40
2.0
100
AcDbArc
 50
87.611985
 51
272.388015
  0
LINE
  5
57A7
100
AcDbEntity
  8
0
100
AcDbLine
 10
1986.27357
 20
447.27424
 30
0.0
 11
1986.27357
 21
423.364177
 31
0.0
  0
LINE
  5
57A8
100
AcDbEntity
  8
0
100
AcDbLine
 10
1991.27357
 20
446.29381
 30
0.0
 11
1991.27357
 21
434.861326
 31
0.0
  0
LINE
  5
57A9
100
AcDbEntity
  8
0
100
AcDbLine
 10
2000.208747
 20
489.591755
 30
0.0
 11
1997.48227
 21
405.514616
 31
0.0
  0
ARC
  5
57AA
100
AcDbEntity
  8
0
100
AcDbCircle
 10
1981.27357
 20
412.583458
 30
0.0
 40
3.0
100
AcDbArc
 50
270.0
 51
0.0
  0
LINE
  5
57AB
100
AcDbEntity
  8
0
100
AcDbLine
 10
1984.27357
 20
413.129755
 30
0.0
 11
1984.27357
 21
412.583458
 31
0.0
  0
ARC
  5
57AC
100
AcDbEntity
  8
0
100
AcDbCircle
 10
1981.27357
 20
407.583458
 30
0.0
 40
2.0
100
AcDbArc
 50
90.0
 51
180.0
  0
LINE
  5
57AD
100
AcDbEntity
  8
0
100
AcDbLine
 10
1981.27357
 20
409.583458
 30
0.0
 11
1981.27357
 21
409.583458
 31
0.0
  0
ARC
  5
57AE
100
AcDbEntity
  8
0
100
AcDbCircle
 10
1981.27357
 20
434.861326
 30
0.0
 40
10.0
100
AcDbArc
 50
324.360613
 51
0.0
  0
LINE
  5
57AF
100
AcDbEntity
  8
0
100
AcDbLine
 10
2010.81357
 20
393.818275
 30
0.0
 11
2010.81357
 21
398.255242
 31
0.0
  0
ARC
  5
57B0
100
AcDbEntity
  8
0
100
AcDbCircle
 10
2024.27357
 20
446.29381
 30
0.0
 40
33.0
100
AcDbArc
 50
138.620566
 51
180.0
  0
ELLIPSE
  5
57B1
100
AcDbEntity
  8
0
100
AcDbEllipse
 10
2001.27357
 20
445.276153
 30
0.0
 11
-15.00000000000005
 21
0.0000000000000284
 31
0.0
210
0.0
220
0.0
230
-1.0
 40
0.984798
 41
6.283185307179586
 42
7.297616549881664
  0
ELLIPSE
  5
57B2
100
AcDbEntity
  8
0
100
AcDbEllipse
 10
2001.27357
 20
447.27424
 30
0.0
 11
-15.00000000000005
 21
0.0000000000000284
 31
0.0
210
0.0
220
0.0
230
-1.0
 40
0.984798
 41
6.283185307179586
 42
7.382139219865484
  0
ELLIPSE
  5
57B3
100
AcDbEntity
  8
0
100
AcDbEllipse
 10
2001.27357
 20
443.527048
 30
0.0
 11
-15.00000000000005
 21
0.0000000000000284
 31
0.0
210
0.0
220
0.0
230
-1.0
 40
0.984798
 41
6.283185307179586
 42
7.238111907842699
  0
LINE
  5
57B4
100
AcDbEntity
  8
0
100
AcDbLine
 10
2004.27357
 20
538.590704
 30
0.0
 11
2004.27357
 21
545.590704
 31
0.0
  0
LINE
  5
57B5
100
AcDbEntity
  8
0
100
AcDbLine
 10
2004.27357
 20
518.590704
 30
0.0
 11
2004.27357
 21
519.3825
 31
0.0
  0
LINE
  5
57B6
100
AcDbEntity
  8
0
100
AcDbLine
 10
2005.260457
 20
518.590704
 30
0.0
 11
2005.260457
 21
506.236576
 31
0.0
  0
LINE
  5
57B7
100
AcDbEntity
  8
0
100
AcDbLine
 10
2006.27357
 20
533.090704
 30
0.0
 11
2014.52357
 21
533.090704
 31
0.0
  0
LINE
  5
57B8
100
AcDbEntity
  8
0
100
AcDbLine
 10
2004.27357
 20
538.590704
 30
0.0
 11
2014.52357
 21
538.590704
 31
0.0
  0
CIRCLE
  5
57B9
100
AcDbEntity
  8
0
100
AcDbCircle
 10
2006.27357
 20
526.090704
 30
0.0
 40
3.5
  0
ARC
  5
57BA
100
AcDbEntity
  8
0
100
AcDbCircle
 10
2006.27357
 20
526.090704
 30
0.0
 40
7.0
100
AcDbArc
 50
90.0
 51
253.39845
  0
ARC
  5
57BB
100
AcDbEntity
  8
0
100
AcDbCircle
 10
2014.52357
 20
535.840704
 30
0.0
 40
2.75
100
AcDbArc
 50
270.0
 51
90.0
  0
LINE
  5
57BC
100
AcDbEntity
  8
0
100
AcDbLine
 10
2012.27357
 20
538.590704
 30
0.0
 11
2012.27357
 21
533.090704
 31
0.0
  0
LINE
  5
57BD
100
AcDbEntity
  8
0
100
AcDbLine
 10
2002.787692
 20
569.590704
 30
0.0
 11
1987.776692
 21
569.590704
 31
0.0
  0
ARC
  5
57BE
100
AcDbEntity
  8
0
100
AcDbCircle
 10
1995.282692
 20
576.596184
 30
0.0
 40
13.352467
100
AcDbArc
 50
253.680297
 51
286.319703
  0
LINE
  5
57BF
100
AcDbEntity
  8
0
100
AcDbLine
 10
1988.973692
 20
563.090704
 30
0.0
 11
2001.591692
 21
563.090704
 31
0.0
  0
LINE
  5
57C0
100
AcDbEntity
  8
0
100
AcDbLine
 10
1987.776692
 20
571.590704
 30
0.0
 11
1987.776692
 21
563.781704
 31
0.0
  0
LINE
  5
57C1
100
AcDbEntity
  8
0
100
AcDbLine
 10
1987.776692
 20
563.781704
 30
0.0
 11
1988.973692
 21
563.090704
 31
0.0
  0
ARC
  5
57C2
100
AcDbEntity
  8
0
100
AcDbCircle
 10
1989.654192
 20
566.784663
 30
0.0
 40
3.541047
100
AcDbArc
 50
237.999406
 51
302.000594
  0
LINE
  5
57C3
100
AcDbEntity
  8
0
100
AcDbLine
 10
1991.530692
 20
563.781704
 30
0.0
 11
1991.530692
 21
569.590704
 31
0.0
  0
LINE
  5
57C4
100
AcDbEntity
  8
0
100
AcDbLine
 10
1970.77357
 20
571.590704
 30
0.0
 11
1970.77357
 21
579.590704
 31
0.0
  0
LINE
  5
57C5
100
AcDbEntity
  8
0
100
AcDbLine
 10
2015.27357
 20
571.090704
 30
0.0
 11
2015.27357
 21
568.590704
 31
0.0
  0
LINE
  5
57C6
100
AcDbEntity
  8
0
100
AcDbLine
 10
2002.787692
 20
563.781704
 30
0.0
 11
2002.787692
 21
571.590704
 31
0.0
  0
LINE
  5
57C7
100
AcDbEntity
  8
0
100
AcDbLine
 10
2001.591692
 20
563.090704
 30
0.0
 11
2002.787692
 21
563.781704
 31
0.0
  0
ARC
  5
57C8
100
AcDbEntity
  8
0
100
AcDbCircle
 10
2000.911192
 20
566.784663
 30
0.0
 40
3.541047
100
AcDbArc
 50
237.999406
 51
302.000594
  0
LINE
  5
57C9
100
AcDbEntity
  8
0
100
AcDbLine
 10
1999.034692
 20
563.781704
 30
0.0
 11
1999.034692
 21
569.590704
 31
0.0
  0
LINE
  5
57CA
100
AcDbEntity
  8
0
100
AcDbLine
 10
2015.27357
 20
561.090704
 30
0.0
 11
2015.27357
 21
558.590704
 31
0.0
  0
LINE
  5
57CB
100
AcDbEntity
  8
0
100
AcDbLine
 10
2015.27357
 20
556.090704
 30
0.0
 11
2015.27357
 21
553.590704
 31
0.0
  0
LINE
  5
57CC
100
AcDbEntity
  8
0
100
AcDbLine
 10
2015.27357
 20
566.090704
 30
0.0
 11
2015.27357
 21
563.590704
 31
0.0
  0
LINE
  5
57CD
100
AcDbEntity
  8
0
100
AcDbLine
 10
2014.77357
 20
566.090704
 30
0.0
 11
2014.77357
 21
568.590704
 31
0.0
  0
LINE
  5
57CE
100
AcDbEntity
  8
0
100
AcDbLine
 10
2014.77357
 20
561.090704
 30
0.0
 11
2014.77357
 21
563.590704
 31
0.0
  0
LINE
  5
57CF
100
AcDbEntity
  8
0
100
AcDbLine
 10
2014.77357
 20
561.090704
 30
0.0
 11
2014.77357
 21
563.590704
 31
0.0
  0
LINE
  5
57D0
100
AcDbEntity
  8
0
100
AcDbLine
 10
2014.77357
 20
556.090704
 30
0.0
 11
2014.77357
 21
558.590704
 31
0.0
  0
LINE
  5
57D1
100
AcDbEntity
  8
0
100
AcDbLine
 10
2014.77357
 20
551.090704
 30
0.0
 11
2014.77357
 21
553.590704
 31
0.0
  0
LINE
  5
57D2
100
AcDbEntity
  8
0
100
AcDbLine
 10
2014.77357
 20
545.590704
 30
0.0
 11
2014.77357
 21
548.590704
 31
0.0
  0
LINE
  5
57D3
100
AcDbEntity
  8
0
100
AcDbLine
 10
2015.27357
 20
551.090704
 30
0.0
 11
2015.27357
 21
548.590704
 31
0.0
  0
LINE
  5
57D4
100
AcDbEntity
  8
0
100
AcDbLine
 10
2014.77357
 20
571.090704
 30
0.0
 11
2014.77357
 21
571.590704
 31
0.0
  0
LINE
  5
57D5
100
AcDbEntity
  8
0
100
AcDbLine
 10
1844.082391
 20
629.590704
 30
0.0
 11
1830.993202
 21
726.179894
 31
0.0
  0
LINE
  5
57D6
100
AcDbEntity
  8
0
100
AcDbLine
 10
1844.082391
 20
599.590704
 30
0.0
 11
1844.082391
 21
629.590704
 31
0.0
  0
LINE
  5
57D7
100
AcDbEntity
  8
0
100
AcDbLine
 10
1820.582391
 20
736.590704
 30
0.0
 11
1830.993202
 21
726.179894
 31
0.0
  0
LINE
  5
57D8
100
AcDbEntity
  8
0
100
AcDbLine
 10
1760.582391
 20
736.590704
 30
0.0
 11
1820.582391
 21
736.590704
 31
0.0
  0
LINE
  5
57D9
100
AcDbEntity
  8
0
100
AcDbLine
 10
1970.77357
 20
629.590704
 30
0.0
 11
1983.862759
 21
726.179894
 31
0.0
  0
LINE
  5
57DA
100
AcDbEntity
  8
0
100
AcDbLine
 10
1970.77357
 20
599.590704
 30
0.0
 11
1970.77357
 21
629.590704
 31
0.0
  0
LINE
  5
57DB
100
AcDbEntity
  8
0
100
AcDbLine
 10
1994.27357
 20
736.590704
 30
0.0
 11
1983.862759
 21
726.179894
 31
0.0
  0
LINE
  5
57DC
100
AcDbEntity
  8
0
100
AcDbLine
 10
2077.77357
 20
579.590704
 30
0.0
 11
2077.77357
 21
599.590704
 31
0.0
  0
ARC
  5
57DD
100
AcDbEntity
  8
0
100
AcDbCircle
 10
2048.27357
 20
491.590704
 30
0.0
 40
2.0
100
AcDbArc
 50
267.611985
 51
92.388015
  0
LINE
  5
57DE
100
AcDbEntity
  8
0
100
AcDbLine
 10
2062.27357
 20
447.27424
 30
0.0
 11
2062.27357
 21
427.506029
 31
0.0
  0
LINE
  5
57DF
100
AcDbEntity
  8
0
100
AcDbLine
 10
2057.27357
 20
446.29381
 30
0.0
 11
2057.27357
 21
438.686369
 31
0.0
  0
LINE
  5
57E0
100
AcDbEntity
  8
0
100
AcDbLine
 10
2048.338392
 20
489.591755
 30
0.0
 11
2051.037382
 21
406.362254
 31
0.0
  0
ARC
  5
57E1
100
AcDbEntity
  8
0
100
AcDbCircle
 10
2072.27357
 20
438.686369
 30
0.0
 40
15.0
100
AcDbArc
 50
180.0
 51
233.130102
  0
LINE
  5
57E2
100
AcDbEntity
  8
0
100
AcDbLine
 10
2037.73357
 20
393.818275
 30
0.0
 11
2037.73357
 21
398.255242
 31
0.0
  0
ARC
  5
57E3
100
AcDbEntity
  8
0
100
AcDbCircle
 10
2054.27357
 20
414.686369
 30
0.0
 40
15.0
100
AcDbArc
 50
0.0
 51
53.130102
  0
ARC
  5
57E4
100
AcDbEntity
  8
0
100
AcDbCircle
 10
2071.27357
 20
411.456441
 30
0.0
 40
2.0
100
AcDbArc
 50
180.0
 51
255.522488
  0
LINE
  5
57E5
100
AcDbEntity
  8
0
100
AcDbLine
 10
2069.27357
 20
411.083458
 30
0.0
 11
2069.28957
 21
410.865458
 31
0.0
  0
LINE
  5
57E6
100
AcDbEntity
  8
0
100
AcDbLine
 10
2069.27357
 20
414.686369
 30
0.0
 11
2069.27357
 21
409.155764
 31
0.0
  0
LINE
  5
57E7
100
AcDbEntity
  8
0
100
AcDbLine
 10
2069.27357
 20
413.50717
 30
0.0
 11
2069.27357
 21
412.166034
 31
0.0
  0
ARC
  5
57E8
100
AcDbEntity
  8
0
100
AcDbCircle
 10
2070.27357
 20
407.583458
 30
0.0
 40
2.0
100
AcDbArc
 50
0.0
 51
75.522488
  0
ELLIPSE
  5
57E9
100
AcDbEntity
  8
0
100
AcDbEllipse
 10
2047.27357
 20
443.527048
 30
0.0
 11
15.00000000000005
 21
0.0000000000000284
 31
0.0
210
0.0
220
0.0
230
1.0
 40
0.984798
 41
6.283185307179586
 42
7.238111907842669
  0
ELLIPSE
  5
57EA
100
AcDbEntity
  8
0
100
AcDbEllipse
 10
2047.27357
 20
445.276153
 30
0.0
 11
15.00000000000005
 21
0.0000000000000284
 31
0.0
210
0.0
220
0.0
230
1.0
 40
0.984798
 41
6.283185307179586
 42
7.297616549881648
  0
ELLIPSE
  5
57EB
100
AcDbEntity
  8
0
100
AcDbEllipse
 10
2047.27357
 20
447.27424
 30
0.0
 11
15.00000000000005
 21
0.0000000000000284
 31
0.0
210
0.0
220
0.0
230
1.0
 40
0.984798
 41
6.283185307179586
 42
7.382139219865466
  0
ARC
  5
57EC
100
AcDbEntity
  8
0
100
AcDbCircle
 10
2024.27357
 20
446.29381
 30
0.0
 40
33.0
100
AcDbArc
 50
0.0
 51
41.379434
  0
ARC
  5
57ED
100
AcDbEntity
  8
0
100
AcDbCircle
 10
2062.77357
 20
553.590704
 30
0.0
 40
15.0
100
AcDbArc
 50
270.0
 51
0.0
  0
LINE
  5
57EE
100
AcDbEntity
  8
0
100
AcDbLine
 10
2054.642551
 20
538.590704
 30
0.0
 11
2062.77357
 21
538.590704
 31
0.0
  0
LINE
  5
57EF
100
AcDbEntity
  8
0
100
AcDbLine
 10
2044.27357
 20
518.590704
 30
0.0
 11
2044.27357
 21
523.590704
 31
0.0
  0
LINE
  5
57F0
100
AcDbEntity
  8
0
100
AcDbLine
 10
2043.286682
 20
517.608648
 30
0.0
 11
2043.286682
 21
518.590704
 31
0.0
  0
LINE
  5
57F1
100
AcDbEntity
  8
0
100
AcDbLine
 10
2043.286682
 20
517.608648
 30
0.0
 11
2043.286682
 21
518.590704
 31
0.0
  0
LINE
  5
57F2
100
AcDbEntity
  8
0
100
AcDbLine
 10
2043.286682
 20
506.236576
 30
0.0
 11
2043.286682
 21
518.590704
 31
0.0
  0
ARC
  5
57F3
100
AcDbEntity
  8
0
100
AcDbCircle
 10
2054.642551
 20
533.590704
 30
0.0
 40
5.0
100
AcDbArc
 50
90.0
 51
154.271754
  0
LINE
  5
57F4
100
AcDbEntity
  8
0
100
AcDbLine
 10
2050.138235
 20
535.761221
 30
0.0
 11
2044.27357
 21
523.590704
 31
0.0
  0
LINE
  5
57F5
100
AcDbEntity
  8
0
100
AcDbLine
 10
2060.770448
 20
569.590704
 30
0.0
 11
2045.759448
 21
569.590704
 31
0.0
  0
LINE
  5
57F6
100
AcDbEntity
  8
0
100
AcDbLine
 10
2059.574448
 20
563.090704
 30
0.0
 11
2060.770448
 21
563.781704
 31
0.0
  0
ARC
  5
57F7
100
AcDbEntity
  8
0
100
AcDbCircle
 10
2058.893948
 20
566.784663
 30
0.0
 40
3.541047
100
AcDbArc
 50
237.999406
 51
302.000594
  0
LINE
  5
57F8
100
AcDbEntity
  8
0
100
AcDbLine
 10
2045.759448
 20
571.590704
 30
0.0
 11
2045.759448
 21
563.781704
 31
0.0
  0
LINE
  5
57F9
100
AcDbEntity
  8
0
100
AcDbLine
 10
2033.27357
 20
571.090704
 30
0.0
 11
2033.27357
 21
568.590704
 31
0.0
  0
LINE
  5
57FA
100
AcDbEntity
  8
0
100
AcDbLine
 10
2033.27357
 20
561.090704
 30
0.0
 11
2033.27357
 21
558.590704
 31
0.0
  0
LINE
  5
57FB
100
AcDbEntity
  8
0
100
AcDbLine
 10
2033.27357
 20
556.090704
 30
0.0
 11
2033.27357
 21
553.590704
 31
0.0
  0
LINE
  5
57FC
100
AcDbEntity
  8
0
100
AcDbLine
 10
2033.27357
 20
566.090704
 30
0.0
 11
2033.27357
 21
563.590704
 31
0.0
  0
LINE
  5
57FD
100
AcDbEntity
  8
0
100
AcDbLine
 10
2033.77357
 20
566.090704
 30
0.0
 11
2033.77357
 21
568.590704
 31
0.0
  0
LINE
  5
57FE
100
AcDbEntity
  8
0
100
AcDbLine
 10
2033.77357
 20
561.090704
 30
0.0
 11
2033.77357
 21
563.590704
 31
0.0
  0
LINE
  5
57FF
100
AcDbEntity
  8
0
100
AcDbLine
 10
2033.77357
 20
561.090704
 30
0.0
 11
2033.77357
 21
563.590704
 31
0.0
  0
LINE
  5
5800
100
AcDbEntity
  8
0
100
AcDbLine
 10
2033.77357
 20
556.090704
 30
0.0
 11
2033.77357
 21
558.590704
 31
0.0
  0
LINE
  5
5801
100
AcDbEntity
  8
0
100
AcDbLine
 10
2033.77357
 20
551.090704
 30
0.0
 11
2033.77357
 21
553.590704
 31
0.0
  0
LINE
  5
5802
100
AcDbEntity
  8
0
100
AcDbLine
 10
2033.77357
 20
545.590704
 30
0.0
 11
2033.77357
 21
548.590704
 31
0.0
  0
LINE
  5
5803
100
AcDbEntity
  8
0
100
AcDbLine
 10
2033.27357
 20
551.090704
 30
0.0
 11
2033.27357
 21
548.590704
 31
0.0
  0
ARC
  5
5804
100
AcDbEntity
  8
0
100
AcDbCircle
 10
2047.636948
 20
566.784663
 30
0.0
 40
3.541047
100
AcDbArc
 50
237.999406
 51
302.000594
  0
LINE
  5
5805
100
AcDbEntity
  8
0
100
AcDbLine
 10
2046.956448
 20
563.090704
 30
0.0
 11
2059.574448
 21
563.090704
 31
0.0
  0
LINE
  5
5806
100
AcDbEntity
  8
0
100
AcDbLine
 10
2045.759448
 20
563.781704
 30
0.0
 11
2046.956448
 21
563.090704
 31
0.0
  0
ARC
  5
5807
100
AcDbEntity
  8
0
100
AcDbCircle
 10
2053.265448
 20
576.596184
 30
0.0
 40
13.352467
100
AcDbArc
 50
253.680297
 51
286.319703
  0
LINE
  5
5808
100
AcDbEntity
  8
0
100
AcDbLine
 10
2049.513448
 20
563.781704
 30
0.0
 11
2049.513448
 21
569.590704
 31
0.0
  0
LINE
  5
5809
100
AcDbEntity
  8
0
100
AcDbLine
 10
2057.017448
 20
563.781704
 30
0.0
 11
2057.017448
 21
569.590704
 31
0.0
  0
LINE
  5
580A
100
AcDbEntity
  8
0
100
AcDbLine
 10
2052.77357
 20
550.590704
 30
0.0
 11
2052.77357
 21
563.090704
 31
0.0
  0
ARC
  5
580B
100
AcDbEntity
  8
0
100
AcDbCircle
 10
2047.77357
 20
550.590704
 30
0.0
 40
5.0
100
AcDbArc
 50
270.0
 51
0.0
  0
LINE
  5
580C
100
AcDbEntity
  8
0
100
AcDbLine
 10
2033.77357
 20
571.090704
 30
0.0
 11
2033.77357
 21
571.590704
 31
0.0
  0
LINE
  5
580D
100
AcDbEntity
  8
0
100
AcDbLine
 10
2060.770448
 20
563.781704
 30
0.0
 11
2060.770448
 21
571.590704
 31
0.0
  0
ARC
  5
580E
100
AcDbEntity
  8
0
100
AcDbCircle
 10
2062.77357
 20
566.590704
 30
0.0
 40
5.0
100
AcDbArc
 50
0.0
 51
90.0
  0
LINE
  5
580F
100
AcDbEntity
  8
0
100
AcDbLine
 10
2077.77357
 20
553.590704
 30
0.0
 11
2077.77357
 21
579.590704
 31
0.0
  0
LINE
  5
5810
100
AcDbEntity
  8
0
100
AcDbLine
 10
2067.77357
 20
550.590704
 30
0.0
 11
2067.77357
 21
566.590704
 31
0.0
  0
ARC
  5
5811
100
AcDbEntity
  8
0
100
AcDbCircle
 10
2062.77357
 20
550.590704
 30
0.0
 40
5.0
100
AcDbArc
 50
270.0
 51
0.0
  0
LINE
  5
5812
100
AcDbEntity
  8
0
100
AcDbLine
 10
2077.77357
 20
629.590704
 30
0.0
 11
2064.684381
 21
726.179894
 31
0.0
  0
LINE
  5
5813
100
AcDbEntity
  8
0
100
AcDbLine
 10
2077.77357
 20
599.590704
 30
0.0
 11
2077.77357
 21
629.590704
 31
0.0
  0
LINE
  5
5814
100
AcDbEntity
  8
0
100
AcDbLine
 10
2054.27357
 20
736.590704
 30
0.0
 11
2064.684381
 21
726.179894
 31
0.0
  0
CIRCLE
  5
5815
100
AcDbEntity
  8
0
100
AcDbCircle
 10
1790.582391
 20
881.350344
 30
0.0
 40
53.5
  0
CIRCLE
  5
5816
100
AcDbEntity
  8
0
100
AcDbCircle
 10
1790.582391
 20
881.350344
 30
0.0
 40
40.410811
  0
LINE
  5
5817
100
AcDbEntity
  8
0
100
AcDbLine
 10
1826.570314
 20
1343.194563
 30
0.0
 11
1719.570314
 21
1343.194563
 31
0.0
  0
LINE
  5
5818
100
AcDbEntity
  8
0
100
AcDbLine
 10
1826.570314
 20
1313.194563
 30
0.0
 11
1719.570314
 21
1313.194563
 31
0.0
  0
LINE
  5
5819
100
AcDbEntity
  8
0
100
AcDbLine
 10
1719.570314
 20
1293.194563
 30
0.0
 11
1826.570314
 21
1293.194563
 31
0.0
  0
LINE
  5
581A
100
AcDbEntity
  8
0
100
AcDbLine
 10
1803.070314
 20
1450.194563
 30
0.0
 11
1743.070314
 21
1450.194563
 31
0.0
  0
LINE
  5
581B
100
AcDbEntity
  8
0
100
AcDbLine
 10
1813.481125
 20
1439.783752
 30
0.0
 11
1732.659503
 21
1439.783752
 31
0.0
  0
LINE
  5
581C
100
AcDbEntity
  8
0
100
AcDbLine
 10
1793.070314
 20
1259.194563
 30
0.0
 11
1753.070314
 21
1259.194563
 31
0.0
  0
LINE
  5
581D
100
AcDbEntity
  8
0
100
AcDbLine
 10
1793.070314
 20
1252.194563
 30
0.0
 11
1753.070314
 21
1252.194563
 31
0.0
  0
LINE
  5
581E
100
AcDbEntity
  8
0
100
AcDbLine
 10
1771.070314
 20
1246.694563
 30
0.0
 11
1754.070314
 21
1246.694563
 31
0.0
  0
LINE
  5
581F
100
AcDbEntity
  8
0
100
AcDbLine
 10
1792.083426
 20
1232.194563
 30
0.0
 11
1754.057201
 21
1232.194563
 31
0.0
  0
LINE
  5
5820
100
AcDbEntity
  8
0
100
AcDbLine
 10
1792.070314
 20
1232.194563
 30
0.0
 11
1754.070314
 21
1232.194563
 31
0.0
  0
LINE
  5
5821
100
AcDbEntity
  8
0
100
AcDbLine
 10
1754.070314
 20
1232.194563
 30
0.0
 11
1792.070314
 21
1232.194563
 31
0.0
  0
LINE
  5
5822
100
AcDbEntity
  8
0
100
AcDbLine
 10
1769.437809
 20
1101.042734
 30
0.0
 11
1754.437464
 21
1098.721133
 31
0.0
  0
ARC
  5
5823
100
AcDbEntity
  8
0
100
AcDbCircle
 10
1747.235477
 20
1216.085054
 30
0.0
 40
13.126594
100
AcDbArc
 50
0.511133
 51
89.488867
  0
LINE
  5
5824
100
AcDbEntity
  8
0
100
AcDbLine
 10
1826.570314
 20
1285.194563
 30
0.0
 11
1719.570314
 21
1285.194563
 31
0.0
  0
LINE
  5
5825
100
AcDbEntity
  8
0
100
AcDbLine
 10
1709.326353
 20
1205.194563
 30
0.0
 11
1709.326353
 21
1229.211126
 31
0.0
  0
LINE
  5
5826
100
AcDbEntity
  8
0
100
AcDbLine
 10
1734.964034
 20
905.126741
 30
0.0
 11
1734.964034
 21
891.350344
 31
0.0
  0
LINE
  5
5827
100
AcDbEntity
  8
0
100
AcDbLine
 10
1709.326353
 20
881.350344
 30
0.0
 11
1709.326353
 21
905.366907
 31
0.0
  0
ARC
  5
5828
100
AcDbEntity
  8
0
100
AcDbCircle
 10
1800.413764
 20
881.295893
 30
0.0
 40
95.470449
100
AcDbArc
 50
165.597708
 51
194.430647
  0
LINE
  5
5829
100
AcDbEntity
  8
0
100
AcDbLine
 10
1703.082046
 20
902.364837
 30
0.0
 11
1703.082046
 21
860.335851
 31
0.0
  0
ARC
  5
582A
100
AcDbEntity
  8
0
100
AcDbCircle
 10
1719.837103
 20
850.988166
 30
0.0
 40
17.405441
100
AcDbArc
 50
333.875396
 51
1.618407
  0
ARC
  5
582B
100
AcDbEntity
  8
0
100
AcDbCircle
 10
1683.685101
 20
853.071788
 30
0.0
 40
43.572329
100
AcDbArc
 50
347.072827
 51
358.853875
  0
ARC
  5
582C
100
AcDbEntity
  8
0
100
AcDbCircle
 10
1684.820089
 20
852.938504
 30
0.0
 40
41.72529
100
AcDbArc
 50
346.678138
 51
1.061214
  0
ARC
  5
582D
100
AcDbEntity
  8
0
100
AcDbCircle
 10
1682.740847
 20
852.570496
 30
0.0
 40
34.72985
100
AcDbArc
 50
344.559522
 51
1.882358
  0
LINE
  5
582E
100
AcDbEntity
  8
0
100
AcDbLine
 10
1709.36638
 20
847.326879
 30
0.0
 11
1710.837395
 21
853.831365
 31
0.0
  0
LINE
  5
582F
100
AcDbEntity
  8
0
100
AcDbLine
 10
1707.755269
 20
853.821358
 30
0.0
 11
1708.375697
 21
847.326879
 31
0.0
  0
LINE
  5
5830
100
AcDbEntity
  8
0
100
AcDbLine
 10
1715.430562
 20
853.831365
 30
0.0
 11
1713.959548
 21
847.326879
 31
0.0
  0
LINE
  5
5831
100
AcDbEntity
  8
0
100
AcDbLine
 10
1701.250783
 20
853.831365
 30
0.0
 11
1699.779769
 21
847.326879
 31
0.0
  0
LINE
  5
5832
100
AcDbEntity
  8
0
100
AcDbLine
 10
1704.372936
 20
847.326879
 30
0.0
 11
1705.843951
 21
853.831365
 31
0.0
  0
LINE
  5
5833
100
AcDbEntity
  8
0
100
AcDbLine
 10
1698.168658
 20
853.821358
 30
0.0
 11
1698.789085
 21
847.326879
 31
0.0
  0
LINE
  5
5834
100
AcDbEntity
  8
0
100
AcDbLine
 10
1735.464379
 20
843.324119
 30
0.0
 11
1704.883288
 21
843.324119
 31
0.0
  0
LINE
  5
5835
100
AcDbEntity
  8
0
100
AcDbLine
 10
1698.789085
 20
847.326879
 30
0.0
 11
1704.372936
 21
847.326879
 31
0.0
  0
LINE
  5
5836
100
AcDbEntity
  8
0
100
AcDbLine
 10
1704.883288
 20
843.324119
 30
0.0
 11
1703.462308
 21
847.326879
 31
0.0
  0
LINE
  5
5837
100
AcDbEntity
  8
0
100
AcDbLine
 10
1708.375697
 20
847.326879
 30
0.0
 11
1713.959548
 21
847.326879
 31
0.0
  0
LINE
  5
5838
100
AcDbEntity
  8
0
100
AcDbLine
 10
1748.490273
 20
848.32757
 30
0.0
 11
1737.015448
 21
848.32757
 31
0.0
  0
LINE
  5
5839
100
AcDbEntity
  8
0
100
AcDbLine
 10
1723.697356
 20
890.276324
 30
0.0
 11
1727.391334
 21
891.350344
 31
0.0
  0
LINE
  5
583A
100
AcDbEntity
  8
0
100
AcDbLine
 10
1709.326353
 20
857.333781
 30
0.0
 11
1733.783219
 21
857.333781
 31
0.0
  0
LINE
  5
583B
100
AcDbEntity
  8
0
100
AcDbLine
 10
1727.391334
 20
871.350344
 30
0.0
 11
1723.700277
 21
872.805628
 31
0.0
  0
LINE
  5
583C
100
AcDbEntity
  8
0
100
AcDbLine
 10
1722.781578
 20
890.195872
 30
0.0
 11
1722.781578
 21
872.886929
 31
0.0
  0
LINE
  5
583D
100
AcDbEntity
  8
0
100
AcDbLine
 10
1715.082391
 20
889.431645
 30
0.0
 11
1715.082391
 21
873.269043
 31
0.0
  0
LINE
  5
583E
100
AcDbEntity
  8
0
100
AcDbLine
 10
1718.92792
 20
888.277173
 30
0.0
 11
1718.92792
 21
874.423515
 31
0.0
  0
LINE
  5
583F
100
AcDbEntity
  8
0
100
AcDbLine
 10
1709.326353
 20
857.333781
 30
0.0
 11
1709.326353
 21
881.350344
 31
0.0
  0
LINE
  5
5840
100
AcDbEntity
  8
0
100
AcDbLine
 10
1699.699714
 20
860.335851
 30
0.0
 11
1704.292881
 21
860.335851
 31
0.0
  0
LINE
  5
5841
100
AcDbEntity
  8
0
100
AcDbLine
 10
1701.250783
 20
853.831365
 30
0.0
 11
1699.699714
 21
860.335851
 31
0.0
  0
LINE
  5
5842
100
AcDbEntity
  8
0
100
AcDbLine
 10
1699.699714
 20
860.335851
 30
0.0
 11
1698.789085
 21
860.335851
 31
0.0
  0
LINE
  5
5843
100
AcDbEntity
  8
0
100
AcDbLine
 10
1704.292881
 20
860.335851
 30
0.0
 11
1705.843951
 21
853.831365
 31
0.0
  0
LINE
  5
5844
100
AcDbEntity
  8
0
100
AcDbLine
 10
1701.250783
 20
853.831365
 30
0.0
 11
1705.843951
 21
853.831365
 31
0.0
  0
LINE
  5
5845
100
AcDbEntity
  8
0
100
AcDbLine
 10
1698.789085
 20
860.335851
 30
0.0
 11
1698.168658
 21
853.821358
 31
0.0
  0
LINE
  5
5846
100
AcDbEntity
  8
0
100
AcDbLine
 10
1723.707051
 20
872.802958
 30
0.0
 11
1722.781578
 21
872.886929
 31
0.0
  0
LINE
  5
5847
100
AcDbEntity
  8
0
100
AcDbLine
 10
1718.92792
 20
872.122702
 30
0.0
 11
1718.92792
 21
874.423515
 31
0.0
  0
LINE
  5
5848
100
AcDbEntity
  8
0
100
AcDbLine
 10
1715.082391
 20
873.269043
 30
0.0
 11
1715.854749
 21
872.122702
 31
0.0
  0
LINE
  5
5849
100
AcDbEntity
  8
0
100
AcDbLine
 10
1715.854749
 20
872.122702
 30
0.0
 11
1718.92792
 21
872.122702
 31
0.0
  0
LINE
  5
584A
100
AcDbEntity
  8
0
100
AcDbLine
 10
1718.92792
 20
874.423515
 30
0.0
 11
1722.781578
 21
874.423515
 31
0.0
  0
ARC
  5
584B
100
AcDbEntity
  8
0
100
AcDbCircle
 10
1714.267715
 20
860.894226
 30
0.0
 40
5.012587
100
AcDbArc
 50
186.395706
 51
189.670239
  0
LINE
  5
584C
100
AcDbEntity
  8
0
100
AcDbLine
 10
1709.326353
 20
860.335851
 30
0.0
 11
1709.326353
 21
860.335851
 31
0.0
  0
LINE
  5
584D
100
AcDbEntity
  8
0
100
AcDbLine
 10
1709.286325
 20
860.335851
 30
0.0
 11
1708.375697
 21
860.335851
 31
0.0
  0
LINE
  5
584E
100
AcDbEntity
  8
0
100
AcDbLine
 10
1710.837395
 20
853.831365
 30
0.0
 11
1715.430562
 21
853.831365
 31
0.0
  0
LINE
  5
584F
100
AcDbEntity
  8
0
100
AcDbLine
 10
1708.375697
 20
860.335851
 30
0.0
 11
1707.755269
 21
853.821358
 31
0.0
  0
LINE
  5
5850
100
AcDbEntity
  8
0
100
AcDbLine
 10
1710.837395
 20
853.831365
 30
0.0
 11
1710.001292
 21
857.333781
 31
0.0
  0
LINE
  5
5851
100
AcDbEntity
  8
0
100
AcDbLine
 10
1714.601488
 20
857.333781
 30
0.0
 11
1715.430562
 21
853.831365
 31
0.0
  0
LINE
  5
5852
100
AcDbEntity
  8
0
100
AcDbLine
 10
1717.451956
 20
857.333781
 30
0.0
 11
1717.451956
 21
853.711282
 31
0.0
  0
LINE
  5
5853
100
AcDbEntity
  8
0
100
AcDbLine
 10
1723.697356
 20
890.276324
 30
0.0
 11
1722.781578
 21
890.195872
 31
0.0
  0
LINE
  5
5854
100
AcDbEntity
  8
0
100
AcDbLine
 10
1718.92792
 20
890.577986
 30
0.0
 11
1715.854749
 21
890.577986
 31
0.0
  0
LINE
  5
5855
100
AcDbEntity
  8
0
100
AcDbLine
 10
1718.92792
 20
888.277173
 30
0.0
 11
1718.92792
 21
890.577986
 31
0.0
  0
LINE
  5
5856
100
AcDbEntity
  8
0
100
AcDbLine
 10
1715.854749
 20
890.577986
 30
0.0
 11
1715.082391
 21
889.431645
 31
0.0
  0
LINE
  5
5857
100
AcDbEntity
  8
0
100
AcDbLine
 10
1722.781578
 20
888.277173
 30
0.0
 11
1718.92792
 21
888.277173
 31
0.0
  0
LINE
  5
5858
100
AcDbEntity
  8
0
100
AcDbLine
 10
1715.082391
 20
886.871011
 30
0.0
 11
1718.92792
 21
886.871011
 31
0.0
  0
LINE
  5
5859
100
AcDbEntity
  8
0
100
AcDbLine
 10
1715.082391
 20
875.829677
 30
0.0
 11
1718.92792
 21
875.829677
 31
0.0
  0
LINE
  5
585A
100
AcDbEntity
  8
0
100
AcDbLine
 10
1715.082391
 20
877.664629
 30
0.0
 11
1718.92792
 21
877.664629
 31
0.0
  0
LINE
  5
585B
100
AcDbEntity
  8
0
100
AcDbLine
 10
1715.082391
 20
885.036059
 30
0.0
 11
1718.92792
 21
885.036059
 31
0.0
  0
LINE
  5
585C
100
AcDbEntity
  8
0
100
AcDbLine
 10
1737.082391
 20
871.350344
 30
0.0
 11
1737.082391
 21
891.350344
 31
0.0
  0
LINE
  5
585D
100
AcDbEntity
  8
0
100
AcDbLine
 10
1733.545806
 20
875.577986
 30
0.0
 11
1733.545806
 21
871.350344
 31
0.0
  0
LINE
  5
585E
100
AcDbEntity
  8
0
100
AcDbLine
 10
1727.391334
 20
875.577986
 30
0.0
 11
1727.391334
 21
871.350344
 31
0.0
  0
ARC
  5
585F
100
AcDbEntity
  8
0
100
AcDbCircle
 10
1764.585206
 20
881.002171
 30
0.0
 40
32.626068
100
AcDbArc
 50
219.382799
 51
229.372547
  0
LINE
  5
5860
100
AcDbEntity
  8
0
100
AcDbLine
 10
1735.824627
 20
858.134333
 30
0.0
 11
1740.985569
 21
861.290304
 31
0.0
  0
LINE
  5
5861
100
AcDbEntity
  8
0
100
AcDbLine
 10
1734.964034
 20
871.350344
 30
0.0
 11
1734.964034
 21
857.573946
 31
0.0
  0
LINE
  5
5862
100
AcDbEntity
  8
0
100
AcDbLine
 10
1737.275628
 20
851.479744
 30
0.0
 11
1737.275628
 21
858.904864
 31
0.0
  0
LINE
  5
5863
100
AcDbEntity
  8
0
100
AcDbLine
 10
1726.538223
 20
853.711282
 30
0.0
 11
1726.538223
 21
853.711282
 31
0.0
  0
LINE
  5
5864
100
AcDbEntity
  8
0
100
AcDbLine
 10
1727.268727
 20
853.711282
 30
0.0
 11
1727.268727
 21
853.711282
 31
0.0
  0
LINE
  5
5865
100
AcDbEntity
  8
0
100
AcDbLine
 10
1727.281515
 20
857.333781
 30
0.0
 11
1727.248713
 21
852.20024
 31
0.0
  0
LINE
  5
5866
100
AcDbEntity
  8
0
100
AcDbLine
 10
1726.538223
 20
857.333781
 30
0.0
 11
1726.538223
 21
853.711282
 31
0.0
  0
ARC
  5
5867
100
AcDbEntity
  8
0
100
AcDbCircle
 10
1733.791605
 20
860.315467
 30
0.0
 40
2.981698
100
AcDbArc
 50
269.838855
 51
312.987084
  0
LINE
  5
5868
100
AcDbEntity
  8
0
100
AcDbLine
 10
1727.391334
 20
871.350344
 30
0.0
 11
1738.025279
 21
871.350344
 31
0.0
  0
LINE
  5
5869
100
AcDbEntity
  8
0
100
AcDbLine
 10
1727.391334
 20
887.122702
 30
0.0
 11
1723.92792
 21
886.155222
 31
0.0
  0
LINE
  5
586A
100
AcDbEntity
  8
0
100
AcDbLine
 10
1723.92792
 20
886.155222
 30
0.0
 11
1727.391334
 21
885.195872
 31
0.0
  0
LINE
  5
586B
100
AcDbEntity
  8
0
100
AcDbLine
 10
1727.391334
 20
877.504815
 30
0.0
 11
1723.92792
 21
876.545466
 31
0.0
  0
LINE
  5
586C
100
AcDbEntity
  8
0
100
AcDbLine
 10
1723.92792
 20
876.545466
 30
0.0
 11
1727.391334
 21
875.577986
 31
0.0
  0
LINE
  5
586D
100
AcDbEntity
  8
0
100
AcDbLine
 10
1733.545806
 20
885.195872
 30
0.0
 11
1733.545806
 21
877.504815
 31
0.0
  0
LINE
  5
586E
100
AcDbEntity
  8
0
100
AcDbLine
 10
1727.391334
 20
885.195872
 30
0.0
 11
1727.391334
 21
877.504815
 31
0.0
  0
LINE
  5
586F
100
AcDbEntity
  8
0
100
AcDbLine
 10
1727.391334
 20
885.195872
 30
0.0
 11
1733.545806
 21
885.195872
 31
0.0
  0
LINE
  5
5870
100
AcDbEntity
  8
0
100
AcDbLine
 10
1733.545806
 20
877.504815
 30
0.0
 11
1727.391334
 21
877.504815
 31
0.0
  0
LINE
  5
5871
100
AcDbEntity
  8
0
100
AcDbLine
 10
1727.391334
 20
875.577986
 30
0.0
 11
1733.545806
 21
875.577986
 31
0.0
  0
LINE
  5
5872
100
AcDbEntity
  8
0
100
AcDbLine
 10
1733.545806
 20
887.122702
 30
0.0
 11
1727.391334
 21
887.122702
 31
0.0
  0
LINE
  5
5873
100
AcDbEntity
  8
0
100
AcDbLine
 10
1727.391334
 20
891.350344
 30
0.0
 11
1727.391334
 21
887.122702
 31
0.0
  0
LINE
  5
5874
100
AcDbEntity
  8
0
100
AcDbLine
 10
1733.545806
 20
891.350344
 30
0.0
 11
1733.545806
 21
887.122702
 31
0.0
  0
LINE
  5
5875
100
AcDbEntity
  8
0
100
AcDbLine
 10
1738.025279
 20
891.350344
 30
0.0
 11
1727.391334
 21
891.350344
 31
0.0
  0
LINE
  5
5876
100
AcDbEntity
  8
0
100
AcDbLine
 10
1733.783219
 20
905.366907
 30
0.0
 11
1709.326353
 21
905.366907
 31
0.0
  0
LINE
  5
5877
100
AcDbEntity
  8
0
100
AcDbLine
 10
1735.284255
 20
919.376569
 30
0.0
 11
1717.451956
 21
919.376569
 31
0.0
  0
LINE
  5
5878
100
AcDbEntity
  8
0
100
AcDbLine
 10
1717.451956
 20
919.376569
 30
0.0
 11
1706.054096
 21
919.376569
 31
0.0
  0
ARC
  5
5879
100
AcDbEntity
  8
0
100
AcDbCircle
 10
1711.824645
 20
914.658783
 30
0.0
 40
8.39285
100
AcDbArc
 50
145.797488
 51
175.112787
  0
LINE
  5
587A
100
AcDbEntity
  8
0
100
AcDbLine
 10
1706.054096
 20
919.376569
 30
0.0
 11
1704.883288
 21
919.376569
 31
0.0
  0
LINE
  5
587B
100
AcDbEntity
  8
0
100
AcDbLine
 10
1699.699714
 20
915.373808
 30
0.0
 11
1698.789085
 21
915.373808
 31
0.0
  0
LINE
  5
587C
100
AcDbEntity
  8
0
100
AcDbLine
 10
1699.699714
 20
915.373808
 30
0.0
 11
1704.292881
 21
915.373808
 31
0.0
  0
LINE
  5
587D
100
AcDbEntity
  8
0
100
AcDbLine
 10
1701.250783
 20
908.869323
 30
0.0
 11
1705.843951
 21
908.869323
 31
0.0
  0
LINE
  5
587E
100
AcDbEntity
  8
0
100
AcDbLine
 10
1698.789085
 20
902.364837
 30
0.0
 11
1704.372936
 21
902.364837
 31
0.0
  0
LINE
  5
587F
100
AcDbEntity
  8
0
100
AcDbLine
 10
1704.372936
 20
902.364837
 30
0.0
 11
1705.843951
 21
908.869323
 31
0.0
  0
LINE
  5
5880
100
AcDbEntity
  8
0
100
AcDbLine
 10
1701.250783
 20
908.869323
 30
0.0
 11
1699.779769
 21
902.364837
 31
0.0
  0
LINE
  5
5881
100
AcDbEntity
  8
0
100
AcDbLine
 10
1698.168658
 20
908.859316
 30
0.0
 11
1698.789085
 21
902.364837
 31
0.0
  0
LINE
  5
5882
100
AcDbEntity
  8
0
100
AcDbLine
 10
1704.292881
 20
915.373808
 30
0.0
 11
1705.843951
 21
908.869323
 31
0.0
  0
LINE
  5
5883
100
AcDbEntity
  8
0
100
AcDbLine
 10
1701.250783
 20
908.869323
 30
0.0
 11
1699.699714
 21
915.373808
 31
0.0
  0
LINE
  5
5884
100
AcDbEntity
  8
0
100
AcDbLine
 10
1698.789085
 20
915.373808
 30
0.0
 11
1698.168658
 21
908.859316
 31
0.0
  0
LINE
  5
5885
100
AcDbEntity
  8
0
100
AcDbLine
 10
1709.286325
 20
915.373808
 30
0.0
 11
1708.375697
 21
915.373808
 31
0.0
  0
LINE
  5
5886
100
AcDbEntity
  8
0
100
AcDbLine
 10
1709.286325
 20
915.373808
 30
0.0
 11
1713.879493
 21
915.373808
 31
0.0
  0
LINE
  5
5887
100
AcDbEntity
  8
0
100
AcDbLine
 10
1717.451956
 20
905.366907
 30
0.0
 11
1717.451956
 21
908.989405
 31
0.0
  0
LINE
  5
5888
100
AcDbEntity
  8
0
100
AcDbLine
 10
1715.430562
 20
908.869323
 30
0.0
 11
1710.837395
 21
908.869323
 31
0.0
  0
LINE
  5
5889
100
AcDbEntity
  8
0
100
AcDbLine
 10
1712.328423
 20
905.366907
 30
0.0
 11
1712.328423
 21
905.366907
 31
0.0
  0
LINE
  5
588A
100
AcDbEntity
  8
0
100
AcDbLine
 10
1708.375697
 20
902.364837
 30
0.0
 11
1709.326353
 21
902.364837
 31
0.0
  0
LINE
  5
588B
100
AcDbEntity
  8
0
100
AcDbLine
 10
1710.04531
 20
905.366907
 30
0.0
 11
1710.837395
 21
908.869323
 31
0.0
  0
LINE
  5
588C
100
AcDbEntity
  8
0
100
AcDbLine
 10
1707.755269
 20
908.859316
 30
0.0
 11
1708.375697
 21
902.364837
 31
0.0
  0
LINE
  5
588D
100
AcDbEntity
  8
0
100
AcDbLine
 10
1715.430562
 20
908.869323
 30
0.0
 11
1714.636912
 21
905.366907
 31
0.0
  0
ARC
  5
588E
100
AcDbEntity
  8
0
100
AcDbCircle
 10
1682.740847
 20
910.130192
 30
0.0
 40
34.72985
100
AcDbArc
 50
358.117642
 51
15.440478
  0
LINE
  5
588F
100
AcDbEntity
  8
0
100
AcDbLine
 10
1708.375697
 20
915.373808
 30
0.0
 11
1707.755269
 21
908.859316
 31
0.0
  0
LINE
  5
5890
100
AcDbEntity
  8
0
100
AcDbLine
 10
1710.837395
 20
908.869323
 30
0.0
 11
1709.286325
 21
915.373808
 31
0.0
  0
LINE
  5
5891
100
AcDbEntity
  8
0
100
AcDbLine
 10
1713.879493
 20
915.373808
 30
0.0
 11
1715.430562
 21
908.869323
 31
0.0
  0
LINE
  5
5892
100
AcDbEntity
  8
0
100
AcDbLine
 10
1748.490273
 20
914.373118
 30
0.0
 11
1736.860104
 21
914.373118
 31
0.0
  0
LINE
  5
5893
100
AcDbEntity
  8
0
100
AcDbLine
 10
1740.985569
 20
901.410384
 30
0.0
 11
1735.824627
 21
904.566355
 31
0.0
  0
ARC
  5
5894
100
AcDbEntity
  8
0
100
AcDbCircle
 10
1720.154706
 20
911.776069
 30
0.0
 40
16.931357
100
AcDbArc
 50
0.468467
 51
26.673184
  0
LINE
  5
5895
100
AcDbEntity
  8
0
100
AcDbLine
 10
1737.085497
 20
911.914503
 30
0.0
 11
1737.085497
 21
903.795824
 31
0.0
  0
LINE
  5
5896
100
AcDbEntity
  8
0
100
AcDbLine
 10
1726.538223
 20
905.366907
 30
0.0
 11
1726.538223
 21
908.989405
 31
0.0
  0
LINE
  5
5897
100
AcDbEntity
  8
0
100
AcDbLine
 10
1727.281515
 20
905.366907
 30
0.0
 11
1727.248713
 21
910.500447
 31
0.0
  0
LINE
  5
5898
100
AcDbEntity
  8
0
100
AcDbLine
 10
1727.268727
 20
908.989405
 30
0.0
 11
1727.268727
 21
908.989405
 31
0.0
  0
LINE
  5
5899
100
AcDbEntity
  8
0
100
AcDbLine
 10
1726.538223
 20
908.989405
 30
0.0
 11
1726.538223
 21
908.989405
 31
0.0
  0
ARC
  5
589A
100
AcDbEntity
  8
0
100
AcDbCircle
 10
1683.685101
 20
909.6289
 30
0.0
 40
43.572329
100
AcDbArc
 50
1.146125
 51
12.927173
  0
ARC
  5
589B
100
AcDbEntity
  8
0
100
AcDbCircle
 10
1684.820089
 20
909.762184
 30
0.0
 40
41.72529
100
AcDbArc
 50
358.938786
 51
13.321862
  0
ARC
  5
589C
100
AcDbEntity
  8
0
100
AcDbCircle
 10
1733.791605
 20
902.38522
 30
0.0
 40
2.981698
100
AcDbArc
 50
47.012916
 51
90.161145
  0
LINE
  5
589D
100
AcDbEntity
  8
0
100
AcDbLine
 10
1733.84425
 20
1092.998478
 30
0.0
 11
1721.817399
 21
1105.02533
 31
0.0
  0
LINE
  5
589E
100
AcDbEntity
  8
0
100
AcDbLine
 10
1744.510618
 20
1097.900567
 30
0.0
 11
1725.467484
 21
1116.943701
 31
0.0
  0
LINE
  5
589F
100
AcDbEntity
  8
0
100
AcDbLine
 10
1751.975766
 20
1099.581727
 30
0.0
 11
1726.107664
 21
1125.465279
 31
0.0
  0
LINE
  5
58A0
100
AcDbEntity
  8
0
100
AcDbLine
 10
1741.38287
 20
1101.030597
 30
0.0
 11
1733.84425
 21
1092.998478
 31
0.0
  0
ARC
  5
58A1
100
AcDbEntity
  8
0
100
AcDbCircle
 10
1753.842053
 20
1100.969079
 30
0.0
 40
2.325462
100
AcDbArc
 50
216.626209
 51
284.835202
  0
LINE
  5
58A2
100
AcDbEntity
  8
0
100
AcDbLine
 10
1748.943675
 20
1102.623825
 30
0.0
 11
1744.510618
 21
1097.900567
 31
0.0
  0
LINE
  5
58A3
100
AcDbEntity
  8
0
100
AcDbLine
 10
1726.107664
 20
1125.465279
 30
0.0
 11
1723.093838
 21
1181.178
 31
0.0
  0
LINE
  5
58A4
100
AcDbEntity
  8
0
100
AcDbLine
 10
1729.356019
 20
1113.057448
 30
0.0
 11
1721.817399
 21
1105.02533
 31
0.0
  0
LINE
  5
58A5
100
AcDbEntity
  8
0
100
AcDbLine
 10
1725.467484
 20
1116.943701
 30
0.0
 11
1730.190742
 21
1121.376758
 31
0.0
  0
LINE
  5
58A6
100
AcDbEntity
  8
0
100
AcDbLine
 10
1709.326353
 20
1181.178
 30
0.0
 11
1709.326353
 21
1205.194563
 31
0.0
  0
LINE
  5
58A7
100
AcDbEntity
  8
0
100
AcDbLine
 10
1723.093838
 20
1181.178
 30
0.0
 11
1709.326353
 21
1181.178
 31
0.0
  0
LINE
  5
58A8
100
AcDbEntity
  8
0
100
AcDbLine
 10
1723.966449
 20
1182.649015
 30
0.0
 11
1735.114137
 21
1194.186972
 31
0.0
  0
LINE
  5
58A9
100
AcDbEntity
  8
0
100
AcDbLine
 10
1719.570314
 20
1343.194563
 30
0.0
 11
1732.659503
 21
1439.783752
 31
0.0
  0
LINE
  5
58AA
100
AcDbEntity
  8
0
100
AcDbLine
 10
1719.570314
 20
1293.194563
 30
0.0
 11
1719.570314
 21
1313.194563
 31
0.0
  0
LINE
  5
58AB
100
AcDbEntity
  8
0
100
AcDbLine
 10
1753.070314
 20
1285.194563
 30
0.0
 11
1753.070314
 21
1252.194563
 31
0.0
  0
LINE
  5
58AC
100
AcDbEntity
  8
0
100
AcDbLine
 10
1709.326353
 20
1229.211126
 30
0.0
 11
1752.055821
 21
1229.211126
 31
0.0
  0
LINE
  5
58AD
100
AcDbEntity
  8
0
100
AcDbLine
 10
1754.057201
 20
1231.212507
 30
0.0
 11
1754.057201
 21
1232.194563
 31
0.0
  0
ARC
  5
58AE
100
AcDbEntity
  8
0
100
AcDbCircle
 10
1752.075358
 20
1231.192969
 30
0.0
 40
1.981939
100
AcDbArc
 50
269.435189
 51
0.564811
  0
LINE
  5
58AF
100
AcDbEntity
  8
0
100
AcDbLine
 10
1754.070314
 20
1252.194563
 30
0.0
 11
1754.070314
 21
1232.194563
 31
0.0
  0
LINE
  5
58B0
100
AcDbEntity
  8
0
100
AcDbLine
 10
1719.570314
 20
1285.194563
 30
0.0
 11
1719.570314
 21
1293.194563
 31
0.0
  0
LINE
  5
58B1
100
AcDbEntity
  8
0
100
AcDbLine
 10
1751.584436
 20
1285.194563
 30
0.0
 11
1751.584436
 21
1277.385563
 31
0.0
  0
LINE
  5
58B2
100
AcDbEntity
  8
0
100
AcDbLine
 10
1747.830436
 20
1277.385563
 30
0.0
 11
1747.830436
 21
1283.194563
 31
0.0
  0
LINE
  5
58B3
100
AcDbEntity
  8
0
100
AcDbLine
 10
1736.573436
 20
1277.385563
 30
0.0
 11
1736.573436
 21
1285.194563
 31
0.0
  0
LINE
  5
58B4
100
AcDbEntity
  8
0
100
AcDbLine
 10
1740.326436
 20
1277.385563
 30
0.0
 11
1740.326436
 21
1283.194563
 31
0.0
  0
LINE
  5
58B5
100
AcDbEntity
  8
0
100
AcDbLine
 10
1750.387436
 20
1276.694563
 30
0.0
 11
1737.769436
 21
1276.694563
 31
0.0
  0
ARC
  5
58B6
100
AcDbEntity
  8
0
100
AcDbCircle
 10
1744.078436
 20
1290.200043
 30
0.0
 40
13.352467
100
AcDbArc
 50
253.680297
 51
286.319703
  0
LINE
  5
58B7
100
AcDbEntity
  8
0
100
AcDbLine
 10
1737.769436
 20
1276.694563
 30
0.0
 11
1736.573436
 21
1277.385563
 31
0.0
  0
ARC
  5
58B8
100
AcDbEntity
  8
0
100
AcDbCircle
 10
1738.449936
 20
1280.388522
 30
0.0
 40
3.541047
100
AcDbArc
 50
237.999406
 51
302.000594
  0
ARC
  5
58B9
100
AcDbEntity
  8
0
100
AcDbCircle
 10
1749.706936
 20
1280.388522
 30
0.0
 40
3.541047
100
AcDbArc
 50
237.999406
 51
302.000594
  0
LINE
  5
58BA
100
AcDbEntity
  8
0
100
AcDbLine
 10
1751.584436
 20
1277.385563
 30
0.0
 11
1750.387436
 21
1276.694563
 31
0.0
  0
LINE
  5
58BB
100
AcDbEntity
  8
0
100
AcDbLine
 10
1736.573436
 20
1283.194563
 30
0.0
 11
1751.584436
 21
1283.194563
 31
0.0
  0
LINE
  5
58BC
100
AcDbEntity
  8
0
100
AcDbLine
 10
1719.570314
 20
1313.194563
 30
0.0
 11
1719.570314
 21
1343.194563
 31
0.0
  0
LINE
  5
58BD
100
AcDbEntity
  8
0
100
AcDbLine
 10
1743.070314
 20
1450.194563
 30
0.0
 11
1732.659503
 21
1439.783752
 31
0.0
  0
LINE
  5
58BE
100
AcDbEntity
  8
0
100
AcDbLine
 10
1828.688671
 20
1226.689387
 30
0.0
 11
1828.688671
 21
1182.588973
 31
0.0
  0
LINE
  5
58BF
100
AcDbEntity
  8
0
100
AcDbLine
 10
1823.304958
 20
1220.224929
 30
0.0
 11
1823.304958
 21
1199.980968
 31
0.0
  0
LINE
  5
58C0
100
AcDbEntity
  8
0
100
AcDbLine
 10
1760.361549
 20
1216.202155
 30
0.0
 11
1760.361549
 21
1184.390215
 31
0.0
  0
LINE
  5
58C1
100
AcDbEntity
  8
0
100
AcDbLine
 10
1854.326353
 20
1205.194563
 30
0.0
 11
1854.326353
 21
1229.211126
 31
0.0
  0
LINE
  5
58C2
100
AcDbEntity
  8
0
100
AcDbLine
 10
1854.326353
 20
857.333781
 30
0.0
 11
1854.326353
 21
905.366907
 31
0.0
  0
CIRCLE
  5
58C3
100
AcDbEntity
  8
0
100
AcDbCircle
 10
1790.582391
 20
881.350344
 30
0.0
 40
30.0
  0
LINE
  5
58C4
100
AcDbEntity
  8
0
100
AcDbLine
 10
1760.841881
 20
836.87842
 30
0.0
 11
1760.841881
 21
836.319288
 31
0.0
  0
LINE
  5
58C5
100
AcDbEntity
  8
0
100
AcDbLine
 10
1760.841881
 20
836.319288
 30
0.0
 11
1761.695474
 21
836.319288
 31
0.0
  0
LINE
  5
58C6
100
AcDbEntity
  8
0
100
AcDbLine
 10
1838.388821
 20
857.333781
 30
0.0
 11
1854.326353
 21
857.333781
 31
0.0
  0
LINE
  5
58C7
100
AcDbEntity
  8
0
100
AcDbLine
 10
1760.841881
 20
925.822268
 30
0.0
 11
1760.841881
 21
929.38347
 31
0.0
  0
LINE
  5
58C8
100
AcDbEntity
  8
0
100
AcDbLine
 10
1760.841881
 20
929.38347
 30
0.0
 11
1767.022494
 21
929.38347
 31
0.0
  0
LINE
  5
58C9
100
AcDbEntity
  8
0
100
AcDbLine
 10
1854.326353
 20
905.366907
 30
0.0
 11
1838.388821
 21
905.366907
 31
0.0
  0
LINE
  5
58CA
100
AcDbEntity
  8
0
100
AcDbLine
 10
1860.421038
 20
1103.633554
 30
0.0
 11
1866.141554
 21
1104.643593
 31
0.0
  0
CIRCLE
  5
58CB
100
AcDbEntity
  8
0
100
AcDbCircle
 10
1787.800473
 20
1108.197669
 30
0.0
 40
15.010352
  0
LINE
  5
58CC
100
AcDbEntity
  8
0
100
AcDbLine
 10
1839.733139
 20
1097.011899
 30
0.0
 11
1826.534338
 21
1171.902874
 31
0.0
  0
LINE
  5
58CD
100
AcDbEntity
  8
0
100
AcDbLine
 10
1836.379301
 20
1173.651979
 30
0.0
 11
1849.592189
 21
1098.750995
 31
0.0
  0
LINE
  5
58CE
100
AcDbEntity
  8
0
100
AcDbLine
 10
1837.865
 20
1173.91299
 30
0.0
 11
1851.064103
 21
1099.011333
 31
0.0
  0
LINE
  5
58CF
100
AcDbEntity
  8
0
100
AcDbLine
 10
1847.71314
 20
1175.650162
 30
0.0
 11
1860.928702
 21
1100.751409
 31
0.0
  0
LINE
  5
58D0
100
AcDbEntity
  8
0
100
AcDbLine
 10
1838.864633
 20
1101.939863
 30
0.0
 11
1790.552371
 21
1093.437489
 31
0.0
  0
ARC
  5
58D1
100
AcDbEntity
  8
0
100
AcDbCircle
 10
1769.435958
 20
1091.030603
 30
0.0
 40
10.012131
100
AcDbArc
 50
46.066556
 51
89.98941
  0
LINE
  5
58D2
100
AcDbEntity
  8
0
100
AcDbLine
 10
1778.113792
 20
1096.731244
 30
0.0
 11
1776.382598
 21
1098.240802
 31
0.0
  0
LINE
  5
58D3
100
AcDbEntity
  8
0
100
AcDbLine
 10
1851.064103
 20
1099.011333
 30
0.0
 11
1860.928719
 21
1100.751314
 31
0.0
  0
LINE
  5
58D4
100
AcDbEntity
  8
0
100
AcDbLine
 10
1849.593088
 20
1098.751154
 30
0.0
 11
1839.733139
 21
1097.011899
 31
0.0
  0
LINE
  5
58D5
100
AcDbEntity
  8
0
100
AcDbLine
 10
1848.792536
 20
1103.28428
 30
0.0
 11
1850.273558
 21
1103.54446
 31
0.0
  0
ARC
  5
58D6
100
AcDbEntity
  8
0
100
AcDbCircle
 10
1820.570995
 20
1148.078076
 30
0.0
 40
5.001319
100
AcDbArc
 50
9.990987
 51
77.378546
  0
ARC
  5
58D7
100
AcDbEntity
  8
0
100
AcDbCircle
 10
1823.411301
 20
1160.76918
 30
0.0
 40
8.003736
100
AcDbArc
 50
109.169071
 51
257.388901
  0
LINE
  5
58D8
100
AcDbEntity
  8
0
100
AcDbLine
 10
1780.775628
 20
1159.953362
 30
0.0
 11
1780.775628
 21
1141.250464
 31
0.0
  0
LINE
  5
58D9
100
AcDbEntity
  8
0
100
AcDbLine
 10
1760.661756
 20
1181.968545
 30
0.0
 11
1772.189707
 21
1129.162127
 31
0.0
  0
ARC
  5
58DA
100
AcDbEntity
  8
0
100
AcDbCircle
 10
1792.277923
 20
1127.159396
 30
0.0
 40
14.963232
100
AcDbArc
 50
323.859926
 51
189.580459
  0
ARC
  5
58DB
100
AcDbEntity
  8
0
100
AcDbCircle
 10
1799.320198
 20
1159.877613
 30
0.0
 40
18.544725
100
AcDbArc
 50
43.114027
 51
179.765963
  0
ARC
  5
58DC
100
AcDbEntity
  8
0
100
AcDbCircle
 10
1770.881196
 20
1184.464861
 30
0.0
 40
10.519912
100
AcDbArc
 50
180.406554
 51
193.726906
  0
ARC
  5
58DD
100
AcDbEntity
  8
0
100
AcDbCircle
 10
1819.181639
 20
1172.538947
 30
0.0
 40
4.50417
100
AcDbArc
 50
290.828833
 51
7.700192
  0
LINE
  5
58DE
100
AcDbEntity
  8
0
100
AcDbLine
 10
1863.531517
 20
1119.425942
 30
0.0
 11
1857.811001
 21
1118.415902
 31
0.0
  0
LINE
  5
58DF
100
AcDbEntity
  8
0
100
AcDbLine
 10
1864.184069
 20
1115.730108
 30
0.0
 11
1858.463554
 21
1114.720069
 31
0.0
  0
ARC
  5
58E0
100
AcDbEntity
  8
0
100
AcDbCircle
 10
1860.900577
 20
1117.055886
 30
0.0
 40
3.541047
100
AcDbArc
 50
338.012599
 51
42.013788
  0
LINE
  5
58E1
100
AcDbEntity
  8
0
100
AcDbLine
 10
1864.419946
 20
1118.368307
 30
0.0
 11
1863.531517
 21
1119.425942
 31
0.0
  0
LINE
  5
58E2
100
AcDbEntity
  8
0
100
AcDbLine
 10
1865.488827
 20
1108.340411
 30
0.0
 11
1859.768311
 21
1107.330372
 31
0.0
  0
ARC
  5
58E3
100
AcDbEntity
  8
0
100
AcDbCircle
 10
1862.857887
 20
1105.970355
 30
0.0
 40
3.541047
100
AcDbArc
 50
338.012599
 51
42.013788
  0
LINE
  5
58E4
100
AcDbEntity
  8
0
100
AcDbLine
 10
1866.141554
 20
1104.643593
 30
0.0
 11
1866.6139
 21
1105.942508
 31
0.0
  0
ARC
  5
58E5
100
AcDbEntity
  8
0
100
AcDbCircle
 10
1852.217162
 20
1109.807143
 30
0.0
 40
13.352467
100
AcDbArc
 50
353.69349
 51
26.332897
  0
LINE
  5
58E6
100
AcDbEntity
  8
0
100
AcDbLine
 10
1866.6139
 20
1105.942508
 30
0.0
 11
1864.419946
 21
1118.368307
 31
0.0
  0
ARC
  5
58E7
100
AcDbEntity
  8
0
100
AcDbCircle
 10
1830.369872
 20
1178.173858
 30
0.0
 40
3.004142
100
AcDbArc
 50
90.000782
 51
210.373037
  0
LINE
  5
58E8
100
AcDbEntity
  8
0
100
AcDbLine
 10
1847.713157
 20
1175.650066
 30
0.0
 11
1837.865
 21
1173.91299
 31
0.0
  0
LINE
  5
58E9
100
AcDbEntity
  8
0
100
AcDbLine
 10
1838.665552
 20
1169.379863
 30
0.0
 11
1837.184531
 21
1169.119684
 31
0.0
  0
LINE
  5
58EA
100
AcDbEntity
  8
0
100
AcDbLine
 10
1826.534531
 20
1171.901775
 30
0.0
 11
1836.383979
 21
1173.65281
 31
0.0
  0
ARC
  5
58EB
100
AcDbEntity
  8
0
100
AcDbCircle
 10
1831.630248
 20
1176.709615
 30
0.0
 40
3.852593
100
AcDbArc
 50
180.81403
 51
275.671246
  0
ARC
  5
58EC
100
AcDbEntity
  8
0
100
AcDbCircle
 10
1853.2667
 20
1160.320623
 30
0.0
 40
3.541047
100
AcDbArc
 50
337.999406
 51
42.000594
  0
LINE
  5
58ED
100
AcDbEntity
  8
0
100
AcDbLine
 10
1857.022706
 20
1160.291911
 30
0.0
 11
1856.549887
 21
1158.99409
 31
0.0
  0
LINE
  5
58EE
100
AcDbEntity
  8
0
100
AcDbLine
 10
1848.222506
 20
1172.768317
 30
0.0
 11
1853.943254
 21
1173.777039
 31
0.0
  0
LINE
  5
58EF
100
AcDbEntity
  8
0
100
AcDbLine
 10
1853.943254
 20
1173.777039
 30
0.0
 11
1854.831614
 21
1172.718215
 31
0.0
  0
LINE
  5
58F0
100
AcDbEntity
  8
0
100
AcDbLine
 10
1854.59513
 20
1170.080071
 30
0.0
 11
1848.874382
 21
1169.071349
 31
0.0
  0
ARC
  5
58F1
100
AcDbEntity
  8
0
100
AcDbCircle
 10
1851.311942
 20
1171.406604
 30
0.0
 40
3.541047
100
AcDbArc
 50
337.999406
 51
42.000594
  0
LINE
  5
58F2
100
AcDbEntity
  8
0
100
AcDbLine
 10
1854.831614
 20
1172.718215
 30
0.0
 11
1857.022706
 21
1160.291911
 31
0.0
  0
LINE
  5
58F3
100
AcDbEntity
  8
0
100
AcDbLine
 10
1855.898186
 20
1162.690073
 30
0.0
 11
1850.177437
 21
1161.681351
 31
0.0
  0
LINE
  5
58F4
100
AcDbEntity
  8
0
100
AcDbLine
 10
1856.549887
 20
1158.99409
 30
0.0
 11
1850.829139
 21
1157.985368
 31
0.0
  0
ARC
  5
58F5
100
AcDbEntity
  8
0
100
AcDbCircle
 10
1842.626859
 20
1164.159861
 30
0.0
 40
13.352467
100
AcDbArc
 50
353.680297
 51
26.319703
  0
LINE
  5
58F6
100
AcDbEntity
  8
0
100
AcDbLine
 10
1854.326353
 20
1181.178
 30
0.0
 11
1830.369831
 21
1181.178
 31
0.0
  0
LINE
  5
58F7
100
AcDbEntity
  8
0
100
AcDbLine
 10
1854.326353
 20
1181.178
 30
0.0
 11
1854.326353
 21
1205.194563
 31
0.0
  0
LINE
  5
58F8
100
AcDbEntity
  8
0
100
AcDbLine
 10
1826.570314
 20
1343.194563
 30
0.0
 11
1813.481125
 21
1439.783752
 31
0.0
  0
LINE
  5
58F9
100
AcDbEntity
  8
0
100
AcDbLine
 10
1844.724785
 20
1296.267734
 30
0.0
 11
1844.724785
 21
1310.121392
 31
0.0
  0
LINE
  5
58FA
100
AcDbEntity
  8
0
100
AcDbLine
 10
1848.570314
 20
1295.113262
 30
0.0
 11
1848.570314
 21
1311.275864
 31
0.0
  0
LINE
  5
58FB
100
AcDbEntity
  8
0
100
AcDbLine
 10
1840.871127
 20
1312.040092
 30
0.0
 11
1840.871127
 21
1294.731149
 31
0.0
  0
LINE
  5
58FC
100
AcDbEntity
  8
0
100
AcDbLine
 10
1839.724785
 20
1307.999441
 30
0.0
 11
1836.261371
 21
1307.040092
 31
0.0
  0
LINE
  5
58FD
100
AcDbEntity
  8
0
100
AcDbLine
 10
1826.570314
 20
1293.194563
 30
0.0
 11
1826.570314
 21
1313.194563
 31
0.0
  0
LINE
  5
58FE
100
AcDbEntity
  8
0
100
AcDbLine
 10
1821.314326
 20
1222.206295
 30
0.0
 11
1828.838034
 21
1229.211126
 31
0.0
  0
LINE
  5
58FF
100
AcDbEntity
  8
0
100
AcDbLine
 10
1793.070314
 20
1285.194563
 30
0.0
 11
1793.070314
 21
1252.194563
 31
0.0
  0
LINE
  5
5900
100
AcDbEntity
  8
0
100
AcDbLine
 10
1792.070314
 20
1246.694563
 30
0.0
 11
1775.070314
 21
1246.694563
 31
0.0
  0
LINE
  5
5901
100
AcDbEntity
  8
0
100
AcDbLine
 10
1792.083426
 20
1222.206295
 30
0.0
 11
1781.86638
 21
1213.059988
 31
0.0
  0
LINE
  5
5902
100
AcDbEntity
  8
0
100
AcDbLine
 10
1771.070314
 20
1235.944563
 30
0.0
 11
1775.070314
 21
1235.944563
 31
0.0
  0
LINE
  5
5903
100
AcDbEntity
  8
0
100
AcDbLine
 10
1771.070314
 20
1242.944563
 30
0.0
 11
1775.070314
 21
1242.944563
 31
0.0
  0
LINE
  5
5904
100
AcDbEntity
  8
0
100
AcDbLine
 10
1771.070314
 20
1232.194563
 30
0.0
 11
1771.070314
 21
1246.694563
 31
0.0
  0
LINE
  5
5905
100
AcDbEntity
  8
0
100
AcDbLine
 10
1768.522522
 20
1246.694563
 30
0.0
 11
1768.522522
 21
1232.194563
 31
0.0
  0
LINE
  5
5906
100
AcDbEntity
  8
0
100
AcDbLine
 10
1761.070314
 20
1252.194563
 30
0.0
 11
1761.070314
 21
1246.694563
 31
0.0
  0
LINE
  5
5907
100
AcDbEntity
  8
0
100
AcDbLine
 10
1775.070314
 20
1232.194563
 30
0.0
 11
1775.070314
 21
1246.694563
 31
0.0
  0
LINE
  5
5908
100
AcDbEntity
  8
0
100
AcDbLine
 10
1777.618106
 20
1246.694563
 30
0.0
 11
1777.618106
 21
1232.194563
 31
0.0
  0
LINE
  5
5909
100
AcDbEntity
  8
0
100
AcDbLine
 10
1785.070314
 20
1252.194563
 30
0.0
 11
1785.070314
 21
1246.694563
 31
0.0
  0
LINE
  5
590A
100
AcDbEntity
  8
0
100
AcDbLine
 10
1792.083426
 20
1232.194563
 30
0.0
 11
1792.083426
 21
1225.208366
 31
0.0
  0
LINE
  5
590B
100
AcDbEntity
  8
0
100
AcDbLine
 10
1795.085497
 20
1222.206295
 30
0.0
 11
1821.314326
 21
1222.206295
 31
0.0
  0
ARC
  5
590C
100
AcDbEntity
  8
0
100
AcDbCircle
 10
1795.072968
 20
1225.195837
 30
0.0
 40
2.989568
100
AcDbArc
 50
179.759885
 51
270.240115
  0
LINE
  5
590D
100
AcDbEntity
  8
0
100
AcDbLine
 10
1792.070314
 20
1252.194563
 30
0.0
 11
1792.070314
 21
1232.194563
 31
0.0
  0
LINE
  5
590E
100
AcDbEntity
  8
0
100
AcDbLine
 10
1782.070314
 20
1284.694563
 30
0.0
 11
1782.070314
 21
1282.194563
 31
0.0
  0
LINE
  5
590F
100
AcDbEntity
  8
0
100
AcDbLine
 10
1764.070314
 20
1284.694563
 30
0.0
 11
1764.070314
 21
1282.194563
 31
0.0
  0
LINE
  5
5910
100
AcDbEntity
  8
0
100
AcDbLine
 10
1761.070314
 20
1279.694563
 30
0.0
 11
1785.070314
 21
1279.694563
 31
0.0
  0
LINE
  5
5911
100
AcDbEntity
  8
0
100
AcDbLine
 10
1761.070314
 20
1282.194563
 30
0.0
 11
1785.070314
 21
1282.194563
 31
0.0
  0
LINE
  5
5912
100
AcDbEntity
  8
0
100
AcDbLine
 10
1761.070314
 20
1277.194563
 30
0.0
 11
1785.070314
 21
1277.194563
 31
0.0
  0
LINE
  5
5913
100
AcDbEntity
  8
0
100
AcDbLine
 10
1761.070314
 20
1269.694563
 30
0.0
 11
1785.070314
 21
1269.694563
 31
0.0
  0
LINE
  5
5914
100
AcDbEntity
  8
0
100
AcDbLine
 10
1761.070314
 20
1272.194563
 30
0.0
 11
1785.070314
 21
1272.194563
 31
0.0
  0
LINE
  5
5915
100
AcDbEntity
  8
0
100
AcDbLine
 10
1761.070314
 20
1274.694563
 30
0.0
 11
1785.070314
 21
1274.694563
 31
0.0
  0
LINE
  5
5916
100
AcDbEntity
  8
0
100
AcDbLine
 10
1761.070314
 20
1264.694563
 30
0.0
 11
1785.070314
 21
1264.694563
 31
0.0
  0
LINE
  5
5917
100
AcDbEntity
  8
0
100
AcDbLine
 10
1761.070314
 20
1267.194563
 30
0.0
 11
1785.070314
 21
1267.194563
 31
0.0
  0
LINE
  5
5918
100
AcDbEntity
  8
0
100
AcDbLine
 10
1761.070314
 20
1262.194563
 30
0.0
 11
1785.070314
 21
1262.194563
 31
0.0
  0
LINE
  5
5919
100
AcDbEntity
  8
0
100
AcDbLine
 10
1764.070314
 20
1274.694563
 30
0.0
 11
1764.070314
 21
1272.194563
 31
0.0
  0
LINE
  5
591A
100
AcDbEntity
  8
0
100
AcDbLine
 10
1764.070314
 20
1279.694563
 30
0.0
 11
1764.070314
 21
1277.194563
 31
0.0
  0
LINE
  5
591B
100
AcDbEntity
  8
0
100
AcDbLine
 10
1761.070314
 20
1282.194563
 30
0.0
 11
1761.070314
 21
1279.694563
 31
0.0
  0
LINE
  5
591C
100
AcDbEntity
  8
0
100
AcDbLine
 10
1761.070314
 20
1277.194563
 30
0.0
 11
1761.070314
 21
1274.694563
 31
0.0
  0
LINE
  5
591D
100
AcDbEntity
  8
0
100
AcDbLine
 10
1764.070314
 20
1264.694563
 30
0.0
 11
1764.070314
 21
1262.194563
 31
0.0
  0
LINE
  5
591E
100
AcDbEntity
  8
0
100
AcDbLine
 10
1764.070314
 20
1269.694563
 30
0.0
 11
1764.070314
 21
1267.194563
 31
0.0
  0
LINE
  5
591F
100
AcDbEntity
  8
0
100
AcDbLine
 10
1761.070314
 20
1262.194563
 30
0.0
 11
1761.070314
 21
1259.194563
 31
0.0
  0
LINE
  5
5920
100
AcDbEntity
  8
0
100
AcDbLine
 10
1761.070314
 20
1267.194563
 30
0.0
 11
1761.070314
 21
1264.694563
 31
0.0
  0
LINE
  5
5921
100
AcDbEntity
  8
0
100
AcDbLine
 10
1761.070314
 20
1272.194563
 30
0.0
 11
1761.070314
 21
1269.694563
 31
0.0
  0
LINE
  5
5922
100
AcDbEntity
  8
0
100
AcDbLine
 10
1782.070314
 20
1274.694563
 30
0.0
 11
1782.070314
 21
1272.194563
 31
0.0
  0
LINE
  5
5923
100
AcDbEntity
  8
0
100
AcDbLine
 10
1782.070314
 20
1279.694563
 30
0.0
 11
1782.070314
 21
1277.194563
 31
0.0
  0
LINE
  5
5924
100
AcDbEntity
  8
0
100
AcDbLine
 10
1785.070314
 20
1282.194563
 30
0.0
 11
1785.070314
 21
1279.694563
 31
0.0
  0
LINE
  5
5925
100
AcDbEntity
  8
0
100
AcDbLine
 10
1785.070314
 20
1277.194563
 30
0.0
 11
1785.070314
 21
1274.694563
 31
0.0
  0
LINE
  5
5926
100
AcDbEntity
  8
0
100
AcDbLine
 10
1785.070314
 20
1262.194563
 30
0.0
 11
1785.070314
 21
1259.194563
 31
0.0
  0
LINE
  5
5927
100
AcDbEntity
  8
0
100
AcDbLine
 10
1782.070314
 20
1264.694563
 30
0.0
 11
1782.070314
 21
1262.194563
 31
0.0
  0
LINE
  5
5928
100
AcDbEntity
  8
0
100
AcDbLine
 10
1785.070314
 20
1267.194563
 30
0.0
 11
1785.070314
 21
1264.694563
 31
0.0
  0
LINE
  5
5929
100
AcDbEntity
  8
0
100
AcDbLine
 10
1782.070314
 20
1269.694563
 30
0.0
 11
1782.070314
 21
1267.194563
 31
0.0
  0
LINE
  5
592A
100
AcDbEntity
  8
0
100
AcDbLine
 10
1785.070314
 20
1272.194563
 30
0.0
 11
1785.070314
 21
1269.694563
 31
0.0
  0
LINE
  5
592B
100
AcDbEntity
  8
0
100
AcDbLine
 10
1761.070314
 20
1284.694563
 30
0.0
 11
1785.070314
 21
1284.694563
 31
0.0
  0
LINE
  5
592C
100
AcDbEntity
  8
0
100
AcDbLine
 10
1761.070314
 20
1285.194563
 30
0.0
 11
1761.070314
 21
1284.694563
 31
0.0
  0
LINE
  5
592D
100
AcDbEntity
  8
0
100
AcDbLine
 10
1785.070314
 20
1285.194563
 30
0.0
 11
1785.070314
 21
1284.694563
 31
0.0
  0
LINE
  5
592E
100
AcDbEntity
  8
0
100
AcDbLine
 10
1809.567192
 20
1285.194563
 30
0.0
 11
1809.567192
 21
1277.385563
 31
0.0
  0
LINE
  5
592F
100
AcDbEntity
  8
0
100
AcDbLine
 10
1805.813192
 20
1277.385563
 30
0.0
 11
1805.813192
 21
1283.194563
 31
0.0
  0
LINE
  5
5930
100
AcDbEntity
  8
0
100
AcDbLine
 10
1798.309192
 20
1277.385563
 30
0.0
 11
1798.309192
 21
1283.194563
 31
0.0
  0
LINE
  5
5931
100
AcDbEntity
  8
0
100
AcDbLine
 10
1794.556192
 20
1277.385563
 30
0.0
 11
1794.556192
 21
1285.194563
 31
0.0
  0
ARC
  5
5932
100
AcDbEntity
  8
0
100
AcDbCircle
 10
1807.689692
 20
1280.388522
 30
0.0
 40
3.541047
100
AcDbArc
 50
237.999406
 51
302.000594
  0
LINE
  5
5933
100
AcDbEntity
  8
0
100
AcDbLine
 10
1808.370192
 20
1276.694563
 30
0.0
 11
1795.752192
 21
1276.694563
 31
0.0
  0
LINE
  5
5934
100
AcDbEntity
  8
0
100
AcDbLine
 10
1795.752192
 20
1276.694563
 30
0.0
 11
1794.556192
 21
1277.385563
 31
0.0
  0
ARC
  5
5935
100
AcDbEntity
  8
0
100
AcDbCircle
 10
1796.432692
 20
1280.388522
 30
0.0
 40
3.541047
100
AcDbArc
 50
237.999406
 51
302.000594
  0
ARC
  5
5936
100
AcDbEntity
  8
0
100
AcDbCircle
 10
1802.061192
 20
1290.200043
 30
0.0
 40
13.352467
100
AcDbArc
 50
253.680297
 51
286.319703
  0
LINE
  5
5937
100
AcDbEntity
  8
0
100
AcDbLine
 10
1809.567192
 20
1277.385563
 30
0.0
 11
1808.370192
 21
1276.694563
 31
0.0
  0
LINE
  5
5938
100
AcDbEntity
  8
0
100
AcDbLine
 10
1794.556192
 20
1283.194563
 30
0.0
 11
1809.567192
 21
1283.194563
 31
0.0
  0
LINE
  5
5939
100
AcDbEntity
  8
0
100
AcDbLine
 10
1828.838034
 20
1229.211126
 30
0.0
 11
1854.326353
 21
1229.211126
 31
0.0
  0
LINE
  5
593A
100
AcDbEntity
  8
0
100
AcDbLine
 10
1844.724785
 20
1296.267734
 30
0.0
 11
1840.871127
 21
1296.267734
 31
0.0
  0
LINE
  5
593B
100
AcDbEntity
  8
0
100
AcDbLine
 10
1839.945654
 20
1294.647177
 30
0.0
 11
1840.871127
 21
1294.731149
 31
0.0
  0
LINE
  5
593C
100
AcDbEntity
  8
0
100
AcDbLine
 10
1836.261371
 20
1299.349035
 30
0.0
 11
1839.724785
 21
1298.389685
 31
0.0
  0
LINE
  5
593D
100
AcDbEntity
  8
0
100
AcDbLine
 10
1839.724785
 20
1298.389685
 30
0.0
 11
1836.261371
 21
1297.422205
 31
0.0
  0
LINE
  5
593E
100
AcDbEntity
  8
0
100
AcDbLine
 10
1836.261371
 20
1293.194563
 30
0.0
 11
1839.952428
 21
1294.649848
 31
0.0
  0
LINE
  5
593F
100
AcDbEntity
  8
0
100
AcDbLine
 10
1830.106899
 20
1307.040092
 30
0.0
 11
1830.106899
 21
1299.349035
 31
0.0
  0
LINE
  5
5940
100
AcDbEntity
  8
0
100
AcDbLine
 10
1836.261371
 20
1307.040092
 30
0.0
 11
1836.261371
 21
1299.349035
 31
0.0
  0
LINE
  5
5941
100
AcDbEntity
  8
0
100
AcDbLine
 10
1836.261371
 20
1297.422205
 30
0.0
 11
1830.106899
 21
1297.422205
 31
0.0
  0
LINE
  5
5942
100
AcDbEntity
  8
0
100
AcDbLine
 10
1830.106899
 20
1299.349035
 30
0.0
 11
1836.261371
 21
1299.349035
 31
0.0
  0
LINE
  5
5943
100
AcDbEntity
  8
0
100
AcDbLine
 10
1830.106899
 20
1297.422205
 30
0.0
 11
1830.106899
 21
1293.194563
 31
0.0
  0
LINE
  5
5944
100
AcDbEntity
  8
0
100
AcDbLine
 10
1836.261371
 20
1297.422205
 30
0.0
 11
1836.261371
 21
1293.194563
 31
0.0
  0
LINE
  5
5945
100
AcDbEntity
  8
0
100
AcDbLine
 10
1836.261371
 20
1307.040092
 30
0.0
 11
1830.106899
 21
1307.040092
 31
0.0
  0
LINE
  5
5946
100
AcDbEntity
  8
0
100
AcDbLine
 10
1836.261371
 20
1293.194563
 30
0.0
 11
1826.570314
 21
1293.194563
 31
0.0
  0
LINE
  5
5947
100
AcDbEntity
  8
0
100
AcDbLine
 10
1826.570314
 20
1285.194563
 30
0.0
 11
1826.570314
 21
1293.194563
 31
0.0
  0
LINE
  5
5948
100
AcDbEntity
  8
0
100
AcDbLine
 10
1844.724785
 20
1296.267734
 30
0.0
 11
1844.724785
 21
1293.966921
 31
0.0
  0
LINE
  5
5949
100
AcDbEntity
  8
0
100
AcDbLine
 10
1848.570314
 20
1299.508848
 30
0.0
 11
1844.724785
 21
1299.508848
 31
0.0
  0
LINE
  5
594A
100
AcDbEntity
  8
0
100
AcDbLine
 10
1848.570314
 20
1306.880278
 30
0.0
 11
1844.724785
 21
1306.880278
 31
0.0
  0
LINE
  5
594B
100
AcDbEntity
  8
0
100
AcDbLine
 10
1847.797956
 20
1293.966921
 30
0.0
 11
1848.570314
 21
1295.113262
 31
0.0
  0
LINE
  5
594C
100
AcDbEntity
  8
0
100
AcDbLine
 10
1844.724785
 20
1293.966921
 30
0.0
 11
1847.797956
 21
1293.966921
 31
0.0
  0
LINE
  5
594D
100
AcDbEntity
  8
0
100
AcDbLine
 10
1848.570314
 20
1297.673896
 30
0.0
 11
1844.724785
 21
1297.673896
 31
0.0
  0
LINE
  5
594E
100
AcDbEntity
  8
0
100
AcDbLine
 10
1826.570314
 20
1313.194563
 30
0.0
 11
1826.570314
 21
1343.194563
 31
0.0
  0
LINE
  5
594F
100
AcDbEntity
  8
0
100
AcDbLine
 10
1840.871127
 20
1310.121392
 30
0.0
 11
1844.724785
 21
1310.121392
 31
0.0
  0
LINE
  5
5950
100
AcDbEntity
  8
0
100
AcDbLine
 10
1839.955349
 20
1312.120543
 30
0.0
 11
1840.871127
 21
1312.040092
 31
0.0
  0
LINE
  5
5951
100
AcDbEntity
  8
0
100
AcDbLine
 10
1839.955349
 20
1312.120543
 30
0.0
 11
1836.261371
 21
1313.194563
 31
0.0
  0
LINE
  5
5952
100
AcDbEntity
  8
0
100
AcDbLine
 10
1836.261371
 20
1308.966921
 30
0.0
 11
1839.724785
 21
1307.999441
 31
0.0
  0
LINE
  5
5953
100
AcDbEntity
  8
0
100
AcDbLine
 10
1830.106899
 20
1308.966921
 30
0.0
 11
1836.261371
 21
1308.966921
 31
0.0
  0
LINE
  5
5954
100
AcDbEntity
  8
0
100
AcDbLine
 10
1830.106899
 20
1313.194563
 30
0.0
 11
1830.106899
 21
1308.966921
 31
0.0
  0
LINE
  5
5955
100
AcDbEntity
  8
0
100
AcDbLine
 10
1836.261371
 20
1313.194563
 30
0.0
 11
1836.261371
 21
1308.966921
 31
0.0
  0
LINE
  5
5956
100
AcDbEntity
  8
0
100
AcDbLine
 10
1826.570314
 20
1313.194563
 30
0.0
 11
1836.261371
 21
1313.194563
 31
0.0
  0
LINE
  5
5957
100
AcDbEntity
  8
0
100
AcDbLine
 10
1844.724785
 20
1312.422205
 30
0.0
 11
1844.724785
 21
1310.121392
 31
0.0
  0
LINE
  5
5958
100
AcDbEntity
  8
0
100
AcDbLine
 10
1847.797956
 20
1312.422205
 30
0.0
 11
1844.724785
 21
1312.422205
 31
0.0
  0
LINE
  5
5959
100
AcDbEntity
  8
0
100
AcDbLine
 10
1848.570314
 20
1311.275864
 30
0.0
 11
1847.797956
 21
1312.422205
 31
0.0
  0
LINE
  5
595A
100
AcDbEntity
  8
0
100
AcDbLine
 10
1848.570314
 20
1308.71523
 30
0.0
 11
1844.724785
 21
1308.71523
 31
0.0
  0
LINE
  5
595B
100
AcDbEntity
  8
0
100
AcDbLine
 10
1803.070314
 20
1450.194563
 30
0.0
 11
1813.481125
 21
1439.783752
 31
0.0
  0
VIEWPORT
  5
41
100
AcDbEntity
 67
     1
  8
0
100
AcDbViewport
 10
117.358407
 20
73.5
 30
0.0
 40
234.716814
 41
147.0
 68
    -1
 69
     1
1001
ACAD
1000
MVIEW
1002
{
1070
    16
1010
0.0
1020
0.0
1030
0.0
1010
0.0
1020
0.0
1030
1.0
1040
0.0
1040
147.0
1040
117.358407
1040
73.5
1040
50.0
1040
0.0
1040
0.0
1070
     0
1070
   100
1070
     1
1070
     1
1070
     0
1070
     0
1070
     0
1070
     0
1040
0.0
1040
0.0
1040
0.0
1040
1.0
1040
1.0
1040
0.0
1040
0.0
1070
     0
1002
{
1002
}
1002
}
  0
ENDSEC
  0
SECTION
  2
OBJECTS
  0
DICTIONARY
  5
C
100
AcDbDictionary
  3
ACAD_GROUP
350
D
  3
ACAD_MLINESTYLE
350
E
  0
DICTIONARY
  5
D
102
{ACAD_REACTORS
330
C
102
}
100
AcDbDictionary
  0
DICTIONARY
  5
E
102
{ACAD_REACTORS
330
C
102
}
100
AcDbDictionary
  3
STANDARD
350
1B
  0
MLINESTYLE
  5
1B
102
{ACAD_REACTORS
330
E
102
}
100
AcDbMlineStyle
  2
STANDARD
 70
     0
  3

 62
     0
 51
90.0
 52
90.0
 71
     2
 49
0.5
 62
   256
  6
BYLAYER
 49
-0.5
 62
   256
  6
BYLAYER
  0
ENDSEC
  0
EOF
