  0
SECTION
  2
HEADER
  9
$ACADVER
  1
AC1014
  9
$ACADMAINTVER
 70
     0
  9
$DWGCODEPAGE
  3
ANSI_932
  9
$INSBASE
 10
0.0
 20
0.0
 30
0.0
  9
$EXTMIN
 10
10.98069833612612
 20
4.992371100225
 30
-0.0015258207003583
  9
$EXTMAX
 10
286.0193030468879
 20
191.0046391387059
 30
0.0000000349246037
  9
$LIMMIN
 10
0.0
 20
0.0
  9
$LIMMAX
 10
297.0
 20
210.0
  9
$ORTHOMODE
 70
     1
  9
$REGENMODE
 70
     1
  9
$FILLMODE
 70
     1
  9
$QTEXTMODE
 70
     0
  9
$MIRRTEXT
 70
     1
  9
$DRAGMODE
 70
     2
  9
$LTSCALE
 40
4.0
  9
$OSMODE
 70
   163
  9
$ATTMODE
 70
     1
  9
$TEXTSIZE
 40
2.799999999999999
  9
$TRACEWID
 40
0.05
  9
$TEXTSTYLE
  7
STANDARD
  9
$CLAYER
  8
0
  9
$CELTYPE
  6
BYLAYER
  9
$CECOLOR
 62
   256
  9
$CELTSCALE
 40
1.0
  9
$DELOBJ
 70
     1
  9
$DISPSILH
 70
     0
  9
$DIMSCALE
 40
1.0
  9
$DIMASZ
 40
2.799999999999999
  9
$DIMEXO
 40
1.0
  9
$DIMDLI
 40
5.0
  9
$DIMRND
 40
0.1
  9
$DIMDLE
 40
0.0
  9
$DIMEXE
 40
1.0
  9
$DIMTP
 40
0.0
  9
$DIMTM
 40
0.0
  9
$DIMTXT
 40
2.5
  9
$DIMCEN
 40
0.0
  9
$DIMTSZ
 40
0.0
  9
$DIMTOL
 70
     0
  9
$DIMLIM
 70
     0
  9
$DIMTIH
 70
     0
  9
$DIMTOH
 70
     0
  9
$DIMSE1
 70
     0
  9
$DIMSE2
 70
     0
  9
$DIMTAD
 70
     3
  9
$DIMZIN
 70
     8
  9
$DIMBLK
  1

  9
$DIMASO
 70
     1
  9
$DIMSHO
 70
     1
  9
$DIMPOST
  1
 
  9
$DIMAPOST
  1

  9
$DIMALT
 70
     0
  9
$DIMALTD
 70
     2
  9
$DIMALTF
 40
1.0
  9
$DIMLFAC
 40
1.0
  9
$DIMTOFL
 70
     1
  9
$DIMTVP
 40
0.0
  9
$DIMTIX
 70
     0
  9
$DIMSOXD
 70
     0
  9
$DIMSAH
 70
     1
  9
$DIMBLK1
  1
OPEN
  9
$DIMBLK2
  1
OPEN
  9
$DIMSTYLE
  2
DIM1
  9
$DIMCLRD
 70
     2
  9
$DIMCLRE
 70
     2
  9
$DIMCLRT
 70
     2
  9
$DIMTFAC
 40
0.7
  9
$DIMGAP
 40
0.85
  9
$DIMJUST
 70
     0
  9
$DIMSD1
 70
     0
  9
$DIMSD2
 70
     0
  9
$DIMTOLJ
 70
     1
  9
$DIMTZIN
 70
     8
  9
$DIMALTZ
 70
     8
  9
$DIMALTTZ
 70
     8
  9
$DIMFIT
 70
     0
  9
$DIMUPT
 70
     0
  9
$DIMUNIT
 70
     2
  9
$DIMDEC
 70
     2
  9
$DIMTDEC
 70
     3
  9
$DIMALTU
 70
     2
  9
$DIMALTTD
 70
     3
  9
$DIMTXSTY
  7
DIM
  9
$DIMAUNIT
 70
     0
  9
$LUNITS
 70
     2
  9
$LUPREC
 70
     4
  9
$SKETCHINC
 40
0.1
  9
$FILLETRAD
 40
0.0
  9
$AUNITS
 70
     0
  9
$AUPREC
 70
     0
  9
$MENU
  1
C:\ACADR13\WIN\SUPPORT\ACAD.mnc
  9
$ELEVATION
 40
0.0
  9
$PELEVATION
 40
0.0
  9
$THICKNESS
 40
0.0
  9
$LIMCHECK
 70
     0
  9
$BLIPMODE
 70
     0
  9
$CHAMFERA
 40
0.0
  9
$CHAMFERB
 40
0.0
  9
$CHAMFERC
 40
0.0
  9
$CHAMFERD
 40
0.0
  9
$SKPOLY
 70
     0
  9
$TDCREATE
 40
2451564.587411898
  9
$TDUPDATE
 40
2452948.346930509
  9
$TDINDWG
 40
0.0460848727
  9
$TDUSRTIMER
 40
0.0460848727
  9
$USRTIMER
 70
     1
  9
$ANGBASE
 50
0.0
  9
$ANGDIR
 70
     0
  9
$PDMODE
 70
     0
  9
$PDSIZE
 40
0.0
  9
$PLINEWID
 40
0.0
  9
$COORDS
 70
     2
  9
$SPLFRAME
 70
     0
  9
$SPLINETYPE
 70
     6
  9
$SPLINESEGS
 70
     8
  9
$ATTDIA
 70
     0
  9
$ATTREQ
 70
     1
  9
$HANDLING
 70
 22529
  9
$HANDSEED
  5
3977
  9
$SURFTAB1
 70
     6
  9
$SURFTAB2
 70
     6
  9
$SURFTYPE
 70
     6
  9
$SURFU
 70
     6
  9
$SURFV
 70
     6
  9
$UCSNAME
  2

  9
$UCSORG
 10
0.0
 20
0.0
 30
0.0
  9
$UCSXDIR
 10
1.0
 20
0.0
 30
0.0
  9
$UCSYDIR
 10
0.0
 20
1.0
 30
0.0
  9
$PUCSNAME
  2

  9
$PUCSORG
 10
0.0
 20
0.0
 30
0.0
  9
$PUCSXDIR
 10
1.0
 20
0.0
 30
0.0
  9
$PUCSYDIR
 10
0.0
 20
1.0
 30
0.0
  9
$USERI1
 70
     0
  9
$USERI2
 70
     0
  9
$USERI3
 70
     0
  9
$USERI4
 70
     0
  9
$USERI5
 70
     0
  9
$USERR1
 40
0.0
  9
$USERR2
 40
0.0
  9
$USERR3
 40
0.0
  9
$USERR4
 40
0.0
  9
$USERR5
 40
0.0
  9
$WORLDVIEW
 70
     1
  9
$SHADEDGE
 70
     3
  9
$SHADEDIF
 70
    70
  9
$TILEMODE
 70
     1
  9
$MAXACTVP
 70
    16
  9
$PINSBASE
 10
0.0
 20
0.0
 30
0.0
  9
$PLIMCHECK
 70
     0
  9
$PEXTMIN
 10
1.000000000000000E+20
 20
1.000000000000000E+20
 30
1.000000000000000E+20
  9
$PEXTMAX
 10
-1.000000000000000E+20
 20
-1.000000000000000E+20
 30
-1.000000000000000E+20
  9
$PLIMMIN
 10
0.0
 20
0.0
  9
$PLIMMAX
 10
20.0
 20
147.0
  9
$UNITMODE
 70
     0
  9
$VISRETAIN
 70
     0
  9
$PLINEGEN
 70
     0
  9
$PSLTSCALE
 70
     1
  9
$TREEDEPTH
 70
  3020
  9
$PICKSTYLE
 70
     1
  9
$CMLSTYLE
  2
STANDARD
  9
$CMLJUST
 70
     0
  9
$CMLSCALE
 40
1.0
  9
$PROXYGRAPHICS
 70
     1
  9
$MEASUREMENT
 70
     1
  0
ENDSEC
  0
SECTION
  2
CLASSES
  0
CLASS
  1
LWPOLYLINE
  2
AcDbPolyline
  3
AutoCAD 2000
 90
        0
280
     0
281
     1
  0
CLASS
  1
ACDBDICTIONARYWDFLT
  2
AcDbDictionaryWithDefault
  3
AutoCAD 2000
 90
        0
280
     0
281
     0
  0
CLASS
  1
ACDBPLACEHOLDER
  2
AcDbPlaceHolder
  3
AutoCAD 2000
 90
        0
280
     0
281
     0
  0
CLASS
  1
LAYOUT
  2
AcDbLayout
  3
AutoCAD 2000
 90
        0
280
     0
281
     0
  0
CLASS
  1
LONG_TRANSACTION
  2
AcDbLongTransaction
  3
AutoCAD 2000
 90
        0
280
     0
281
     0
  0
CLASS
  1
LWPOLYLINE
  2
AcDbPolyline
  3
AutoCAD 2000
 90
        0
280
     0
281
     1
  0
CLASS
  1
HATCH
  2
AcDbHatch
  3
AutoCAD 2000
 90
        0
280
     0
281
     1
  0
CLASS
  1
XRECORD
  2
AcDbXrecord
  3
AutoCAD 2000
 90
        0
280
     0
281
     0
  0
CLASS
  1
DICTIONARYVAR
  2
AcDbDictionaryVar
  3
AutoCAD 2000
 90
        0
280
     0
281
     0
  0
CLASS
  1
LONG_TRANSACTION
  2
AcDbLongTransaction
  3
AutoCAD 2000
 90
        0
280
     0
281
     0
  0
CLASS
  1
LWPOLYLINE
  2
AcDbPolyline
  3
AutoCAD 2000
 90
        0
280
     0
281
     1
  0
CLASS
  1
HATCH
  2
AcDbHatch
  3
AutoCAD 2000
 90
        0
280
     0
281
     1
  0
CLASS
  1
XRECORD
  2
AcDbXrecord
  3
AutoCAD 2000
 90
        0
280
     0
281
     0
  0
ENDSEC
  0
SECTION
  2
TABLES
  0
TABLE
  2
VPORT
  5
8
330
0
100
AcDbSymbolTable
 70
     3
  0
VPORT
  5
3953
330
8
100
AcDbSymbolTableRecord
100
AcDbViewportTableRecord
  2
*ACTIVE
 70
     0
 10
0.0
 20
0.0
 11
1.0
 21
1.0
 12
148.5
 22
104.9999999999999
 13
0.0
 23
0.0
 14
1.0
 24
1.0
 15
0.0
 25
0.0
 16
0.0
 26
0.0
 36
1.0
 17
0.0
 27
0.0
 37
0.0
 40
211.7004048582995
 41
1.656756756756756
 42
50.0
 43
0.0
 44
0.0
 50
0.0
 51
0.0
 71
     0
 72
   100
 73
     1
 74
     1
 75
     0
 76
     0
 77
     0
 78
     0
  0
ENDTAB
  0
TABLE
  2
LTYPE
  5
5
330
0
100
AcDbSymbolTable
 70
     1
  0
LTYPE
  5
12
330
5
100
AcDbSymbolTableRecord
100
AcDbLinetypeTableRecord
  2
BYBLOCK
 70
     0
  3

 72
    65
 73
     0
 40
0.0
  0
LTYPE
  5
13
330
5
100
AcDbSymbolTableRecord
100
AcDbLinetypeTableRecord
  2
BYLAYER
 70
     0
  3

 72
    65
 73
     0
 40
0.0
  0
LTYPE
  5
14
330
5
100
AcDbSymbolTableRecord
100
AcDbLinetypeTableRecord
  2
CONTINUOUS
 70
     0
  3
Solid line
 72
    65
 73
     0
 40
0.0
  0
ENDTAB
  0
TABLE
  2
LAYER
  5
2
330
0
100
AcDbSymbolTable
 70
     1
  0
LAYER
  5
F
330
2
100
AcDbSymbolTableRecord
100
AcDbLayerTableRecord
  2
0
 70
     0
 62
     7
  6
CONTINUOUS
  0
ENDTAB
  0
TABLE
  2
STYLE
  5
3
330
0
100
AcDbSymbolTable
 70
     3
  0
STYLE
  5
10
330
3
100
AcDbSymbolTableRecord
100
AcDbTextStyleTableRecord
  2
STANDARD
 70
     0
 40
0.0
 41
0.8
 50
0.0
 71
     0
 42
2.799999999999999
  3
simplex
  4
extfont
  0
STYLE
  5
237C
330
3
100
AcDbSymbolTableRecord
100
AcDbTextStyleTableRecord
  2
PTSH
 70
     0
 40
0.0
 41
0.9
 50
0.0
 71
     0
 42
4.0
  3
SIMPLEX
  4
EXTFONT
  0
STYLE
  5
2592
330
3
100
AcDbSymbolTableRecord
100
AcDbTextStyleTableRecord
  2
DIM
 70
     0
 40
0.0
 41
0.8
 50
0.0
 71
     0
 42
4.0
  3
simplex
  4
extfont
  0
ENDTAB
  0
TABLE
  2
VIEW
  5
6
330
0
100
AcDbSymbolTable
 70
     0
  0
ENDTAB
  0
TABLE
  2
UCS
  5
7
330
0
100
AcDbSymbolTable
 70
     0
  0
ENDTAB
  0
TABLE
  2
APPID
  5
9
330
0
100
AcDbSymbolTable
 70
     1
  0
APPID
  5
11
330
9
100
AcDbSymbolTableRecord
100
AcDbRegAppTableRecord
  2
ACAD
 70
     0
  0
ENDTAB
  0
TABLE
  2
DIMSTYLE
  5
A
330
0
100
AcDbSymbolTable
 70
     1
  0
DIMSTYLE
105
2237
330
A
100
AcDbSymbolTableRecord
100
AcDbDimStyleTableRecord
  2
DIM1
 70
     0
  3
 
  4

  5

  6
OPEN
  7
OPEN
 40
1.0
 41
2.799999999999999
 42
1.0
 43
5.0
 44
1.0
 45
0.1
 46
0.0
 47
0.0
 48
0.0
140
2.5
141
0.0
142
0.0
143
1.0
144
1.0
145
0.0
146
0.7
147
0.85
 71
     0
 72
     0
 73
     0
 74
     0
 75
     0
 76
     0
 77
     3
 78
     8
170
     0
171
     2
172
     1
173
     1
174
     0
175
     0
176
     2
177
     2
178
     2
270
     2
271
     2
272
     3
273
     2
274
     3
340
2592
275
     0
280
     0
281
     0
282
     0
283
     1
284
     8
285
     8
286
     8
287
     0
288
     0
  0
ENDTAB
  0
TABLE
  2
BLOCK_RECORD
  5
1
330
0
100
AcDbSymbolTable
 70
     2
  0
BLOCK_RECORD
  5
18
102
{ACAD_XDICTIONARY
360
38FD
102
}
330
1
100
AcDbSymbolTableRecord
100
AcDbBlockTableRecord
  2
*MODEL_SPACE
  0
BLOCK_RECORD
  5
15
102
{ACAD_XDICTIONARY
360
38FB
102
}
330
1
100
AcDbSymbolTableRecord
100
AcDbBlockTableRecord
  2
*PAPER_SPACE
  0
BLOCK_RECORD
  5
2448
330
1
100
AcDbSymbolTableRecord
100
AcDbBlockTableRecord
  2
_OPEN
  0
BLOCK_RECORD
  5
3813
330
1
100
AcDbSymbolTableRecord
100
AcDbBlockTableRecord
  2
YA
  0
ENDTAB
  0
ENDSEC
  0
SECTION
  2
BLOCKS
  0
BLOCK
  5
3C
330
18
100
AcDbEntity
  8
0
100
AcDbBlockBegin
  2
*MODEL_SPACE
 70
     0
 10
0.0
 20
0.0
 30
0.0
  3
*MODEL_SPACE
  1

  0
ENDBLK
  5
3D
330
18
100
AcDbEntity
  8
0
100
AcDbBlockEnd
  0
BLOCK
  5
3A
330
15
100
AcDbEntity
 67
     1
  8
0
100
AcDbBlockBegin
  2
*PAPER_SPACE
 70
     0
 10
0.0
 20
0.0
 30
0.0
  3
*PAPER_SPACE
  1

  0
ENDBLK
  5
3B
330
15
100
AcDbEntity
 67
     1
  8
0
100
AcDbBlockEnd
  0
BLOCK
  5
2449
330
2448
100
AcDbEntity
  8
0
 48
4.0
100
AcDbBlockBegin
  2
_OPEN
 70
     0
 10
0.0
 20
0.0
 30
0.0
  3
_OPEN
  1
H1111.DWG
  0
LINE
  5
244A
330
2448
100
AcDbEntity
  8
0
  6
BYBLOCK
 62
     0
 48
4.0
100
AcDbLine
 10
-1.0
 20
0.1666666666666666
 30
0.0
 11
0.0
 21
0.0
 31
0.0
  0
LINE
  5
244B
330
2448
100
AcDbEntity
  8
0
  6
BYBLOCK
 62
     0
 48
4.0
100
AcDbLine
 10
0.0
 20
0.0
 30
0.0
 11
-1.0
 21
-0.1666666666666666
 31
0.0
  0
LINE
  5
244C
330
2448
100
AcDbEntity
  8
0
  6
BYBLOCK
 62
     0
 48
4.0
100
AcDbLine
 10
0.0
 20
0.0
 30
0.0
 11
-1.0
 21
0.0
 31
0.0
  0
ENDBLK
  5
244D
330
2448
100
AcDbEntity
  8
0
 48
4.0
100
AcDbBlockEnd
  0
BLOCK
  5
381B
330
3813
100
AcDbEntity
  8
0
100
AcDbBlockBegin
  2
YA
 70
     0
 10
0.0
 20
0.0
 30
0.0
  3
YA
  1

  0
LINE
  5
3814
330
3813
100
AcDbEntity
  8
0
100
AcDbLine
 10
-16.80650000000002
 20
2.80099999999993
 30
0.0
 11
-8.403500000000008
 21
2.80099999999993
 31
0.0
  0
LINE
  5
3815
330
3813
100
AcDbEntity
  8
0
100
AcDbLine
 10
-8.403500000000008
 20
2.80099999999993
 30
0.0
 11
-7.002499999999997
 21
1.400499999999965
 31
0.0
  0
LINE
  5
3816
330
3813
100
AcDbEntity
  8
0
100
AcDbLine
 10
-7.002499999999997
 20
1.400499999999965
 30
0.0
 11
-2.861999999999966
 21
1.400499999999965
 31
0.0
  0
LINE
  5
3817
330
3813
100
AcDbEntity
  8
0
100
AcDbLine
 10
-2.861999999999966
 20
1.400499999999965
 30
0.0
 11
-2.861999999999966
 21
2.80099999999993
 31
0.0
  0
LINE
  5
3818
330
3813
100
AcDbEntity
  8
0
100
AcDbLine
 10
-2.861999999999966
 20
2.80099999999993
 30
0.0
 11
0.0
 21
0.0
 31
0.0
  0
LINE
  5
3819
330
3813
100
AcDbEntity
  8
0
100
AcDbLine
 10
0.0
 20
0.0
 30
0.0
 11
-14.00549999999998
 21
0.0
 31
0.0
  0
LINE
  5
381A
330
3813
100
AcDbEntity
  8
0
100
AcDbLine
 10
-14.00549999999998
 20
0.0
 30
0.0
 11
-16.80650000000002
 21
2.80099999999993
 31
0.0
  0
ENDBLK
  5
381C
330
3813
100
AcDbEntity
  8
0
100
AcDbBlockEnd
  0
ENDSEC
  0
SECTION
  2
ENTITIES
  0
MTEXT
  5
ADA
330
18
100
AcDbEntity
  8
0
100
AcDbMText
 10
380.1392797717074
 20
49.84631113622272
 30
0.0
 40
0.1999999999999998
 41
47.22646484874617
 71
     1
 72
     5
  1

1001
ACAD
1000
MTEXTBEGIN
1070
    73
1070
     1
1070
    44
1040
1.0
1070
    74
1070
     0
1000
MTEXTEND
  0
MTEXT
  5
ADB
330
18
100
AcDbEntity
  8
0
100
AcDbMText
 10
389.0499331669142
 20
57.85079373289904
 30
0.0
 40
0.1999999999999998
 41
45.44433416970464
 71
     1
 72
     5
  1

1001
ACAD
1000
MTEXTBEGIN
1070
    73
1070
     1
1070
    44
1040
1.0
1070
    74
1070
     0
1000
MTEXTEND
  0
MTEXT
  5
ADC
330
18
100
AcDbEntity
  8
0
100
AcDbMText
 10
383.70354112979
 20
-47.98624640549265
 30
0.0
 40
0.1999999999999998
 41
51.68179154634977
 71
     1
 72
     5
  1

1001
ACAD
1000
MTEXTBEGIN
1070
    73
1070
     1
1070
    44
1040
1.0
1070
    74
1070
     0
1000
MTEXTEND
  0
TEXT
  5
2529
330
18
100
AcDbEntity
  8
0
  6
CONTINUOUS
100
AcDbText
 10
274.185714285714
 20
6.999999999999994
 30
0.0
 40
2.999999999999997
  1
NF6
 41
0.9
  7
PTSH
 72
     2
 11
280.9999999999997
 21
8.499999999999992
 31
0.0
100
AcDbText
 73
     2
  0
LWPOLYLINE
  5
2563
330
18
100
AcDbEntity
  8
0
100
AcDbPolyline
 90
        4
 70
     1
 43
0.0
 10
10.99999999999998
 20
4.999999999999995
 10
285.9999999999997
 20
4.999999999999995
 10
285.9999999999997
 20
190.9999999999998
 10
10.99999999999998
 20
190.9999999999998
  0
TEXT
  5
28A0
330
18
100
AcDbEntity
  8
0
100
AcDbText
 10
130.7666666666665
 20
18.24999999999999
 30
0.0
 40
3.499999999999996
  1
TLV  NF6 (PF)
 72
     1
 11
148.4999999999998
 21
19.99999999999999
 31
0.0
100
AcDbText
 73
     2
  0
TEXT
  5
376D
330
18
100
AcDbEntity
  8
0
100
AcDbText
 10
146.3571428571427
 20
36.49364193882768
 30
0.0
 40
2.5
  1
8A
 72
     1
 11
148.4999999999998
 21
37.74364193882768
 31
0.0
100
AcDbText
 73
     2
  0
TEXT
  5
376E
330
18
100
AcDbEntity
  8
0
100
AcDbText
 10
56.36314137770239
 20
62.71088926893479
 30
0.0
 40
3.5
  1
正面
100
AcDbText
  0
CIRCLE
  5
376F
330
18
100
AcDbEntity
  8
0
100
AcDbCircle
 10
195.8281153986304
 20
62.71088926893478
 30
0.0
 40
10.5
  0
LINE
  5
3770
330
18
100
AcDbEntity
  8
0
100
AcDbLine
 10
187.3281153986303
 20
56.54647526596583
 30
0.0
 11
187.3281153986304
 21
68.87530327190377
 31
0.0
  0
LINE
  5
3771
330
18
100
AcDbEntity
  8
0
100
AcDbLine
 10
204.3281153986304
 20
56.5464752659658
 30
0.0
 11
204.3281153986304
 21
68.87530327190377
 31
0.0
  0
TEXT
  5
3772
330
18
100
AcDbEntity
  8
0
100
AcDbText
 10
56.34478667555311
 20
142.7936204705895
 30
0.0
 40
3.5
  1
背面
100
AcDbText
  0
TEXT
  5
3773
330
18
100
AcDbEntity
  8
0
100
AcDbText
 10
56.36314137770239
 20
102.3508425271595
 30
0.0
 40
3.5
  1
平面
100
AcDbText
  0
LWPOLYLINE
  5
3774
330
18
100
AcDbEntity
  8
0
100
AcDbPolyline
 90
        6
 70
     1
 43
0.0
 10
101.7259622482703
 20
56.64871144244369
 10
91.22596224827034
 20
50.58653361595265
 10
80.72596224827035
 20
56.64871144244369
 10
80.72596224827032
 20
68.77306709542583
 10
91.22596224827033
 20
74.83524492191694
 10
101.7259622482703
 20
68.77306709542586
  0
CIRCLE
  5
3775
330
18
100
AcDbEntity
  8
0
100
AcDbCircle
 10
91.22596224827033
 20
62.71088926893478
 30
0.0
 40
10.5
  0
LINE
  5
3776
330
18
100
AcDbEntity
  8
0
100
AcDbLine
 10
142.3885746592353
 20
52.21088926893476
 30
0.0
 11
133.3885746592353
 21
52.21088926893478
 31
0.0
  0
LINE
  5
3777
330
18
100
AcDbEntity
  8
0
100
AcDbLine
 10
133.3885746592353
 20
73.21088926893478
 30
0.0
 11
142.3885746592353
 21
73.21088926893478
 31
0.0
  0
ARC
  5
3778
330
18
100
AcDbEntity
  8
0
100
AcDbCircle
 10
146.0287969423491
 20
53.61762252919813
 30
0.0
 40
3.640222283113828
100
AcDbArc
 50
123.626429135973
 51
213.6264291359733
  0
ARC
  5
3779
330
18
100
AcDbEntity
  8
0
100
AcDbCircle
 10
158.7483523761214
 20
53.61762252919813
 30
0.0
 40
3.640222283113828
100
AcDbArc
 50
326.3735708640266
 51
56.37357086402694
  0
LINE
  5
377A
330
18
100
AcDbEntity
  8
0
100
AcDbLine
 10
142.3885746592353
 20
52.21088926893476
 30
0.0
 11
144.0129303122174
 21
50.58653361595263
 31
0.0
  0
LINE
  5
377B
330
18
100
AcDbEntity
  8
0
100
AcDbLine
 10
162.3885746592353
 20
52.21088926893475
 30
0.0
 11
160.7642190062531
 21
50.58653361595261
 31
0.0
  0
LINE
  5
377C
330
18
100
AcDbEntity
  8
0
100
AcDbLine
 10
144.0129303122174
 20
50.58653361595263
 30
0.0
 11
160.7642190062531
 21
50.58653361595261
 31
0.0
  0
LINE
  5
377D
330
18
100
AcDbEntity
  8
0
100
AcDbLine
 10
160.7642190062531
 20
56.64871144244365
 30
0.0
 11
144.0129303122174
 21
56.64871144244367
 31
0.0
  0
LINE
  5
377E
330
18
100
AcDbEntity
  8
0
100
AcDbLine
 10
160.7642190062531
 20
68.7730670954258
 30
0.0
 11
144.0129303122174
 21
68.77306709542581
 31
0.0
  0
LINE
  5
377F
330
18
100
AcDbEntity
  8
0
100
AcDbLine
 10
160.7642190062531
 20
74.83524492191688
 30
0.0
 11
144.0129303122174
 21
74.83524492191688
 31
0.0
  0
ARC
  5
3780
330
18
100
AcDbEntity
  8
0
100
AcDbCircle
 10
158.7483523761214
 20
71.80415600867137
 30
0.0
 40
3.640222283113828
100
AcDbArc
 50
303.626429135973
 51
33.6264291359734
  0
ARC
  5
3781
330
18
100
AcDbEntity
  8
0
100
AcDbCircle
 10
150.264219006253
 20
62.71088926893472
 30
0.0
 40
12.12435565298221
100
AcDbArc
 50
330.0000000000001
 51
29.99999999999982
  0
LINE
  5
3782
330
18
100
AcDbEntity
  8
0
100
AcDbLine
 10
162.3885746592353
 20
52.21088926893475
 30
0.0
 11
162.3885746592353
 21
73.21088926893475
 31
0.0
  0
ARC
  5
3783
330
18
100
AcDbEntity
  8
0
100
AcDbCircle
 10
162.3885746592352
 20
62.71088926893472
 30
0.0
 40
10.50000000000005
100
AcDbArc
 50
324.0494323803821
 51
35.95056761961778
  0
LINE
  5
3784
330
18
100
AcDbEntity
  8
0
100
AcDbLine
 10
163.8885746592352
 20
56.54647526596571
 30
0.0
 11
163.8885746592352
 21
68.87530327190375
 31
0.0
  0
LINE
  5
3785
330
18
100
AcDbEntity
  8
0
100
AcDbLine
 10
172.8885746592353
 20
62.71088926893469
 30
0.0
 11
172.8885746592353
 21
71.21088926893472
 31
0.0
  0
LINE
  5
3786
330
18
100
AcDbEntity
  8
0
100
AcDbLine
 10
170.8885746592352
 20
52.21088926893472
 30
0.0
 11
162.3885746592352
 21
52.21088926893472
 31
0.0
  0
LINE
  5
3787
330
18
100
AcDbEntity
  8
0
100
AcDbLine
 10
170.8885746592352
 20
56.54647526596573
 30
0.0
 11
163.8885746592352
 21
56.54647526596571
 31
0.0
  0
LINE
  5
3788
330
18
100
AcDbEntity
  8
0
100
AcDbLine
 10
172.8885746592352
 20
54.21088926893472
 30
0.0
 11
172.8885746592353
 21
62.71088926893472
 31
0.0
  0
LINE
  5
3789
330
18
100
AcDbEntity
  8
0
100
AcDbLine
 10
170.8885746592352
 20
52.21088926893472
 30
0.0
 11
170.8885746592352
 21
56.54647526596573
 31
0.0
  0
LINE
  5
378A
330
18
100
AcDbEntity
  8
0
100
AcDbLine
 10
170.8885746592352
 20
52.21088926893472
 30
0.0
 11
172.8885746592352
 21
54.21088926893472
 31
0.0
  0
LINE
  5
378B
330
18
100
AcDbEntity
  8
0
100
AcDbLine
 10
170.8885746592352
 20
73.21088926893472
 30
0.0
 11
162.3885746592353
 21
73.21088926893472
 31
0.0
  0
LINE
  5
378C
330
18
100
AcDbEntity
  8
0
100
AcDbLine
 10
170.8885746592352
 20
68.87530327190373
 30
0.0
 11
163.8885746592352
 21
68.87530327190375
 31
0.0
  0
LINE
  5
378D
330
18
100
AcDbEntity
  8
0
100
AcDbLine
 10
172.8885746592353
 20
71.21088926893472
 30
0.0
 11
170.8885746592352
 21
73.21088926893472
 31
0.0
  0
LINE
  5
378E
330
18
100
AcDbEntity
  8
0
100
AcDbLine
 10
170.8885746592352
 20
68.87530327190373
 30
0.0
 11
170.8885746592352
 21
73.21088926893472
 31
0.0
  0
LINE
  5
378F
330
18
100
AcDbEntity
  8
0
100
AcDbLine
 10
162.3885746592353
 20
73.21088926893475
 30
0.0
 11
160.7642190062531
 21
74.83524492191688
 31
0.0
  0
ARC
  5
3790
330
18
100
AcDbEntity
  8
0
100
AcDbCircle
 10
154.5129303122175
 20
62.71088926893472
 30
0.0
 40
12.12435565298221
100
AcDbArc
 50
150.0000000000001
 51
209.9999999999997
  0
ARC
  5
3791
330
18
100
AcDbEntity
  8
0
100
AcDbCircle
 10
146.0287969423491
 20
71.80415600867137
 30
0.0
 40
3.640222283113828
100
AcDbArc
 50
146.3735708640266
 51
236.3735708640269
  0
LINE
  5
3792
330
18
100
AcDbEntity
  8
0
100
AcDbLine
 10
142.3885746592353
 20
52.21088926893476
 30
0.0
 11
142.3885746592353
 21
73.21088926893477
 31
0.0
  0
LINE
  5
3793
330
18
100
AcDbEntity
  8
0
100
AcDbLine
 10
142.3885746592353
 20
73.21088926893477
 30
0.0
 11
144.0129303122174
 21
74.83524492191691
 31
0.0
  0
LINE
  5
3794
330
18
100
AcDbEntity
  8
0
100
AcDbLine
 10
128.8885746592353
 20
56.13238926893479
 30
0.0
 11
128.8885746592353
 21
69.28938926893478
 31
0.0
  0
LINE
  5
3795
330
18
100
AcDbEntity
  8
0
100
AcDbLine
 10
130.8885746592353
 20
56.13238926893479
 30
0.0
 11
130.8885746592353
 21
69.28938926893478
 31
0.0
  0
ARC
  5
3796
330
18
100
AcDbEntity
  8
0
100
AcDbCircle
 10
129.8885746592353
 20
69.44550141846749
 30
0.0
 40
1.01211214953271
100
AcDbArc
 50
188.8729489713149
 51
351.1270510286852
  0
LINE
  5
3797
330
18
100
AcDbEntity
  8
0
100
AcDbLine
 10
122.8827864896616
 20
56.13238926893479
 30
0.0
 11
122.8827864896616
 21
69.28938926893478
 31
0.0
  0
LINE
  5
3798
330
18
100
AcDbEntity
  8
0
100
AcDbLine
 10
122.3885746592353
 20
68.43338926893479
 30
0.0
 11
122.8827864896616
 21
69.28938926893478
 31
0.0
  0
LINE
  5
3799
330
18
100
AcDbEntity
  8
0
100
AcDbLine
 10
133.3885746592353
 20
52.21088926893478
 30
0.0
 11
133.3885746592353
 21
73.21088926893478
 31
0.0
  0
LINE
  5
379A
330
18
100
AcDbEntity
  8
0
100
AcDbLine
 10
131.3885746592353
 20
54.21088926893478
 30
0.0
 11
131.3885746592353
 21
71.21088926893477
 31
0.0
  0
LINE
  5
379B
330
18
100
AcDbEntity
  8
0
100
AcDbLine
 10
122.3885746592353
 20
56.98838926893478
 30
0.0
 11
122.8827864896616
 21
56.13238926893479
 31
0.0
  0
LINE
  5
379C
330
18
100
AcDbEntity
  8
0
100
AcDbLine
 10
128.8885746592353
 20
56.13238926893479
 30
0.0
 11
122.8827864896616
 21
56.13238926893479
 31
0.0
  0
ARC
  5
379D
330
18
100
AcDbEntity
  8
0
100
AcDbCircle
 10
129.8885746592353
 20
55.97627711940205
 30
0.0
 40
1.01211214953271
100
AcDbArc
 50
8.872948971314828
 51
171.127051028685
  0
LINE
  5
379E
330
18
100
AcDbEntity
  8
0
100
AcDbLine
 10
131.3885746592353
 20
56.13238926893479
 30
0.0
 11
130.8885746592353
 21
56.13238926893479
 31
0.0
  0
LINE
  5
379F
330
18
100
AcDbEntity
  8
0
100
AcDbLine
 10
133.3885746592353
 20
52.21088926893478
 30
0.0
 11
131.3885746592353
 21
54.21088926893478
 31
0.0
  0
LINE
  5
37A0
330
18
100
AcDbEntity
  8
0
100
AcDbLine
 10
122.3885746592353
 20
56.98838926893478
 30
0.0
 11
122.3885746592353
 21
62.71088926893478
 31
0.0
  0
LINE
  5
37A1
330
18
100
AcDbEntity
  8
0
100
AcDbLine
 10
122.3885746592353
 20
62.71088926893478
 30
0.0
 11
122.3885746592353
 21
68.43338926893479
 31
0.0
  0
LINE
  5
37A2
330
18
100
AcDbEntity
  8
0
100
AcDbLine
 10
128.8885746592353
 20
69.28938926893478
 30
0.0
 11
122.8827864896616
 21
69.28938926893478
 31
0.0
  0
LINE
  5
37A3
330
18
100
AcDbEntity
  8
0
100
AcDbLine
 10
133.3885746592353
 20
73.21088926893478
 30
0.0
 11
131.3885746592353
 21
71.21088926893477
 31
0.0
  0
LINE
  5
37A4
330
18
100
AcDbEntity
  8
0
100
AcDbLine
 10
131.3885746592353
 20
69.28938926893478
 30
0.0
 11
130.8885746592353
 21
69.28938926893478
 31
0.0
  0
LINE
  5
37A5
330
18
100
AcDbEntity
  8
0
100
AcDbLine
 10
161.8885746592352
 20
132.2936204705895
 30
0.0
 11
161.8885746592352
 21
153.2936204705896
 31
0.0
  0
LINE
  5
37A6
330
18
100
AcDbEntity
  8
0
100
AcDbLine
 10
163.8885746592352
 20
134.2936204705896
 30
0.0
 11
163.8885746592352
 21
151.2936204705896
 31
0.0
  0
ARC
  5
37A7
330
18
100
AcDbEntity
  8
0
100
AcDbCircle
 10
149.2483523761214
 20
151.8868872103261
 30
0.0
 40
3.640222283113828
100
AcDbArc
 50
303.626429135973
 51
33.6264291359734
  0
ARC
  5
37A8
330
18
100
AcDbEntity
  8
0
100
AcDbCircle
 10
136.5287969423491
 20
151.8868872103261
 30
0.0
 40
3.640222283113828
100
AcDbArc
 50
146.3735708640266
 51
236.3735708640269
  0
LINE
  5
37A9
330
18
100
AcDbEntity
  8
0
100
AcDbLine
 10
152.8885746592353
 20
132.2936204705895
 30
0.0
 11
152.8885746592353
 21
153.2936204705895
 31
0.0
  0
LINE
  5
37AA
330
18
100
AcDbEntity
  8
0
100
AcDbLine
 10
132.8885746592353
 20
132.2936204705895
 30
0.0
 11
132.8885746592353
 21
153.2936204705895
 31
0.0
  0
LINE
  5
37AB
330
18
100
AcDbEntity
  8
0
100
AcDbLine
 10
124.3885746592352
 20
148.9580344735585
 30
0.0
 11
124.3885746592352
 21
153.2936204705895
 31
0.0
  0
LINE
  5
37AC
330
18
100
AcDbEntity
  8
0
100
AcDbLine
 10
122.3885746592353
 20
142.7936204705895
 30
0.0
 11
122.3885746592353
 21
151.2936204705895
 31
0.0
  0
LINE
  5
37AD
330
18
100
AcDbEntity
  8
0
100
AcDbLine
 10
133.3885746592333
 20
112.8508425271595
 30
0.0
 11
142.3885746592333
 21
112.8508425271595
 31
0.0
  0
LINE
  5
37AE
330
18
100
AcDbEntity
  8
0
100
AcDbLine
 10
142.3885746592333
 20
91.85084252715956
 30
0.0
 11
133.3885746592333
 21
91.85084252715956
 31
0.0
  0
ARC
  5
37AF
330
18
100
AcDbEntity
  8
0
100
AcDbCircle
 10
136.5287969423491
 20
133.7003537308529
 30
0.0
 40
3.640222283113828
100
AcDbArc
 50
123.626429135973
 51
213.6264291359733
  0
ARC
  5
37B0
330
18
100
AcDbEntity
  8
0
100
AcDbCircle
 10
145.0129303122175
 20
142.7936204705895
 30
0.0
 40
12.12435565298221
100
AcDbArc
 50
150.0000000000001
 51
209.9999999999997
  0
LINE
  5
37B1
330
18
100
AcDbEntity
  8
0
100
AcDbLine
 10
132.8885746592353
 20
132.2936204705895
 30
0.0
 11
134.5129303122174
 21
130.6692648176074
 31
0.0
  0
LINE
  5
37B6
330
18
100
AcDbEntity
  8
0
100
AcDbLine
 10
172.8885746592333
 20
93.8508425271595
 30
0.0
 11
172.8885746592333
 21
102.3508425271594
 31
0.0
  0
LINE
  5
37B7
330
18
100
AcDbEntity
  8
0
100
AcDbLine
 10
162.3885746592333
 20
91.85084252715954
 30
0.0
 11
162.3885746592333
 21
112.8508425271595
 31
0.0
  0
LINE
  5
37B9
330
18
100
AcDbEntity
  8
0
100
AcDbLine
 10
170.8885746592333
 20
93.8508425271595
 30
0.0
 11
170.8885746592333
 21
110.8508425271595
 31
0.0
  0
LINE
  5
37BA
330
18
100
AcDbEntity
  8
0
100
AcDbLine
 10
163.8885746592333
 20
93.85084252715952
 30
0.0
 11
172.8885746592333
 21
93.85084252715952
 31
0.0
  0
LINE
  5
37BC
330
18
100
AcDbEntity
  8
0
100
AcDbLine
 10
163.8885746592333
 20
91.85084252715949
 30
0.0
 11
163.8885746592333
 21
93.85084252715952
 31
0.0
  0
LINE
  5
37BD
330
18
100
AcDbEntity
  8
0
100
AcDbLine
 10
163.8885746592333
 20
91.85084252715951
 30
0.0
 11
162.3885746592333
 21
91.85084252715951
 31
0.0
  0
LINE
  5
37BF
330
18
100
AcDbEntity
  8
0
100
AcDbLine
 10
163.8885746592333
 20
110.8508425271595
 30
0.0
 11
172.8885746592333
 21
110.8508425271595
 31
0.0
  0
LINE
  5
37C0
330
18
100
AcDbEntity
  8
0
100
AcDbLine
 10
172.8885746592333
 20
102.3508425271594
 30
0.0
 11
172.8885746592333
 21
110.8508425271595
 31
0.0
  0
LINE
  5
37C2
330
18
100
AcDbEntity
  8
0
100
AcDbLine
 10
163.8885746592333
 20
112.8508425271595
 30
0.0
 11
162.3885746592333
 21
112.8508425271595
 31
0.0
  0
LINE
  5
37C3
330
18
100
AcDbEntity
  8
0
100
AcDbLine
 10
163.8885746592333
 20
110.8508425271595
 30
0.0
 11
163.8885746592334
 21
112.8508425271595
 31
0.0
  0
LINE
  5
37CB
330
18
100
AcDbEntity
  8
0
100
AcDbLine
 10
152.8885746592353
 20
132.2936204705895
 30
0.0
 11
161.8885746592352
 21
132.2936204705895
 31
0.0
  0
LINE
  5
37CC
330
18
100
AcDbEntity
  8
0
100
AcDbLine
 10
161.8885746592352
 20
132.2936204705895
 30
0.0
 11
163.8885746592352
 21
134.2936204705896
 31
0.0
  0
LINE
  5
37CD
330
18
100
AcDbEntity
  8
0
100
AcDbLine
 10
166.3885746592353
 20
136.2151204705895
 30
0.0
 11
172.394362828809
 21
136.2151204705896
 31
0.0
  0
LINE
  5
37CE
330
18
100
AcDbEntity
  8
0
100
AcDbLine
 10
166.3885746592353
 20
149.3721204705896
 30
0.0
 11
172.394362828809
 21
149.3721204705896
 31
0.0
  0
LINE
  5
37CF
330
18
100
AcDbEntity
  8
0
100
AcDbLine
 10
172.394362828809
 20
136.2151204705896
 30
0.0
 11
172.394362828809
 21
149.3721204705896
 31
0.0
  0
LINE
  5
37D0
330
18
100
AcDbEntity
  8
0
100
AcDbLine
 10
172.8885746592353
 20
137.0711204705896
 30
0.0
 11
172.8885746592353
 21
142.7936204705896
 31
0.0
  0
LINE
  5
37D1
330
18
100
AcDbEntity
  8
0
100
AcDbLine
 10
172.8885746592353
 20
137.0711204705896
 30
0.0
 11
172.394362828809
 21
136.2151204705896
 31
0.0
  0
LINE
  5
37D2
330
18
100
AcDbEntity
  8
0
100
AcDbLine
 10
172.8885746592353
 20
142.7936204705896
 30
0.0
 11
172.8885746592353
 21
148.5161204705896
 31
0.0
  0
LINE
  5
37D3
330
18
100
AcDbEntity
  8
0
100
AcDbLine
 10
172.8885746592353
 20
148.5161204705896
 30
0.0
 11
172.394362828809
 21
149.3721204705896
 31
0.0
  0
LINE
  5
37D4
330
18
100
AcDbEntity
  8
0
100
AcDbLine
 10
166.3885746592353
 20
136.2151204705895
 30
0.0
 11
166.3885746592353
 21
149.3721204705896
 31
0.0
  0
LINE
  5
37D5
330
18
100
AcDbEntity
  8
0
100
AcDbLine
 10
164.3885746592353
 20
136.2151204705895
 30
0.0
 11
164.3885746592353
 21
149.3721204705896
 31
0.0
  0
ARC
  5
37D6
330
18
100
AcDbEntity
  8
0
100
AcDbCircle
 10
165.3885746592353
 20
136.0590083210569
 30
0.0
 40
1.01211214953271
100
AcDbArc
 50
8.872948971314903
 51
171.1270510286851
  0
LINE
  5
37D7
330
18
100
AcDbEntity
  8
0
100
AcDbLine
 10
163.8885746592352
 20
136.2151204705895
 30
0.0
 11
164.3885746592353
 21
136.2151204705895
 31
0.0
  0
ARC
  5
37D8
330
18
100
AcDbEntity
  8
0
100
AcDbCircle
 10
165.3885746592353
 20
149.5282326201223
 30
0.0
 40
1.01211214953271
100
AcDbArc
 50
188.8729489713147
 51
351.1270510286851
  0
LINE
  5
37D9
330
18
100
AcDbEntity
  8
0
100
AcDbLine
 10
163.8885746592352
 20
149.3721204705896
 30
0.0
 11
164.3885746592353
 21
149.3721204705896
 31
0.0
  0
ARC
  5
37DA
330
18
100
AcDbEntity
  8
0
100
AcDbCircle
 10
149.2483523761214
 20
133.7003537308529
 30
0.0
 40
3.640222283113828
100
AcDbArc
 50
326.3735708640266
 51
56.37357086402698
  0
LINE
  5
37DB
330
18
100
AcDbEntity
  8
0
100
AcDbLine
 10
151.2642190062531
 20
130.6692648176074
 30
0.0
 11
134.5129303122174
 21
130.6692648176074
 31
0.0
  0
LINE
  5
37DC
330
18
100
AcDbEntity
  8
0
100
AcDbLine
 10
152.8885746592353
 20
132.2936204705895
 30
0.0
 11
151.2642190062531
 21
130.6692648176074
 31
0.0
  0
LINE
  5
37DD
330
18
100
AcDbEntity
  8
0
100
AcDbLine
 10
134.5129303122174
 20
136.7314426440984
 30
0.0
 11
151.2642190062531
 21
136.7314426440985
 31
0.0
  0
LINE
  5
37DE
330
18
100
AcDbEntity
  8
0
100
AcDbLine
 10
134.5129303122174
 20
148.8557982970806
 30
0.0
 11
151.264219006253
 21
148.8557982970806
 31
0.0
  0
ARC
  5
37DF
330
18
100
AcDbEntity
  8
0
100
AcDbCircle
 10
140.764219006253
 20
142.7936204705895
 30
0.0
 40
12.12435565298221
100
AcDbArc
 50
330.0000000000001
 51
29.99999999999982
  0
LINE
  5
37E0
330
18
100
AcDbEntity
  8
0
100
AcDbLine
 10
122.3885746592333
 20
96.62834252715958
 30
0.0
 11
122.3885746592333
 21
102.3508425271595
 31
0.0
  0
LINE
  5
37E1
330
18
100
AcDbEntity
  8
0
100
AcDbLine
 10
131.3885746592333
 20
93.85084252715955
 30
0.0
 11
131.3885746592333
 21
110.8508425271595
 31
0.0
  0
LINE
  5
37E2
330
18
100
AcDbEntity
  8
0
100
AcDbLine
 10
133.3885746592333
 20
91.85084252715951
 30
0.0
 11
133.3885746592333
 21
112.8508425271595
 31
0.0
  0
LINE
  5
37E3
330
18
100
AcDbEntity
  8
0
100
AcDbLine
 10
122.8827864896596
 20
95.77234252715957
 30
0.0
 11
122.8827864896596
 21
108.9293425271595
 31
0.0
  0
LINE
  5
37E4
330
18
100
AcDbEntity
  8
0
100
AcDbLine
 10
130.8885746592333
 20
95.77234252715957
 30
0.0
 11
130.8885746592333
 21
108.9293425271595
 31
0.0
  0
LINE
  5
37E5
330
18
100
AcDbEntity
  8
0
100
AcDbLine
 10
128.8885746592333
 20
95.77234252715957
 30
0.0
 11
128.8885746592333
 21
108.9293425271595
 31
0.0
  0
LINE
  5
37E6
330
18
100
AcDbEntity
  8
0
100
AcDbLine
 10
122.3885746592333
 20
96.62834252715958
 30
0.0
 11
122.8827864896596
 21
95.77234252715957
 31
0.0
  0
LINE
  5
37E7
330
18
100
AcDbEntity
  8
0
100
AcDbLine
 10
133.3885746592333
 20
91.85084252715956
 30
0.0
 11
131.3885746592333
 21
93.85084252715955
 31
0.0
  0
LINE
  5
37E8
330
18
100
AcDbEntity
  8
0
100
AcDbLine
 10
128.8885746592333
 20
95.77234252715957
 30
0.0
 11
122.8827864896596
 21
95.77234252715957
 31
0.0
  0
LINE
  5
37E9
330
18
100
AcDbEntity
  8
0
100
AcDbLine
 10
131.3885746592333
 20
95.77234252715957
 30
0.0
 11
130.8885746592333
 21
95.77234252715957
 31
0.0
  0
ARC
  5
37EA
330
18
100
AcDbEntity
  8
0
100
AcDbCircle
 10
129.8885746592333
 20
95.61623037762684
 30
0.0
 40
1.01211214953271
100
AcDbArc
 50
8.872948971314828
 51
171.127051028685
  0
LINE
  5
37EB
330
18
100
AcDbEntity
  8
0
100
AcDbLine
 10
122.3885746592333
 20
108.0733425271595
 30
0.0
 11
122.8827864896596
 21
108.9293425271595
 31
0.0
  0
LINE
  5
37EC
330
18
100
AcDbEntity
  8
0
100
AcDbLine
 10
128.8885746592333
 20
108.9293425271595
 30
0.0
 11
122.8827864896596
 21
108.9293425271595
 31
0.0
  0
LINE
  5
37ED
330
18
100
AcDbEntity
  8
0
100
AcDbLine
 10
131.3885746592333
 20
108.9293425271595
 30
0.0
 11
130.8885746592333
 21
108.9293425271595
 31
0.0
  0
ARC
  5
37EE
330
18
100
AcDbEntity
  8
0
100
AcDbCircle
 10
129.8885746592333
 20
109.0854546766922
 30
0.0
 40
1.01211214953271
100
AcDbArc
 50
188.8729489713149
 51
351.1270510286852
  0
LINE
  5
37EF
330
18
100
AcDbEntity
  8
0
100
AcDbLine
 10
133.3885746592333
 20
112.8508425271595
 30
0.0
 11
131.3885746592333
 21
110.8508425271595
 31
0.0
  0
LINE
  5
37F0
330
18
100
AcDbEntity
  8
0
100
AcDbLine
 10
122.3885746592333
 20
102.3508425271595
 30
0.0
 11
122.3885746592333
 21
108.0733425271595
 31
0.0
  0
LINE
  5
37F1
330
18
100
AcDbEntity
  8
0
100
AcDbLine
 10
124.3885746592352
 20
132.2936204705895
 30
0.0
 11
122.3885746592353
 21
134.2936204705895
 31
0.0
  0
LINE
  5
37F2
330
18
100
AcDbEntity
  8
0
100
AcDbLine
 10
124.3885746592352
 20
132.2936204705895
 30
0.0
 11
124.3885746592352
 21
136.6292064676205
 31
0.0
  0
LINE
  5
37F3
330
18
100
AcDbEntity
  8
0
100
AcDbLine
 10
124.3885746592352
 20
132.2936204705895
 30
0.0
 11
132.8885746592353
 21
132.2936204705895
 31
0.0
  0
ARC
  5
37F4
330
18
100
AcDbEntity
  8
0
100
AcDbCircle
 10
132.8885746592353
 20
142.7936204705895
 30
0.0
 40
10.50000000000005
100
AcDbArc
 50
144.0494323803822
 51
215.9505676196177
  0
LINE
  5
37F5
330
18
100
AcDbEntity
  8
0
100
AcDbLine
 10
131.3885746592353
 20
136.6292064676205
 30
0.0
 11
131.3885746592353
 21
148.9580344735585
 31
0.0
  0
LINE
  5
37F6
330
18
100
AcDbEntity
  8
0
100
AcDbLine
 10
124.3885746592352
 20
136.6292064676205
 30
0.0
 11
131.3885746592353
 21
136.6292064676205
 31
0.0
  0
LINE
  5
37F7
330
18
100
AcDbEntity
  8
0
100
AcDbLine
 10
124.3885746592352
 20
148.9580344735585
 30
0.0
 11
131.3885746592353
 21
148.9580344735585
 31
0.0
  0
LINE
  5
37F8
330
18
100
AcDbEntity
  8
0
100
AcDbLine
 10
122.3885746592353
 20
134.2936204705895
 30
0.0
 11
122.3885746592353
 21
142.7936204705895
 31
0.0
  0
LINE
  5
37F9
330
18
100
AcDbEntity
  8
0
100
AcDbLine
 10
132.8885746592353
 20
153.2936204705895
 30
0.0
 11
134.5129303122174
 21
154.9179761235717
 31
0.0
  0
LINE
  5
37FA
330
18
100
AcDbEntity
  8
0
100
AcDbLine
 10
161.8885746592352
 20
153.2936204705896
 30
0.0
 11
152.8885746592353
 21
153.2936204705895
 31
0.0
  0
LINE
  5
37FB
330
18
100
AcDbEntity
  8
0
100
AcDbLine
 10
161.8885746592352
 20
153.2936204705896
 30
0.0
 11
163.8885746592352
 21
151.2936204705896
 31
0.0
  0
LINE
  5
37FC
330
18
100
AcDbEntity
  8
0
100
AcDbLine
 10
134.5129303122174
 20
154.9179761235717
 30
0.0
 11
151.2642190062531
 21
154.9179761235717
 31
0.0
  0
LINE
  5
37FD
330
18
100
AcDbEntity
  8
0
100
AcDbLine
 10
152.8885746592353
 20
153.2936204705895
 30
0.0
 11
151.2642190062531
 21
154.9179761235717
 31
0.0
  0
LINE
  5
37FE
330
18
100
AcDbEntity
  8
0
100
AcDbLine
 10
122.3885746592353
 20
151.2936204705895
 30
0.0
 11
124.3885746592352
 21
153.2936204705895
 31
0.0
  0
LINE
  5
37FF
330
18
100
AcDbEntity
  8
0
100
AcDbLine
 10
124.3885746592352
 20
153.2936204705895
 30
0.0
 11
132.8885746592353
 21
153.2936204705895
 31
0.0
  0
LINE
  5
3806
330
18
100
AcDbEntity
  8
0
100
AcDbLine
 10
160.7642190062511
 20
102.3508425271595
 30
0.0
 11
144.0129303122174
 21
102.3508425271595
 31
0.0
  0
LINE
  5
3807
330
18
100
AcDbEntity
  8
0
100
AcDbLine
 10
162.3885746592333
 20
112.8508425271595
 30
0.0
 11
133.3885746592333
 21
112.8508425271595
 31
0.0
  0
LINE
  5
3808
330
18
100
AcDbEntity
  8
0
100
AcDbLine
 10
162.3885746592333
 20
91.85084252715951
 30
0.0
 11
133.3885746592333
 21
91.85084252715951
 31
0.0
  0
ARC
  5
380B
330
18
100
AcDbEntity
  8
0
100
AcDbCircle
 10
153.0922634628739
 20
97.10084252715953
 30
0.0
 40
9.296311196359424
100
AcDbArc
 50
325.6157525319582
 51
34.38424746804177
  0
ARC
  5
380C
330
18
100
AcDbEntity
  8
0
100
AcDbCircle
 10
153.0922634628739
 20
107.6008425271595
 30
0.0
 40
9.296311196359424
100
AcDbArc
 50
325.6157525319582
 51
34.38424746804182
  0
ARC
  5
380D
330
18
100
AcDbEntity
  8
0
100
AcDbCircle
 10
151.6848858555947
 20
107.6008425271595
 30
0.0
 40
9.296311196359424
100
AcDbArc
 50
145.6157525319581
 51
214.3842474680417
  0
ARC
  5
380E
330
18
100
AcDbEntity
  8
0
100
AcDbCircle
 10
151.6848858555947
 20
97.10084252715953
 30
0.0
 40
9.296311196359424
100
AcDbArc
 50
145.6157525319582
 51
214.3842474680418
  0
LINE
  5
380F
330
18
100
AcDbEntity
  8
0
100
AcDbLine
 10
142.3885746592353
 20
91.85084252715951
 30
0.0
 11
142.3885746592353
 21
112.8508425271595
 31
0.0
  0
INSERT
  5
3822
330
18
100
AcDbEntity
  8
0
100
AcDbBlockReference
  2
YA
 10
119.3832146617726
 20
62.71088926893479
 30
0.0
 41
0.5712041697904402
 42
0.5712041697904402
 43
0.5712041697904402
  0
INSERT
  5
3825
330
18
100
AcDbEntity
  8
0
100
AcDbBlockReference
  2
YA
 10
175.8939346566979
 20
142.7936204705895
 30
0.0
 41
-0.5712041697904402
 42
0.5712041697904402
 43
0.5712041697904402
  0
LWPOLYLINE
  5
3834
330
18
100
AcDbEntity
  8
0
100
AcDbPolyline
 90
        6
 70
     1
 43
0.0
 10
206.3281153986304
 20
56.64871144244369
 10
195.8281153986304
 20
50.58653361595265
 10
185.3281153986304
 20
56.64871144244369
 10
185.3281153986304
 20
68.77306709542583
 10
195.8281153986304
 20
74.83524492191694
 10
206.3281153986304
 20
68.77306709542586
  0
LINE
  5
383C
330
18
100
AcDbEntity
  8
0
100
AcDbLine
 10
185.8821835517061
 20
85.52276556195938
 30
0.0
 11
201.0814428139596
 21
85.52276556195938
 31
0.0
  0
INSERT
  5
38D5
330
18
100
AcDbEntity
  8
0
100
AcDbBlockReference
  2
_OPEN
 10
172.8864943260974
 20
62.50188527828232
 30
0.0
 41
2.799999999999999
 42
2.799999999999999
 43
2.799999999999999
 50
240.5545127592013
  0
LWPOLYLINE
  5
38D6
330
18
100
AcDbEntity
  8
0
100
AcDbPolyline
 90
        2
 70
     0
 43
0.0
 10
174.262961046622
 20
64.94019193809529
 10
185.8821835517061
 20
85.52276556195938
  0
LINE
  5
391E
330
18
100
AcDbEntity
  8
0
100
AcDbLine
 10
94.84645039698898
 20
85.07728622260168
 30
0.0
 11
110.381962993851
 21
85.07728622260168
 31
0.0
  0
TEXT
  5
391F
330
18
100
AcDbEntity
  8
0
100
AcDbText
 10
94.93832360671012
 20
86.27728622260169
 30
0.0
 40
2.799999999999999
  1
(G)PF1/4
 41
0.8
100
AcDbText
  0
LWPOLYLINE
  5
3920
330
18
100
AcDbEntity
  8
0
100
AcDbPolyline
 90
        2
 70
     0
 43
0.0
 10
125.0678467406452
 20
71.28221658939008
 10
110.381962993851
 20
85.07728622260168
  0
INSERT
  5
3921
330
18
100
AcDbEntity
  8
0
100
AcDbBlockReference
  2
_OPEN
 10
127.0820334588989
 20
69.33720968348706
 30
0.0
 41
2.799999999999999
 42
2.799999999999999
 43
2.799999999999999
 50
316.0010391848623
  0
TEXT
  5
3922
330
18
100
AcDbEntity
  8
0
100
AcDbText
 10
185.7640559903786
 20
86.27728622260169
 30
0.0
 40
2.799999999999999
  1
(G)PF1/4
 41
0.8
100
AcDbText
  0
VIEWPORT
  5
41
330
15
100
AcDbEntity
 67
     1
  8
0
100
AcDbViewport
 10
117.358407079646
 20
73.5
 30
0.0
 40
234.716814159292
 41
147.0
 68
     1
 69
     1
1001
ACAD
1000
MVIEW
1002
{
1070
    16
1010
0.0
1020
0.0
1030
0.0
1010
0.0
1020
0.0
1030
1.0
1040
0.0
1040
147.0
1040
117.358407079646
1040
73.5
1040
50.0
1040
0.0
1040
0.0
1070
     0
1070
   100
1070
     1
1070
     1
1070
     0
1070
     0
1070
     0
1070
     0
1040
0.0
1040
0.0
1040
0.0
1040
1.0
1040
1.0
1040
0.0
1040
0.0
1070
     0
1002
{
1002
}
1002
}
  0
ENDSEC
  0
SECTION
  2
OBJECTS
  0
DICTIONARY
  5
C
330
0
100
AcDbDictionary
  3
ACAD_GROUP
350
D
  3
ACAD_LAYOUT
350
3876
  3
ACAD_MLINESTYLE
350
E
  3
ACAD_PLOTSETTINGS
350
3877
  3
ACAD_PLOTSTYLENAME
350
3874
  3
ACDBHEADERROUNDTRIPXREC
350
3954
  3
ACDBVARIABLEDICTIONARY
350
3951
  0
DICTIONARY
  5
38FD
330
18
100
AcDbDictionary
280
     1
  3
ACAD_LAYOUTSELFREF
360
3976
  0
DICTIONARY
  5
38FB
330
15
100
AcDbDictionary
280
     1
  3
ACAD_LAYOUTSELFREF
360
3975
  0
DICTIONARY
  5
D
102
{ACAD_REACTORS
330
C
102
}
330
C
100
AcDbDictionary
  0
DICTIONARY
  5
3876
102
{ACAD_REACTORS
330
C
102
}
330
C
100
AcDbDictionary
  0
DICTIONARY
  5
E
102
{ACAD_REACTORS
330
C
102
}
330
C
100
AcDbDictionary
  3
STANDARD
350
1B
  0
DICTIONARY
  5
3877
102
{ACAD_REACTORS
330
C
102
}
330
C
100
AcDbDictionary
  0
ACDBDICTIONARYWDFLT
  5
3874
102
{ACAD_REACTORS
330
C
102
}
330
C
100
AcDbDictionary
281
     1
  3
Normal
350
3875
100
AcDbDictionaryWithDefault
340
3875
1001
ACAD
1000
TREAT_AS_HARD
1070
     0
  0
DICTIONARY
  5
3954
102
{ACAD_REACTORS
330
C
102
}
330
C
100
AcDbDictionary
  3
CEPSNTYPE
350
395E
  3
DIMSTYLEDATA
350
3962
  3
FINGERPRINTGUID
350
395F
  3
HYPERLINKBASE
350
3957
  3
INSUNITS
350
395D
  3
LAYOUTDICT
350
3959
  3
LWETCUNION
350
395C
  3
PLOTSETDICT
350
395A
  3
PLOTSTYLNAMDICT
350
395B
  3
PSVPSCALE
350
3961
  3
PUCSBASE
350
3965
  3
PUCSORGBACK
350
396B
  3
PUCSORGBOTTOM
350
3967
  3
PUCSORGFRONT
350
396A
  3
PUCSORGLEFT
350
3968
  3
PUCSORGRIGHT
350
3969
  3
PUCSORGTOP
350
3966
  3
PUCSORTHOREF
350
3963
  3
PUCSORTHOVIEW
350
3964
  3
STYLESHEET
350
3958
  3
TSTACKALIGN
350
3955
  3
TSTACKSIZE
350
3956
  3
UCSBASE
350
396E
  3
UCSORGBACK
350
3974
  3
UCSORGBOTTOM
350
3970
  3
UCSORGFRONT
350
3973
  3
UCSORGLEFT
350
3971
  3
UCSORGRIGHT
350
3972
  3
UCSORGTOP
350
396F
  3
UCSORTHOREF
350
396C
  3
UCSORTHOVIEW
350
396D
  3
VERSIONGUID
350
3960
  0
DICTIONARY
  5
3951
102
{ACAD_REACTORS
330
C
102
}
330
C
100
AcDbDictionary
  3
DIMASSOC
350
3952
  0
XRECORD
  5
3976
102
{ACAD_REACTORS
330
38FD
102
}
330
38FD
100
AcDbXrecord
340
18
  0
XRECORD
  5
3975
102
{ACAD_REACTORS
330
38FB
102
}
330
38FB
100
AcDbXrecord
340
15
  0
MLINESTYLE
  5
1B
102
{ACAD_REACTORS
330
E
102
}
330
E
100
AcDbMlineStyle
  2
STANDARD
 70
     0
  3

 62
     0
 51
90.0
 52
90.0
 71
     2
 49
0.5
 62
   256
  6
BYLAYER
 49
-0.5
 62
   256
  6
BYLAYER
  0
ACDBPLACEHOLDER
  5
3875
102
{ACAD_REACTORS
330
3874
102
}
330
3874
100
AcDbPlaceHolder
280
     0
  0
XRECORD
  5
395E
102
{ACAD_REACTORS
330
3954
102
}
330
3954
100
AcDbXrecord
 90
        0
  0
XRECORD
  5
3962
102
{ACAD_REACTORS
330
3954
102
}
330
3954
100
AcDbXrecord
1000
DSTYLE
1002
{
1070
   289
 70
     0
1070
   341
340
2448
1070
   343
340
2448
1070
   344
340
2448
1002
}
  0
XRECORD
  5
395F
102
{ACAD_REACTORS
330
3954
102
}
330
3954
100
AcDbXrecord
  1
{E19A69DB-441D-11D5-B4EC-00C04F79820C}
  0
XRECORD
  5
3957
102
{ACAD_REACTORS
330
3954
102
}
330
3954
100
AcDbXrecord
  1

  0
XRECORD
  5
395D
102
{ACAD_REACTORS
330
3954
102
}
330
3954
100
AcDbXrecord
 90
        0
  0
XRECORD
  5
3959
102
{ACAD_REACTORS
330
3954
102
}
330
3954
100
AcDbXrecord
340
3876
  0
XRECORD
  5
395C
102
{ACAD_REACTORS
330
3954
102
}
330
3954
100
AcDbXrecord
 90
    14877
  0
XRECORD
  5
395A
102
{ACAD_REACTORS
330
3954
102
}
330
3954
100
AcDbXrecord
340
3877
  0
XRECORD
  5
395B
102
{ACAD_REACTORS
330
3954
102
}
330
3954
100
AcDbXrecord
340
3874
  0
XRECORD
  5
3961
102
{ACAD_REACTORS
330
3954
102
}
330
3954
100
AcDbXrecord
 40
0.0
  0
XRECORD
  5
3965
102
{ACAD_REACTORS
330
3954
102
}
330
3954
100
AcDbXrecord
340
0
  0
XRECORD
  5
396B
102
{ACAD_REACTORS
330
3954
102
}
330
3954
100
AcDbXrecord
 10
0.0
 20
0.0
 30
0.0
  0
XRECORD
  5
3967
102
{ACAD_REACTORS
330
3954
102
}
330
3954
100
AcDbXrecord
 10
0.0
 20
0.0
 30
0.0
  0
XRECORD
  5
396A
102
{ACAD_REACTORS
330
3954
102
}
330
3954
100
AcDbXrecord
 10
0.0
 20
0.0
 30
0.0
  0
XRECORD
  5
3968
102
{ACAD_REACTORS
330
3954
102
}
330
3954
100
AcDbXrecord
 10
0.0
 20
0.0
 30
0.0
  0
XRECORD
  5
3969
102
{ACAD_REACTORS
330
3954
102
}
330
3954
100
AcDbXrecord
 10
0.0
 20
0.0
 30
0.0
  0
XRECORD
  5
3966
102
{ACAD_REACTORS
330
3954
102
}
330
3954
100
AcDbXrecord
 10
0.0
 20
0.0
 30
0.0
  0
XRECORD
  5
3963
102
{ACAD_REACTORS
330
3954
102
}
330
3954
100
AcDbXrecord
340
0
  0
XRECORD
  5
3964
102
{ACAD_REACTORS
330
3954
102
}
330
3954
100
AcDbXrecord
 70
     0
  0
XRECORD
  5
3958
102
{ACAD_REACTORS
330
3954
102
}
330
3954
100
AcDbXrecord
  1

  0
XRECORD
  5
3955
102
{ACAD_REACTORS
330
3954
102
}
330
3954
100
AcDbXrecord
 90
        1
  0
XRECORD
  5
3956
102
{ACAD_REACTORS
330
3954
102
}
330
3954
100
AcDbXrecord
 90
       70
  0
XRECORD
  5
396E
102
{ACAD_REACTORS
330
3954
102
}
330
3954
100
AcDbXrecord
340
0
  0
XRECORD
  5
3974
102
{ACAD_REACTORS
330
3954
102
}
330
3954
100
AcDbXrecord
 10
0.0
 20
0.0
 30
0.0
  0
XRECORD
  5
3970
102
{ACAD_REACTORS
330
3954
102
}
330
3954
100
AcDbXrecord
 10
0.0
 20
0.0
 30
0.0
  0
XRECORD
  5
3973
102
{ACAD_REACTORS
330
3954
102
}
330
3954
100
AcDbXrecord
 10
0.0
 20
0.0
 30
0.0
  0
XRECORD
  5
3971
102
{ACAD_REACTORS
330
3954
102
}
330
3954
100
AcDbXrecord
 10
0.0
 20
0.0
 30
0.0
  0
XRECORD
  5
3972
102
{ACAD_REACTORS
330
3954
102
}
330
3954
100
AcDbXrecord
 10
0.0
 20
0.0
 30
0.0
  0
XRECORD
  5
396F
102
{ACAD_REACTORS
330
3954
102
}
330
3954
100
AcDbXrecord
 10
0.0
 20
0.0
 30
0.0
  0
XRECORD
  5
396C
102
{ACAD_REACTORS
330
3954
102
}
330
3954
100
AcDbXrecord
340
0
  0
XRECORD
  5
396D
102
{ACAD_REACTORS
330
3954
102
}
330
3954
100
AcDbXrecord
 70
     0
  0
XRECORD
  5
3960
102
{ACAD_REACTORS
330
3954
102
}
330
3954
100
AcDbXrecord
  1
{A9050772-0E50-11D8-B761-00C04F79820C}
  0
DICTIONARYVAR
  5
3952
102
{ACAD_REACTORS
330
3951
102
}
330
3951
100
DictionaryVariables
280
     0
  1
1
  0
ENDSEC
  0
EOF
