  0
SECTION
  2
HEADER
  9
$ACADVER
  1
AC1009
  9
$INSBASE
 10
0.0
 20
0.0
 30
0.0
  9
$EXTMIN
 10
179.95606467588371
 20
69.926612221084724
 30
-0.0000000000000129
  9
$EXTMAX
 10
4090.2191258620228
 20
2820.0860663108601
 30
0.0000000000000023
  9
$LIMMIN
 10
0.0
 20
0.0
  9
$LIMMAX
 10
4200.0
 20
2970.0
  9
$ORTHOMODE
 70
     1
  9
$REGENMODE
 70
     1
  9
$FILLMODE
 70
     1
  9
$QTEXTMODE
 70
     0
  9
$MIRRTEXT
 70
     1
  9
$DRAGMODE
 70
     2
  9
$LTSCALE
 40
40.0
  9
$OSMODE
 70
   163
  9
$ATTMODE
 70
     1
  9
$TEXTSIZE
 40
40.0
  9
$TRACEWID
 40
0.05
  9
$TEXTSTYLE
  7
STANDARD
  9
$CLAYER
  8
0
  9
$CELTYPE
  6
BYLAYER
  9
$CECOLOR
 62
   256
  9
$DIMSCALE
 40
10.0
  9
$DIMASZ
 40
2.7999999999999989
  9
$DIMEXO
 40
1.0
  9
$DIMDLI
 40
5.0
  9
$DIMRND
 40
0.1
  9
$DIMDLE
 40
0.0
  9
$DIMEXE
 40
1.0
  9
$DIMTP
 40
0.0
  9
$DIMTM
 40
0.0
  9
$DIMTXT
 40
2.5
  9
$DIMCEN
 40
0.0
  9
$DIMTSZ
 40
0.0
  9
$DIMTOL
 70
     0
  9
$DIMLIM
 70
     0
  9
$DIMTIH
 70
     0
  9
$DIMTOH
 70
     0
  9
$DIMSE1
 70
     0
  9
$DIMSE2
 70
     0
  9
$DIMTAD
 70
     3
  9
$DIMZIN
 70
     8
  9
$DIMBLK
  1

  9
$DIMASO
 70
     1
  9
$DIMSHO
 70
     1
  9
$DIMPOST
  1

  9
$DIMAPOST
  1

  9
$DIMALT
 70
     0
  9
$DIMALTD
 70
     2
  9
$DIMALTF
 40
1.0
  9
$DIMLFAC
 40
1.0
  9
$DIMTOFL
 70
     1
  9
$DIMTVP
 40
0.0
  9
$DIMTIX
 70
     0
  9
$DIMSOXD
 70
     0
  9
$DIMSAH
 70
     1
  9
$DIMBLK1
  1
OPEN
  9
$DIMBLK2
  1
OPEN
  9
$DIMSTYLE
  2
DIM1
  9
$DIMCLRD
 70
     2
  9
$DIMCLRE
 70
     2
  9
$DIMCLRT
 70
     2
  9
$DIMTFAC
 40
0.7
  9
$DIMGAP
 40
0.85
  9
$LUNITS
 70
     2
  9
$LUPREC
 70
     4
  9
$SKETCHINC
 40
1.0
  9
$FILLETRAD
 40
3.0
  9
$AUNITS
 70
     0
  9
$AUPREC
 70
     0
  9
$MENU
  1
C:\ACADR13\WIN\SUPPORT\ACAD.mnc
  9
$ELEVATION
 40
0.0
  9
$PELEVATION
 40
0.0
  9
$THICKNESS
 40
0.0
  9
$LIMCHECK
 70
     0
  9
$BLIPMODE
 70
     0
  9
$CHAMFERA
 40
1.0
  9
$CHAMFERB
 40
1.0
  9
$SKPOLY
 70
     0
  9
$TDCREATE
 40
2453916.5373667828
  9
$TDUPDATE
 40
2453952.394829757
  9
$TDINDWG
 40
3.1536998958
  9
$TDUSRTIMER
 40
3.1536998958
  9
$USRTIMER
 70
     1
  9
$ANGBASE
 50
0.0
  9
$ANGDIR
 70
     0
  9
$PDMODE
 70
     0
  9
$PDSIZE
 40
0.0
  9
$PLINEWID
 40
0.0
  9
$COORDS
 70
     0
  9
$SPLFRAME
 70
     0
  9
$SPLINETYPE
 70
     6
  9
$SPLINESEGS
 70
     8
  9
$ATTDIA
 70
     0
  9
$ATTREQ
 70
     1
  9
$HANDLING
 70
     1
  9
$HANDSEED
  5
A5CA
  9
$SURFTAB1
 70
     6
  9
$SURFTAB2
 70
     6
  9
$SURFTYPE
 70
     6
  9
$SURFU
 70
     6
  9
$SURFV
 70
     6
  9
$UCSNAME
  2

  9
$UCSORG
 10
0.0
 20
0.0
 30
0.0
  9
$UCSXDIR
 10
1.0
 20
0.0
 30
0.0
  9
$UCSYDIR
 10
0.0
 20
1.0
 30
0.0
  9
$PUCSNAME
  2

  9
$PUCSORG
 10
0.0
 20
0.0
 30
0.0
  9
$PUCSXDIR
 10
1.0
 20
0.0
 30
0.0
  9
$PUCSYDIR
 10
0.0
 20
1.0
 30
0.0
  9
$USERI1
 70
     0
  9
$USERI2
 70
     0
  9
$USERI3
 70
     0
  9
$USERI4
 70
     0
  9
$USERI5
 70
     0
  9
$USERR1
 40
0.0
  9
$USERR2
 40
0.0
  9
$USERR3
 40
0.0
  9
$USERR4
 40
0.0
  9
$USERR5
 40
0.0
  9
$WORLDVIEW
 70
     1
  9
$SHADEDGE
 70
     3
  9
$SHADEDIF
 70
    70
  9
$TILEMODE
 70
     1
  9
$MAXACTVP
 70
    16
  9
$PLIMCHECK
 70
     0
  9
$PEXTMIN
 10
1.0000000000000000E+020
 20
1.0000000000000000E+020
 30
1.0000000000000000E+020
  9
$PEXTMAX
 10
-1.0000000000000000E+020
 20
-1.0000000000000000E+020
 30
-1.0000000000000000E+020
  9
$PLIMMIN
 10
0.0
 20
0.0
  9
$PLIMMAX
 10
20.0
 20
147.0
  9
$UNITMODE
 70
     0
  9
$VISRETAIN
 70
     0
  9
$PLINEGEN
 70
     0
  9
$PSLTSCALE
 70
     1
  0
ENDSEC
  0
SECTION
  2
TABLES
  0
TABLE
  2
VPORT
 70
     7
  0
VPORT
  2
*ACTIVE
 70
     0
 10
0.0
 20
0.0
 11
1.0
 21
1.0
 12
2100.0
 22
1485.0
 13
0.0
 23
0.0
 14
1.0
 24
1.0
 15
0.0
 25
0.0
 16
0.0
 26
0.0
 36
1.0
 17
0.0
 27
0.0
 37
0.0
 40
3489.4791665396879
 41
1.2117486338797809
 42
50.0
 43
0.0
 44
0.0
 50
0.0
 51
0.0
 71
     0
 72
   100
 73
     1
 74
     1
 75
     0
 76
     0
 77
     0
 78
     0
  0
ENDTAB
  0
TABLE
  2
LTYPE
 70
     5
  0
LTYPE
  2
CONTINUOUS
 70
     0
  3
Solid line
 72
    65
 73
     0
 40
0.0
  0
ENDTAB
  0
TABLE
  2
LAYER
 70
    15
  0
LAYER
  2
0
 70
     0
 62
     7
  6
CONTINUOUS
  0
ENDTAB
  0
TABLE
  2
STYLE
 70
     3
  0
STYLE
  2
STANDARD
 70
     0
 40
0.0
 41
0.8
 50
0.0
 71
     0
 42
40.0
  3
simplex
  4
extfont
  0
STYLE
  2
PTSH
 70
     0
 40
0.0
 41
0.9
 50
0.0
 71
     0
 42
4.0
  3
SIMPLEX
  4
EXTFONT
  0
STYLE
  2
DIM
 70
     0
 40
0.0
 41
0.8
 50
0.0
 71
     0
 42
4.0
  3
simplex
  4
extfont
  0
ENDTAB
  0
TABLE
  2
VIEW
 70
     0
  0
ENDTAB
  0
TABLE
  2
UCS
 70
     0
  0
ENDTAB
  0
TABLE
  2
APPID
 70
     4
  0
APPID
  2
ACAD
 70
     0
  0
APPID
  2
ACAD_PSEXT
 70
     0
  0
APPID
  2
ACAD_DSTYLE_DIMTEXT_FILL
 70
     0
  0
APPID
  2
DCO15
 70
     0
  0
ENDTAB
  0
TABLE
  2
DIMSTYLE
 70
     9
  0
DIMSTYLE
  2
DIM1
 70
     0
  3

  4

  5

  6
OPEN
  7
OPEN
 40
10.0
 41
2.7999999999999989
 42
1.0
 43
5.0
 44
1.0
 45
0.1
 46
0.0
 47
0.0
 48
0.0
140
2.5
141
0.0
142
0.0
143
1.0
144
1.0
145
0.0
146
0.7
147
0.85
 71
     0
 72
     0
 73
     0
 74
     0
 75
     0
 76
     0
 77
     3
 78
     8
170
     0
171
     2
172
     1
173
     1
174
     0
175
     0
176
     2
177
     2
178
     2
  0
ENDTAB
  0
ENDSEC
  0
SECTION
  2
BLOCKS
  0
BLOCK
  8
0
  2
$MODEL_SPACE
 70
     0
 10
0.0
 20
0.0
 30
0.0
  3
$MODEL_SPACE
  1

  0
ENDBLK
  5
3D
  8
0
  0
BLOCK
 67
     1
  8
0
  2
$PAPER_SPACE
 70
     0
 10
0.0
 20
0.0
 30
0.0
  3
$PAPER_SPACE
  1

  0
ENDBLK
  5
3B
 67
     1
  8
0
  0
BLOCK
  8
0
  2
_OPEN
 70
     0
 10
0.0
 20
0.0
 30
0.0
  3
_OPEN
  1
H1111.DWG
  0
LINE
  5
244A
  8
0
  6
BYBLOCK
 62
     0
 10
-1.0
 20
0.1666666666666666
 30
0.0
 11
0.0
 21
0.0
 31
0.0
  0
LINE
  5
244B
  8
0
  6
BYBLOCK
 62
     0
 10
0.0
 20
0.0
 30
0.0
 11
-1.0
 21
-0.1666666666666666
 31
0.0
  0
LINE
  5
244C
  8
0
  6
BYBLOCK
 62
     0
 10
0.0
 20
0.0
 30
0.0
 11
-1.0
 21
0.0
 31
0.0
  0
ENDBLK
  5
244D
  8
0
  0
ENDSEC
  0
SECTION
  2
ENTITIES
  0
TEXT
  5
2529
  8
0
  6
CONTINUOUS
 10
3770.2499999999991
 20
152.49999999999989
 30
0.0
 40
35.0
  1
SF1-F
 41
0.9
  7
PTSH
 72
     1
 11
3839.9999999999991
 21
170.0
 31
0.0
 73
     2
  0
POLYLINE
  5
2563
  8
0
 66
     1
 10
0.0
 20
0.0
 30
0.0
 70
     1
  0
VERTEX
  5
A5C1
  8
0
 10
179.99999999999989
 20
69.999999999999986
 30
0.0
  0
VERTEX
  5
A5C2
  8
0
 10
4089.9999999999982
 20
69.999999999999986
 30
0.0
  0
VERTEX
  5
A5C3
  8
0
 10
4089.9999999999982
 20
2819.9999999999991
 30
0.0
  0
VERTEX
  5
A5C4
  8
0
 10
179.99999999999989
 20
2819.9999999999991
 30
0.0
  0
SEQEND
  5
A5C5
  8
0
  0
LINE
  5
9671
  8
0
 10
497.41240711304431
 20
2114.8613729052549
 30
0.0
 11
497.41240711304431
 21
2095.2352364476892
 31
0.0
  0
LINE
  5
9672
  8
0
 10
499.9124071130442
 20
2105.1219887218531
 30
0.0
 11
499.9124071130442
 21
2047.315013204686
 31
0.0
  0
LINE
  5
9673
  8
0
 10
499.9124071130442
 20
2095.2352364476892
 30
0.0
 11
497.41240711304431
 21
2095.2352364476892
 31
0.0
  0
LINE
  5
9675
  8
0
 10
547.41240711304431
 20
2061.7383478699689
 30
0.0
 11
547.41240711304454
 21
2035.6554596906931
 31
0.0
  0
LINE
  5
9676
  8
0
 10
562.41240711304454
 20
2061.7383478699689
 30
0.0
 11
562.4124071130442
 21
2035.6554596906931
 31
0.0
  0
LINE
  5
9677
  8
0
 10
582.41240711304431
 20
2055.7352364476892
 30
0.0
 11
582.41240711304431
 21
2054.2352364476901
 31
0.0
  0
LINE
  5
9678
  8
0
 10
582.41240711304431
 20
2049.2352364476892
 30
0.0
 11
582.41240711304454
 21
2047.735236447689
 31
0.0
  0
LINE
  5
9679
  8
0
 10
602.41240711304454
 20
2054.2352364476901
 30
0.0
 11
602.41240711304431
 21
2049.2352364476892
 31
0.0
  0
LINE
  5
967A
  8
0
 10
541.41240711304431
 20
2061.7383478699689
 30
0.0
 11
541.41240711304431
 21
2035.6554596906931
 31
0.0
  0
LINE
  5
967B
  8
0
 10
526.41240711304431
 20
2061.7383478699689
 30
0.0
 11
526.41240711304431
 21
2035.6554596906931
 31
0.0
  0
LINE
  5
967C
  8
0
 10
520.41240711304431
 20
2055.7352364476892
 30
0.0
 11
520.41240711304431
 21
2047.7352364476901
 31
0.0
  0
LINE
  5
967D
  8
0
 10
588.91240711304454
 20
2105.1219887218531
 30
0.0
 11
588.91240711304454
 21
2054.2352364476901
 31
0.0
  0
CIRCLE
  5
967E
  8
0
 10
739.24474950201466
 20
2309.017141505748
 30
0.0
 40
16.0
  0
ARC
  5
967F
  8
0
 10
739.24474950201466
 20
2309.017141505748
 30
0.0
 40
44.500000000000107
 50
205.27518690666989
 51
334.72481309333011
  0
ARC
  5
9680
  8
0
 10
739.24474950201466
 20
2309.017141505748
 30
0.0
 40
44.500000000000107
 50
25.27518690666987
 51
154.72481309333011
  0
LINE
  5
9681
  8
0
 10
675.24474950201466
 20
2328.0171415057471
 30
0.0
 11
674.24474950201466
 21
2327.017141505748
 31
0.0
  0
ARC
  5
9682
  8
0
 10
704.74474950201443
 20
2320.0171415057471
 30
0.0
 40
8.000000000000119
 50
27.03569178941299
 51
90.0
  0
ARC
  5
9683
  8
0
 10
714.54270847314729
 20
2325.017141505748
 30
0.0
 40
3.0
 50
207.03569178941299
 51
270.0
  0
LINE
  5
9684
  8
0
 10
729.91737044892568
 20
2322.017141505748
 30
0.0
 11
714.49881134078009
 21
2322.017141505748
 31
0.0
  0
LINE
  5
9685
  8
0
 10
675.24474950201466
 20
2328.0171415057471
 30
0.0
 11
704.74474950201443
 21
2328.017141505748
 31
0.0
  0
LINE
  5
9686
  8
0
 10
675.24474950201466
 20
2290.017141505748
 30
0.0
 11
674.24474950201466
 21
2291.017141505748
 31
0.0
  0
ARC
  5
9687
  8
0
 10
704.74474950201443
 20
2298.017141505748
 30
0.0
 40
8.000000000000119
 50
270.0
 51
332.96430821058698
  0
ARC
  5
9688
  8
0
 10
714.54270847314729
 20
2293.0171415057471
 30
0.0
 40
3.0
 50
90.0
 51
152.96430821058701
  0
LINE
  5
9689
  8
0
 10
729.91737044892568
 20
2296.0171415057471
 30
0.0
 11
714.49881134078009
 21
2296.0171415057471
 31
0.0
  0
LINE
  5
968A
  8
0
 10
675.24474950201466
 20
2290.017141505748
 30
0.0
 11
704.74474950201443
 21
2290.017141505748
 31
0.0
  0
LINE
  5
968B
  8
0
 10
674.24474950201466
 20
2327.017141505748
 30
0.0
 11
674.24474950201466
 21
2291.017141505748
 31
0.0
  0
LINE
  5
968C
  8
0
 10
803.24474950201466
 20
2328.0171415057471
 30
0.0
 11
804.24474950201466
 21
2327.017141505748
 31
0.0
  0
ARC
  5
968D
  8
0
 10
773.74474950201466
 20
2320.0171415057471
 30
0.0
 40
8.000000000000119
 50
90.0
 51
152.96430821058701
  0
ARC
  5
968E
  8
0
 10
763.94679053088203
 20
2325.017141505748
 30
0.0
 40
3.0
 50
270.0
 51
332.96430821058698
  0
LINE
  5
968F
  8
0
 10
748.57212855510329
 20
2322.017141505748
 30
0.0
 11
763.99068766324899
 21
2322.017141505748
 31
0.0
  0
LINE
  5
9690
  8
0
 10
803.24474950201466
 20
2328.0171415057471
 30
0.0
 11
773.74474950201466
 21
2328.017141505748
 31
0.0
  0
LINE
  5
9691
  8
0
 10
803.24474950201466
 20
2290.017141505748
 30
0.0
 11
804.24474950201466
 21
2291.017141505748
 31
0.0
  0
ARC
  5
9692
  8
0
 10
773.74474950201466
 20
2298.017141505748
 30
0.0
 40
8.000000000000119
 50
207.03569178941299
 51
270.0
  0
ARC
  5
9693
  8
0
 10
763.94679053088203
 20
2293.0171415057471
 30
0.0
 40
3.0
 50
27.03569178941299
 51
90.0
  0
LINE
  5
9694
  8
0
 10
748.57212855510329
 20
2296.0171415057471
 30
0.0
 11
763.99068766324899
 21
2296.0171415057471
 31
0.0
  0
LINE
  5
9695
  8
0
 10
803.24474950201466
 20
2290.017141505748
 30
0.0
 11
773.74474950201466
 21
2290.017141505748
 31
0.0
  0
LINE
  5
9696
  8
0
 10
804.24474950201466
 20
2327.017141505748
 30
0.0
 11
804.24474950201466
 21
2291.017141505748
 31
0.0
  0
LINE
  5
9697
  8
0
 10
588.91240711304431
 20
1976.822949687961
 30
0.0
 11
588.91240711304454
 21
2035.6554596906931
 31
0.0
  0
LINE
  5
9698
  8
0
 10
499.91240711304448
 20
1976.822949687961
 30
0.0
 11
499.91240711304448
 21
2035.6554596906931
 31
0.0
  0
LINE
  5
9699
  8
0
 10
488.4124071130442
 20
2047.315013204686
 30
0.0
 11
526.41240711304431
 21
2047.315013204686
 31
0.0
  0
LINE
  5
969A
  8
0
 10
562.4124071130442
 20
2047.315013204686
 30
0.0
 11
600.4124071130442
 21
2047.315013204686
 31
0.0
  0
LINE
  5
969B
  8
0
 10
562.41240711304454
 20
2061.7383478699689
 30
0.0
 11
547.41240711304431
 21
2061.7383478699689
 31
0.0
  0
LINE
  5
969C
  8
0
 10
541.41240711304431
 20
2061.7383478699689
 30
0.0
 11
526.41240711304431
 21
2061.7383478699689
 31
0.0
  0
LINE
  5
969D
  8
0
 10
600.41240711304454
 20
2035.6554596906931
 30
0.0
 11
600.4124071130442
 21
2047.315013204686
 31
0.0
  0
LINE
  5
969E
  8
0
 10
488.4124071130442
 20
2035.6554596906931
 30
0.0
 11
488.4124071130442
 21
2047.315013204686
 31
0.0
  0
LINE
  5
969F
  8
0
 10
488.4124071130442
 20
2035.6554596906931
 30
0.0
 11
600.41240711304454
 21
2035.6554596906931
 31
0.0
  0
LINE
  5
96A0
  8
0
 10
547.41240711304454
 20
2055.7352364476892
 30
0.0
 11
541.41240711304454
 21
2055.7352364476892
 31
0.0
  0
LINE
  5
96A1
  8
0
 10
547.41240711304454
 20
2047.7352364476901
 30
0.0
 11
541.41240711304431
 21
2047.7352364476901
 31
0.0
  0
LINE
  5
96A2
  8
0
 10
541.41240711304454
 20
2047.315013204686
 30
0.0
 11
547.41240711304431
 21
2047.315013204686
 31
0.0
  0
LINE
  5
96A3
  8
0
 10
529.4124071130442
 20
1910.735236447689
 30
0.0
 11
559.41240711304431
 21
1910.735236447689
 31
0.0
  0
ARC
  5
96A4
  8
0
 10
544.41240711304431
 20
2005.735236447689
 30
0.0
 40
73.0
 50
240.00000000001401
 51
299.99999999998602
  0
LINE
  5
96A5
  8
0
 10
588.91240711304431
 20
1956.371788431976
 30
0.0
 11
588.91240711304431
 21
1976.822949687961
 31
0.0
  0
ARC
  5
96A6
  8
0
 10
572.91240711304431
 20
1956.371788431976
 30
0.0
 40
16.0
 50
299.99999999998602
 51
0.0
  0
LINE
  5
96A7
  8
0
 10
560.41240711304431
 20
1932.1485528697481
 30
0.0
 11
560.41240711304431
 21
1911.735236447689
 31
0.0
  0
LINE
  5
96A8
  8
0
 10
560.41240711304431
 20
1911.735236447689
 30
0.0
 11
559.41240711304431
 21
1910.735236447689
 31
0.0
  0
ARC
  5
96A9
  8
0
 10
563.4124071130442
 20
1932.1485528697481
 30
0.0
 40
3.0
 50
104.4775121859294
 51
180.0
  0
LINE
  5
96AA
  8
0
 10
499.9124071130442
 20
1956.371788431976
 30
0.0
 11
499.9124071130442
 21
1976.822949687961
 31
0.0
  0
LINE
  5
96AB
  8
0
 10
528.41240711304431
 20
1932.1485528697481
 30
0.0
 11
528.41240711304431
 21
1911.735236447689
 31
0.0
  0
LINE
  5
96AC
  8
0
 10
529.4124071130442
 20
1910.735236447689
 30
0.0
 11
528.41240711304431
 21
1911.735236447689
 31
0.0
  0
ARC
  5
96AD
  8
0
 10
525.4124071130442
 20
1932.1485528697481
 30
0.0
 40
3.0
 50
0.0
 51
75.522487814070544
  0
ARC
  5
96AE
  8
0
 10
515.91240711304431
 20
1956.371788431976
 30
0.0
 40
16.0
 50
180.0
 51
240.00000000001401
  0
LINE
  5
96AF
  8
0
 10
562.4124071130442
 20
2055.7352364476892
 30
0.0
 11
582.41240711304431
 21
2055.7352364476892
 31
0.0
  0
LINE
  5
96B0
  8
0
 10
562.4124071130442
 20
2047.735236447689
 30
0.0
 11
582.41240711304431
 21
2047.735236447689
 31
0.0
  0
LINE
  5
96B1
  8
0
 10
582.41240711304431
 20
2049.2352364476892
 30
0.0
 11
602.41240711304431
 21
2049.2352364476892
 31
0.0
  0
LINE
  5
96B2
  8
0
 10
582.41240711304431
 20
2054.2352364476901
 30
0.0
 11
602.41240711304454
 21
2054.2352364476901
 31
0.0
  0
LINE
  5
96B3
  8
0
 10
582.41240711304431
 20
2053.6881613308901
 30
0.0
 11
582.41240711304431
 21
2049.7823115644892
 31
0.0
  0
LINE
  5
96B4
  8
0
 10
526.41240711304454
 20
2055.7352364476892
 30
0.0
 11
520.41240711304431
 21
2055.7352364476892
 31
0.0
  0
LINE
  5
96B5
  8
0
 10
526.41240711304431
 20
2047.7352364476901
 30
0.0
 11
520.41240711304431
 21
2047.7352364476901
 31
0.0
  0
LINE
  5
96B6
  8
0
 10
963.25901980785807
 20
2105.1219887218531
 30
0.0
 11
963.25901980785807
 21
2051.7352364476892
 31
0.0
  0
LINE
  5
96B8
  8
0
 10
874.25901980785795
 20
2105.1219887218531
 30
0.0
 11
874.25901980785795
 21
2051.7352364476892
 31
0.0
  0
LINE
  5
96B9
  8
0
 10
874.25901980785795
 20
1976.822949687961
 30
0.0
 11
874.25901980785795
 21
2031.2352364476901
 31
0.0
  0
LINE
  5
96BA
  8
0
 10
963.25901980785773
 20
1976.822949687961
 30
0.0
 11
963.25901980785773
 21
2031.235236447689
 31
0.0
  0
LINE
  5
96BB
  8
0
 10
862.75901980785784
 20
2031.235236447689
 30
0.0
 11
862.75901980785795
 21
2051.7352364476892
 31
0.0
  0
LINE
  5
96BC
  8
0
 10
974.75901980785829
 20
2031.235236447689
 30
0.0
 11
974.75901980785807
 21
2051.7352364476892
 31
0.0
  0
LINE
  5
96BD
  8
0
 10
963.25901980785773
 20
1976.822949687961
 30
0.0
 11
874.25901980785795
 21
1976.822949687961
 31
0.0
  0
LINE
  5
96BE
  8
0
 10
963.30901980785779
 20
1976.822949687961
 30
0.0
 11
874.25901980785795
 21
1976.822949687961
 31
0.0
  0
LINE
  5
96BF
  8
0
 10
963.25901980785807
 20
1976.822949687961
 30
0.0
 11
874.25901980785795
 21
1976.822949687961
 31
0.0
  0
LINE
  5
96C0
  8
0
 10
933.75901980785807
 20
1910.735236447689
 30
0.0
 11
903.75901980785795
 21
1910.735236447689
 31
0.0
  0
ARC
  5
96C1
  8
0
 10
918.75901980785807
 20
2005.735236447689
 30
0.0
 40
73.0
 50
240.00000000001401
 51
299.99999999998602
  0
LINE
  5
96C2
  8
0
 10
874.25901980785795
 20
1956.371788431976
 30
0.0
 11
874.25901980785795
 21
1976.822949687961
 31
0.0
  0
ARC
  5
96C3
  8
0
 10
890.25901980785807
 20
1956.371788431976
 30
0.0
 40
16.0
 50
180.0
 51
240.00000000001401
  0
LINE
  5
96C4
  8
0
 10
902.75901980785807
 20
1932.1485528697481
 30
0.0
 11
902.75901980785807
 21
1911.735236447689
 31
0.0
  0
LINE
  5
96C5
  8
0
 10
902.75901980785807
 20
1911.735236447689
 30
0.0
 11
903.75901980785795
 21
1910.735236447689
 31
0.0
  0
ARC
  5
96C6
  8
0
 10
899.75901980785807
 20
1932.1485528697481
 30
0.0
 40
3.0
 50
0.0
 51
75.522487814070544
  0
LINE
  5
96C7
  8
0
 10
963.25901980785807
 20
1956.371788431976
 30
0.0
 11
963.25901980785807
 21
1976.822949687961
 31
0.0
  0
LINE
  5
96C8
  8
0
 10
934.75901980785807
 20
1932.1485528697481
 30
0.0
 11
934.75901980785807
 21
1911.735236447689
 31
0.0
  0
LINE
  5
96C9
  8
0
 10
933.75901980785807
 20
1910.735236447689
 30
0.0
 11
934.75901980785807
 21
1911.735236447689
 31
0.0
  0
ARC
  5
96CA
  8
0
 10
937.75901980785795
 20
1932.1485528697481
 30
0.0
 40
3.0
 50
104.4775121859294
 51
180.0
  0
ARC
  5
96CB
  8
0
 10
947.25901980785807
 20
1956.371788431976
 30
0.0
 40
16.0
 50
299.99999999998602
 51
0.0
  0
LINE
  5
96CC
  8
0
 10
862.75901980785795
 20
2051.7352364476892
 30
0.0
 11
974.75901980785807
 21
2051.7352364476892
 31
0.0
  0
LINE
  5
96CD
  8
0
 10
862.75901980785784
 20
2031.235236447689
 30
0.0
 11
974.75901980785829
 21
2031.235236447689
 31
0.0
  0
LINE
  5
96CE
  8
0
 10
723.24477451322082
 20
2356.5161377538252
 30
0.0
 11
755.24472449080827
 21
2356.5181452576699
 31
0.0
  0
LINE
  5
96CF
  8
0
 10
722.24323175147936
 20
2352.0992473460142
 30
0.0
 11
722.24483725149628
 21
2355.5162235748749
 31
0.0
  0
ARC
  5
96D0
  8
0
 10
719.24323208263195
 20
2352.1006569254778
 30
0.0
 40
3.0
 50
294.903080335124
 51
359.97307901429627
  0
ARC
  5
96D1
  8
0
 10
723.24483724781385
 20
2355.5161377557938
 30
0.0
 40
1.0
 50
90.003594427412423
 51
179.99508292883499
  0
ARC
  5
96D2
  8
0
 10
759.24449080059162
 20
2352.1014814448708
 30
0.0
 40
3.0
 50
179.99502884858751
 51
245.09928166462049
  0
LINE
  5
96D3
  8
0
 10
756.24449081188322
 20
2352.1017417337498
 30
0.0
 11
756.24478722163758
 21
2355.518058496677
 31
0.0
  0
ARC
  5
96D4
  8
0
 10
755.24478722540118
 20
2355.5181452596371
 30
0.0
 40
1.0
 50
359.99502884858748
 51
90.003594427412423
  0
LINE
  5
96D5
  8
0
 10
676.19683436770845
 20
2251.017141505748
 30
0.0
 11
692.08633467047446
 21
2251.017141505748
 31
0.0
  0
LINE
  5
96D6
  8
0
 10
676.19683436770845
 20
2255.017141505748
 30
0.0
 11
692.08633467047446
 21
2255.017141505748
 31
0.0
  0
LINE
  5
96D7
  8
0
 10
688.05527156138146
 20
2333.0171415057471
 30
0.0
 11
688.05527156138146
 21
2328.0171415057471
 31
0.0
  0
LINE
  5
96D8
  8
0
 10
688.05527156138123
 20
2290.017141505748
 30
0.0
 11
688.05527156138123
 21
2272.4600771273672
 31
0.0
  0
LINE
  5
96D9
  8
0
 10
680.05527156138146
 20
2333.0171415057471
 30
0.0
 11
680.05527156138146
 21
2328.0171415057471
 31
0.0
  0
LINE
  5
96DA
  8
0
 10
680.05527156138123
 20
2290.017141505748
 30
0.0
 11
680.05527156138123
 21
2272.334523754967
 31
0.0
  0
LINE
  5
96DB
  8
0
 10
680.05527156138123
 20
2272.334523754967
 30
0.0
 11
671.38688889775494
 21
2260.6038425772158
 31
0.0
  0
LINE
  5
96DC
  8
0
 10
685.69724628869812
 20
2268.9309212904568
 30
0.0
 11
693.68964982712566
 21
2258.2127085295701
 31
0.0
  0
LINE
  5
96DD
  8
0
 10
688.05527156138123
 20
2272.4600771273672
 30
0.0
 11
696.89628014042808
 21
2260.6038425772158
 31
0.0
  0
ARC
  5
96DE
  8
0
 10
692.08633467047446
 20
2257.017141505748
 30
0.0
 40
2.0
 50
270.0
 51
36.71131776775978
  0
ARC
  5
96DF
  8
0
 10
692.08633467047446
 20
2257.017141505748
 30
0.0
 40
6.0
 50
270.0
 51
36.71131776775978
  0
ARC
  5
96E0
  8
0
 10
684.09393113204658
 20
2267.7353542666351
 30
0.0
 40
2.0
 50
36.71131776775978
 51
143.13010235416641
  0
ARC
  5
96E1
  8
0
 10
676.19683436770845
 20
2257.017141505748
 30
0.0
 40
2.0
 50
143.28868223224021
 51
270.0
  0
ARC
  5
96E2
  8
0
 10
676.19683436770845
 20
2257.017141505748
 30
0.0
 40
6.0
 50
143.28868223224021
 51
270.0
  0
LINE
  5
96E3
  8
0
 10
682.49393113204667
 20
2268.9353542666349
 30
0.0
 11
674.59351921105736
 21
2258.2127085295701
 31
0.0
  0
LINE
  5
96E4
  8
0
 10
680.05527156138146
 20
2333.0171415057471
 30
0.0
 11
688.05527156138146
 21
2333.0171415057471
 31
0.0
  0
ARC
  5
96E5
  8
0
 10
764.32160216128614
 20
2352.4515244055251
 30
0.0
 40
5.6537053185431851
 50
60.000000000002721
 51
240.0000000000027
  0
ARC
  5
96E6
  8
0
 10
764.32160216128614
 20
2265.58275860597
 30
0.0
 40
5.6537053185431851
 50
119.9999999999973
 51
299.99999999999733
  0
ARC
  5
96E9
  8
0
 10
739.24474950201466
 20
2309.017141505748
 30
0.0
 40
56.0
 50
203.9220712530541
 51
340.16663809113521
  0
ARC
  5
96EA
  8
0
 10
739.24474950201466
 20
2309.017141505748
 30
0.0
 40
56.0
 50
19.833361908864791
 51
156.0779287469459
  0
LINE
  5
96EB
  8
0
 10
754.05216013910103
 20
2165.7352364476892
 30
0.0
 11
724.05216013910103
 21
2165.7352364476892
 31
0.0
  0
LINE
  5
96EC
  8
0
 10
674.05216013910103
 20
2139.7352364476892
 30
0.0
 11
674.05216013910103
 21
2103.7352364476892
 31
0.0
  0
LINE
  5
96ED
  8
0
 10
675.05216013910103
 20
2140.7352364476892
 30
0.0
 11
674.05216013910103
 21
2139.7352364476892
 31
0.0
  0
LINE
  5
96EE
  8
0
 10
691.55216013910103
 20
2102.7352364476892
 30
0.0
 11
675.05216013910103
 21
2102.7352364476892
 31
0.0
  0
LINE
  5
96EF
  8
0
 10
674.05216013910103
 20
2103.7352364476892
 30
0.0
 11
675.05216013910103
 21
2102.7352364476892
 31
0.0
  0
ARC
  5
96F0
  8
0
 10
767.55216013910103
 20
2111.0986844634022
 30
0.0
 40
16.0
 50
0.0
 51
60.000000000002721
  0
ARC
  5
96F1
  8
0
 10
739.05216013910103
 20
2061.7352364476892
 30
0.0
 40
73.0
 50
60.000000000002721
 51
119.9999999999973
  0
ARC
  5
96F2
  8
0
 10
710.55216013910103
 20
2111.0986844634022
 30
0.0
 40
16.0
 50
119.9999999999973
 51
180.0
  0
LINE
  5
96F3
  8
0
 10
694.55216013910103
 20
2099.7352364476892
 30
0.0
 11
694.55216013910103
 21
2054.2352364476901
 31
0.0
  0
LINE
  5
96F4
  8
0
 10
694.55216013910103
 20
2111.0986844634022
 30
0.0
 11
694.55216013910103
 21
2099.0986966218929
 31
0.0
  0
LINE
  5
96F6
  8
0
 10
755.05216013910103
 20
2164.7352364476892
 30
0.0
 11
755.05216013910069
 21
2135.3219200256299
 31
0.0
  0
LINE
  5
96F7
  8
0
 10
754.05216013910103
 20
2165.7352364476892
 30
0.0
 11
755.05216013910103
 21
2164.7352364476892
 31
0.0
  0
LINE
  5
96F8
  8
0
 10
723.05216013910103
 20
2164.7352364476892
 30
0.0
 11
723.05216013910103
 21
2135.3219200256299
 31
0.0
  0
LINE
  5
96F9
  8
0
 10
724.05216013910103
 20
2165.7352364476892
 30
0.0
 11
723.05216013910103
 21
2164.7352364476892
 31
0.0
  0
LINE
  5
96FA
  8
0
 10
804.05216013910092
 20
2139.7352364476892
 30
0.0
 11
804.05216013910092
 21
2103.7352364476892
 31
0.0
  0
LINE
  5
96FB
  8
0
 10
803.05216013910103
 20
2140.7352364476892
 30
0.0
 11
755.05216013910069
 21
2140.7352364476892
 31
0.0
  0
LINE
  5
96FC
  8
0
 10
723.05216013910103
 20
2140.7352364476892
 30
0.0
 11
675.05216013910103
 21
2140.7352364476892
 31
0.0
  0
LINE
  5
96FD
  8
0
 10
803.05216013910103
 20
2140.7352364476892
 30
0.0
 11
804.05216013910092
 21
2139.7352364476892
 31
0.0
  0
LINE
  5
96FE
  8
0
 10
783.55216013910103
 20
2099.7352364476892
 30
0.0
 11
783.55216013910103
 21
2051.7352364476892
 31
0.0
  0
LINE
  5
96FF
  8
0
 10
803.05216013910103
 20
2102.7352364476892
 30
0.0
 11
786.55216013910103
 21
2102.7352364476892
 31
0.0
  0
LINE
  5
9700
  8
0
 10
783.55216013910103
 20
2111.0986844634022
 30
0.0
 11
783.55216013910103
 21
2099.7352364476892
 31
0.0
  0
ARC
  5
9701
  8
0
 10
786.55216013910103
 20
2099.7352364476892
 30
0.0
 40
3.0
 50
90.0
 51
180.0
  0
LINE
  5
9702
  8
0
 10
804.05216013910092
 20
2103.7352364476892
 30
0.0
 11
803.05216013910103
 21
2102.7352364476892
 31
0.0
  0
ARC
  5
9703
  8
0
 10
691.55216013910081
 20
2099.7352364476892
 30
0.0
 40
3.0
 50
0.0
 51
90.0
  0
LINE
  5
9704
  8
0
 10
693.55216013910103
 20
2049.2352364476892
 30
0.0
 11
693.55216013910103
 21
2047.315013204686
 31
0.0
  0
LINE
  5
9705
  8
0
 10
795.05216013910103
 20
2044.3352364476891
 30
0.0
 11
795.05216013910103
 21
2041.485236447689
 31
0.0
  0
LINE
  5
9706
  8
0
 10
795.05216013910103
 20
2038.3352364476891
 30
0.0
 11
795.05216013910103
 21
2041.485236447689
 31
0.0
  0
LINE
  5
9707
  8
0
 10
693.02878060793398
 20
2047.315013204686
 30
0.0
 11
795.05216013910103
 21
2047.315013204686
 31
0.0
  0
LINE
  5
9708
  8
0
 10
674.05216013910103
 20
2041.485236447689
 30
0.0
 11
702.05838298366143
 21
2041.485236447689
 31
0.0
  0
LINE
  5
9709
  8
0
 10
674.05216013910103
 20
2035.6554596906931
 30
0.0
 11
795.05216013910103
 21
2035.6554596906931
 31
0.0
  0
LINE
  5
970A
  8
0
 10
795.05216013910115
 20
2031.235236447689
 30
0.0
 11
795.05216013910103
 21
2051.7352364476892
 31
0.0
  0
LINE
  5
970B
  8
0
 10
674.05216013910103
 20
2035.6554596906931
 30
0.0
 11
674.05216013910103
 21
2049.2352364476892
 31
0.0
  0
ARC
  5
970C
  8
0
 10
683.80595806074928
 20
2051.7121811032171
 30
0.0
 40
10.23910092035522
 50
272.79222088910518
 51
346.00068079444941
  0
ARC
  5
970D
  8
0
 10
684.05527156138123
 20
2051.7352364476892
 30
0.0
 40
10.00311142228025
 50
14.472910718502989
 51
165.52708928149701
  0
LINE
  5
970E
  8
0
 10
699.05527156138123
 20
2049.2352364476892
 30
0.0
 11
699.05527156138123
 21
2054.2352364476901
 31
0.0
  0
LINE
  5
970F
  8
0
 10
669.05527156138123
 20
2049.2352364476892
 30
0.0
 11
669.05527156138123
 21
2054.2352364476901
 31
0.0
  0
LINE
  5
9710
  8
0
 10
699.05527156138123
 20
2054.2352364476901
 30
0.0
 11
669.05527156138123
 21
2054.2352364476901
 31
0.0
  0
LINE
  5
9711
  8
0
 10
699.05527156138123
 20
2049.2352364476892
 30
0.0
 11
669.05527156138123
 21
2049.2352364476892
 31
0.0
  0
LINE
  5
9712
  8
0
 10
724.05216013910103
 20
1910.735236447689
 30
0.0
 11
754.05216013910103
 21
1910.735236447689
 31
0.0
  0
ARC
  5
9713
  8
0
 10
739.05216013910103
 20
2005.735236447689
 30
0.0
 40
73.0
 50
240.00000000001401
 51
299.99999999998602
  0
LINE
  5
9714
  8
0
 10
783.55216013910103
 20
1956.371788431976
 30
0.0
 11
783.55216013910103
 21
1976.822949687961
 31
0.0
  0
ARC
  5
9715
  8
0
 10
767.55216013910103
 20
1956.371788431976
 30
0.0
 40
16.0
 50
299.99999999998602
 51
0.0
  0
LINE
  5
9716
  8
0
 10
755.05216013910103
 20
1932.1485528697481
 30
0.0
 11
755.05216013910103
 21
1911.735236447689
 31
0.0
  0
LINE
  5
9717
  8
0
 10
755.05216013910103
 20
1911.735236447689
 30
0.0
 11
754.05216013910103
 21
1910.735236447689
 31
0.0
  0
ARC
  5
9718
  8
0
 10
758.05216013910103
 20
1932.1485528697481
 30
0.0
 40
3.0
 50
104.4775121859294
 51
180.0
  0
LINE
  5
9719
  8
0
 10
694.55216013910103
 20
1956.371788431976
 30
0.0
 11
694.55216013910103
 21
1976.822949687961
 31
0.0
  0
LINE
  5
971A
  8
0
 10
723.05216013910103
 20
1932.1485528697481
 30
0.0
 11
723.05216013910103
 21
1911.735236447689
 31
0.0
  0
LINE
  5
971B
  8
0
 10
724.05216013910103
 20
1910.735236447689
 30
0.0
 11
723.05216013910103
 21
1911.735236447689
 31
0.0
  0
ARC
  5
971C
  8
0
 10
720.05216013910103
 20
1932.1485528697481
 30
0.0
 40
3.0
 50
0.0
 51
75.522487814070544
  0
ARC
  5
971D
  8
0
 10
710.55216013910103
 20
1956.371788431976
 30
0.0
 40
16.0
 50
180.0
 51
240.00000000001401
  0
LINE
  5
971E
  8
0
 10
759.42534972991689
 20
2051.7352364476892
 30
0.0
 11
759.42534972991655
 21
2047.315013204686
 31
0.0
  0
LINE
  5
971F
  8
0
 10
759.42534972991655
 20
2035.6554596906931
 30
0.0
 11
759.42534972991655
 21
2031.235236447689
 31
0.0
  0
ARC
  5
9720
  8
0
 10
684.05527156138123
 20
2051.7352364476892
 30
0.0
 40
4.0
 50
218.68218745349299
 51
321.3178125465069
  0
ARC
  5
9721
  8
0
 10
684.05527156138123
 20
2051.7352364476892
 30
0.0
 40
4.0
 50
38.68218745349305
 51
141.3178125465069
  0
LINE
  5
9722
  8
0
 10
795.05216013910103
 20
2051.7352364476892
 30
0.0
 11
759.42534972991689
 21
2051.7352364476892
 31
0.0
  0
LINE
  5
9723
  8
0
 10
795.05216013910115
 20
2031.235236447689
 30
0.0
 11
759.42534972991655
 21
2031.235236447689
 31
0.0
  0
LINE
  5
9724
  8
0
 10
783.55216013910103
 20
1976.822949687961
 30
0.0
 11
783.55216013910103
 21
2031.235236447689
 31
0.0
  0
LINE
  5
9725
  8
0
 10
694.55216013910103
 20
1976.822949687961
 30
0.0
 11
694.55216013910103
 21
2032.235236447689
 31
0.0
  0
LINE
  5
9726
  8
0
 10
693.55216013910103
 20
2033.235236447689
 30
0.0
 11
693.55216013910103
 21
2035.6054596906929
 31
0.0
  0
ARC
  5
9727
  8
0
 10
693.55216013910103
 20
2032.235236447689
 30
0.0
 40
1.0
 50
0.0
 51
90.0
  0
LINE
  5
9728
  8
0
 10
694.55216013910103
 20
1976.822949687961
 30
0.0
 11
783.55216013910103
 21
1976.822949687961
 31
0.0
  0
LINE
  5
9729
  8
0
 10
499.91240711304448
 20
1976.822949687961
 30
0.0
 11
588.91240711304454
 21
1976.822949687961
 31
0.0
  0
LINE
  5
972A
  8
0
 10
3042.483574270474
 20
2087.2164051515219
 30
0.0
 11
3062.9835742704731
 21
2087.2164051515219
 31
0.0
  0
LINE
  5
972B
  8
0
 10
3041.4835742704731
 20
2088.2164051515219
 30
0.0
 11
3042.483574270474
 21
2087.2164051515219
 31
0.0
  0
LINE
  5
972D
  8
0
 10
3190.4835742704731
 20
2087.2164051515219
 30
0.0
 11
3169.9835742704731
 21
2087.2164051515219
 31
0.0
  0
ARC
  5
972E
  8
0
 10
3169.9835742704731
 20
2084.2164051515219
 30
0.0
 40
3.0
 50
90.0
 51
180.0
  0
LINE
  5
972F
  8
0
 10
3190.4835742704731
 20
2133.2164051515219
 30
0.0
 11
3132.4837153129761
 21
2133.2164051515219
 31
0.0
  0
LINE
  5
9730
  8
0
 10
3100.4834370276949
 20
2133.2164051515219
 30
0.0
 11
3042.483574270474
 21
2133.2164051515219
 31
0.0
  0
LINE
  5
9731
  8
0
 10
3191.4835742704731
 20
2132.2164051515219
 30
0.0
 11
3190.4835742704731
 21
2133.2164051515219
 31
0.0
  0
LINE
  5
9733
  8
0
 10
3155.840650783226
 20
2271.0061205733591
 30
0.0
 11
3155.4365067749309
 21
2271.0061205733591
 31
0.0
  0
LINE
  5
9734
  8
0
 10
3191.4829841744681
 20
2308.8394001121728
 30
0.0
 11
3191.4829841744672
 21
2264.8394249986659
 31
0.0
  0
LINE
  5
9735
  8
0
 10
3190.4829841744672
 20
2263.8394249986659
 30
0.0
 11
3171.2770110412412
 21
2263.8401391111511
 31
0.0
  0
ARC
  5
9736
  8
0
 10
3171.277048223033
 20
2264.8401391104599
 30
0.0
 40
1.0
 50
240.2004279299278
 51
269.99786964028988
  0
LINE
  5
9737
  8
0
 10
3191.4829841744672
 20
2264.8394249986659
 30
0.0
 11
3190.4829841744672
 21
2263.8394249986659
 31
0.0
  0
LINE
  5
9738
  8
0
 10
3155.8374795142981
 20
2271.0061210722611
 30
0.0
 11
3118.7873472840329
 21
2271.0060751566111
 31
0.0
  0
ARC
  5
9739
  8
0
 10
3155.8374919565831
 20
2261.0061210722688
 30
0.0
 40
10.0
 50
60.200427929927827
 51
90.000071289044229
  0
LINE
  5
973A
  8
0
 10
3101.4835742702148
 20
2156.7164051515219
 30
0.0
 11
3131.483574270731
 21
2156.7164051515219
 31
0.0
  0
LINE
  5
973B
  8
0
 10
3100.4835742702148
 20
2155.7164051515219
 30
0.0
 11
3100.4833997327601
 21
2127.1021480793461
 31
0.0
  0
LINE
  5
973C
  8
0
 10
3132.483574270731
 20
2155.7164051515219
 30
0.0
 11
3132.4837536404762
 21
2127.1021464847072
 31
0.0
  0
LINE
  5
973D
  8
0
 10
3101.4835742702148
 20
2156.7164051515219
 30
0.0
 11
3131.483574270731
 21
2156.7164051515219
 31
0.0
  0
LINE
  5
973E
  8
0
 10
3131.483574270731
 20
2156.7164051515219
 30
0.0
 11
3132.483574270731
 21
2155.7164051515219
 31
0.0
  0
LINE
  5
973F
  8
0
 10
3101.4835742702148
 20
2156.7164051515219
 30
0.0
 11
3100.4835742702148
 21
2155.7164051515219
 31
0.0
  0
LINE
  5
9740
  8
0
 10
3166.983574270474
 20
2099.2920872410632
 30
0.0
 11
3166.983574270474
 21
2055.4664051515219
 31
0.0
  0
LINE
  5
9741
  8
0
 10
3065.9835742704731
 20
2084.2164051515219
 30
0.0
 11
3065.9835742704731
 21
2057.9664051515219
 31
0.0
  0
ARC
  5
9742
  8
0
 10
3062.9835742704731
 20
2084.2164051515219
 30
0.0
 40
3.0
 50
0.0
 51
90.0
  0
LINE
  5
9743
  8
0
 10
3191.4835742704731
 20
2132.2164051515219
 30
0.0
 11
3191.4835742704731
 21
2088.2164051515219
 31
0.0
  0
LINE
  5
9744
  8
0
 10
3190.4835742704731
 20
2087.2164051515219
 30
0.0
 11
3191.4835742704731
 21
2088.2164051515219
 31
0.0
  0
LINE
  5
9745
  8
0
 10
3041.4835742704731
 20
2132.2164051515219
 30
0.0
 11
3041.4835742704731
 21
2088.2164051515219
 31
0.0
  0
LINE
  5
9746
  8
0
 10
3042.483574270474
 20
2133.2164051515219
 30
0.0
 11
3041.4835742704731
 21
2132.2164051515219
 31
0.0
  0
ARC
  5
9747
  8
0
 10
3116.4835742704731
 20
2042.714706601801
 30
0.0
 40
83.499999999999986
 50
60.507627324947293
 51
119.49237267505271
  0
ARC
  5
9748
  8
0
 10
3148.4835742704731
 20
2099.2920872410632
 30
0.0
 40
18.5
 50
0.0
 51
60.507627324947293
  0
ARC
  5
9749
  8
0
 10
3084.4835742704731
 20
2099.2920872410632
 30
0.0
 40
18.5
 50
119.49237267505271
 51
180.0
  0
LINE
  5
974A
  8
0
 10
3065.9835742704731
 20
2084.2164051515219
 30
0.0
 11
3065.9835742704731
 21
2099.2920872410632
 31
0.0
  0
LINE
  5
974B
  8
0
 10
3365.4786620576351
 20
2073.3924998724779
 30
0.0
 11
3365.4786620576351
 21
2055.4664051515219
 31
0.0
  0
LINE
  5
974C
  8
0
 10
3466.4786620576351
 20
2073.3924998724769
 30
0.0
 11
3466.4786620576351
 21
2055.4664051515219
 31
0.0
  0
ARC
  5
974E
  8
0
 10
3116.4829841744681
 20
2286.83941255542
 30
0.0
 40
50.50000000000022
 50
201.67084699063619
 51
338.32915300936389
  0
ARC
  5
974F
  8
0
 10
3116.4829841744681
 20
2286.83941255542
 30
0.0
 40
50.50000000000022
 50
21.670846990636161
 51
158.32915300936381
  0
CIRCLE
  5
9751
  8
0
 10
3116.4835742704731
 20
2286.83941255542
 30
0.0
 40
16.00006072746363
  0
LINE
  5
9752
  8
0
 10
3160.807166755174
 20
2269.6838127236392
 30
0.0
 11
3170.7800807431731
 21
2263.972369945323
 31
0.0
  0
LINE
  5
9753
  8
0
 10
3133.483574270474
 20
2336.4604766310731
 30
0.0
 11
3133.483574270474
 21
2339.33941255542
 31
0.0
  0
LINE
  5
9754
  8
0
 10
3099.483574270474
 20
2336.4604766310731
 30
0.0
 11
3099.483574270474
 21
2339.33941255542
 31
0.0
  0
ARC
  5
9755
  8
0
 10
3096.483574270474
 20
2336.4604766310731
 30
0.0
 40
3.0
 50
291.95212783520208
 51
0.0
  0
ARC
  5
9756
  8
0
 10
3136.483574270474
 20
2336.4604766310731
 30
0.0
 40
3.0
 50
180.0
 51
248.04787216479801
  0
LINE
  5
9757
  8
0
 10
3132.4835742704731
 20
2340.33941255542
 30
0.0
 11
3100.4835742704731
 21
2340.33941255542
 31
0.0
  0
ARC
  5
9758
  8
0
 10
3100.4835742704731
 20
2339.33941255542
 30
0.0
 40
1.0
 50
90.0
 51
180.0
  0
ARC
  5
9759
  8
0
 10
3132.4835742704731
 20
2339.33941255542
 30
0.0
 40
1.0
 50
0.0
 51
90.0
  0
LINE
  5
975A
  8
0
 10
3077.1253175657089
 20
2271.0061205733591
 30
0.0
 11
3077.529461574004
 21
2271.0061205733591
 31
0.0
  0
LINE
  5
975B
  8
0
 10
3041.4829841744672
 20
2308.8394001121728
 30
0.0
 11
3041.4829841744681
 21
2264.8394249986659
 31
0.0
  0
LINE
  5
975C
  8
0
 10
3042.4829841744681
 20
2263.8394249986659
 30
0.0
 11
3061.6889573076951
 21
2263.8401391111511
 31
0.0
  0
ARC
  5
975D
  8
0
 10
3061.6889201259032
 20
2264.8401391104599
 30
0.0
 40
1.0
 50
270.0021303597232
 51
299.79957207006572
  0
LINE
  5
975E
  8
0
 10
3041.4829841744681
 20
2264.8394249986659
 30
0.0
 11
3042.4829841744681
 21
2263.8394249986659
 31
0.0
  0
LINE
  5
975F
  8
0
 10
3077.1284888346372
 20
2271.0061210722611
 30
0.0
 11
3114.178621064902
 21
2271.0060751566111
 31
0.0
  0
ARC
  5
9760
  8
0
 10
3077.1284763923518
 20
2261.0061210722688
 30
0.0
 40
10.0
 50
89.999928710955757
 51
119.7995720700721
  0
LINE
  5
9761
  8
0
 10
3072.1588015937618
 20
2269.6838127236392
 30
0.0
 11
3062.1858876057622
 21
2263.972369945323
 31
0.0
  0
LINE
  5
9762
  8
0
 10
3155.8406507838599
 20
2302.672704537481
 30
0.0
 11
3155.4365067749309
 21
2302.672704537481
 31
0.0
  0
LINE
  5
9763
  8
0
 10
3190.4829841744672
 20
2309.8394001121742
 30
0.0
 11
3171.2770110412412
 21
2309.8386859996899
 31
0.0
  0
ARC
  5
9764
  8
0
 10
3171.277048223033
 20
2308.8386860003811
 30
0.0
 40
1.0
 50
90.002130359710137
 51
119.7995720700721
  0
LINE
  5
9765
  8
0
 10
3155.8374795142981
 20
2302.672704038579
 30
0.0
 11
3118.7873472840329
 21
2302.6727499542289
 31
0.0
  0
ARC
  5
9766
  8
0
 10
3155.8374919565831
 20
2312.6727040385708
 30
0.0
 40
10.0
 50
269.99992871095583
 51
299.79957207006572
  0
LINE
  5
9767
  8
0
 10
3160.807166755174
 20
2303.9950123872009
 30
0.0
 11
3170.7800807431731
 21
2309.7064551655171
 31
0.0
  0
LINE
  5
9768
  8
0
 10
3077.125317565075
 20
2302.672704537481
 30
0.0
 11
3077.529461574004
 21
2302.672704537481
 31
0.0
  0
LINE
  5
9769
  8
0
 10
3042.4829841744681
 20
2309.8394001121742
 30
0.0
 11
3061.6889573076951
 21
2309.8386859996899
 31
0.0
  0
ARC
  5
976A
  8
0
 10
3061.6889201259032
 20
2308.8386860003811
 30
0.0
 40
1.0
 50
60.200427929927827
 51
89.997869640289835
  0
LINE
  5
976B
  8
0
 10
3077.1284888346372
 20
2302.672704038579
 30
0.0
 11
3114.178621064902
 21
2302.6727499542289
 31
0.0
  0
ARC
  5
976C
  8
0
 10
3077.1284763923518
 20
2312.6727040385708
 30
0.0
 40
10.0
 50
240.2004279299278
 51
270.00007128904417
  0
LINE
  5
976D
  8
0
 10
3072.1588015937618
 20
2303.9950123872009
 30
0.0
 11
3062.1858876057622
 21
2309.7064551655171
 31
0.0
  0
LINE
  5
976E
  8
0
 10
3041.4829841744681
 20
2308.8394001121742
 30
0.0
 11
3042.4829841744681
 21
2309.8394001121742
 31
0.0
  0
LINE
  5
976F
  8
0
 10
3191.4829841744672
 20
2308.8394001121742
 30
0.0
 11
3190.4829841744672
 21
2309.8394001121742
 31
0.0
  0
LINE
  5
9771
  8
0
 10
3065.9835742704731
 20
2036.2164051515219
 30
0.0
 11
3065.9835742704731
 21
1935.2164051515219
 31
0.0
  0
LINE
  5
9772
  8
0
 10
3166.9835742704731
 20
2034.966405151521
 30
0.0
 11
3166.9835742704731
 21
1935.216405151521
 31
0.0
  0
LINE
  5
9773
  8
0
 10
3163.8835742704732
 20
1935.2164051515219
 30
0.0
 11
3069.083574270473
 21
1935.216405151521
 31
0.0
  0
LINE
  5
9774
  8
0
 10
3064.9835742704731
 20
2037.3040206627641
 30
0.0
 11
3064.9835742704731
 21
2037.2164051515219
 31
0.0
  0
LINE
  5
9775
  8
0
 10
3132.4835742704731
 20
1889.341498296134
 30
0.0
 11
3132.4835742704731
 21
1869.2164051515219
 31
0.0
  0
LINE
  5
9776
  8
0
 10
3131.483574270474
 20
1868.2164051515219
 30
0.0
 11
3132.4835742704731
 21
1869.2164051515219
 31
0.0
  0
LINE
  5
9777
  8
0
 10
3100.4835742704731
 20
1889.341498296134
 30
0.0
 11
3100.4835742704731
 21
1869.2164051515219
 31
0.0
  0
LINE
  5
9778
  8
0
 10
3166.9835742704731
 20
1935.2164051515219
 30
0.0
 11
3166.9835742704731
 21
1915.2185603639759
 31
0.0
  0
LINE
  5
9779
  8
0
 10
3065.9835742704731
 20
1935.2164051515219
 30
0.0
 11
3065.9835742704731
 21
1915.2185603639759
 31
0.0
  0
LINE
  5
977A
  8
0
 10
3065.9835742704731
 20
1935.2164051515219
 30
0.0
 11
3166.9835742704731
 21
1935.2164051515219
 31
0.0
  0
LINE
  5
977B
  8
0
 10
3101.4835742704731
 20
1868.2164051515219
 30
0.0
 11
3131.483574270474
 21
1868.2164051515219
 31
0.0
  0
LINE
  5
977C
  8
0
 10
3100.4835742704731
 20
1869.2164051515219
 30
0.0
 11
3101.4835742704731
 21
1868.2164051515219
 31
0.0
  0
ARC
  5
977D
  8
0
 10
3116.4835742704731
 20
1973.2164051515219
 30
0.0
 40
83.0
 50
238.5295450954122
 51
301.47045490458783
  0
ARC
  5
977E
  8
0
 10
3151.9835742704731
 20
1915.2185603639759
 30
0.0
 40
15.0
 50
301.47045490458783
 51
0.0
  0
ARC
  5
977F
  8
0
 10
3080.9835742704731
 20
1915.2185603639759
 30
0.0
 40
15.0
 50
180.0
 51
238.5295450954122
  0
ARC
  5
9781
  8
0
 10
3135.483574270474
 20
1889.341498296134
 30
0.0
 40
3.0
 50
102.76367589244229
 51
180.0
  0
ARC
  5
9782
  8
0
 10
3097.483574270474
 20
1889.341498296134
 30
0.0
 40
3.0
 50
0.0
 51
77.23632410755765
  0
TEXT
  5
9783
  8
0
 10
706.15347552393462
 20
1839.4740532306989
 30
0.0
 40
20.0
  1
15mm
 41
0.8
 72
     4
 11
739.67728504774414
 21
1849.474053230698
 31
0.0
  0
LINE
  5
9784
  8
0
 10
739.05166013910093
 20
2182.0585121369172
 30
0.0
 11
749.52916013910078
 21
2172.0585121369159
 31
0.0
  0
LINE
  5
9785
  8
0
 10
728.57416013910085
 20
2172.0585121369172
 30
0.0
 11
739.05166013910093
 21
2182.0585121369172
 31
0.0
  0
LINE
  5
9786
  8
0
 10
739.05216013910103
 20
2172.0585121369172
 30
0.0
 11
728.57416013910085
 21
2182.0585121369172
 31
0.0
  0
LINE
  5
9787
  8
0
 10
749.52916013910112
 20
2182.0585121369172
 30
0.0
 11
739.05216013910103
 21
2172.0585121369172
 31
0.0
  0
LINE
  5
9788
  8
0
 10
728.57416013910085
 20
2182.0585121369172
 30
0.0
 11
728.57416013910085
 21
2172.0585121369172
 31
0.0
  0
LINE
  5
9789
  8
0
 10
749.52916013910112
 20
2182.0585121369172
 30
0.0
 11
749.52916013910078
 21
2172.0585121369172
 31
0.0
  0
LINE
  5
978A
  8
0
 10
728.57416013910085
 20
2172.0585121369172
 30
0.0
 11
749.52916013910112
 21
2172.0585121369172
 31
0.0
  0
LINE
  5
978B
  8
0
 10
728.57416013910085
 20
2172.0585121369172
 30
0.0
 11
728.77183123564691
 21
2165.7352364476892
 31
0.0
  0
LINE
  5
978C
  8
0
 10
729.73716013910087
 20
2172.0585121369172
 30
0.0
 11
729.93455631061693
 21
2165.7352364476892
 31
0.0
  0
LINE
  5
978D
  8
0
 10
748.36716013910097
 20
2172.0585121369172
 30
0.0
 11
748.16976396758514
 21
2165.7352364476892
 31
0.0
  0
LINE
  5
978E
  8
0
 10
749.52916013910112
 20
2172.0585121369172
 30
0.0
 11
749.33176396758518
 21
2165.7352364476892
 31
0.0
  0
LINE
  5
978F
  8
0
 10
728.57416013910085
 20
2182.0585121369172
 30
0.0
 11
749.52916013910112
 21
2182.0585121369172
 31
0.0
  0
LINE
  5
9790
  8
0
 10
918.75851980785808
 20
2182.0585121369172
 30
0.0
 11
929.23601980785816
 21
2172.0585121369159
 31
0.0
  0
LINE
  5
9791
  8
0
 10
908.28101980785834
 20
2172.0585121369172
 30
0.0
 11
918.75851980785808
 21
2182.0585121369172
 31
0.0
  0
LINE
  5
9792
  8
0
 10
918.75901980785807
 20
2172.0585121369172
 30
0.0
 11
908.28101980785834
 21
2182.0585121369172
 31
0.0
  0
LINE
  5
9793
  8
0
 10
929.23601980785816
 20
2182.0585121369172
 30
0.0
 11
918.75901980785807
 21
2172.0585121369172
 31
0.0
  0
LINE
  5
9794
  8
0
 10
908.28101980785834
 20
2182.0585121369172
 30
0.0
 11
908.28101980785834
 21
2172.0585121369172
 31
0.0
  0
LINE
  5
9795
  8
0
 10
929.23601980785816
 20
2182.0585121369172
 30
0.0
 11
929.23601980785816
 21
2172.0585121369172
 31
0.0
  0
LINE
  5
9796
  8
0
 10
908.28101980785834
 20
2172.0585121369172
 30
0.0
 11
929.23601980785816
 21
2172.0585121369172
 31
0.0
  0
LINE
  5
9797
  8
0
 10
908.28101980785834
 20
2172.0585121369172
 30
0.0
 11
908.40498458792672
 21
2168.0930184768631
 31
0.0
  0
LINE
  5
9798
  8
0
 10
909.4440198078579
 20
2172.0585121369172
 30
0.0
 11
909.56022657771246
 21
2168.3360111527199
 31
0.0
  0
LINE
  5
9799
  8
0
 10
928.07401980785801
 20
2172.0585121369172
 30
0.0
 11
927.95781303800356
 21
2168.3360111527199
 31
0.0
  0
LINE
  5
979A
  8
0
 10
929.23601980785816
 20
2172.0585121369172
 30
0.0
 11
929.11223317065253
 21
2168.0932020314422
 31
0.0
  0
LINE
  5
979B
  8
0
 10
908.28101980785834
 20
2182.0585121369172
 30
0.0
 11
929.23601980785816
 21
2182.0585121369172
 31
0.0
  0
LINE
  5
979C
  8
0
 10
544.41226965052942
 20
2182.0585121369172
 30
0.0
 11
554.88976965052927
 21
2172.0585121369159
 31
0.0
  0
LINE
  5
979D
  8
0
 10
533.93476965052935
 20
2172.0585121369172
 30
0.0
 11
544.41226965052942
 21
2182.0585121369172
 31
0.0
  0
LINE
  5
979E
  8
0
 10
544.4127696505293
 20
2172.0585121369172
 30
0.0
 11
533.93476965052935
 21
2182.0585121369172
 31
0.0
  0
LINE
  5
979F
  8
0
 10
554.88976965052927
 20
2182.0585121369172
 30
0.0
 11
544.4127696505293
 21
2172.0585121369172
 31
0.0
  0
LINE
  5
97A0
  8
0
 10
533.93476965052935
 20
2182.0585121369172
 30
0.0
 11
533.93476965052935
 21
2172.0585121369172
 31
0.0
  0
LINE
  5
97A1
  8
0
 10
554.88976965052927
 20
2182.0585121369172
 30
0.0
 11
554.88976965052927
 21
2172.0585121369172
 31
0.0
  0
LINE
  5
97A2
  8
0
 10
533.93476965052935
 20
2172.0585121369172
 30
0.0
 11
554.88976965052927
 21
2172.0585121369172
 31
0.0
  0
LINE
  5
97A3
  8
0
 10
533.93476965052935
 20
2172.0585121369172
 30
0.0
 11
534.05873191691035
 21
2168.0930988869022
 31
0.0
  0
LINE
  5
97A4
  8
0
 10
535.09776965052924
 20
2172.0585121369172
 30
0.0
 11
535.21397420008998
 21
2168.336082276342
 31
0.0
  0
LINE
  5
97A5
  8
0
 10
553.72776965052935
 20
2172.0585121369172
 30
0.0
 11
553.61156066029105
 21
2168.3359400262211
 31
0.0
  0
LINE
  5
97A6
  8
0
 10
554.88976965052927
 20
2172.0585121369172
 30
0.0
 11
554.76598050322445
 21
2168.093121624368
 31
0.0
  0
LINE
  5
97A7
  8
0
 10
533.93476965052935
 20
2182.0585121369172
 30
0.0
 11
554.88976965052927
 21
2182.0585121369172
 31
0.0
  0
LINE
  5
97A8
  8
0
 10
3116.483074270473
 20
2173.03968084075
 30
0.0
 11
3126.960574270473
 21
2163.039680840749
 31
0.0
  0
LINE
  5
97A9
  8
0
 10
3106.0055742704731
 20
2163.03968084075
 30
0.0
 11
3116.483074270473
 21
2173.03968084075
 31
0.0
  0
LINE
  5
97AA
  8
0
 10
3116.4835742704731
 20
2163.03968084075
 30
0.0
 11
3106.0055742704731
 21
2173.03968084075
 31
0.0
  0
LINE
  5
97AB
  8
0
 10
3126.960574270473
 20
2173.03968084075
 30
0.0
 11
3116.4835742704731
 21
2163.03968084075
 31
0.0
  0
LINE
  5
97AC
  8
0
 10
3106.0055742704731
 20
2173.03968084075
 30
0.0
 11
3106.0055742704731
 21
2163.03968084075
 31
0.0
  0
LINE
  5
97AD
  8
0
 10
3126.960574270473
 20
2173.03968084075
 30
0.0
 11
3126.960574270473
 21
2163.03968084075
 31
0.0
  0
LINE
  5
97AE
  8
0
 10
3106.0055742704731
 20
2163.03968084075
 30
0.0
 11
3126.960574270473
 21
2163.03968084075
 31
0.0
  0
LINE
  5
97AF
  8
0
 10
3106.0055742704731
 20
2163.03968084075
 30
0.0
 11
3106.203245367019
 21
2156.7164051515219
 31
0.0
  0
LINE
  5
97B0
  8
0
 10
3107.1685742704731
 20
2163.03968084075
 30
0.0
 11
3107.3659704419888
 21
2156.7164051515219
 31
0.0
  0
LINE
  5
97B1
  8
0
 10
3125.7985742704732
 20
2163.03968084075
 30
0.0
 11
3125.601178098957
 21
2156.7164051515219
 31
0.0
  0
LINE
  5
97B2
  8
0
 10
3126.960574270473
 20
2163.03968084075
 30
0.0
 11
3126.7631780989582
 21
2156.7164051515219
 31
0.0
  0
LINE
  5
97B3
  8
0
 10
3106.0055742704731
 20
2173.03968084075
 30
0.0
 11
3126.960574270473
 21
2173.03968084075
 31
0.0
  0
LINE
  5
97B4
  8
0
 10
3064.9835742704731
 20
2052.9664051515219
 30
0.0
 11
3064.9835742704731
 21
2051.0461819085181
 31
0.0
  0
LINE
  5
97B5
  8
0
 10
3180.0335459722201
 20
2048.0664051515218
 30
0.0
 11
3180.0335459722201
 21
2045.2164051515219
 31
0.0
  0
LINE
  5
97B6
  8
0
 10
3180.0335459722201
 20
2042.0664051515209
 30
0.0
 11
3180.0335459722201
 21
2045.2164051515219
 31
0.0
  0
LINE
  5
97B7
  8
0
 10
3064.4601947393062
 20
2051.0461819085181
 30
0.0
 11
3180.0335459722201
 21
2051.0461819085181
 31
0.0
  0
LINE
  5
97B8
  8
0
 10
3045.4835742704731
 20
2045.2164051515219
 30
0.0
 11
3073.4897971150331
 21
2045.2164051515219
 31
0.0
  0
LINE
  5
97B9
  8
0
 10
3045.4835742704731
 20
2039.386628394526
 30
0.0
 11
3180.0335459722201
 21
2039.386628394526
 31
0.0
  0
LINE
  5
97BA
  8
0
 10
3180.0335459722201
 20
2034.9664051515219
 30
0.0
 11
3180.0335459722201
 21
2055.4664051515219
 31
0.0
  0
LINE
  5
97BB
  8
0
 10
3045.4835742704731
 20
2039.386628394526
 30
0.0
 11
3045.4835742704731
 21
2052.9664051515219
 31
0.0
  0
ARC
  5
97BC
  8
0
 10
3055.2373721921208
 20
2055.4433498070489
 30
0.0
 40
10.23910092035522
 50
272.79222088910518
 51
346.00068079444941
  0
ARC
  5
97BD
  8
0
 10
3055.4866856927529
 20
2055.4664051515219
 30
0.0
 40
10.00311142228025
 50
14.472910718502989
 51
165.52708928149701
  0
LINE
  5
97BE
  8
0
 10
3070.4866856927529
 20
2052.9664051515219
 30
0.0
 11
3070.4866856927529
 21
2057.9664051515219
 31
0.0
  0
LINE
  5
97BF
  8
0
 10
3040.4866856927529
 20
2052.9664051515219
 30
0.0
 11
3040.4866856927529
 21
2057.9664051515219
 31
0.0
  0
LINE
  5
97C0
  8
0
 10
3070.4866856927529
 20
2057.9664051515219
 30
0.0
 11
3040.4866856927529
 21
2057.9664051515219
 31
0.0
  0
LINE
  5
97C1
  8
0
 10
3070.4866856927529
 20
2052.9664051515219
 30
0.0
 11
3040.4866856927529
 21
2052.9664051515219
 31
0.0
  0
LINE
  5
97C2
  8
0
 10
3138.524982842036
 20
2055.4664051515219
 30
0.0
 11
3138.524982842036
 21
2051.0461819085181
 31
0.0
  0
LINE
  5
97C3
  8
0
 10
3138.524982842036
 20
2039.386628394526
 30
0.0
 11
3138.524982842036
 21
2034.9664051515219
 31
0.0
  0
ARC
  5
97C4
  8
0
 10
3055.4866856927529
 20
2055.4664051515219
 30
0.0
 40
4.0
 50
218.68218745349299
 51
321.3178125465069
  0
ARC
  5
97C5
  8
0
 10
3055.4866856927529
 20
2055.4664051515219
 30
0.0
 40
4.0
 50
38.68218745349305
 51
141.3178125465069
  0
LINE
  5
97C6
  8
0
 10
3180.0335459722201
 20
2055.4664051515219
 30
0.0
 11
3138.524982842036
 21
2055.4664051515219
 31
0.0
  0
LINE
  5
97C7
  8
0
 10
3180.0335459722201
 20
2034.9664051515219
 30
0.0
 11
3138.524982842036
 21
2034.9664051515219
 31
0.0
  0
LINE
  5
97C8
  8
0
 10
3064.9835742704731
 20
2036.9664051515219
 30
0.0
 11
3064.9835742704731
 21
2039.336628394525
 31
0.0
  0
ARC
  5
97C9
  8
0
 10
3064.9835742704731
 20
2035.9664051515219
 30
0.0
 40
1.0
 50
0.0
 51
90.0
  0
LINE
  5
97CA
  8
0
 10
3466.478662057636
 20
2034.966405151521
 30
0.0
 11
3466.478662057636
 21
1935.2164051515219
 31
0.0
  0
LINE
  5
97CB
  8
0
 10
3365.4786620576351
 20
2034.966405151521
 30
0.0
 11
3365.4786620576351
 21
1935.216405151521
 31
0.0
  0
LINE
  5
97CC
  8
0
 10
3368.5786620576359
 20
1935.2164051515219
 30
0.0
 11
3463.3786620576352
 21
1935.216405151521
 31
0.0
  0
LINE
  5
97CD
  8
0
 10
3399.978662057636
 20
1889.341498296134
 30
0.0
 11
3399.978662057636
 21
1869.2164051515219
 31
0.0
  0
LINE
  5
97CE
  8
0
 10
3400.978662057636
 20
1868.2164051515219
 30
0.0
 11
3399.978662057636
 21
1869.2164051515219
 31
0.0
  0
LINE
  5
97CF
  8
0
 10
3431.978662057636
 20
1889.341498296134
 30
0.0
 11
3431.978662057636
 21
1869.2164051515219
 31
0.0
  0
LINE
  5
97D0
  8
0
 10
3365.4786620576351
 20
1935.2164051515219
 30
0.0
 11
3365.4786620576351
 21
1915.2185603639759
 31
0.0
  0
LINE
  5
97D1
  8
0
 10
3466.478662057636
 20
1935.2164051515219
 30
0.0
 11
3466.478662057636
 21
1915.2185603639759
 31
0.0
  0
LINE
  5
97D2
  8
0
 10
3466.478662057636
 20
1935.2164051515219
 30
0.0
 11
3365.4786620576351
 21
1935.2164051515219
 31
0.0
  0
LINE
  5
97D3
  8
0
 10
3430.9786620576351
 20
1868.2164051515219
 30
0.0
 11
3400.978662057636
 21
1868.2164051515219
 31
0.0
  0
LINE
  5
97D4
  8
0
 10
3431.978662057636
 20
1869.2164051515219
 30
0.0
 11
3430.9786620576351
 21
1868.2164051515219
 31
0.0
  0
ARC
  5
97D5
  8
0
 10
3415.978662057636
 20
1973.2164051515219
 30
0.0
 40
83.0
 50
238.5295450954122
 51
301.47045490458783
  0
ARC
  5
97D6
  8
0
 10
3380.4786620576351
 20
1915.2185603639759
 30
0.0
 40
15.0
 50
180.0
 51
238.5295450954122
  0
ARC
  5
97D7
  8
0
 10
3451.478662057636
 20
1915.2185603639759
 30
0.0
 40
15.0
 50
301.47045490458783
 51
0.0
  0
ARC
  5
97D9
  8
0
 10
3396.978662057636
 20
1889.341498296134
 30
0.0
 40
3.0
 50
0.0
 51
77.23632410755765
  0
ARC
  5
97DA
  8
0
 10
3434.9786620576351
 20
1889.341498296134
 30
0.0
 40
3.0
 50
102.76367589244229
 51
180.0
  0
LINE
  5
97DB
  8
0
 10
3477.978662057636
 20
2034.966405151521
 30
0.0
 11
3477.978662057636
 21
2055.4664051515219
 31
0.0
  0
LINE
  5
97DC
  8
0
 10
3353.9786620576351
 20
2034.966405151521
 30
0.0
 11
3353.9786620576351
 21
2055.4664051515219
 31
0.0
  0
LINE
  5
97DD
  8
0
 10
3477.978662057636
 20
2055.4664051515219
 30
0.0
 11
3446.1231059901411
 21
2055.4664051515219
 31
0.0
  0
LINE
  5
97DE
  8
0
 10
3385.8342181251292
 20
2055.4664051515219
 30
0.0
 11
3353.9786620576351
 21
2055.4664051515219
 31
0.0
  0
LINE
  5
97DF
  8
0
 10
3477.978662057636
 20
2034.966405151521
 30
0.0
 11
3353.9786620576351
 21
2034.966405151521
 31
0.0
  0
LINE
  5
97E0
  8
0
 10
2860.479925583335
 20
2073.3924998724779
 30
0.0
 11
2860.4799255833359
 21
2057.966405151521
 31
0.0
  0
LINE
  5
97E1
  8
0
 10
2860.4799255833359
 20
2052.9664051515219
 30
0.0
 11
2860.4799255833359
 21
2051.0461819085181
 31
0.0
  0
LINE
  5
97E2
  8
0
 10
2759.479925583335
 20
2073.3924998724779
 30
0.0
 11
2759.479925583335
 21
2051.0461819085172
 31
0.0
  0
LINE
  5
97E3
  8
0
 10
2759.479925583335
 20
2039.3866283945249
 30
0.0
 11
2759.479925583335
 21
1935.2164051515219
 31
0.0
  0
LINE
  5
97E4
  8
0
 10
2860.479925583335
 20
2039.3866283945249
 30
0.0
 11
2860.479925583335
 21
1935.216405151521
 31
0.0
  0
LINE
  5
97E5
  8
0
 10
2857.3799255833351
 20
1935.2164051515219
 30
0.0
 11
2762.5799255833349
 21
1935.216405151521
 31
0.0
  0
LINE
  5
97E6
  8
0
 10
2825.979925583335
 20
1889.341498296134
 30
0.0
 11
2825.979925583335
 21
1869.2164051515219
 31
0.0
  0
LINE
  5
97E7
  8
0
 10
2824.979925583335
 20
1868.2164051515219
 30
0.0
 11
2825.979925583335
 21
1869.2164051515219
 31
0.0
  0
LINE
  5
97E8
  8
0
 10
2793.979925583335
 20
1889.341498296134
 30
0.0
 11
2793.979925583335
 21
1869.2164051515219
 31
0.0
  0
LINE
  5
97E9
  8
0
 10
2860.479925583335
 20
1935.2164051515219
 30
0.0
 11
2860.479925583335
 21
1915.2185603639759
 31
0.0
  0
LINE
  5
97EA
  8
0
 10
2759.479925583335
 20
1935.2164051515219
 30
0.0
 11
2759.479925583335
 21
1915.2185603639759
 31
0.0
  0
LINE
  5
97EB
  8
0
 10
2759.479925583335
 20
1935.2164051515219
 30
0.0
 11
2860.479925583335
 21
1935.2164051515219
 31
0.0
  0
LINE
  5
97EC
  8
0
 10
2794.979925583335
 20
1868.2164051515219
 30
0.0
 11
2824.979925583335
 21
1868.2164051515219
 31
0.0
  0
LINE
  5
97ED
  8
0
 10
2793.979925583335
 20
1869.2164051515219
 30
0.0
 11
2794.979925583335
 21
1868.2164051515219
 31
0.0
  0
ARC
  5
97EE
  8
0
 10
2809.979925583335
 20
1973.2164051515219
 30
0.0
 40
83.0
 50
238.5295450954122
 51
301.47045490458783
  0
ARC
  5
97EF
  8
0
 10
2845.479925583335
 20
1915.2185603639759
 30
0.0
 40
15.0
 50
301.47045490458783
 51
0.0
  0
ARC
  5
97F0
  8
0
 10
2774.479925583335
 20
1915.2185603639759
 30
0.0
 40
15.0
 50
180.0
 51
238.5295450954122
  0
ARC
  5
97F2
  8
0
 10
2828.979925583335
 20
1889.341498296134
 30
0.0
 40
3.0
 50
102.76367589244229
 51
180.0
  0
ARC
  5
97F3
  8
0
 10
2790.979925583335
 20
1889.341498296134
 30
0.0
 40
3.0
 50
0.0
 51
77.23632410755765
  0
LINE
  5
97F5
  8
0
 10
2812.979925583335
 20
2047.788446671367
 30
0.0
 11
2812.979925583335
 21
2039.3866283945249
 31
0.0
  0
LINE
  5
97F6
  8
0
 10
2827.979925583335
 20
2050.3645045969029
 30
0.0
 11
2827.979925583335
 21
2039.3866283945249
 31
0.0
  0
LINE
  5
97F7
  8
0
 10
2853.979925583335
 20
2059.466405151521
 30
0.0
 11
2853.979925583335
 21
2057.966405151521
 31
0.0
  0
LINE
  5
97F8
  8
0
 10
2853.979925583335
 20
2052.9664051515219
 30
0.0
 11
2853.979925583335
 21
2051.466405151521
 31
0.0
  0
LINE
  5
97F9
  8
0
 10
2873.979925583335
 20
2057.966405151521
 30
0.0
 11
2873.979925583335
 21
2052.966405151521
 31
0.0
  0
LINE
  5
97FA
  8
0
 10
2806.979925583335
 20
2047.788446671367
 30
0.0
 11
2806.979925583335
 21
2039.3866283945249
 31
0.0
  0
LINE
  5
97FB
  8
0
 10
2791.979925583335
 20
2050.3645045969029
 30
0.0
 11
2791.979925583335
 21
2039.3866283945249
 31
0.0
  0
LINE
  5
97FC
  8
0
 10
2785.979925583335
 20
2052.5080868603081
 30
0.0
 11
2785.979925583335
 21
2051.4664051515219
 31
0.0
  0
LINE
  5
97FD
  8
0
 10
2747.979925583335
 20
2051.0461819085172
 30
0.0
 11
2789.8519678783659
 21
2051.0461819085172
 31
0.0
  0
LINE
  5
97FE
  8
0
 10
2830.1078832883049
 20
2051.0461819085172
 30
0.0
 11
2871.979925583335
 21
2051.0461819085172
 31
0.0
  0
LINE
  5
97FF
  8
0
 10
2871.979925583335
 20
2039.3866283945249
 30
0.0
 11
2871.979925583335
 21
2051.0461819085172
 31
0.0
  0
LINE
  5
9800
  8
0
 10
2747.979925583335
 20
2039.3866283945249
 30
0.0
 11
2747.979925583335
 21
2051.0461819085172
 31
0.0
  0
LINE
  5
9801
  8
0
 10
2747.979925583335
 20
2039.3866283945249
 30
0.0
 11
2871.979925583335
 21
2039.3866283945249
 31
0.0
  0
LINE
  5
9802
  8
0
 10
2846.4585151942279
 20
2059.466405151521
 30
0.0
 11
2853.979925583335
 21
2059.466405151521
 31
0.0
  0
LINE
  5
9803
  8
0
 10
2831.303328219873
 20
2051.466405151521
 30
0.0
 11
2853.979925583335
 21
2051.466405151521
 31
0.0
  0
LINE
  5
9804
  8
0
 10
2853.979925583335
 20
2052.966405151521
 30
0.0
 11
2873.979925583335
 21
2052.966405151521
 31
0.0
  0
LINE
  5
9805
  8
0
 10
2853.979925583335
 20
2057.966405151521
 30
0.0
 11
2873.979925583335
 21
2057.966405151521
 31
0.0
  0
LINE
  5
9806
  8
0
 10
2853.979925583335
 20
2057.419330034722
 30
0.0
 11
2853.979925583335
 21
2053.513480268321
 31
0.0
  0
LINE
  5
9807
  8
0
 10
2788.6565229467969
 20
2051.466405151521
 30
0.0
 11
2785.979925583335
 21
2051.4664051515219
 31
0.0
  0
LINE
  5
9808
  8
0
 10
588.91240711304454
 20
2049.2352364476892
 30
0.0
 11
588.91240711304454
 21
2047.315013204686
 31
0.0
  0
LINE
  5
9809
  8
0
 10
2809.9794255833349
 20
2173.03968084075
 30
0.0
 11
2810.3191019642768
 21
2172.715484819807
 31
0.0
  0
LINE
  5
980A
  8
0
 10
2809.639743475313
 20
2172.715479353732
 30
0.0
 11
2809.9794255833349
 21
2173.03968084075
 31
0.0
  0
LINE
  5
980B
  8
0
 10
2800.584784898404
 20
2172.0062209103539
 30
0.0
 11
2799.5019255833349
 21
2173.03968084075
 31
0.0
  0
LINE
  5
980C
  8
0
 10
2820.4569255833349
 20
2173.03968084075
 30
0.0
 11
2819.3742928213142
 21
2172.0063385080002
 31
0.0
  0
LINE
  5
980D
  8
0
 10
2799.5019255833349
 20
2173.03968084075
 30
0.0
 11
2799.5019255833349
 21
2171.8318376015168
 31
0.0
  0
LINE
  5
980E
  8
0
 10
2820.4569255833349
 20
2173.03968084075
 30
0.0
 11
2820.4569255833349
 21
2171.8320076479681
 31
0.0
  0
LINE
  5
980F
  8
0
 10
2799.5019255833349
 20
2173.03968084075
 30
0.0
 11
2820.4569255833349
 21
2173.03968084075
 31
0.0
  0
LINE
  5
9810
  8
0
 10
3415.978162057635
 20
2173.03968084075
 30
0.0
 11
3416.3178384385769
 21
2172.715484819807
 31
0.0
  0
LINE
  5
9811
  8
0
 10
3415.6384799496118
 20
2172.715479353732
 30
0.0
 11
3415.978162057635
 21
2173.03968084075
 31
0.0
  0
LINE
  5
9812
  8
0
 10
3406.5835213727041
 20
2172.0062209103539
 30
0.0
 11
3405.5006620576351
 21
2173.03968084075
 31
0.0
  0
LINE
  5
9813
  8
0
 10
3426.455662057635
 20
2173.03968084075
 30
0.0
 11
3425.3730292956129
 21
2172.0063385080002
 31
0.0
  0
LINE
  5
9814
  8
0
 10
3405.5006620576351
 20
2173.03968084075
 30
0.0
 11
3405.5006620576351
 21
2171.8318376015168
 31
0.0
  0
LINE
  5
9815
  8
0
 10
3426.455662057635
 20
2173.03968084075
 30
0.0
 11
3426.455662057635
 21
2171.8320076479681
 31
0.0
  0
LINE
  5
9816
  8
0
 10
3405.5006620576351
 20
2173.03968084075
 30
0.0
 11
3426.455662057635
 21
2173.03968084075
 31
0.0
  0
LINE
  5
9817
  8
0
 10
3047.6282484990802
 20
2228.8394125554191
 30
0.0
 11
3063.5177488018462
 21
2228.8394125554191
 31
0.0
  0
LINE
  5
9818
  8
0
 10
3047.6282484990802
 20
2232.83941255542
 30
0.0
 11
3063.5177488018462
 21
2232.83941255542
 31
0.0
  0
LINE
  5
9819
  8
0
 10
3059.4866856927529
 20
2310.83941255542
 30
0.0
 11
3059.4866856927538
 21
2309.8387678840932
 31
0.0
  0
LINE
  5
981A
  8
0
 10
3059.4866856927529
 20
2263.8400572267469
 30
0.0
 11
3059.4866856927529
 21
2250.2823481770388
 31
0.0
  0
LINE
  5
981B
  8
0
 10
3051.4866856927529
 20
2310.83941255542
 30
0.0
 11
3051.4866856927529
 21
2309.8390653384231
 31
0.0
  0
LINE
  5
981C
  8
0
 10
3051.4866856927529
 20
2263.839759772417
 30
0.0
 11
3051.4866856927529
 21
2250.156794804639
 31
0.0
  0
LINE
  5
981D
  8
0
 10
3051.4866856927529
 20
2250.156794804639
 30
0.0
 11
3042.818303029127
 21
2238.4261136268879
 31
0.0
  0
LINE
  5
981E
  8
0
 10
3057.12866042007
 20
2246.7531923401302
 30
0.0
 11
3065.1210639584979
 21
2236.0349795792431
 31
0.0
  0
LINE
  5
981F
  8
0
 10
3059.4866856927529
 20
2250.2823481770388
 30
0.0
 11
3068.3276942717998
 21
2238.4261136268879
 31
0.0
  0
ARC
  5
9820
  8
0
 10
3063.5177488018462
 20
2234.83941255542
 30
0.0
 40
2.0
 50
270.0
 51
36.71131776775978
  0
ARC
  5
9821
  8
0
 10
3063.5177488018462
 20
2234.83941255542
 30
0.0
 40
6.0
 50
270.0
 51
36.71131776775978
  0
ARC
  5
9822
  8
0
 10
3055.5253452634188
 20
2245.5576253163072
 30
0.0
 40
2.0
 50
36.71131776775978
 51
143.13010235416641
  0
ARC
  5
9823
  8
0
 10
3047.6282484990802
 20
2234.83941255542
 30
0.0
 40
2.0
 50
143.28868223224021
 51
270.0
  0
ARC
  5
9824
  8
0
 10
3047.6282484990802
 20
2234.83941255542
 30
0.0
 40
6.0
 50
143.28868223224021
 51
270.0
  0
LINE
  5
9825
  8
0
 10
3053.9253452634189
 20
2246.757625316307
 30
0.0
 11
3046.024933342429
 21
2236.0349795792431
 31
0.0
  0
LINE
  5
9826
  8
0
 10
3051.4866856927529
 20
2310.83941255542
 30
0.0
 11
3059.4866856927529
 21
2310.83941255542
 31
0.0
  0
ARC
  5
9827
  8
0
 10
3144.9409855068989
 20
2336.1301167450551
 30
0.0
 40
6.4160026648635977
 50
60.000000000002721
 51
240.0000000000027
  0
ARC
  5
9828
  8
0
 10
3144.9409855068989
 20
2237.5487083657849
 30
0.0
 40
6.4160026648635977
 50
119.9999999999973
 51
299.99999999999733
  0
ARC
  5
9829
  8
0
 10
3116.4829841744681
 20
2286.83941255542
 30
0.0
 40
63.55056179775265
 50
206.25095418419519
 51
338.78259811910021
  0
ARC
  5
982A
  8
0
 10
3116.4829841744681
 20
2286.83941255542
 30
0.0
 40
63.55056179775265
 50
21.2174018808998
 51
157.81167908449021
  0
LINE
  5
982B
  8
0
 10
3155.8374795142981
 20
2126.0496966346809
 30
0.0
 11
3132.6744173929092
 21
2126.0497253403018
 31
0.0
  0
ARC
  5
982C
  8
0
 10
3155.8374919565831
 20
2136.0496966346732
 30
0.0
 40
10.0
 50
269.99992871095583
 51
299.79957207006572
  0
LINE
  5
982D
  8
0
 10
3160.807166755174
 20
2127.3720049833032
 30
0.0
 11
3170.7800807431731
 21
2133.083447761619
 31
0.0
  0
LINE
  5
982E
  8
0
 10
3077.125317565075
 20
2126.049697133582
 30
0.0
 11
3077.529461574004
 21
2126.049697133582
 31
0.0
  0
LINE
  5
982F
  8
0
 10
3077.1284888346372
 20
2126.0496966346809
 30
0.0
 11
3100.2927355732818
 21
2126.0497253417702
 31
0.0
  0
ARC
  5
9830
  8
0
 10
3077.1284763923518
 20
2136.0496966346732
 30
0.0
 40
10.0
 50
240.2004279299278
 51
270.00007128904417
  0
LINE
  5
9831
  8
0
 10
3072.1588015937618
 20
2127.3720049833032
 30
0.0
 11
3062.1858876057622
 21
2133.083447761619
 31
0.0
  0
ARC
  5
9832
  8
0
 10
3135.483753640417
 20
2127.1021652903401
 30
0.0
 40
3.0
 50
180.00035916112699
 51
257.31121485148248
  0
ARC
  5
9833
  8
0
 10
3097.483399732816
 20
2127.102166378349
 30
0.0
 40
3.0
 50
282.6887818675981
 51
359.9996505147875
  0
ARC
  5
9834
  8
0
 10
704.74474950201443
 20
2132.7352364476892
 30
0.0
 40
8.000000000000119
 50
27.03569178941299
 51
90.0
  0
ARC
  5
9835
  8
0
 10
714.54270847314729
 20
2137.7352364476892
 30
0.0
 40
3.0
 50
207.03569178941299
 51
270.0
  0
LINE
  5
9836
  8
0
 10
722.9942346417904
 20
2134.7352364476892
 30
0.0
 11
714.49881134078009
 21
2134.7352364476892
 31
0.0
  0
ARC
  5
9837
  8
0
 10
773.74474950201466
 20
2132.7352364476892
 30
0.0
 40
8.000000000000119
 50
90.0
 51
152.96430821058701
  0
ARC
  5
9838
  8
0
 10
763.94679053088203
 20
2137.7352364476892
 30
0.0
 40
3.0
 50
270.0
 51
332.96430821058698
  0
LINE
  5
9839
  8
0
 10
755.11008563641155
 20
2134.7352364476892
 30
0.0
 11
763.99068766324899
 21
2134.7352364476892
 31
0.0
  0
ARC
  5
983A
  8
0
 10
720.05216013910103
 20
2135.3219200256299
 30
0.0
 40
3.0
 50
284.47751218592953
 51
0.0
  0
ARC
  5
983B
  8
0
 10
758.05216013910103
 20
2135.3219200256299
 30
0.0
 40
3.0
 50
180.0
 51
255.5224878140705
  0
TEXT
  5
983C
  8
0
 10
3077.1726264523181
 20
1803.769971553141
 30
0.0
 40
20.0
  1
25mm
 41
0.8
 72
     4
 11
3112.2202454999369
 21
1813.769971553141
 31
0.0
  0
LINE
  5
983D
  8
0
 10
991.34178735981357
 20
356.26176151903542
 30
0.0
 11
991.34178735981357
 21
336.5450295921064
 31
0.0
  0
LINE
  5
983E
  8
0
 10
990.34178735981368
 20
335.5450295921064
 30
0.0
 11
991.34178735981357
 21
336.5450295921064
 31
0.0
  0
LINE
  5
983F
  8
0
 10
959.34178735981357
 20
356.26176151903542
 30
0.0
 11
959.34178735981357
 21
336.5450295921064
 31
0.0
  0
LINE
  5
9840
  8
0
 10
1032.341787359813
 20
407.54502959210629
 30
0.0
 11
1032.341787359813
 21
386.87006776653101
 31
0.0
  0
LINE
  5
9841
  8
0
 10
918.34178735981357
 20
407.54502959210629
 30
0.0
 11
918.34178735981357
 21
386.87006776653101
 31
0.0
  0
ARC
  5
9842
  8
0
 10
975.34178735981357
 20
460.54502959210629
 30
0.0
 40
103.0
 50
243.9583500440439
 51
296.04164995595607
  0
ARC
  5
9843
  8
0
 10
939.34178735981368
 20
386.87006776653101
 30
0.0
 40
21.0
 50
180.0
 51
243.9583500440439
  0
ARC
  5
9844
  8
0
 10
1011.341787359813
 20
386.87006776653101
 30
0.0
 40
21.0
 50
296.04164995595607
 51
0.0
  0
LINE
  5
9845
  8
0
 10
918.34178735981357
 20
407.54502959210629
 30
0.0
 11
1032.341787359813
 21
407.54502959210629
 31
0.0
  0
LINE
  5
9846
  8
0
 10
960.34178735981357
 20
335.5450295921064
 30
0.0
 11
990.34178735981368
 21
335.5450295921064
 31
0.0
  0
LINE
  5
9847
  8
0
 10
959.34178735981357
 20
336.5450295921064
 30
0.0
 11
960.34178735981357
 21
335.5450295921064
 31
0.0
  0
ARC
  5
9848
  8
0
 10
956.34178735981368
 20
356.26176151903542
 30
0.0
 40
3.0
 50
0.0
 51
79.674197228759212
  0
ARC
  5
9849
  8
0
 10
994.34178735981357
 20
356.26176151903542
 30
0.0
 40
3.0
 50
100.3258027712407
 51
180.0
  0
LINE
  5
984F
  8
0
 10
1032.8417873598139
 20
649.87423751289862
 30
0.0
 11
1032.8417873598139
 21
407.54502959210629
 31
0.0
  0
LINE
  5
9850
  8
0
 10
917.84178735981368
 20
654.90716496780351
 30
0.0
 11
917.84178735981368
 21
407.54502959210629
 31
0.0
  0
LINE
  5
9851
  8
0
 10
917.84178735981368
 20
407.54502959210629
 30
0.0
 11
1032.8417873598139
 21
407.54502959210629
 31
0.0
  0
LINE
  5
9852
  8
0
 10
943.00715186366494
 20
765.54502959210629
 30
0.0
 11
1019.083457110616
 21
765.54502959210629
 31
0.0
  0
LINE
  5
9853
  8
0
 10
959.34178735981413
 20
795.5450295921064
 30
0.0
 11
991.34178735981357
 21
795.5450295921064
 31
0.0
  0
LINE
  5
9854
  8
0
 10
994.34178735981413
 20
765.54502959210606
 30
0.0
 11
1019.083457110616
 21
765.54502959210606
 31
0.0
  0
LINE
  5
9855
  8
0
 10
891.34178735981425
 20
772.0450295921064
 30
0.0
 11
956.34178735981459
 21
772.0450295921064
 31
0.0
  0
LINE
  5
9856
  8
0
 10
994.34178735981413
 20
772.0450295921064
 30
0.0
 11
1059.3417873598139
 21
772.0450295921064
 31
0.0
  0
LINE
  5
9857
  8
0
 10
1060.3417873598139
 20
771.0450295921064
 30
0.0
 11
1059.3417873598139
 21
772.0450295921064
 31
0.0
  0
LINE
  5
9858
  8
0
 10
891.34178735981357
 20
711.04502959210629
 30
0.0
 11
918.34178735981448
 21
711.04502959210629
 31
0.0
  0
LINE
  5
9859
  8
0
 10
890.34178735981368
 20
712.0450295921064
 30
0.0
 11
891.34178735981357
 21
711.04502959210629
 31
0.0
  0
LINE
  5
985A
  8
0
 10
1032.3417873598139
 20
711.04502959210618
 30
0.0
 11
1059.3417873598139
 21
711.04502959210629
 31
0.0
  0
LINE
  5
985C
  8
0
 10
991.34178735981425
 20
795.5450295921064
 30
0.0
 11
991.34178735981425
 21
768.54502959210618
 31
0.0
  0
LINE
  5
985D
  8
0
 10
959.34178735981413
 20
795.5450295921064
 30
0.0
 11
959.34178735981413
 21
768.54502959210629
 31
0.0
  0
LINE
  5
985E
  8
0
 10
1060.3417873598139
 20
771.0450295921064
 30
0.0
 11
1060.3417873598139
 21
712.0450295921064
 31
0.0
  0
LINE
  5
985F
  8
0
 10
1059.3417873598139
 20
711.04502959210629
 30
0.0
 11
1060.3417873598139
 21
712.0450295921064
 31
0.0
  0
LINE
  5
9860
  8
0
 10
890.34178735981425
 20
771.0450295921064
 30
0.0
 11
890.34178735981368
 21
712.0450295921064
 31
0.0
  0
LINE
  5
9861
  8
0
 10
891.34178735981425
 20
772.0450295921064
 30
0.0
 11
890.34178735981425
 21
771.0450295921064
 31
0.0
  0
LINE
  5
9862
  8
0
 10
1032.3417873598139
 20
734.42163763611438
 30
0.0
 11
1032.3417873598139
 21
673.21582167131442
 31
0.0
  0
LINE
  5
9863
  8
0
 10
918.34178735981448
 20
734.42163763611495
 30
0.0
 11
918.34178735981413
 21
676.06235632477967
 31
0.0
  0
LINE
  5
9864
  8
0
 10
918.34178735981413
 20
670.36928701784905
 30
0.0
 11
918.34178735981357
 21
668.18289421640907
 31
0.0
  0
ARC
  5
9865
  8
0
 10
932.34178735981425
 20
763.0450295921064
 30
0.0
 40
9.0
 50
27.279612735972911
 51
90.0
  0
ARC
  5
9866
  8
0
 10
943.00715186366494
 20
768.54502959210629
 30
0.0
 40
3.0
 50
207.2796127359729
 51
270.0
  0
ARC
  5
9867
  8
0
 10
994.34178735981413
 20
768.54502959210618
 30
0.0
 40
3.0
 50
180.0
 51
270.0
  0
LINE
  5
9868
  8
0
 10
943.00715186366494
 20
765.54502959210629
 30
0.0
 11
956.34178735981459
 21
765.54502959210629
 31
0.0
  0
ARC
  5
9869
  8
0
 10
956.34178735981459
 20
768.54502959210629
 30
0.0
 40
3.0
 50
270.0
 51
0.0
  0
LINE
  5
986A
  8
0
 10
1019.083457110616
 20
765.54502959210629
 30
0.0
 11
1030.3417873598139
 21
772.0450295921064
 31
0.0
  0
ARC
  5
986B
  8
0
 10
994.34178735981413
 20
775.0450295921064
 30
0.0
 40
3.0
 50
180.0
 51
270.0
  0
ARC
  5
986C
  8
0
 10
956.34178735981459
 20
775.0450295921064
 30
0.0
 40
3.0
 50
270.0
 51
0.0
  0
ARC
  5
986D
  8
0
 10
975.34178735981357
 20
661.5450295921064
 30
0.0
 40
104.0
 50
65.638022060012688
 51
114.3619779399754
  0
ARC
  5
986E
  8
0
 10
1008.341787359814
 20
734.42163763611438
 30
0.0
 40
24.0
 50
0.0
 51
65.638022060012688
  0
ARC
  5
986F
  8
0
 10
942.34178735981448
 20
734.42163763611484
 30
0.0
 40
24.0
 50
114.3619779399754
 51
180.0
  0
LINE
  5
9870
  8
0
 10
1332.327609324105
 20
700.91253028428673
 30
0.0
 11
1332.327609324105
 21
673.21582167131442
 31
0.0
  0
LINE
  5
9871
  8
0
 10
1218.327609324105
 20
700.91253028428673
 30
0.0
 11
1218.327609324105
 21
673.21582167131407
 31
0.0
  0
LINE
  5
9872
  8
0
 10
1291.327609324105
 20
356.26176151903542
 30
0.0
 11
1291.327609324105
 21
336.5450295921064
 31
0.0
  0
LINE
  5
9873
  8
0
 10
1290.327609324105
 20
335.5450295921064
 30
0.0
 11
1291.327609324105
 21
336.5450295921064
 31
0.0
  0
LINE
  5
9874
  8
0
 10
1259.327609324105
 20
356.26176151903542
 30
0.0
 11
1259.327609324105
 21
336.5450295921064
 31
0.0
  0
LINE
  5
9875
  8
0
 10
1332.327609324105
 20
407.54502959210629
 30
0.0
 11
1332.327609324105
 21
386.87006776653101
 31
0.0
  0
LINE
  5
9876
  8
0
 10
1218.327609324105
 20
407.54502959210629
 30
0.0
 11
1218.327609324105
 21
386.87006776653101
 31
0.0
  0
ARC
  5
9877
  8
0
 10
1275.327609324105
 20
460.54502959210629
 30
0.0
 40
103.0
 50
243.9583500440439
 51
296.04164995595607
  0
ARC
  5
9878
  8
0
 10
1239.327609324105
 20
386.87006776653101
 30
0.0
 40
21.0
 50
180.0
 51
243.9583500440439
  0
ARC
  5
9879
  8
0
 10
1311.327609324105
 20
386.87006776653101
 30
0.0
 40
21.0
 50
296.04164995595607
 51
0.0
  0
LINE
  5
987A
  8
0
 10
1218.327609324105
 20
407.54502959210629
 30
0.0
 11
1332.327609324105
 21
407.54502959210629
 31
0.0
  0
LINE
  5
987B
  8
0
 10
1260.327609324105
 20
335.5450295921064
 30
0.0
 11
1290.327609324105
 21
335.5450295921064
 31
0.0
  0
LINE
  5
987C
  8
0
 10
1259.327609324105
 20
336.5450295921064
 30
0.0
 11
1260.327609324105
 21
335.5450295921064
 31
0.0
  0
ARC
  5
987D
  8
0
 10
1256.327609324105
 20
356.26176151903542
 30
0.0
 40
3.0
 50
0.0
 51
79.674197228759212
  0
ARC
  5
987E
  8
0
 10
1294.327609324105
 20
356.26176151903542
 30
0.0
 40
3.0
 50
100.3258027712407
 51
180.0
  0
LINE
  5
987F
  8
0
 10
1332.827609324105
 20
649.87423751289862
 30
0.0
 11
1332.8276093241041
 21
407.54502959210629
 31
0.0
  0
LINE
  5
9880
  8
0
 10
1217.827609324105
 20
649.87423751289828
 30
0.0
 11
1217.8276093241041
 21
407.54502959210629
 31
0.0
  0
LINE
  5
9881
  8
0
 10
1217.827609324105
 20
407.54502959210629
 30
0.0
 11
1332.8276093241041
 21
407.54502959210629
 31
0.0
  0
ARC
  5
9882
  8
0
 10
975.34178735981357
 20
1025.068529042089
 30
0.0
 40
57.000000000000448
 50
28.908072172487209
 51
151.09192782751279
  0
ARC
  5
9883
  8
0
 10
975.34178735981357
 20
1025.068529042089
 30
0.0
 40
57.000000000000448
 50
208.90807217248721
 51
331.09192782751279
  0
LINE
  5
9885
  8
0
 10
992.34178735981357
 20
1081.6370715370131
 30
0.0
 11
992.34178735981357
 21
1083.068529042089
 31
0.0
  0
ARC
  5
9886
  8
0
 10
990.34178735981368
 20
1083.068529042089
 30
0.0
 40
2.0
 50
0.0
 51
90.0
  0
LINE
  5
9887
  8
0
 10
958.34178735981357
 20
1081.6370715370131
 30
0.0
 11
958.34178735981357
 21
1083.068529042089
 31
0.0
  0
ARC
  5
9888
  8
0
 10
960.34178735981357
 20
1083.068529042089
 30
0.0
 40
2.0
 50
90.0
 51
180.0
  0
LINE
  5
9889
  8
0
 10
931.60011760901125
 20
1049.068529042089
 30
0.0
 11
1019.083457110616
 21
1049.068529042089
 31
0.0
  0
LINE
  5
988A
  8
0
 10
994.34178735981413
 20
1049.068529042089
 30
0.0
 11
1019.083457110616
 21
1049.068529042089
 31
0.0
  0
LINE
  5
988B
  8
0
 10
1060.3417873598139
 20
1055.568529042089
 30
0.0
 11
1060.3417873598139
 21
994.56852904208881
 31
0.0
  0
LINE
  5
988C
  8
0
 10
1019.083457110616
 20
1049.068529042089
 30
0.0
 11
1030.3417873598139
 21
1055.568529042089
 31
0.0
  0
LINE
  5
988D
  8
0
 10
1030.3417873598139
 20
1055.568529042089
 30
0.0
 11
1060.3417873598139
 21
1055.568529042089
 31
0.0
  0
LINE
  5
988E
  8
0
 10
931.60011760901125
 20
1001.068529042089
 30
0.0
 11
1019.083457110616
 21
1001.068529042089
 31
0.0
  0
LINE
  5
988F
  8
0
 10
994.34178735981413
 20
1001.068529042089
 30
0.0
 11
1019.083457110616
 21
1001.068529042089
 31
0.0
  0
LINE
  5
9890
  8
0
 10
1019.083457110616
 20
1001.068529042089
 30
0.0
 11
1030.3417873598139
 21
994.56852904208881
 31
0.0
  0
LINE
  5
9891
  8
0
 10
1030.3417873598139
 20
994.56852904208881
 30
0.0
 11
1060.3417873598139
 21
994.56852904208881
 31
0.0
  0
LINE
  5
9892
  8
0
 10
890.34178735981368
 20
1055.568529042089
 30
0.0
 11
890.34178735981368
 21
994.56852904208881
 31
0.0
  0
LINE
  5
9893
  8
0
 10
931.60011760901125
 20
1049.068529042089
 30
0.0
 11
920.34178735981368
 21
1055.568529042089
 31
0.0
  0
LINE
  5
9894
  8
0
 10
920.34178735981368
 20
1055.568529042089
 30
0.0
 11
890.34178735981368
 21
1055.568529042089
 31
0.0
  0
LINE
  5
9895
  8
0
 10
931.60011760901125
 20
1001.068529042089
 30
0.0
 11
920.34178735981368
 21
994.56852904208881
 31
0.0
  0
LINE
  5
9896
  8
0
 10
920.34178735981368
 20
994.56852904208881
 30
0.0
 11
890.34178735981368
 21
994.56852904208881
 31
0.0
  0
CIRCLE
  5
9897
  8
0
 10
975.34178735981357
 20
1025.068529042089
 30
0.0
 40
15.999999999999879
  0
LINE
  5
9898
  8
0
 10
896.15933802843529
 20
951.11312604362365
 30
0.0
 11
915.62043101915594
 21
951.11312604362365
 31
0.0
  0
LINE
  5
9899
  8
0
 10
896.15933802843529
 20
956.01223366057832
 30
0.0
 11
915.62043101915594
 21
956.01223366057832
 31
0.0
  0
LINE
  5
989A
  8
0
 10
910.78899214075045
 20
1061.692413563283
 30
0.0
 11
910.78899214075045
 21
1055.568529042089
 31
0.0
  0
LINE
  5
989B
  8
0
 10
910.68327802361
 20
994.56852904208881
 30
0.0
 11
910.68327802361
 21
977.37593835205905
 31
0.0
  0
LINE
  5
989C
  8
0
 10
900.99077690684135
 20
1061.692413563283
 30
0.0
 11
900.99077690684135
 21
1055.568529042089
 31
0.0
  0
LINE
  5
989D
  8
0
 10
900.8850627897009
 20
994.56852904208881
 30
0.0
 11
900.8850627897009
 21
977.22216348129405
 31
0.0
  0
LINE
  5
989E
  8
0
 10
900.8850627897009
 20
977.22216348129405
 30
0.0
 11
890.26822790618917
 21
962.85469610379778
 31
0.0
  0
LINE
  5
989F
  8
0
 10
907.79522313001689
 20
973.05350979155344
 30
0.0
 11
917.58413439323795
 21
959.92609034730322
 31
0.0
  0
LINE
  5
98A0
  8
0
 10
910.68327802361
 20
977.37593835205905
 30
0.0
 11
921.51154114140274
 21
962.85469610379778
 31
0.0
  0
ARC
  5
98A1
  8
0
 10
915.62043101915594
 20
958.46178746905571
 30
0.0
 40
2.4495538084772952
 50
270.0
 51
36.71131776775978
  0
ARC
  5
98A2
  8
0
 10
915.62043101915594
 20
958.46178746905571
 30
0.0
 40
7.3486614254318852
 50
270.0
 51
36.71131776775978
  0
ARC
  5
98A3
  8
0
 10
905.83151975593455
 20
971.58920691330604
 30
0.0
 40
2.4495538084772952
 50
36.71131776775978
 51
143.13010235416641
  0
ARC
  5
98A4
  8
0
 10
896.15933802843529
 20
958.46178746905571
 30
0.0
 40
2.4495538084772952
 50
143.28868223224021
 51
270.0
  0
ARC
  5
98A5
  8
0
 10
896.15933802843529
 20
958.46178746905571
 30
0.0
 40
7.3486614254318852
 50
143.28868223224021
 51
270.0
  0
LINE
  5
98A6
  8
0
 10
903.87187670915273
 20
973.05893919839264
 30
0.0
 11
894.1956346543534
 21
959.92609034730322
 31
0.0
  0
LINE
  5
98A7
  8
0
 10
900.99077690684135
 20
1061.692413563283
 30
0.0
 11
910.78899214075045
 21
1061.692413563283
 31
0.0
  0
ARC
  5
98A8
  8
0
 10
1007.4626997548349
 20
1080.7035812957361
 30
0.0
 40
7.2418247900440429
 50
60.000000000002721
 51
240.0000000000027
  0
ARC
  5
98A9
  8
0
 10
1007.4626997548349
 20
969.43347678844145
 30
0.0
 40
7.2418247900440429
 50
119.9999999999973
 51
299.99999999999733
  0
ARC
  5
98AA
  8
0
 10
975.34178735981357
 20
1025.068529042089
 30
0.0
 40
71.730337078651331
 50
205.16355346523989
 51
334.83644653476011
  0
ARC
  5
98AB
  8
0
 10
975.34178735981357
 20
1025.068529042089
 30
0.0
 40
71.730337078651331
 50
25.163553465239911
 51
154.14980729756419
  0
LINE
  5
98AC
  8
0
 10
1032.8417873598139
 20
607.28231898325134
 30
0.0
 11
1032.8417873598139
 21
649.87423751289862
 31
0.0
  0
LINE
  5
98AD
  8
0
 10
916.70317349842696
 20
670.36928701784905
 30
0.0
 11
916.70317349842696
 21
668.18289421640918
 31
0.0
  0
LINE
  5
98AE
  8
0
 10
1047.700666030119
 20
664.7900790970566
 30
0.0
 11
1047.700666030119
 21
661.54502959210606
 31
0.0
  0
LINE
  5
98AF
  8
0
 10
1047.700666030119
 20
657.95839592873972
 30
0.0
 11
1047.700666030119
 21
661.54502959210606
 31
0.0
  0
LINE
  5
98B0
  8
0
 10
916.1072463094747
 20
668.18289421640907
 30
0.0
 11
1047.700666030119
 21
668.18289421640907
 31
0.0
  0
LINE
  5
98B1
  8
0
 10
894.5002032013972
 20
661.54502959210606
 30
0.0
 11
926.38847673728287
 21
661.5450295921064
 31
0.0
  0
LINE
  5
98B2
  8
0
 10
894.5002032013972
 20
654.90716496780351
 30
0.0
 11
1047.700666030119
 21
654.90716496780374
 31
0.0
  0
LINE
  5
98B3
  8
0
 10
1047.700666030119
 20
649.87423751289862
 30
0.0
 11
1047.700666030119
 21
673.21582167131442
 31
0.0
  0
LINE
  5
98B4
  8
0
 10
894.5002032013972
 20
654.90716496780351
 30
0.0
 11
894.5002032013972
 21
670.36928701784882
 31
0.0
  0
ARC
  5
98B5
  8
0
 10
905.60601271614553
 20
673.189570536519
 30
0.0
 40
11.65838223604802
 50
272.79222088910518
 51
346.00068079444941
  0
ARC
  5
98B6
  8
0
 10
905.88988452379544
 20
673.21582167131407
 30
0.0
 40
11.38968132239831
 50
14.472910718502989
 51
165.52708928149701
  0
LINE
  5
98B7
  8
0
 10
922.96909244458755
 20
670.36928701784905
 30
0.0
 11
922.96909244458755
 21
676.06235632477967
 31
0.0
  0
LINE
  5
98B8
  8
0
 10
888.81067660300357
 20
670.36928701784905
 30
0.0
 11
888.81067660300357
 21
676.06235632477944
 31
0.0
  0
LINE
  5
98B9
  8
0
 10
922.96909244458755
 20
676.06235632477967
 30
0.0
 11
888.81067660300357
 21
676.06235632477944
 31
0.0
  0
LINE
  5
98BA
  8
0
 10
922.96909244458755
 20
670.36928701784905
 30
0.0
 11
888.81067660300357
 21
670.36928701784882
 31
0.0
  0
LINE
  5
98BB
  8
0
 10
1000.43844068387
 20
673.21582167131442
 30
0.0
 11
1000.43844068387
 21
668.18289421640907
 31
0.0
  0
LINE
  5
98BC
  8
0
 10
1000.43844068387
 20
654.90716496780351
 30
0.0
 11
1000.43844068387
 21
649.87423751289862
 31
0.0
  0
ARC
  5
98BD
  8
0
 10
905.88988452379544
 20
673.21582167131407
 30
0.0
 40
4.5544554455445541
 50
218.68218745349299
 51
321.3178125465069
  0
ARC
  5
98BE
  8
0
 10
905.88988452379544
 20
673.21582167131407
 30
0.0
 40
4.5544554455445541
 50
38.68218745349305
 51
141.3178125465069
  0
LINE
  5
98BF
  8
0
 10
1047.700666030119
 20
673.21582167131442
 30
0.0
 11
1000.43844068387
 21
673.21582167131442
 31
0.0
  0
LINE
  5
98C0
  8
0
 10
1047.700666030119
 20
649.87423751289862
 30
0.0
 11
1000.43844068387
 21
649.87423751289862
 31
0.0
  0
LINE
  5
98C1
  8
0
 10
960.34178735981357
 20
1085.068529042089
 30
0.0
 11
990.34178735981368
 21
1085.068529042089
 31
0.0
  0
ARC
  5
98C2
  8
0
 10
995.34178735981368
 20
1081.6370715370131
 30
0.0
 40
3.0
 50
180.0
 51
250.52877936551209
  0
ARC
  5
98C3
  8
0
 10
955.34178735981368
 20
1081.6370715370131
 30
0.0
 40
3.0
 50
289.47122063448791
 51
0.0
  0
LINE
  5
98C4
  8
0
 10
1345.921668730045
 20
649.87423751289862
 30
0.0
 11
1345.921668730045
 21
673.21582167131407
 31
0.0
  0
LINE
  5
98C5
  8
0
 10
1204.733549918165
 20
649.87423751289828
 30
0.0
 11
1204.733549918165
 21
673.21582167131407
 31
0.0
  0
LINE
  5
98C6
  8
0
 10
1345.921668730045
 20
673.21582167131407
 30
0.0
 11
1290.5302191302251
 21
673.21582167131407
 31
0.0
  0
LINE
  5
98C7
  8
0
 10
1260.1249995179851
 20
673.21582167131407
 30
0.0
 11
1204.733549918165
 21
673.21582167131407
 31
0.0
  0
LINE
  5
98C8
  8
0
 10
1345.921668730045
 20
649.87423751289862
 30
0.0
 11
1204.733549918165
 21
649.87423751289828
 31
0.0
  0
LINE
  5
98CA
  8
0
 10
658.83024578012783
 20
700.91253028428707
 30
0.0
 11
658.83024578012817
 21
673.21582167131442
 31
0.0
  0
LINE
  5
98CB
  8
0
 10
655.83024578012783
 20
705.48951683746759
 30
0.0
 11
655.83024578012817
 21
690.54502959210629
 31
0.0
  0
LINE
  5
98CC
  8
0
 10
772.83024578012828
 20
700.91253028428673
 30
0.0
 11
772.83024578012828
 21
673.21582167131407
 31
0.0
  0
LINE
  5
98CD
  8
0
 10
699.83024578012817
 20
356.26176151903542
 30
0.0
 11
699.83024578012817
 21
336.5450295921064
 31
0.0
  0
LINE
  5
98CE
  8
0
 10
700.83024578012817
 20
335.5450295921064
 30
0.0
 11
699.83024578012817
 21
336.5450295921064
 31
0.0
  0
LINE
  5
98CF
  8
0
 10
731.83024578012828
 20
356.26176151903542
 30
0.0
 11
731.83024578012828
 21
336.5450295921064
 31
0.0
  0
LINE
  5
98D0
  8
0
 10
658.83024578012817
 20
407.54502959210629
 30
0.0
 11
658.83024578012817
 21
386.87006776653101
 31
0.0
  0
LINE
  5
98D1
  8
0
 10
772.83024578012828
 20
407.54502959210629
 30
0.0
 11
772.83024578012828
 21
386.87006776653101
 31
0.0
  0
ARC
  5
98D2
  8
0
 10
715.83024578012828
 20
460.54502959210629
 30
0.0
 40
103.0
 50
243.9583500440439
 51
296.04164995595607
  0
ARC
  5
98D3
  8
0
 10
751.83024578012828
 20
386.87006776653101
 30
0.0
 40
21.0
 50
296.04164995595607
 51
0.0
  0
ARC
  5
98D4
  8
0
 10
679.83024578012817
 20
386.87006776653101
 30
0.0
 40
21.0
 50
180.0
 51
243.9583500440439
  0
LINE
  5
98D5
  8
0
 10
772.83024578012828
 20
407.54502959210629
 30
0.0
 11
658.83024578012817
 21
407.54502959210629
 31
0.0
  0
LINE
  5
98D6
  8
0
 10
730.83024578012817
 20
335.5450295921064
 30
0.0
 11
700.83024578012817
 21
335.5450295921064
 31
0.0
  0
LINE
  5
98D7
  8
0
 10
731.83024578012828
 20
336.5450295921064
 30
0.0
 11
730.83024578012817
 21
335.5450295921064
 31
0.0
  0
ARC
  5
98D8
  8
0
 10
734.83024578012817
 20
356.26176151903542
 30
0.0
 40
3.0
 50
100.3258027712407
 51
180.0
  0
ARC
  5
98D9
  8
0
 10
696.83024578012817
 20
356.26176151903542
 30
0.0
 40
3.0
 50
0.0
 51
79.674197228759212
  0
LINE
  5
98DA
  8
0
 10
658.33024578012817
 20
649.87423751289862
 30
0.0
 11
658.33024578012908
 21
407.54502959210629
 31
0.0
  0
LINE
  5
98DB
  8
0
 10
773.33024578012828
 20
649.87423751289828
 30
0.0
 11
773.33024578012873
 21
407.54502959210629
 31
0.0
  0
LINE
  5
98DC
  8
0
 10
773.33024578012828
 20
407.54502959210629
 30
0.0
 11
658.33024578012908
 21
407.54502959210629
 31
0.0
  0
LINE
  5
98DD
  8
0
 10
645.23618637418804
 20
649.87423751289862
 30
0.0
 11
645.23618637418804
 21
673.21582167131407
 31
0.0
  0
LINE
  5
98DE
  8
0
 10
786.42430518606852
 20
649.87423751289828
 30
0.0
 11
786.42430518606852
 21
673.21582167131407
 31
0.0
  0
LINE
  5
98DF
  8
0
 10
645.23618637418804
 20
673.21582167131407
 30
0.0
 11
700.62763597400863
 21
673.21582167131407
 31
0.0
  0
LINE
  5
98E0
  8
0
 10
731.03285558624793
 20
673.21582167131407
 30
0.0
 11
786.42430518606852
 21
673.21582167131407
 31
0.0
  0
LINE
  5
98E1
  8
0
 10
645.23618637418804
 20
649.87423751289862
 30
0.0
 11
786.42430518606852
 21
649.87423751289828
 31
0.0
  0
LINE
  5
98E2
  8
0
 10
658.83024578012817
 20
689.54502959210629
 30
0.0
 11
656.83024578012828
 21
689.54502959210629
 31
0.0
  0
ARC
  5
98E3
  8
0
 10
656.83024578012828
 20
690.54502959210629
 30
0.0
 40
1.0
 50
180.0
 51
270.0
  0
LINE
  5
98E4
  8
0
 10
1335.3276093241061
 20
705.48951683746839
 30
0.0
 11
1335.3276093241061
 21
690.54502959209844
 31
0.0
  0
LINE
  5
98E5
  8
0
 10
1332.3276093241061
 20
689.54502959209844
 30
0.0
 11
1334.3276093241061
 21
689.54502959209844
 31
0.0
  0
ARC
  5
98E6
  8
0
 10
1334.3276093241061
 20
690.54502959209844
 30
0.0
 40
1.0
 50
270.0
 51
0.0
  0
TEXT
  5
98E7
  8
0
 10
935.8912539856866
 20
295.39359152360089
 30
0.0
 40
20.0
  1
40mm
 41
0.8
 72
     4
 11
970.93887303330575
 21
305.39359152360089
 31
0.0
  0
LINE
  5
98E8
  8
0
 10
2262.92069709515
 20
911.65049783579923
 30
0.0
 11
2294.92069709515
 21
911.65049783579911
 31
0.0
  0
LINE
  5
98E9
  8
0
 10
2237.0140837175982
 20
881.65049783579923
 30
0.0
 11
2259.9206970951491
 21
881.65049783579923
 31
0.0
  0
LINE
  5
98EA
  8
0
 10
2361.4206970951491
 20
815.15049783579911
 30
0.0
 11
2387.9206970951491
 21
815.15049783579911
 31
0.0
  0
LINE
  5
98EB
  8
0
 10
2358.9206970951491
 20
889.15049783579889
 30
0.0
 11
2387.9206970951491
 21
889.15049783579889
 31
0.0
  0
LINE
  5
98EC
  8
0
 10
2388.9206970951491
 20
888.15049783579889
 30
0.0
 11
2387.9206970951491
 21
889.15049783579889
 31
0.0
  0
LINE
  5
98EE
  8
0
 10
2294.92069709515
 20
911.65049783579911
 30
0.0
 11
2294.92069709515
 21
880.09239254025795
 31
0.0
  0
LINE
  5
98EF
  8
0
 10
2262.92069709515
 20
911.65049783579911
 30
0.0
 11
2262.92069709515
 21
880.09239254025795
 31
0.0
  0
LINE
  5
98F0
  8
0
 10
2388.9206970951491
 20
888.15049783579889
 30
0.0
 11
2388.9206970951491
 21
816.150497835799
 31
0.0
  0
LINE
  5
98F1
  8
0
 10
2387.9206970951491
 20
815.15049783579911
 30
0.0
 11
2388.9206970951491
 21
816.150497835799
 31
0.0
  0
LINE
  5
98F2
  8
0
 10
2361.4206970951491
 20
836.39031800759744
 30
0.0
 11
2361.42069709515
 21
723.39580066178542
 31
0.0
  0
LINE
  5
98F3
  8
0
 10
2196.4206970951491
 20
836.39031800759744
 30
0.0
 11
2196.4206970951491
 21
727.48002086324516
 31
0.0
  0
LINE
  5
98F4
  8
0
 10
2196.4206970951491
 20
719.31158046032476
 30
0.0
 11
2196.4206970951491
 21
716.17453463616937
 31
0.0
  0
LINE
  5
98F5
  8
0
 10
2345.9303160383829
 20
881.65049783579923
 30
0.0
 11
2358.92069709515
 21
889.15049783579911
 31
0.0
  0
LINE
  5
98F6
  8
0
 10
2196.4206970951491
 20
815.15049783579911
 30
0.0
 11
2169.92069709515
 21
815.15049783579889
 31
0.0
  0
LINE
  5
98F7
  8
0
 10
2168.92069709515
 20
816.15049783579889
 30
0.0
 11
2169.92069709515
 21
815.15049783579889
 31
0.0
  0
LINE
  5
98F8
  8
0
 10
2224.92069709515
 20
889.15049783579855
 30
0.0
 11
2169.92069709515
 21
889.15049783579889
 31
0.0
  0
LINE
  5
98F9
  8
0
 10
2168.92069709515
 20
888.15049783579889
 30
0.0
 11
2168.92069709515
 21
816.15049783579889
 31
0.0
  0
LINE
  5
98FA
  8
0
 10
2169.92069709515
 20
889.15049783579889
 30
0.0
 11
2168.92069709515
 21
888.15049783579889
 31
0.0
  0
ARC
  5
98FB
  8
0
 10
2278.92069709515
 20
759.65049783579911
 30
0.0
 40
121.5
 50
53.88033187285172
 51
126.1196681271482
  0
ARC
  5
98FC
  8
0
 10
2334.9206970951491
 20
836.39031800759744
 30
0.0
 40
26.5
 50
0.0
 51
53.88033187285172
  0
ARC
  5
98FD
  8
0
 10
2224.92069709515
 20
878.65049783579832
 30
0.0
 40
10.5
 50
26.387799961237569
 51
90.0
  0
ARC
  5
98FE
  8
0
 10
2237.0140837175982
 20
884.65049783579889
 30
0.0
 40
3.0
 50
206.38779996123759
 51
270.0
  0
LINE
  5
98FF
  8
0
 10
2224.92069709515
 20
889.15049783579855
 30
0.0
 11
2262.92069709515
 21
889.15049783579889
 31
0.0
  0
LINE
  5
9900
  8
0
 10
2294.92069709515
 20
889.15049783579889
 30
0.0
 11
2358.9206970951491
 21
889.15049783579889
 31
0.0
  0
ARC
  5
9901
  8
0
 10
2222.9206970951491
 20
836.39031800759744
 30
0.0
 40
26.5
 50
126.1196681271482
 51
180.0
  0
ARC
  5
9902
  8
0
 10
2259.9206970951491
 20
884.65049783579889
 30
0.0
 40
3.0
 50
270.0
 51
0.0
  0
ARC
  5
9903
  8
0
 10
2297.92069709515
 20
884.65049783579889
 30
0.0
 40
3.0
 50
180.0
 51
270.0
  0
LINE
  5
9904
  8
0
 10
2297.92069709515
 20
881.65049783579877
 30
0.0
 11
2345.9303160383829
 21
881.65049783579923
 31
0.0
  0
LINE
  5
9906
  8
0
 10
2294.92069709515
 20
367.11478875473159
 30
0.0
 11
2294.92069709515
 21
347.65049783579917
 31
0.0
  0
LINE
  5
9907
  8
0
 10
2293.92069709515
 20
346.65049783579917
 30
0.0
 11
2294.92069709515
 21
347.65049783579917
 31
0.0
  0
LINE
  5
9908
  8
0
 10
2262.92069709515
 20
367.11478875473159
 30
0.0
 11
2262.9206970951491
 21
347.65049783579911
 31
0.0
  0
LINE
  5
9909
  8
0
 10
2361.8206970951501
 20
423.65049783579911
 30
0.0
 11
2361.8206970951501
 21
413.57560053057762
 31
0.0
  0
LINE
  5
990A
  8
0
 10
2196.0206970951499
 20
423.65049783579911
 30
0.0
 11
2196.0206970951499
 21
413.57560053057762
 31
0.0
  0
LINE
  5
990B
  8
0
 10
2361.4206970951491
 20
689.90519500981281
 30
0.0
 11
2361.42069709515
 21
423.65049783579911
 31
0.0
  0
LINE
  5
990C
  8
0
 10
2196.4206970951491
 20
719.31158046032476
 30
0.0
 11
2196.4206970951491
 21
716.17453463616937
 31
0.0
  0
LINE
  5
990D
  8
0
 10
2196.4206970951491
 20
697.12646103542795
 30
0.0
 11
2196.42069709515
 21
423.65049783579911
 31
0.0
  0
LINE
  5
990E
  8
0
 10
2196.4206970951491
 20
423.65049783579911
 30
0.0
 11
2361.42069709515
 21
423.65049783579911
 31
0.0
  0
LINE
  5
990F
  8
0
 10
2196.0206970951499
 20
423.65049783579911
 30
0.0
 11
2361.8206970951501
 21
423.65049783579911
 31
0.0
  0
LINE
  5
9910
  8
0
 10
2263.9206970951491
 20
346.65049783579911
 30
0.0
 11
2293.92069709515
 21
346.65049783579917
 31
0.0
  0
LINE
  5
9911
  8
0
 10
2262.9206970951491
 20
347.65049783579911
 30
0.0
 11
2263.9206970951491
 21
346.65049783579911
 31
0.0
  0
ARC
  5
9912
  8
0
 10
2278.92069709515
 20
489.65049783579911
 30
0.0
 40
121.0
 50
233.20545439748909
 51
306.79454560251088
  0
ARC
  5
9913
  8
0
 10
2297.92069709515
 20
367.11478875473159
 30
0.0
 40
3.0
 50
98.813913318670785
 51
180.0
  0
ARC
  5
9914
  8
0
 10
2259.92069709515
 20
367.11478875473159
 30
0.0
 40
3.0
 50
0.0
 51
81.186086681329229
  0
ARC
  5
9915
  8
0
 10
2222.0206970951499
 20
413.57560053057762
 30
0.0
 40
26.0
 50
180.0
 51
233.20545439748909
  0
ARC
  5
9916
  8
0
 10
2335.8206970951501
 20
413.57560053057762
 30
0.0
 40
26.0
 50
306.79454560251088
 51
0.0
  0
LINE
  5
9919
  8
0
 10
2702.0013569017769
 20
836.39031800759744
 30
0.0
 11
2702.0013569017779
 21
723.39580066178519
 31
0.0
  0
LINE
  5
991A
  8
0
 10
2705.0013569017769
 20
832.65049783579911
 30
0.0
 11
2705.0013569017769
 21
817.65049783579934
 31
0.0
  0
ARC
  5
991B
  8
0
 10
2702.0013569017769
 20
832.65049783579877
 30
0.0
 40
3.0
 50
0.0
 51
90.0
  0
LINE
  5
991C
  8
0
 10
2537.0013569017769
 20
836.39031800759744
 30
0.0
 11
2537.0013569017769
 21
723.39580066178519
 31
0.0
  0
ARC
  5
991F
  8
0
 10
2675.5013569017779
 20
836.39031800759744
 30
0.0
 40
26.5
 50
0.0
 51
35.776534543203987
  0
ARC
  5
9920
  8
0
 10
2563.5013569017779
 20
836.39031800759744
 30
0.0
 40
26.5
 50
144.22346545679929
 51
180.0
  0
LINE
  5
9928
  8
0
 10
2635.5013569017779
 20
367.11478875473159
 30
0.0
 11
2635.5013569017779
 21
347.65049783579917
 31
0.0
  0
LINE
  5
9929
  8
0
 10
2634.5013569017779
 20
346.65049783579917
 30
0.0
 11
2635.5013569017779
 21
347.65049783579917
 31
0.0
  0
LINE
  5
992A
  8
0
 10
2603.5013569017769
 20
367.11478875473159
 30
0.0
 11
2603.5013569017769
 21
347.65049783579911
 31
0.0
  0
LINE
  5
992B
  8
0
 10
2702.401356901777
 20
423.65049783579911
 30
0.0
 11
2702.401356901777
 21
413.57560053057762
 31
0.0
  0
LINE
  5
992C
  8
0
 10
2536.6013569017769
 20
423.65049783579911
 30
0.0
 11
2536.6013569017769
 21
413.57560053057762
 31
0.0
  0
LINE
  5
992D
  8
0
 10
2702.0013569017779
 20
689.90519500981304
 30
0.0
 11
2702.0013569017779
 21
423.65049783579911
 31
0.0
  0
LINE
  5
992E
  8
0
 10
2537.0013569017769
 20
689.90519500981532
 30
0.0
 11
2537.0013569017769
 21
423.65049783579911
 31
0.0
  0
ARC
  5
992F
  8
0
 10
2702.0013569017769
 20
817.65049783579911
 30
0.0
 40
3.0
 50
270.0
 51
0.0
  0
LINE
  5
9930
  8
0
 10
2537.0013569017769
 20
423.65049783579911
 30
0.0
 11
2702.0013569017779
 21
423.65049783579911
 31
0.0
  0
LINE
  5
9931
  8
0
 10
2536.6013569017769
 20
423.65049783579911
 30
0.0
 11
2702.401356901777
 21
423.65049783579911
 31
0.0
  0
LINE
  5
9932
  8
0
 10
2604.5013569017769
 20
346.65049783579911
 30
0.0
 11
2634.5013569017779
 21
346.65049783579917
 31
0.0
  0
LINE
  5
9933
  8
0
 10
2603.5013569017769
 20
347.65049783579911
 30
0.0
 11
2604.5013569017769
 21
346.65049783579911
 31
0.0
  0
ARC
  5
9934
  8
0
 10
2619.5013569017769
 20
489.65049783579911
 30
0.0
 40
121.0
 50
233.20545439748909
 51
306.79454560251088
  0
ARC
  5
9935
  8
0
 10
2638.5013569017779
 20
367.11478875473159
 30
0.0
 40
3.0
 50
98.813913318670785
 51
180.0
  0
ARC
  5
9936
  8
0
 10
2600.5013569017769
 20
367.11478875473159
 30
0.0
 40
3.0
 50
0.0
 51
81.186086681329229
  0
ARC
  5
9937
  8
0
 10
2562.6013569017769
 20
413.57560053057762
 30
0.0
 40
26.0
 50
180.0
 51
233.20545439748909
  0
ARC
  5
9938
  8
0
 10
2676.401356901777
 20
413.57560053057762
 30
0.0
 40
26.0
 50
306.79454560251088
 51
0.0
  0
LINE
  5
9939
  8
0
 10
2278.920197095149
 20
927.97377352502679
 30
0.0
 11
2289.3976970951489
 21
917.97377352502599
 31
0.0
  0
LINE
  5
993A
  8
0
 10
2268.442697095149
 20
917.97377352502679
 30
0.0
 11
2278.920197095149
 21
927.97377352502679
 31
0.0
  0
LINE
  5
993B
  8
0
 10
2278.9206970951491
 20
917.97377352502679
 30
0.0
 11
2268.442697095149
 21
927.97377352502679
 31
0.0
  0
LINE
  5
993C
  8
0
 10
2289.3976970951499
 20
927.97377352502679
 30
0.0
 11
2278.9206970951491
 21
917.97377352502679
 31
0.0
  0
LINE
  5
993D
  8
0
 10
2268.442697095149
 20
927.97377352502679
 30
0.0
 11
2268.442697095149
 21
917.97377352502679
 31
0.0
  0
LINE
  5
993E
  8
0
 10
2289.3976970951499
 20
927.97377352502679
 30
0.0
 11
2289.3976970951489
 21
917.97377352502679
 31
0.0
  0
LINE
  5
993F
  8
0
 10
2268.442697095149
 20
917.97377352502679
 30
0.0
 11
2289.3976970951499
 21
917.97377352502679
 31
0.0
  0
LINE
  5
9940
  8
0
 10
2268.442697095149
 20
917.97377352502679
 30
0.0
 11
2268.640368191695
 21
911.65049783579923
 31
0.0
  0
LINE
  5
9941
  8
0
 10
2269.605697095149
 20
917.97377352502679
 30
0.0
 11
2269.8030932666652
 21
911.65049783579923
 31
0.0
  0
LINE
  5
9942
  8
0
 10
2288.2356970951491
 20
917.97377352502679
 30
0.0
 11
2288.0383009236339
 21
911.65049783579923
 31
0.0
  0
LINE
  5
9943
  8
0
 10
2289.3976970951499
 20
917.97377352502679
 30
0.0
 11
2289.2003009236332
 21
911.65049783579923
 31
0.0
  0
LINE
  5
9944
  8
0
 10
2268.442697095149
 20
927.97377352502679
 30
0.0
 11
2289.3976970951499
 21
927.97377352502679
 31
0.0
  0
LINE
  5
9953
  8
0
 10
1870.3395679415819
 20
836.39031800759744
 30
0.0
 11
1870.3395679415819
 21
716.65072778220065
 31
0.0
  0
LINE
  5
9954
  8
0
 10
1867.3395679415819
 20
832.65049783579911
 30
0.0
 11
1867.3395679415819
 21
817.65049783579934
 31
0.0
  0
ARC
  5
9955
  8
0
 10
1870.339567941583
 20
832.65049783579877
 30
0.0
 40
3.0
 50
90.0
 51
180.0
  0
LINE
  5
9956
  8
0
 10
2035.3395679415819
 20
836.39031800759744
 30
0.0
 11
2035.3395679415819
 21
728.23884600486406
 31
0.0
  0
LINE
  5
9957
  8
0
 10
2035.3395679415819
 20
719.86619832013889
 30
0.0
 11
2035.3395679415819
 21
716.65072778220087
 31
0.0
  0
ARC
  5
995A
  8
0
 10
1896.8395679415819
 20
836.39031800759744
 30
0.0
 40
26.5
 50
144.2234654567969
 51
180.0
  0
ARC
  5
995B
  8
0
 10
2008.8395679415819
 20
836.39031800759744
 30
0.0
 40
26.5
 50
0.0
 51
35.776534543201528
  0
LINE
  5
9963
  8
0
 10
1936.8395679415819
 20
367.11478875473159
 30
0.0
 11
1936.8395679415819
 21
347.65049783579917
 31
0.0
  0
LINE
  5
9964
  8
0
 10
1937.8395679415819
 20
346.65049783579917
 30
0.0
 11
1936.8395679415819
 21
347.65049783579917
 31
0.0
  0
LINE
  5
9965
  8
0
 10
1968.8395679415819
 20
367.11478875473159
 30
0.0
 11
1968.8395679415819
 21
347.65049783579911
 31
0.0
  0
LINE
  5
9966
  8
0
 10
1869.939567941582
 20
423.65049783579911
 30
0.0
 11
1869.939567941582
 21
413.57560053057762
 31
0.0
  0
LINE
  5
9967
  8
0
 10
2035.7395679415829
 20
423.65049783579911
 30
0.0
 11
2035.7395679415829
 21
413.57560053057762
 31
0.0
  0
LINE
  5
9968
  8
0
 10
1870.3395679415819
 20
697.12646103542795
 30
0.0
 11
1870.3395679415819
 21
423.65049783579911
 31
0.0
  0
LINE
  5
9969
  8
0
 10
2035.3395679415819
 20
697.12646103542795
 30
0.0
 11
2035.3395679415819
 21
423.65049783579911
 31
0.0
  0
ARC
  5
996A
  8
0
 10
1870.3395679415819
 20
817.65049783579911
 30
0.0
 40
3.0
 50
180.0
 51
270.0
  0
LINE
  5
996B
  8
0
 10
2035.3395679415819
 20
423.65049783579911
 30
0.0
 11
1870.3395679415819
 21
423.65049783579911
 31
0.0
  0
LINE
  5
996C
  8
0
 10
2035.7395679415829
 20
423.65049783579911
 30
0.0
 11
1869.939567941582
 21
423.65049783579911
 31
0.0
  0
LINE
  5
996D
  8
0
 10
1967.8395679415819
 20
346.65049783579911
 30
0.0
 11
1937.8395679415819
 21
346.65049783579917
 31
0.0
  0
LINE
  5
996E
  8
0
 10
1968.8395679415819
 20
347.65049783579911
 30
0.0
 11
1967.8395679415819
 21
346.65049783579911
 31
0.0
  0
ARC
  5
996F
  8
0
 10
1952.8395679415819
 20
489.65049783579911
 30
0.0
 40
121.0
 50
233.20545439748909
 51
306.79454560251088
  0
ARC
  5
9970
  8
0
 10
1933.8395679415819
 20
367.11478875473159
 30
0.0
 40
3.0
 50
0.0
 51
81.186086681329229
  0
ARC
  5
9971
  8
0
 10
1971.8395679415819
 20
367.11478875473159
 30
0.0
 40
3.0
 50
98.813913318670785
 51
180.0
  0
ARC
  5
9972
  8
0
 10
2009.739567941582
 20
413.57560053057762
 30
0.0
 40
26.0
 50
306.79454560251088
 51
0.0
  0
ARC
  5
9973
  8
0
 10
1895.939567941582
 20
413.57560053057762
 30
0.0
 40
26.0
 50
180.0
 51
233.20545439748909
  0
ARC
  5
9980
  8
0
 10
2278.92069709515
 20
1137.119485414979
 30
0.0
 40
82.500000000000227
 50
24.46526333804092
 51
155.5347366619591
  0
ARC
  5
9981
  8
0
 10
2278.92069709515
 20
1137.119485414979
 30
0.0
 40
82.500000000000227
 50
204.4652633380409
 51
335.53473666195907
  0
LINE
  5
9984
  8
0
 10
2388.92069709515
 20
1173.119485414979
 30
0.0
 11
2388.92069709515
 21
1101.119485414979
 31
0.0
  0
LINE
  5
9985
  8
0
 10
2387.92069709515
 20
1100.119485414979
 30
0.0
 11
2388.92069709515
 21
1101.119485414979
 31
0.0
  0
LINE
  5
9986
  8
0
 10
2345.9303160383829
 20
1166.619485414979
 30
0.0
 11
2358.92069709515
 21
1174.119485414979
 31
0.0
  0
LINE
  5
9987
  8
0
 10
2168.92069709515
 20
1173.119485414979
 30
0.0
 11
2168.92069709515
 21
1101.119485414979
 31
0.0
  0
LINE
  5
9988
  8
0
 10
2169.92069709515
 20
1174.119485414979
 30
0.0
 11
2168.92069709515
 21
1173.119485414979
 31
0.0
  0
LINE
  5
9989
  8
0
 10
2211.9110781519162
 20
1166.619485414979
 30
0.0
 11
2345.9303160383829
 21
1166.619485414979
 31
0.0
  0
LINE
  5
998A
  8
0
 10
2358.92069709515
 20
1174.119485414979
 30
0.0
 11
2387.92069709515
 21
1174.119485414979
 31
0.0
  0
LINE
  5
998B
  8
0
 10
2388.92069709515
 20
1173.119485414979
 30
0.0
 11
2387.92069709515
 21
1174.119485414979
 31
0.0
  0
LINE
  5
998C
  8
0
 10
2211.9110781519162
 20
1166.619485414979
 30
0.0
 11
2198.9206970951491
 21
1174.119485414979
 31
0.0
  0
LINE
  5
998D
  8
0
 10
2198.9206970951491
 20
1174.119485414979
 30
0.0
 11
2169.92069709515
 21
1174.119485414979
 31
0.0
  0
LINE
  5
998E
  8
0
 10
2345.9303160383829
 20
1107.619485414979
 30
0.0
 11
2358.92069709515
 21
1100.119485414979
 31
0.0
  0
LINE
  5
998F
  8
0
 10
2211.9110781519162
 20
1107.619485414979
 30
0.0
 11
2345.9303160383829
 21
1107.619485414979
 31
0.0
  0
LINE
  5
9990
  8
0
 10
2358.92069709515
 20
1100.119485414979
 30
0.0
 11
2387.92069709515
 21
1100.119485414979
 31
0.0
  0
LINE
  5
9991
  8
0
 10
2211.9110781519162
 20
1107.619485414979
 30
0.0
 11
2198.9206970951491
 21
1100.119485414979
 31
0.0
  0
LINE
  5
9992
  8
0
 10
2198.9206970951491
 20
1100.119485414979
 30
0.0
 11
2169.92069709515
 21
1100.119485414979
 31
0.0
  0
LINE
  5
9993
  8
0
 10
2168.92069709515
 20
1101.119485414979
 30
0.0
 11
2169.92069709515
 21
1100.119485414979
 31
0.0
  0
CIRCLE
  5
9994
  8
0
 10
2278.92069709515
 20
1137.119485414979
 30
0.0
 40
16.0
  0
LINE
  5
9995
  8
0
 10
2251.1492216312672
 20
1215.506041657942
 30
0.0
 11
2251.1492216312672
 21
1220.985812503935
 31
0.0
  0
LINE
  5
9996
  8
0
 10
2305.0604276957092
 20
1222.619485414979
 30
0.0
 11
2252.7828945423112
 21
1222.619485414979
 31
0.0
  0
ARC
  5
9997
  8
0
 10
2252.7828945423112
 20
1220.985812503935
 30
0.0
 40
1.6336729110436721
 50
90.0
 51
180.0
  0
LINE
  5
9998
  8
0
 10
2166.4345806251972
 20
1042.3664565744459
 30
0.0
 11
2192.3928268398458
 21
1042.3664565744459
 31
0.0
  0
LINE
  5
9999
  8
0
 10
2166.4345806251972
 20
1048.9011482186211
 30
0.0
 11
2192.3928268398458
 21
1048.9011482186211
 31
0.0
  0
LINE
  5
999A
  8
0
 10
2185.8073882358131
 20
1099.546061643058
 30
0.0
 11
2185.8073882358131
 21
1077.3971996327391
 31
0.0
  0
LINE
  5
999B
  8
0
 10
2172.7380049474632
 20
1099.545575699977
 30
0.0
 11
2172.7380049474632
 21
1077.192086489358
 31
0.0
  0
LINE
  5
999C
  8
0
 10
2172.7380049474632
 20
1077.192086489358
 30
0.0
 11
2158.5767030073371
 21
1058.027990421177
 31
0.0
  0
LINE
  5
999D
  8
0
 10
2181.9551462242739
 20
1071.631713343128
 30
0.0
 11
2195.0121193791329
 21
1054.1216595008641
 31
0.0
  0
LINE
  5
999E
  8
0
 10
2185.8073882358131
 20
1077.3971996327391
 30
0.0
 11
2200.2507044577069
 21
1058.027990421177
 31
0.0
  0
ARC
  5
999F
  8
0
 10
2192.3928268398458
 20
1052.1684940407081
 30
0.0
 40
3.2673458220873441
 50
270.0
 51
36.71131776775978
  0
ARC
  5
99A0
  8
0
 10
2192.3928268398458
 20
1052.1684940407081
 30
0.0
 40
9.8020374662620338
 50
270.0
 51
36.71131776775978
  0
ARC
  5
99A1
  8
0
 10
2179.3358536849869
 20
1069.678547882972
 30
0.0
 40
3.2673458220873441
 50
36.71131776775978
 51
143.13010235416641
  0
ARC
  5
99A2
  8
0
 10
2166.4345806251972
 20
1052.1684940407081
 30
0.0
 40
3.2673458220873441
 50
143.28868223224021
 51
270.0
  0
ARC
  5
99A3
  8
0
 10
2166.4345806251972
 20
1052.1684940407081
 30
0.0
 40
9.8020374662620338
 50
143.28868223224021
 51
270.0
  0
LINE
  5
99A4
  8
0
 10
2176.7219770273168
 20
1071.638955376224
 30
0.0
 11
2163.8152880859102
 21
1054.1216595008641
 31
0.0
  0
ARC
  5
99A5
  8
0
 10
2325.4117629743878
 20
1217.6443736158531
 30
0.0
 40
10.48164975077167
 50
60.000000000002721
 51
240.0000000000027
  0
ARC
  5
99A6
  8
0
 10
2325.4117629743878
 20
1056.594597214106
 30
0.0
 40
10.48164975077167
 50
119.9999999999973
 51
299.99999999999733
  0
ARC
  5
99A7
  8
0
 10
2278.92069709515
 20
1137.119485414979
 30
0.0
 40
103.82083129059529
 50
206.25095418419519
 51
338.78259811910021
  0
ARC
  5
99A8
  8
0
 10
2278.92069709515
 20
1137.119485414979
 30
0.0
 40
103.82083129059529
 50
21.2174018808998
 51
159.12175870059809
  0
LINE
  5
99A9
  8
0
 10
2194.7857609450721
 20
719.31158046032533
 30
0.0
 11
2194.7857609450721
 21
716.17453463616937
 31
0.0
  0
LINE
  5
99AA
  8
0
 10
2382.7415283857449
 20
711.30650886546277
 30
0.0
 11
2382.7415283857449
 21
706.65049783579843
 31
0.0
  0
LINE
  5
99AB
  8
0
 10
2382.7415283857449
 20
701.50438038195853
 30
0.0
 11
2382.7415283857449
 21
706.65049783579843
 31
0.0
  0
LINE
  5
99AC
  8
0
 10
2193.930722043383
 20
716.17453463616937
 30
0.0
 11
2382.7415283857449
 21
716.17453463616937
 31
0.0
  0
LINE
  5
99AD
  8
0
 10
2162.9288433736829
 20
706.65049783579843
 30
0.0
 11
2208.6822758170219
 21
706.65049783579889
 31
0.0
  0
LINE
  5
99AE
  8
0
 10
2162.9288433736829
 20
697.12646103542795
 30
0.0
 11
2382.7415283857449
 21
697.12646103542795
 31
0.0
  0
LINE
  5
99AF
  8
0
 10
2382.7415283857458
 20
689.90519500981281
 30
0.0
 11
2382.7415283857449
 21
723.39580066178542
 31
0.0
  0
LINE
  5
99B0
  8
0
 10
2162.9288433736829
 20
697.12646103542795
 30
0.0
 11
2162.9288433736829
 21
719.31158046032442
 31
0.0
  0
ARC
  5
99B1
  8
0
 10
2178.863506778705
 20
723.35813542032668
 30
0.0
 40
16.7274971294812
 50
272.79222088910518
 51
346.00068079444941
  0
ARC
  5
99B2
  8
0
 10
2179.270807273017
 20
723.39580066178485
 30
0.0
 40
16.34196389933312
 50
14.472910718502989
 51
165.52708928149701
  0
LINE
  5
99B3
  8
0
 10
2203.7761284817771
 20
719.31158046032476
 30
0.0
 11
2203.7761284817771
 21
727.4800208632455
 31
0.0
  0
LINE
  5
99B4
  8
0
 10
2154.765486064256
 20
719.31158046032476
 30
0.0
 11
2154.765486064256
 21
727.48002086324504
 31
0.0
  0
LINE
  5
99B5
  8
0
 10
2203.7761284817771
 20
727.4800208632455
 30
0.0
 11
2154.765486064256
 21
727.48002086324504
 31
0.0
  0
LINE
  5
99B6
  8
0
 10
2203.7761284817771
 20
719.31158046032476
 30
0.0
 11
2154.765486064256
 21
719.31158046032442
 31
0.0
  0
LINE
  5
99B7
  8
0
 10
2314.9294835577939
 20
723.39580066178542
 30
0.0
 11
2314.929483557793
 21
716.17453463616937
 31
0.0
  0
LINE
  5
99B8
  8
0
 10
2314.929483557793
 20
697.12646103542795
 30
0.0
 11
2314.929483557793
 21
689.90519500981281
 31
0.0
  0
ARC
  5
99B9
  8
0
 10
2179.270807273017
 20
723.39580066178485
 30
0.0
 40
6.5347523223360806
 50
218.68218745349299
 51
321.3178125465069
  0
ARC
  5
99BA
  8
0
 10
2179.270807273017
 20
723.39580066178485
 30
0.0
 40
6.5347523223360806
 50
38.68218745349305
 51
141.3178125465069
  0
LINE
  5
99BB
  8
0
 10
2382.7415283857449
 20
723.39580066178542
 30
0.0
 11
2314.9294835577939
 21
723.39580066178542
 31
0.0
  0
LINE
  5
99BC
  8
0
 10
2382.7415283857458
 20
689.90519500981281
 30
0.0
 11
2314.929483557793
 21
689.90519500981281
 31
0.0
  0
LINE
  5
99BD
  8
0
 10
2723.3221881923728
 20
689.90519500981281
 30
0.0
 11
2723.3221881923728
 21
723.39580066178519
 31
0.0
  0
LINE
  5
99BE
  8
0
 10
2515.6805256111811
 20
689.90519500981281
 30
0.0
 11
2515.680525611182
 21
723.39580066178519
 31
0.0
  0
LINE
  5
99BF
  8
0
 10
2515.680525611182
 20
723.39580066178519
 30
0.0
 11
2723.3221881923728
 21
723.39580066178519
 31
0.0
  0
LINE
  5
99C0
  8
0
 10
2723.3221881923728
 20
689.90519500981281
 30
0.0
 11
2515.6805256111811
 21
689.90519500981554
 31
0.0
  0
LINE
  5
99C1
  8
0
 10
1957.8631565524181
 20
740.80302770046296
 30
0.0
 11
1957.8631565524181
 21
697.12646103542795
 31
0.0
  0
LINE
  5
99C2
  8
0
 10
1982.9810996065939
 20
740.80302770046296
 30
0.0
 11
1982.9810996065939
 21
697.12646103542795
 31
0.0
  0
LINE
  5
99C3
  8
0
 10
2026.5188675671659
 20
730.7506403102816
 30
0.0
 11
2026.5188675671659
 21
728.23884600486429
 31
0.0
  0
LINE
  5
99C4
  8
0
 10
2026.5188675671659
 20
719.86619832013935
 30
0.0
 11
2026.5188675671659
 21
717.35440401472067
 31
0.0
  0
LINE
  5
99C5
  8
0
 10
2060.0094583060682
 20
728.23884600486429
 30
0.0
 11
2060.0094583060682
 21
719.86619832013889
 31
0.0
  0
LINE
  5
99C6
  8
0
 10
1947.815979330747
 20
740.80302770046296
 30
0.0
 11
1947.815979330747
 21
697.12646103542795
 31
0.0
  0
LINE
  5
99C7
  8
0
 10
1922.698036276571
 20
740.80302770046296
 30
0.0
 11
1922.698036276571
 21
697.12646103542795
 31
0.0
  0
LINE
  5
99C8
  8
0
 10
1912.6508590548999
 20
730.75064031028228
 30
0.0
 11
1912.6508590548999
 21
717.35440401472158
 31
0.0
  0
LINE
  5
99C9
  8
0
 10
1849.0187366509861
 20
716.65072778220065
 30
0.0
 11
1922.698036276571
 21
716.65072778220065
 31
0.0
  0
LINE
  5
99CA
  8
0
 10
1982.9810996065939
 20
716.65072778220065
 30
0.0
 11
2056.660399232177
 21
716.65072778220065
 31
0.0
  0
LINE
  5
99CB
  8
0
 10
1982.9810996065939
 20
740.80302770046296
 30
0.0
 11
1957.8631565524181
 21
740.80302770046274
 31
0.0
  0
LINE
  5
99CC
  8
0
 10
1947.815979330747
 20
740.80302770046274
 30
0.0
 11
1922.698036276571
 21
740.80302770046217
 31
0.0
  0
LINE
  5
99CD
  8
0
 10
2056.660399232178
 20
697.12646103542795
 30
0.0
 11
2056.660399232177
 21
716.65072778220065
 31
0.0
  0
LINE
  5
99CE
  8
0
 10
1849.0187366509861
 20
697.12646103542795
 30
0.0
 11
1849.0187366509861
 21
716.65072778220065
 31
0.0
  0
LINE
  5
99CF
  8
0
 10
1849.0187366509861
 20
697.12646103542795
 30
0.0
 11
2056.660399232178
 21
697.12646103542795
 31
0.0
  0
LINE
  5
99D0
  8
0
 10
1957.8631565524181
 20
730.7506403102816
 30
0.0
 11
1947.815979330747
 21
730.75064031028228
 31
0.0
  0
LINE
  5
99D1
  8
0
 10
1957.8631565524181
 20
717.35440401472158
 30
0.0
 11
1947.815979330747
 21
717.35440401472158
 31
0.0
  0
LINE
  5
99D2
  8
0
 10
1947.815979330747
 20
716.65072778220065
 30
0.0
 11
1957.8631565524181
 21
716.65072778220065
 31
0.0
  0
LINE
  5
99D3
  8
0
 10
1982.9810996065939
 20
730.75064031028205
 30
0.0
 11
2026.5188675671659
 21
730.75064031028205
 31
0.0
  0
LINE
  5
99D4
  8
0
 10
1982.9810996065939
 20
717.35440401472067
 30
0.0
 11
2026.5188675671659
 21
717.35440401472124
 31
0.0
  0
LINE
  5
99D5
  8
0
 10
2026.5188675671659
 20
719.86619832013889
 30
0.0
 11
2060.0094583060682
 21
719.86619832013889
 31
0.0
  0
LINE
  5
99D6
  8
0
 10
2026.5188675671659
 20
728.23884600486429
 30
0.0
 11
2060.0094583060682
 21
728.23884600486429
 31
0.0
  0
LINE
  5
99D7
  8
0
 10
2026.5188675671659
 20
727.32275256285629
 30
0.0
 11
2026.5188675671659
 21
720.782291762147
 31
0.0
  0
LINE
  5
99D8
  8
0
 10
1922.698036276571
 20
730.75064031028228
 30
0.0
 11
1912.6508590548999
 21
730.75064031028228
 31
0.0
  0
LINE
  5
99D9
  8
0
 10
1922.698036276571
 20
717.35440401472158
 30
0.0
 11
1912.6508590548999
 21
717.35440401472158
 31
0.0
  0
TEXT
  5
99DA
  8
0
 10
2262.1613336807991
 20
274.67450424988169
 30
0.0
 40
20.0
  1
50mm
 41
0.8
 72
     4
 11
2297.2089527284179
 21
284.67450424988169
 31
0.0
  0
LINE
  5
99DB
  8
0
 10
975.34164989729925
 20
811.86830528133396
 30
0.0
 11
985.81914989729921
 21
801.86830528133294
 31
0.0
  0
LINE
  5
99DC
  8
0
 10
964.86414989729917
 20
801.86830528133396
 30
0.0
 11
975.34164989729925
 21
811.86830528133396
 31
0.0
  0
LINE
  5
99DD
  8
0
 10
975.34214989729878
 20
801.86830528133396
 30
0.0
 11
964.86414989729917
 21
811.86830528133396
 31
0.0
  0
LINE
  5
99DE
  8
0
 10
985.81914989729921
 20
811.86830528133396
 30
0.0
 11
975.34214989729878
 21
801.86830528133396
 31
0.0
  0
LINE
  5
99DF
  8
0
 10
964.86414989729917
 20
811.86830528133396
 30
0.0
 11
964.86414989729917
 21
801.86830528133396
 31
0.0
  0
LINE
  5
99E0
  8
0
 10
985.81914989729921
 20
811.86830528133396
 30
0.0
 11
985.81914989729921
 21
801.86830528133396
 31
0.0
  0
LINE
  5
99E1
  8
0
 10
964.86414989729917
 20
801.86830528133396
 30
0.0
 11
985.81914989729921
 21
801.86830528133396
 31
0.0
  0
LINE
  5
99E2
  8
0
 10
964.86414989729917
 20
801.86830528133396
 30
0.0
 11
965.06182099384478
 21
795.5450295921064
 31
0.0
  0
LINE
  5
99E3
  8
0
 10
966.02714989729884
 20
801.86830528133396
 30
0.0
 11
966.22454606881445
 21
795.5450295921064
 31
0.0
  0
LINE
  5
99E4
  8
0
 10
984.65714989729895
 20
801.86830528133396
 30
0.0
 11
984.45975372578334
 21
795.5450295921064
 31
0.0
  0
LINE
  5
99E5
  8
0
 10
985.81914989729921
 20
801.86830528133396
 30
0.0
 11
985.62175372578304
 21
795.5450295921064
 31
0.0
  0
LINE
  5
99E6
  8
0
 10
964.86414989729917
 20
811.86830528133396
 30
0.0
 11
985.81914989729921
 21
811.86830528133396
 31
0.0
  0
LINE
  5
99E7
  8
0
 10
1275.3274718615901
 20
811.86830528133396
 30
0.0
 11
1275.667046249034
 21
811.54420660565393
 31
0.0
  0
LINE
  5
99E8
  8
0
 10
1274.9878960696269
 20
811.54420526514355
 30
0.0
 11
1275.3274718615901
 21
811.86830528133396
 31
0.0
  0
LINE
  5
99E9
  8
0
 10
1265.862322943404
 20
810.90213704138876
 30
0.0
 11
1264.8499718615899
 21
811.86830528133396
 31
0.0
  0
LINE
  5
99EA
  8
0
 10
1285.80497186159
 20
811.86830528133396
 30
0.0
 11
1284.7927397019309
 21
810.90215833119669
 31
0.0
  0
LINE
  5
99EB
  8
0
 10
1264.8499718615899
 20
811.86830528133396
 30
0.0
 11
1264.8499718615899
 21
810.75643842911893
 31
0.0
  0
LINE
  5
99EC
  8
0
 10
1285.80497186159
 20
811.86830528133396
 30
0.0
 11
1285.80497186159
 21
810.75648004835739
 31
0.0
  0
LINE
  5
99ED
  8
0
 10
1264.8499718615899
 20
811.86830528133396
 30
0.0
 11
1285.80497186159
 21
811.86830528133396
 31
0.0
  0
LINE
  5
99EE
  8
0
 10
715.83010831761339
 20
811.86830528133396
 30
0.0
 11
716.16968270505674
 21
811.54420660565393
 31
0.0
  0
LINE
  5
99EF
  8
0
 10
715.49053252565
 20
811.54420526514355
 30
0.0
 11
715.83010831761339
 21
811.86830528133396
 31
0.0
  0
LINE
  5
99F0
  8
0
 10
706.36495939942768
 20
810.90213704138876
 30
0.0
 11
705.35260831761343
 21
811.86830528133396
 31
0.0
  0
LINE
  5
99F1
  8
0
 10
726.30760831761324
 20
811.86830528133396
 30
0.0
 11
725.29537615795471
 21
810.90215833119635
 31
0.0
  0
LINE
  5
99F2
  8
0
 10
705.35260831761343
 20
811.86830528133396
 30
0.0
 11
705.35260831761343
 21
810.75643842911904
 31
0.0
  0
LINE
  5
99F3
  8
0
 10
726.30760831761324
 20
811.86830528133396
 30
0.0
 11
726.30760831761324
 21
810.75648004835739
 31
0.0
  0
LINE
  5
99F4
  8
0
 10
705.35260831761343
 20
811.86830528133396
 30
0.0
 11
726.30760831761324
 21
811.86830528133396
 31
0.0
  0
CIRCLE
  5
99F5
  8
0
 10
739.24474950201466
 20
2309.017141505748
 30
0.0
 40
10.47750000000007
  0
LINE
  5
99F6
  8
0
 10
749.72224950201462
 20
2309.017141505748
 30
0.0
 11
739.24474950201466
 21
2319.4946415057479
 31
0.0
  0
LINE
  5
99F7
  8
0
 10
739.24474950201466
 20
2319.4946415057479
 30
0.0
 11
728.76724950201469
 21
2309.017141505748
 31
0.0
  0
LINE
  5
99F8
  8
0
 10
728.76724950201469
 20
2309.017141505748
 30
0.0
 11
739.24474950201466
 21
2298.5396415057471
 31
0.0
  0
LINE
  5
99F9
  8
0
 10
739.24474950201466
 20
2298.5396415057471
 30
0.0
 11
749.72224950201462
 21
2309.017141505748
 31
0.0
  0
CIRCLE
  5
99FA
  8
0
 10
3116.4829841744681
 20
2286.83941255542
 30
0.0
 40
10.47750000000007
  0
LINE
  5
99FB
  8
0
 10
3126.9604841744681
 20
2286.83941255542
 30
0.0
 11
3116.4829841744681
 21
2297.31691255542
 31
0.0
  0
LINE
  5
99FC
  8
0
 10
3116.4829841744681
 20
2297.31691255542
 30
0.0
 11
3106.0054841744668
 21
2286.83941255542
 31
0.0
  0
LINE
  5
99FD
  8
0
 10
3106.0054841744668
 20
2286.83941255542
 30
0.0
 11
3116.4829841744681
 21
2276.3619125554201
 31
0.0
  0
LINE
  5
99FE
  8
0
 10
3116.4829841744681
 20
2276.3619125554201
 30
0.0
 11
3126.9604841744681
 21
2286.83941255542
 31
0.0
  0
CIRCLE
  5
99FF
  8
0
 10
975.34178735981357
 20
1025.068529042089
 30
0.0
 40
10.47750000000007
  0
LINE
  5
9A00
  8
0
 10
985.81928735981398
 20
1025.068529042089
 30
0.0
 11
975.34178735981357
 21
1035.546029042089
 31
0.0
  0
LINE
  5
9A01
  8
0
 10
975.34178735981357
 20
1035.546029042089
 30
0.0
 11
964.8642873598136
 21
1025.068529042089
 31
0.0
  0
LINE
  5
9A02
  8
0
 10
964.8642873598136
 20
1025.068529042089
 30
0.0
 11
975.34178735981357
 21
1014.5910290420881
 31
0.0
  0
LINE
  5
9A03
  8
0
 10
975.34178735981357
 20
1014.5910290420881
 30
0.0
 11
985.81928735981398
 21
1025.068529042089
 31
0.0
  0
CIRCLE
  5
9A04
  8
0
 10
2278.92069709515
 20
1137.119485414979
 30
0.0
 40
10.47750000000007
  0
LINE
  5
9A05
  8
0
 10
2289.39819709515
 20
1137.119485414979
 30
0.0
 11
2278.92069709515
 21
1147.5969854149789
 31
0.0
  0
LINE
  5
9A06
  8
0
 10
2278.92069709515
 20
1147.5969854149789
 30
0.0
 11
2268.44319709515
 21
1137.119485414979
 31
0.0
  0
LINE
  5
9A07
  8
0
 10
2268.44319709515
 20
1137.119485414979
 30
0.0
 11
2278.92069709515
 21
1126.641985414979
 31
0.0
  0
LINE
  5
9A08
  8
0
 10
2278.92069709515
 20
1126.641985414979
 30
0.0
 11
2289.39819709515
 21
1137.119485414979
 31
0.0
  0
LINE
  5
9A0C
  8
0
 10
1294.8138576880831
 20
2104.6765143384569
 30
0.0
 11
1294.8138576880831
 21
2095.2352364476892
 31
0.0
  0
LINE
  5
9A0D
  8
0
 10
1297.3138576880831
 20
2098.9372102173329
 30
0.0
 11
1297.3138576880831
 21
2047.315013204686
 31
0.0
  0
LINE
  5
9A0E
  8
0
 10
1297.3138576880831
 20
2095.2352364476892
 30
0.0
 11
1294.8138576880831
 21
2095.2352364476892
 31
0.0
  0
LINE
  5
9A10
  8
0
 10
1344.8138576880831
 20
2061.7383478699689
 30
0.0
 11
1344.813857688084
 21
2035.6554596906931
 31
0.0
  0
LINE
  5
9A11
  8
0
 10
1359.813857688084
 20
2061.7383478699689
 30
0.0
 11
1359.8138576880831
 21
2035.6554596906931
 31
0.0
  0
LINE
  5
9A12
  8
0
 10
1379.8138576880831
 20
2055.7352364476892
 30
0.0
 11
1379.8138576880831
 21
2054.2352364476901
 31
0.0
  0
LINE
  5
9A13
  8
0
 10
1379.8138576880831
 20
2049.2352364476892
 30
0.0
 11
1379.813857688084
 21
2047.735236447689
 31
0.0
  0
LINE
  5
9A14
  8
0
 10
1399.813857688084
 20
2054.2352364476901
 30
0.0
 11
1399.8138576880831
 21
2049.2352364476892
 31
0.0
  0
LINE
  5
9A15
  8
0
 10
1338.8138576880831
 20
2061.7383478699689
 30
0.0
 11
1338.8138576880831
 21
2035.6554596906931
 31
0.0
  0
LINE
  5
9A16
  8
0
 10
1323.8138576880831
 20
2061.7383478699689
 30
0.0
 11
1323.8138576880831
 21
2035.6554596906931
 31
0.0
  0
LINE
  5
9A17
  8
0
 10
1317.8138576880831
 20
2055.7352364476892
 30
0.0
 11
1317.8138576880831
 21
2047.7352364476901
 31
0.0
  0
LINE
  5
9A18
  8
0
 10
1386.313857688084
 20
2098.9372102173338
 30
0.0
 11
1386.313857688084
 21
2054.2352364476901
 31
0.0
  0
CIRCLE
  5
9A19
  8
0
 10
1612.833075599149
 20
2309.017141505748
 30
0.0
 40
16.0
  0
ARC
  5
9A1A
  8
0
 10
1612.833075599149
 20
2309.017141505748
 30
0.0
 40
44.500000000000107
 50
205.27518690666989
 51
334.72481309333011
  0
ARC
  5
9A1B
  8
0
 10
1612.833075599149
 20
2309.017141505748
 30
0.0
 40
44.500000000000107
 50
25.27518690666987
 51
154.72481309333011
  0
LINE
  5
9A1C
  8
0
 10
1548.833075599149
 20
2328.0171415057471
 30
0.0
 11
1547.833075599149
 21
2327.017141505748
 31
0.0
  0
ARC
  5
9A1D
  8
0
 10
1578.3330755991481
 20
2320.0171415057471
 30
0.0
 40
8.000000000000119
 50
27.03569178941299
 51
90.0
  0
ARC
  5
9A1E
  8
0
 10
1588.1310345702809
 20
2325.017141505748
 30
0.0
 40
3.0
 50
207.03569178941299
 51
270.0
  0
LINE
  5
9A1F
  8
0
 10
1603.5056965460601
 20
2322.017141505748
 30
0.0
 11
1588.087137437914
 21
2322.017141505748
 31
0.0
  0
LINE
  5
9A20
  8
0
 10
1548.833075599149
 20
2328.0171415057471
 30
0.0
 11
1578.3330755991481
 21
2328.017141505748
 31
0.0
  0
LINE
  5
9A21
  8
0
 10
1548.833075599149
 20
2290.017141505748
 30
0.0
 11
1547.833075599149
 21
2291.017141505748
 31
0.0
  0
ARC
  5
9A22
  8
0
 10
1578.3330755991481
 20
2298.017141505748
 30
0.0
 40
8.000000000000119
 50
270.0
 51
332.96430821058698
  0
ARC
  5
9A23
  8
0
 10
1588.1310345702809
 20
2293.0171415057471
 30
0.0
 40
3.0
 50
90.0
 51
152.96430821058701
  0
LINE
  5
9A24
  8
0
 10
1603.5056965460601
 20
2296.0171415057471
 30
0.0
 11
1588.087137437914
 21
2296.0171415057471
 31
0.0
  0
LINE
  5
9A25
  8
0
 10
1548.833075599149
 20
2290.017141505748
 30
0.0
 11
1578.3330755991481
 21
2290.017141505748
 31
0.0
  0
LINE
  5
9A26
  8
0
 10
1547.833075599149
 20
2327.017141505748
 30
0.0
 11
1547.833075599149
 21
2291.017141505748
 31
0.0
  0
LINE
  5
9A27
  8
0
 10
1676.833075599149
 20
2328.0171415057471
 30
0.0
 11
1677.833075599149
 21
2327.017141505748
 31
0.0
  0
ARC
  5
9A28
  8
0
 10
1647.333075599149
 20
2320.0171415057471
 30
0.0
 40
8.000000000000119
 50
90.0
 51
152.96430821058701
  0
ARC
  5
9A29
  8
0
 10
1637.5351166280161
 20
2325.017141505748
 30
0.0
 40
3.0
 50
270.0
 51
332.96430821058698
  0
LINE
  5
9A2A
  8
0
 10
1622.1604546522369
 20
2322.017141505748
 30
0.0
 11
1637.5790137603831
 21
2322.017141505748
 31
0.0
  0
LINE
  5
9A2B
  8
0
 10
1676.833075599149
 20
2328.0171415057471
 30
0.0
 11
1647.333075599149
 21
2328.017141505748
 31
0.0
  0
LINE
  5
9A2C
  8
0
 10
1676.833075599149
 20
2290.017141505748
 30
0.0
 11
1677.833075599149
 21
2291.017141505748
 31
0.0
  0
ARC
  5
9A2D
  8
0
 10
1647.333075599149
 20
2298.017141505748
 30
0.0
 40
8.000000000000119
 50
207.03569178941299
 51
270.0
  0
ARC
  5
9A2E
  8
0
 10
1637.5351166280161
 20
2293.0171415057471
 30
0.0
 40
3.0
 50
27.03569178941299
 51
90.0
  0
LINE
  5
9A2F
  8
0
 10
1622.1604546522369
 20
2296.0171415057471
 30
0.0
 11
1637.5790137603831
 21
2296.0171415057471
 31
0.0
  0
LINE
  5
9A30
  8
0
 10
1676.833075599149
 20
2290.017141505748
 30
0.0
 11
1647.333075599149
 21
2290.017141505748
 31
0.0
  0
LINE
  5
9A31
  8
0
 10
1677.833075599149
 20
2327.017141505748
 30
0.0
 11
1677.833075599149
 21
2291.017141505748
 31
0.0
  0
LINE
  5
9A32
  8
0
 10
1386.3138576880831
 20
1976.822949687961
 30
0.0
 11
1386.313857688084
 21
2035.6554596906931
 31
0.0
  0
LINE
  5
9A33
  8
0
 10
1297.313857688084
 20
1976.822949687961
 30
0.0
 11
1297.313857688084
 21
2035.6554596906931
 31
0.0
  0
LINE
  5
9A34
  8
0
 10
1285.8138576880831
 20
2047.315013204686
 30
0.0
 11
1323.8138576880831
 21
2047.315013204686
 31
0.0
  0
LINE
  5
9A35
  8
0
 10
1359.8138576880831
 20
2047.315013204686
 30
0.0
 11
1397.8138576880831
 21
2047.315013204686
 31
0.0
  0
LINE
  5
9A36
  8
0
 10
1359.813857688084
 20
2061.7383478699689
 30
0.0
 11
1344.8138576880831
 21
2061.7383478699689
 31
0.0
  0
LINE
  5
9A37
  8
0
 10
1338.8138576880831
 20
2061.7383478699689
 30
0.0
 11
1323.8138576880831
 21
2061.7383478699689
 31
0.0
  0
LINE
  5
9A38
  8
0
 10
1397.813857688084
 20
2035.6554596906931
 30
0.0
 11
1397.8138576880831
 21
2047.315013204686
 31
0.0
  0
LINE
  5
9A39
  8
0
 10
1285.8138576880831
 20
2035.6554596906931
 30
0.0
 11
1285.8138576880831
 21
2047.315013204686
 31
0.0
  0
LINE
  5
9A3A
  8
0
 10
1285.8138576880831
 20
2035.6554596906931
 30
0.0
 11
1397.813857688084
 21
2035.6554596906931
 31
0.0
  0
LINE
  5
9A3B
  8
0
 10
1344.813857688084
 20
2055.7352364476892
 30
0.0
 11
1338.813857688084
 21
2055.7352364476892
 31
0.0
  0
LINE
  5
9A3C
  8
0
 10
1344.813857688084
 20
2047.7352364476901
 30
0.0
 11
1338.8138576880831
 21
2047.7352364476901
 31
0.0
  0
LINE
  5
9A3D
  8
0
 10
1338.813857688084
 20
2047.315013204686
 30
0.0
 11
1344.8138576880831
 21
2047.315013204686
 31
0.0
  0
LINE
  5
9A3E
  8
0
 10
1326.8138576880831
 20
1910.735236447689
 30
0.0
 11
1356.8138576880831
 21
1910.735236447689
 31
0.0
  0
ARC
  5
9A3F
  8
0
 10
1341.8138576880831
 20
2005.735236447689
 30
0.0
 40
73.0
 50
240.00000000001401
 51
299.99999999998602
  0
LINE
  5
9A40
  8
0
 10
1386.3138576880831
 20
1956.371788431976
 30
0.0
 11
1386.3138576880831
 21
1976.822949687961
 31
0.0
  0
ARC
  5
9A41
  8
0
 10
1370.3138576880831
 20
1956.371788431976
 30
0.0
 40
16.0
 50
299.99999999998602
 51
0.0
  0
LINE
  5
9A42
  8
0
 10
1357.8138576880831
 20
1932.1485528697481
 30
0.0
 11
1357.8138576880831
 21
1911.735236447689
 31
0.0
  0
LINE
  5
9A43
  8
0
 10
1357.8138576880831
 20
1911.735236447689
 30
0.0
 11
1356.8138576880831
 21
1910.735236447689
 31
0.0
  0
ARC
  5
9A44
  8
0
 10
1360.8138576880831
 20
1932.1485528697481
 30
0.0
 40
3.0
 50
104.4775121859294
 51
180.0
  0
LINE
  5
9A45
  8
0
 10
1297.3138576880831
 20
1956.371788431976
 30
0.0
 11
1297.3138576880831
 21
1976.822949687961
 31
0.0
  0
LINE
  5
9A46
  8
0
 10
1325.8138576880831
 20
1932.1485528697481
 30
0.0
 11
1325.8138576880831
 21
1911.735236447689
 31
0.0
  0
LINE
  5
9A47
  8
0
 10
1326.8138576880831
 20
1910.735236447689
 30
0.0
 11
1325.8138576880831
 21
1911.735236447689
 31
0.0
  0
ARC
  5
9A48
  8
0
 10
1322.8138576880831
 20
1932.1485528697481
 30
0.0
 40
3.0
 50
0.0
 51
75.522487814070544
  0
ARC
  5
9A49
  8
0
 10
1313.3138576880831
 20
1956.371788431976
 30
0.0
 40
16.0
 50
180.0
 51
240.00000000001401
  0
LINE
  5
9A4A
  8
0
 10
1359.8138576880831
 20
2055.7352364476892
 30
0.0
 11
1379.8138576880831
 21
2055.7352364476892
 31
0.0
  0
LINE
  5
9A4B
  8
0
 10
1359.8138576880831
 20
2047.735236447689
 30
0.0
 11
1379.8138576880831
 21
2047.735236447689
 31
0.0
  0
LINE
  5
9A4C
  8
0
 10
1379.8138576880831
 20
2049.2352364476892
 30
0.0
 11
1399.8138576880831
 21
2049.2352364476892
 31
0.0
  0
LINE
  5
9A4D
  8
0
 10
1379.8138576880831
 20
2054.2352364476901
 30
0.0
 11
1399.813857688084
 21
2054.2352364476901
 31
0.0
  0
LINE
  5
9A4E
  8
0
 10
1379.8138576880831
 20
2053.6881613308901
 30
0.0
 11
1379.8138576880831
 21
2049.7823115644892
 31
0.0
  0
LINE
  5
9A4F
  8
0
 10
1323.813857688084
 20
2055.7352364476892
 30
0.0
 11
1317.8138576880831
 21
2055.7352364476892
 31
0.0
  0
LINE
  5
9A50
  8
0
 10
1323.8138576880831
 20
2047.7352364476901
 30
0.0
 11
1317.8138576880831
 21
2047.7352364476901
 31
0.0
  0
LINE
  5
9A51
  8
0
 10
1901.6061863568721
 20
2098.9372102173338
 30
0.0
 11
1901.6061863568721
 21
2051.7352364476892
 31
0.0
  0
LINE
  5
9A53
  8
0
 10
1812.6061863568721
 20
2098.9372102173329
 30
0.0
 11
1812.6061863568721
 21
2051.7352364476892
 31
0.0
  0
LINE
  5
9A54
  8
0
 10
1812.6061863568721
 20
1976.822949687961
 30
0.0
 11
1812.6061863568721
 21
2031.2352364476901
 31
0.0
  0
LINE
  5
9A55
  8
0
 10
1901.6061863568721
 20
1976.822949687961
 30
0.0
 11
1901.6061863568721
 21
2031.235236447689
 31
0.0
  0
LINE
  5
9A56
  8
0
 10
1801.1061863568721
 20
2031.235236447689
 30
0.0
 11
1801.1061863568721
 21
2051.7352364476892
 31
0.0
  0
LINE
  5
9A57
  8
0
 10
1913.1061863568721
 20
2031.235236447689
 30
0.0
 11
1913.1061863568721
 21
2051.7352364476892
 31
0.0
  0
LINE
  5
9A58
  8
0
 10
1901.6061863568721
 20
1976.822949687961
 30
0.0
 11
1812.6061863568721
 21
1976.822949687961
 31
0.0
  0
LINE
  5
9A59
  8
0
 10
1901.656186356872
 20
1976.822949687961
 30
0.0
 11
1812.6061863568721
 21
1976.822949687961
 31
0.0
  0
LINE
  5
9A5A
  8
0
 10
1901.6061863568721
 20
1976.822949687961
 30
0.0
 11
1812.6061863568721
 21
1976.822949687961
 31
0.0
  0
LINE
  5
9A5B
  8
0
 10
1872.1061863568721
 20
1910.735236447689
 30
0.0
 11
1842.1061863568721
 21
1910.735236447689
 31
0.0
  0
ARC
  5
9A5C
  8
0
 10
1857.1061863568721
 20
2005.735236447689
 30
0.0
 40
73.0
 50
240.00000000001401
 51
299.99999999998602
  0
LINE
  5
9A5D
  8
0
 10
1812.6061863568721
 20
1956.371788431976
 30
0.0
 11
1812.6061863568721
 21
1976.822949687961
 31
0.0
  0
ARC
  5
9A5E
  8
0
 10
1828.6061863568721
 20
1956.371788431976
 30
0.0
 40
16.0
 50
180.0
 51
240.00000000001401
  0
LINE
  5
9A5F
  8
0
 10
1841.1061863568721
 20
1932.1485528697481
 30
0.0
 11
1841.1061863568721
 21
1911.735236447689
 31
0.0
  0
LINE
  5
9A60
  8
0
 10
1841.1061863568721
 20
1911.735236447689
 30
0.0
 11
1842.1061863568721
 21
1910.735236447689
 31
0.0
  0
ARC
  5
9A61
  8
0
 10
1838.1061863568721
 20
1932.1485528697481
 30
0.0
 40
3.0
 50
0.0
 51
75.522487814070544
  0
LINE
  5
9A62
  8
0
 10
1901.6061863568721
 20
1956.371788431976
 30
0.0
 11
1901.6061863568721
 21
1976.822949687961
 31
0.0
  0
LINE
  5
9A63
  8
0
 10
1873.1061863568721
 20
1932.1485528697481
 30
0.0
 11
1873.1061863568721
 21
1911.735236447689
 31
0.0
  0
LINE
  5
9A64
  8
0
 10
1872.1061863568721
 20
1910.735236447689
 30
0.0
 11
1873.1061863568721
 21
1911.735236447689
 31
0.0
  0
ARC
  5
9A65
  8
0
 10
1876.1061863568721
 20
1932.1485528697481
 30
0.0
 40
3.0
 50
104.4775121859294
 51
180.0
  0
ARC
  5
9A66
  8
0
 10
1885.6061863568721
 20
1956.371788431976
 30
0.0
 40
16.0
 50
299.99999999998602
 51
0.0
  0
LINE
  5
9A67
  8
0
 10
1801.1061863568721
 20
2051.7352364476892
 30
0.0
 11
1913.1061863568721
 21
2051.7352364476892
 31
0.0
  0
LINE
  5
9A68
  8
0
 10
1801.1061863568721
 20
2031.235236447689
 30
0.0
 11
1913.1061863568721
 21
2031.235236447689
 31
0.0
  0
LINE
  5
9A69
  8
0
 10
1596.8331006103549
 20
2356.5161377538252
 30
0.0
 11
1628.8330505879419
 21
2356.5181452576699
 31
0.0
  0
LINE
  5
9A6A
  8
0
 10
1595.8315578486131
 20
2352.0992473460142
 30
0.0
 11
1595.83316334863
 21
2355.5162235748749
 31
0.0
  0
ARC
  5
9A6B
  8
0
 10
1592.831558179766
 20
2352.1006569254778
 30
0.0
 40
3.0
 50
294.903080335124
 51
359.97307901429627
  0
ARC
  5
9A6C
  8
0
 10
1596.8331633449479
 20
2355.5161377557938
 30
0.0
 40
1.0
 50
90.003594427412423
 51
179.99508292883499
  0
ARC
  5
9A6D
  8
0
 10
1632.8328168977259
 20
2352.1014814448708
 30
0.0
 40
3.0
 50
179.99502884858751
 51
245.09928166462049
  0
LINE
  5
9A6E
  8
0
 10
1629.8328169090171
 20
2352.1017417337498
 30
0.0
 11
1629.833113318771
 21
2355.518058496677
 31
0.0
  0
ARC
  5
9A6F
  8
0
 10
1628.8331133225349
 20
2355.5181452596371
 30
0.0
 40
1.0
 50
359.99502884858748
 51
90.003594427412423
  0
LINE
  5
9A70
  8
0
 10
1549.785160464842
 20
2251.017141505748
 30
0.0
 11
1565.6746607676091
 21
2251.017141505748
 31
0.0
  0
LINE
  5
9A71
  8
0
 10
1549.785160464842
 20
2255.017141505748
 30
0.0
 11
1565.6746607676091
 21
2255.017141505748
 31
0.0
  0
LINE
  5
9A72
  8
0
 10
1561.6435976585151
 20
2333.0171415057471
 30
0.0
 11
1561.6435976585151
 21
2328.0171415057471
 31
0.0
  0
LINE
  5
9A73
  8
0
 10
1561.6435976585151
 20
2290.017141505748
 30
0.0
 11
1561.6435976585151
 21
2272.4600771273672
 31
0.0
  0
LINE
  5
9A74
  8
0
 10
1553.6435976585151
 20
2333.0171415057471
 30
0.0
 11
1553.6435976585151
 21
2328.0171415057471
 31
0.0
  0
LINE
  5
9A75
  8
0
 10
1553.6435976585151
 20
2290.017141505748
 30
0.0
 11
1553.6435976585151
 21
2272.334523754967
 31
0.0
  0
LINE
  5
9A76
  8
0
 10
1553.6435976585151
 20
2272.334523754967
 30
0.0
 11
1544.975214994889
 21
2260.6038425772158
 31
0.0
  0
LINE
  5
9A77
  8
0
 10
1559.285572385832
 20
2268.9309212904568
 30
0.0
 11
1567.2779759242601
 21
2258.2127085295701
 31
0.0
  0
LINE
  5
9A78
  8
0
 10
1561.6435976585151
 20
2272.4600771273672
 30
0.0
 11
1570.484606237562
 21
2260.6038425772158
 31
0.0
  0
ARC
  5
9A79
  8
0
 10
1565.6746607676091
 20
2257.017141505748
 30
0.0
 40
2.0
 50
270.0
 51
36.71131776775978
  0
ARC
  5
9A7A
  8
0
 10
1565.6746607676091
 20
2257.017141505748
 30
0.0
 40
6.0
 50
270.0
 51
36.71131776775978
  0
ARC
  5
9A7B
  8
0
 10
1557.682257229181
 20
2267.7353542666351
 30
0.0
 40
2.0
 50
36.71131776775978
 51
143.13010235416641
  0
ARC
  5
9A7C
  8
0
 10
1549.785160464842
 20
2257.017141505748
 30
0.0
 40
2.0
 50
143.28868223224021
 51
270.0
  0
ARC
  5
9A7D
  8
0
 10
1549.785160464842
 20
2257.017141505748
 30
0.0
 40
6.0
 50
143.28868223224021
 51
270.0
  0
LINE
  5
9A7E
  8
0
 10
1556.0822572291811
 20
2268.9353542666349
 30
0.0
 11
1548.181845308191
 21
2258.2127085295701
 31
0.0
  0
LINE
  5
9A7F
  8
0
 10
1553.6435976585151
 20
2333.0171415057471
 30
0.0
 11
1561.6435976585151
 21
2333.0171415057471
 31
0.0
  0
ARC
  5
9A80
  8
0
 10
1637.90992825842
 20
2352.4515244055251
 30
0.0
 40
5.6537053185431851
 50
60.000000000002721
 51
240.0000000000027
  0
ARC
  5
9A81
  8
0
 10
1637.90992825842
 20
2265.58275860597
 30
0.0
 40
5.6537053185431851
 50
119.9999999999973
 51
299.99999999999733
  0
ARC
  5
9A83
  8
0
 10
1612.833075599149
 20
2309.017141505748
 30
0.0
 40
56.0
 50
203.9220712530541
 51
340.16663809113521
  0
ARC
  5
9A84
  8
0
 10
1612.833075599149
 20
2309.017141505748
 30
0.0
 40
56.0
 50
19.833361908864791
 51
156.0779287469459
  0
LINE
  5
9A85
  8
0
 10
1627.833075599149
 20
2165.7352364476892
 30
0.0
 11
1597.8330755991481
 21
2165.7352364476892
 31
0.0
  0
LINE
  5
9A86
  8
0
 10
1547.833075599149
 20
2139.7352364476892
 30
0.0
 11
1547.833075599149
 21
2103.7352364476892
 31
0.0
  0
LINE
  5
9A87
  8
0
 10
1548.833075599149
 20
2140.7352364476892
 30
0.0
 11
1547.833075599149
 21
2139.7352364476892
 31
0.0
  0
LINE
  5
9A88
  8
0
 10
1565.333075599149
 20
2102.7352364476892
 30
0.0
 11
1548.833075599149
 21
2102.7352364476892
 31
0.0
  0
LINE
  5
9A89
  8
0
 10
1547.833075599149
 20
2103.7352364476892
 30
0.0
 11
1548.833075599149
 21
2102.7352364476892
 31
0.0
  0
ARC
  5
9A8A
  8
0
 10
1641.333075599149
 20
2111.0986844634022
 30
0.0
 40
16.0
 50
0.0
 51
60.000000000002721
  0
ARC
  5
9A8B
  8
0
 10
1612.833075599149
 20
2061.7352364476892
 30
0.0
 40
73.0
 50
60.000000000002721
 51
119.9999999999973
  0
ARC
  5
9A8C
  8
0
 10
1584.333075599149
 20
2111.0986844634022
 30
0.0
 40
16.0
 50
119.9999999999973
 51
180.0
  0
LINE
  5
9A8D
  8
0
 10
1568.333075599149
 20
2099.7352364476892
 30
0.0
 11
1568.333075599149
 21
2054.2352364476901
 31
0.0
  0
LINE
  5
9A8E
  8
0
 10
1568.333075599149
 20
2111.0986844634022
 30
0.0
 11
1568.333075599149
 21
2099.0986966218929
 31
0.0
  0
LINE
  5
9A90
  8
0
 10
1628.833075599149
 20
2164.7352364476892
 30
0.0
 11
1628.8330755991481
 21
2135.3219200256299
 31
0.0
  0
LINE
  5
9A91
  8
0
 10
1627.833075599149
 20
2165.7352364476892
 30
0.0
 11
1628.833075599149
 21
2164.7352364476892
 31
0.0
  0
LINE
  5
9A92
  8
0
 10
1596.833075599149
 20
2164.7352364476892
 30
0.0
 11
1596.833075599149
 21
2135.3219200256299
 31
0.0
  0
LINE
  5
9A93
  8
0
 10
1597.8330755991481
 20
2165.7352364476892
 30
0.0
 11
1596.833075599149
 21
2164.7352364476892
 31
0.0
  0
LINE
  5
9A94
  8
0
 10
1677.833075599149
 20
2139.7352364476892
 30
0.0
 11
1677.833075599149
 21
2103.7352364476892
 31
0.0
  0
LINE
  5
9A95
  8
0
 10
1676.833075599149
 20
2140.7352364476892
 30
0.0
 11
1628.8330755991481
 21
2140.7352364476892
 31
0.0
  0
LINE
  5
9A96
  8
0
 10
1596.833075599149
 20
2140.7352364476892
 30
0.0
 11
1548.833075599149
 21
2140.7352364476892
 31
0.0
  0
LINE
  5
9A97
  8
0
 10
1676.833075599149
 20
2140.7352364476892
 30
0.0
 11
1677.833075599149
 21
2139.7352364476892
 31
0.0
  0
LINE
  5
9A98
  8
0
 10
1657.333075599149
 20
2099.7352364476892
 30
0.0
 11
1657.333075599149
 21
2051.7352364476892
 31
0.0
  0
LINE
  5
9A99
  8
0
 10
1676.833075599149
 20
2102.7352364476892
 30
0.0
 11
1660.3330755991481
 21
2102.7352364476892
 31
0.0
  0
LINE
  5
9A9A
  8
0
 10
1657.333075599149
 20
2111.0986844634022
 30
0.0
 11
1657.333075599149
 21
2099.7352364476892
 31
0.0
  0
ARC
  5
9A9B
  8
0
 10
1660.3330755991481
 20
2099.7352364476892
 30
0.0
 40
3.0
 50
90.0
 51
180.0
  0
LINE
  5
9A9C
  8
0
 10
1677.833075599149
 20
2103.7352364476892
 30
0.0
 11
1676.833075599149
 21
2102.7352364476892
 31
0.0
  0
ARC
  5
9A9D
  8
0
 10
1565.3330755991481
 20
2099.7352364476892
 30
0.0
 40
3.0
 50
0.0
 51
90.0
  0
LINE
  5
9A9E
  8
0
 10
1567.3330755991481
 20
2049.2352364476892
 30
0.0
 11
1567.3330755991481
 21
2047.315013204686
 31
0.0
  0
LINE
  5
9A9F
  8
0
 10
1668.8330755991481
 20
2044.3352364476891
 30
0.0
 11
1668.8330755991481
 21
2041.485236447689
 31
0.0
  0
LINE
  5
9AA0
  8
0
 10
1668.8330755991481
 20
2038.3352364476891
 30
0.0
 11
1668.8330755991481
 21
2041.485236447689
 31
0.0
  0
LINE
  5
9AA1
  8
0
 10
1566.809696067982
 20
2047.315013204686
 30
0.0
 11
1668.8330755991481
 21
2047.315013204686
 31
0.0
  0
LINE
  5
9AA2
  8
0
 10
1547.833075599149
 20
2041.485236447689
 30
0.0
 11
1575.8392984437089
 21
2041.485236447689
 31
0.0
  0
LINE
  5
9AA3
  8
0
 10
1547.833075599149
 20
2035.6554596906931
 30
0.0
 11
1668.8330755991481
 21
2035.6554596906931
 31
0.0
  0
LINE
  5
9AA4
  8
0
 10
1668.833075599149
 20
2031.235236447689
 30
0.0
 11
1668.8330755991481
 21
2051.7352364476892
 31
0.0
  0
LINE
  5
9AA5
  8
0
 10
1547.833075599149
 20
2035.6554596906931
 30
0.0
 11
1547.833075599149
 21
2049.2352364476892
 31
0.0
  0
ARC
  5
9AA6
  8
0
 10
1557.5868735207971
 20
2051.7121811032171
 30
0.0
 40
10.23910092035522
 50
272.79222088910518
 51
346.00068079444941
  0
ARC
  5
9AA7
  8
0
 10
1557.8361870214289
 20
2051.7352364476892
 30
0.0
 40
10.00311142228025
 50
14.472910718502989
 51
165.52708928149701
  0
LINE
  5
9AA8
  8
0
 10
1572.8361870214289
 20
2049.2352364476892
 30
0.0
 11
1572.8361870214289
 21
2054.2352364476901
 31
0.0
  0
LINE
  5
9AA9
  8
0
 10
1542.8361870214289
 20
2049.2352364476892
 30
0.0
 11
1542.8361870214289
 21
2054.2352364476901
 31
0.0
  0
LINE
  5
9AAA
  8
0
 10
1572.8361870214289
 20
2054.2352364476901
 30
0.0
 11
1542.8361870214289
 21
2054.2352364476901
 31
0.0
  0
LINE
  5
9AAB
  8
0
 10
1572.8361870214289
 20
2049.2352364476892
 30
0.0
 11
1542.8361870214289
 21
2049.2352364476892
 31
0.0
  0
LINE
  5
9AAC
  8
0
 10
1597.8330755991481
 20
1910.735236447689
 30
0.0
 11
1627.833075599149
 21
1910.735236447689
 31
0.0
  0
ARC
  5
9AAD
  8
0
 10
1612.833075599149
 20
2005.735236447689
 30
0.0
 40
73.0
 50
240.00000000001401
 51
299.99999999998602
  0
LINE
  5
9AAE
  8
0
 10
1657.333075599149
 20
1956.371788431976
 30
0.0
 11
1657.333075599149
 21
1976.822949687961
 31
0.0
  0
ARC
  5
9AAF
  8
0
 10
1641.333075599149
 20
1956.371788431976
 30
0.0
 40
16.0
 50
299.99999999998602
 51
0.0
  0
LINE
  5
9AB0
  8
0
 10
1628.833075599149
 20
1932.1485528697481
 30
0.0
 11
1628.833075599149
 21
1911.735236447689
 31
0.0
  0
LINE
  5
9AB1
  8
0
 10
1628.833075599149
 20
1911.735236447689
 30
0.0
 11
1627.833075599149
 21
1910.735236447689
 31
0.0
  0
ARC
  5
9AB2
  8
0
 10
1631.833075599149
 20
1932.1485528697481
 30
0.0
 40
3.0
 50
104.4775121859294
 51
180.0
  0
LINE
  5
9AB3
  8
0
 10
1568.333075599149
 20
1956.371788431976
 30
0.0
 11
1568.333075599149
 21
1976.822949687961
 31
0.0
  0
LINE
  5
9AB4
  8
0
 10
1596.833075599149
 20
1932.1485528697481
 30
0.0
 11
1596.833075599149
 21
1911.735236447689
 31
0.0
  0
LINE
  5
9AB5
  8
0
 10
1597.8330755991481
 20
1910.735236447689
 30
0.0
 11
1596.833075599149
 21
1911.735236447689
 31
0.0
  0
ARC
  5
9AB6
  8
0
 10
1593.833075599149
 20
1932.1485528697481
 30
0.0
 40
3.0
 50
0.0
 51
75.522487814070544
  0
ARC
  5
9AB7
  8
0
 10
1584.333075599149
 20
1956.371788431976
 30
0.0
 40
16.0
 50
180.0
 51
240.00000000001401
  0
LINE
  5
9AB8
  8
0
 10
1633.2062651899651
 20
2051.7352364476892
 30
0.0
 11
1633.2062651899639
 21
2047.315013204686
 31
0.0
  0
LINE
  5
9AB9
  8
0
 10
1633.2062651899639
 20
2035.6554596906931
 30
0.0
 11
1633.2062651899639
 21
2031.235236447689
 31
0.0
  0
ARC
  5
9ABA
  8
0
 10
1557.8361870214289
 20
2051.7352364476892
 30
0.0
 40
4.0
 50
218.68218745349299
 51
321.3178125465069
  0
ARC
  5
9ABB
  8
0
 10
1557.8361870214289
 20
2051.7352364476892
 30
0.0
 40
4.0
 50
38.68218745349305
 51
141.3178125465069
  0
LINE
  5
9ABC
  8
0
 10
1668.8330755991481
 20
2051.7352364476892
 30
0.0
 11
1633.2062651899651
 21
2051.7352364476892
 31
0.0
  0
LINE
  5
9ABD
  8
0
 10
1668.833075599149
 20
2031.235236447689
 30
0.0
 11
1633.2062651899639
 21
2031.235236447689
 31
0.0
  0
LINE
  5
9ABE
  8
0
 10
1657.333075599149
 20
1976.822949687961
 30
0.0
 11
1657.333075599149
 21
2031.235236447689
 31
0.0
  0
LINE
  5
9ABF
  8
0
 10
1568.333075599149
 20
1976.822949687961
 30
0.0
 11
1568.333075599149
 21
2032.235236447689
 31
0.0
  0
LINE
  5
9AC0
  8
0
 10
1567.3330755991481
 20
2033.235236447689
 30
0.0
 11
1567.3330755991481
 21
2035.6054596906929
 31
0.0
  0
ARC
  5
9AC1
  8
0
 10
1567.3330755991481
 20
2032.235236447689
 30
0.0
 40
1.0
 50
0.0
 51
90.0
  0
LINE
  5
9AC2
  8
0
 10
1568.333075599149
 20
1976.822949687961
 30
0.0
 11
1657.333075599149
 21
1976.822949687961
 31
0.0
  0
LINE
  5
9AC3
  8
0
 10
1297.313857688084
 20
1976.822949687961
 30
0.0
 11
1386.313857688084
 21
1976.822949687961
 31
0.0
  0
LINE
  5
9AC4
  8
0
 10
1612.8325755991491
 20
2182.0585121369172
 30
0.0
 11
1623.3100755991491
 21
2172.0585121369159
 31
0.0
  0
LINE
  5
9AC5
  8
0
 10
1602.355075599148
 20
2172.0585121369172
 30
0.0
 11
1612.8325755991491
 21
2182.0585121369172
 31
0.0
  0
LINE
  5
9AC6
  8
0
 10
1612.833075599149
 20
2172.0585121369172
 30
0.0
 11
1602.355075599148
 21
2182.0585121369172
 31
0.0
  0
LINE
  5
9AC7
  8
0
 10
1623.3100755991491
 20
2182.0585121369172
 30
0.0
 11
1612.833075599149
 21
2172.0585121369172
 31
0.0
  0
LINE
  5
9AC8
  8
0
 10
1602.355075599148
 20
2182.0585121369172
 30
0.0
 11
1602.355075599148
 21
2172.0585121369172
 31
0.0
  0
LINE
  5
9AC9
  8
0
 10
1623.3100755991491
 20
2182.0585121369172
 30
0.0
 11
1623.3100755991491
 21
2172.0585121369172
 31
0.0
  0
LINE
  5
9ACA
  8
0
 10
1602.355075599148
 20
2172.0585121369172
 30
0.0
 11
1623.3100755991491
 21
2172.0585121369172
 31
0.0
  0
LINE
  5
9ACB
  8
0
 10
1602.355075599148
 20
2172.0585121369172
 30
0.0
 11
1602.5527466956939
 21
2165.7352364476892
 31
0.0
  0
LINE
  5
9ACC
  8
0
 10
1603.518075599148
 20
2172.0585121369172
 30
0.0
 11
1603.715471770664
 21
2165.7352364476892
 31
0.0
  0
LINE
  5
9ACD
  8
0
 10
1622.148075599149
 20
2172.0585121369172
 30
0.0
 11
1621.9506794276331
 21
2165.7352364476892
 31
0.0
  0
LINE
  5
9ACE
  8
0
 10
1623.3100755991491
 20
2172.0585121369172
 30
0.0
 11
1623.1126794276331
 21
2165.7352364476892
 31
0.0
  0
LINE
  5
9ACF
  8
0
 10
1602.355075599148
 20
2182.0585121369172
 30
0.0
 11
1623.3100755991491
 21
2182.0585121369172
 31
0.0
  0
LINE
  5
9AD0
  8
0
 10
1857.105686356872
 20
2182.0585121369172
 30
0.0
 11
1867.5831863568719
 21
2172.0585121369159
 31
0.0
  0
LINE
  5
9AD1
  8
0
 10
1846.628186356872
 20
2172.0585121369172
 30
0.0
 11
1857.105686356872
 21
2182.0585121369172
 31
0.0
  0
LINE
  5
9AD2
  8
0
 10
1857.1061863568721
 20
2172.0585121369172
 30
0.0
 11
1846.628186356872
 21
2182.0585121369172
 31
0.0
  0
LINE
  5
9AD3
  8
0
 10
1867.5831863568719
 20
2182.0585121369172
 30
0.0
 11
1857.1061863568721
 21
2172.0585121369172
 31
0.0
  0
LINE
  5
9AD4
  8
0
 10
1846.628186356872
 20
2182.0585121369172
 30
0.0
 11
1846.628186356872
 21
2172.0585121369172
 31
0.0
  0
LINE
  5
9AD5
  8
0
 10
1867.5831863568719
 20
2182.0585121369172
 30
0.0
 11
1867.5831863568719
 21
2172.0585121369172
 31
0.0
  0
LINE
  5
9AD6
  8
0
 10
1846.628186356872
 20
2172.0585121369172
 30
0.0
 11
1867.5831863568719
 21
2172.0585121369172
 31
0.0
  0
LINE
  5
9AD7
  8
0
 10
1846.628186356872
 20
2172.0585121369172
 30
0.0
 11
1846.672700807042
 21
2170.6345450244112
 31
0.0
  0
LINE
  5
9AD8
  8
0
 10
1847.791186356872
 20
2172.0585121369172
 30
0.0
 11
1847.828384733172
 21
2170.8669206955478
 31
0.0
  0
LINE
  5
9AD9
  8
0
 10
1866.421186356873
 20
2172.0585121369172
 30
0.0
 11
1866.3839879805721
 21
2170.8669206955469
 31
0.0
  0
LINE
  5
9ADA
  8
0
 10
1867.5831863568719
 20
2172.0585121369172
 30
0.0
 11
1867.53874002506
 21
2170.634743847666
 31
0.0
  0
LINE
  5
9ADB
  8
0
 10
1846.628186356872
 20
2182.0585121369172
 30
0.0
 11
1867.5831863568719
 21
2182.0585121369172
 31
0.0
  0
LINE
  5
9ADC
  8
0
 10
1341.8137202255691
 20
2182.0585121369172
 30
0.0
 11
1352.2912202255679
 21
2172.0585121369159
 31
0.0
  0
LINE
  5
9ADD
  8
0
 10
1331.336220225568
 20
2172.0585121369172
 30
0.0
 11
1341.8137202255691
 21
2182.0585121369172
 31
0.0
  0
LINE
  5
9ADE
  8
0
 10
1341.8142202255681
 20
2172.0585121369172
 30
0.0
 11
1331.336220225568
 21
2182.0585121369172
 31
0.0
  0
LINE
  5
9ADF
  8
0
 10
1352.2912202255679
 20
2182.0585121369172
 30
0.0
 11
1341.8142202255681
 21
2172.0585121369172
 31
0.0
  0
LINE
  5
9AE0
  8
0
 10
1331.336220225568
 20
2182.0585121369172
 30
0.0
 11
1331.336220225568
 21
2172.0585121369172
 31
0.0
  0
LINE
  5
9AE1
  8
0
 10
1352.2912202255679
 20
2182.0585121369172
 30
0.0
 11
1352.2912202255679
 21
2172.0585121369172
 31
0.0
  0
LINE
  5
9AE2
  8
0
 10
1331.336220225568
 20
2172.0585121369172
 30
0.0
 11
1352.2912202255679
 21
2172.0585121369172
 31
0.0
  0
LINE
  5
9AE3
  8
0
 10
1331.336220225568
 20
2172.0585121369172
 30
0.0
 11
1331.380732273667
 21
2170.6346218639401
 31
0.0
  0
LINE
  5
9AE4
  8
0
 10
1332.499220225568
 20
2172.0585121369172
 30
0.0
 11
1332.5364164772959
 21
2170.8669887528981
 31
0.0
  0
LINE
  5
9AE5
  8
0
 10
1351.1292202255679
 20
2172.0585121369172
 30
0.0
 11
1351.092019724611
 21
2170.866852635475
 31
0.0
  0
LINE
  5
9AE6
  8
0
 10
1352.2912202255679
 20
2172.0585121369172
 30
0.0
 11
1352.246771495141
 21
2170.6346670118019
 31
0.0
  0
LINE
  5
9AE7
  8
0
 10
1331.336220225568
 20
2182.0585121369172
 30
0.0
 11
1352.2912202255679
 21
2182.0585121369172
 31
0.0
  0
LINE
  5
9AE8
  8
0
 10
1386.313857688084
 20
2049.2352364476892
 30
0.0
 11
1386.313857688084
 21
2047.315013204686
 31
0.0
  0
ARC
  5
9AE9
  8
0
 10
1578.5256649620619
 20
2132.7352364476892
 30
0.0
 40
8.000000000000119
 50
27.03569178941299
 51
90.0
  0
ARC
  5
9AEA
  8
0
 10
1588.323623933195
 20
2137.7352364476892
 30
0.0
 40
3.0
 50
207.03569178941299
 51
270.0
  0
LINE
  5
9AEB
  8
0
 10
1596.7751501018381
 20
2134.7352364476892
 30
0.0
 11
1588.279726800828
 21
2134.7352364476892
 31
0.0
  0
ARC
  5
9AEC
  8
0
 10
1647.5256649620619
 20
2132.7352364476892
 30
0.0
 40
8.000000000000119
 50
90.0
 51
152.96430821058701
  0
ARC
  5
9AED
  8
0
 10
1637.7277059909291
 20
2137.7352364476892
 30
0.0
 40
3.0
 50
270.0
 51
332.96430821058698
  0
LINE
  5
9AEE
  8
0
 10
1628.8910010964589
 20
2134.7352364476892
 30
0.0
 11
1637.7716031232969
 21
2134.7352364476892
 31
0.0
  0
ARC
  5
9AEF
  8
0
 10
1593.833075599149
 20
2135.3219200256299
 30
0.0
 40
3.0
 50
284.47751218592953
 51
0.0
  0
ARC
  5
9AF0
  8
0
 10
1631.833075599149
 20
2135.3219200256299
 30
0.0
 40
3.0
 50
180.0
 51
255.5224878140705
  0
CIRCLE
  5
9AF1
  8
0
 10
1612.833075599149
 20
2309.017141505748
 30
0.0
 40
10.47750000000007
  0
LINE
  5
9AF2
  8
0
 10
1623.310575599148
 20
2309.017141505748
 30
0.0
 11
1612.833075599149
 21
2319.4946415057479
 31
0.0
  0
LINE
  5
9AF3
  8
0
 10
1612.833075599149
 20
2319.4946415057479
 30
0.0
 11
1602.355575599149
 21
2309.017141505748
 31
0.0
  0
LINE
  5
9AF4
  8
0
 10
1602.355575599149
 20
2309.017141505748
 30
0.0
 11
1612.833075599149
 21
2298.5396415057471
 31
0.0
  0
LINE
  5
9AF5
  8
0
 10
1612.833075599149
 20
2298.5396415057471
 30
0.0
 11
1623.310575599148
 21
2309.017141505748
 31
0.0
  0
LINE
  5
9B41
  8
0
 10
724.05216013910103
 20
2680.4949051598451
 30
0.0
 11
754.05216013910103
 21
2680.4949051598451
 31
0.0
  0
LINE
  5
9B42
  8
0
 10
804.05216013910092
 20
2654.4949051598451
 30
0.0
 11
804.05216013910092
 21
2618.4949051598451
 31
0.0
  0
LINE
  5
9B43
  8
0
 10
803.05216013910103
 20
2655.4949051598451
 30
0.0
 11
804.05216013910092
 21
2654.4949051598451
 31
0.0
  0
LINE
  5
9B44
  8
0
 10
786.55216013910103
 20
2617.4949051598451
 30
0.0
 11
803.05216013910103
 21
2617.4949051598451
 31
0.0
  0
LINE
  5
9B45
  8
0
 10
804.05216013910092
 20
2618.4949051598451
 30
0.0
 11
803.05216013910103
 21
2617.4949051598451
 31
0.0
  0
ARC
  5
9B46
  8
0
 10
710.55216013910103
 20
2625.858353175558
 30
0.0
 40
16.0
 50
119.9999999999973
 51
180.0
  0
ARC
  5
9B47
  8
0
 10
739.05216013910103
 20
2576.4949051598451
 30
0.0
 40
73.0
 50
60.000000000002721
 51
119.9999999999973
  0
ARC
  5
9B48
  8
0
 10
767.55216013910103
 20
2625.858353175558
 30
0.0
 40
16.0
 50
0.0
 51
60.000000000002721
  0
LINE
  5
9B49
  8
0
 10
783.55216013910103
 20
2614.4949051598451
 30
0.0
 11
783.55216013910103
 21
2565.4949051598451
 31
0.0
  0
LINE
  5
9B4A
  8
0
 10
783.55216013910103
 20
2625.858353175558
 30
0.0
 11
783.55216013910103
 21
2613.8583653340479
 31
0.0
  0
LINE
  5
9B4C
  8
0
 10
756.05216013910103
 20
2628.9949051598451
 30
0.0
 11
756.05216013910103
 21
2611.9949051598451
 31
0.0
  0
ARC
  5
9B4D
  8
0
 10
754.05216013910103
 20
2611.9949051598451
 30
0.0
 40
2.0
 50
270.0
 51
0.0
  0
LINE
  5
9B4E
  8
0
 10
722.05216013910103
 20
2628.9949051598451
 30
0.0
 11
722.05216013910103
 21
2611.9949051598451
 31
0.0
  0
ARC
  5
9B4F
  8
0
 10
724.05216013910103
 20
2628.9949051598451
 30
0.0
 40
2.0
 50
90.0
 51
180.0
  0
LINE
  5
9B50
  8
0
 10
723.05216013910103
 20
2679.4949051598451
 30
0.0
 11
723.05216013910115
 21
2650.0815887377862
 31
0.0
  0
LINE
  5
9B51
  8
0
 10
724.05216013910103
 20
2680.4949051598451
 30
0.0
 11
723.05216013910103
 21
2679.4949051598451
 31
0.0
  0
LINE
  5
9B52
  8
0
 10
755.05216013910103
 20
2679.4949051598451
 30
0.0
 11
755.05216013910103
 21
2650.0815887377862
 31
0.0
  0
LINE
  5
9B53
  8
0
 10
754.05216013910103
 20
2680.4949051598451
 30
0.0
 11
755.05216013910103
 21
2679.4949051598451
 31
0.0
  0
LINE
  5
9B54
  8
0
 10
674.05216013910103
 20
2654.4949051598451
 30
0.0
 11
674.05216013910103
 21
2618.4949051598451
 31
0.0
  0
LINE
  5
9B55
  8
0
 10
675.05216013910103
 20
2655.4949051598451
 30
0.0
 11
723.05216013910115
 21
2655.4949051598451
 31
0.0
  0
LINE
  5
9B56
  8
0
 10
755.05216013910103
 20
2655.4949051598451
 30
0.0
 11
803.05216013910103
 21
2655.4949051598451
 31
0.0
  0
LINE
  5
9B57
  8
0
 10
675.05216013910103
 20
2655.4949051598451
 30
0.0
 11
674.05216013910103
 21
2654.4949051598451
 31
0.0
  0
LINE
  5
9B58
  8
0
 10
694.55216013910103
 20
2614.4949051598451
 30
0.0
 11
694.55216013910103
 21
2566.4949051598451
 31
0.0
  0
LINE
  5
9B59
  8
0
 10
675.05216013910103
 20
2617.4949051598451
 30
0.0
 11
691.55216013910103
 21
2617.4949051598451
 31
0.0
  0
LINE
  5
9B5A
  8
0
 10
694.55216013910103
 20
2625.858353175558
 30
0.0
 11
694.55216013910103
 21
2614.4949051598451
 31
0.0
  0
ARC
  5
9B5B
  8
0
 10
691.55216013910103
 20
2614.4949051598451
 30
0.0
 40
3.0
 50
0.0
 51
90.0
  0
LINE
  5
9B5C
  8
0
 10
674.05216013910103
 20
2618.4949051598451
 30
0.0
 11
675.05216013910103
 21
2617.4949051598451
 31
0.0
  0
ARC
  5
9B5D
  8
0
 10
786.55216013910115
 20
2614.4949051598451
 30
0.0
 40
3.0
 50
90.0
 51
180.0
  0
LINE
  5
9B5E
  8
0
 10
784.55216013910103
 20
2563.3332621226118
 30
0.0
 11
784.55216013910103
 21
2562.0746819168421
 31
0.0
  0
LINE
  5
9B5F
  8
0
 10
683.05216013910103
 20
2559.094905159845
 30
0.0
 11
683.05216013910103
 21
2556.2449051598451
 31
0.0
  0
LINE
  5
9B60
  8
0
 10
683.05216013910103
 20
2553.094905159845
 30
0.0
 11
683.05216013910103
 21
2556.2449051598451
 31
0.0
  0
LINE
  5
9B61
  8
0
 10
785.07553967026786
 20
2562.0746819168421
 30
0.0
 11
683.05216013910103
 21
2562.0746819168421
 31
0.0
  0
LINE
  5
9B62
  8
0
 10
804.05216013910092
 20
2556.2449051598451
 30
0.0
 11
776.04593729454064
 21
2556.2449051598451
 31
0.0
  0
LINE
  5
9B63
  8
0
 10
804.05216013910092
 20
2550.4151284028489
 30
0.0
 11
683.05216013910103
 21
2550.4151284028489
 31
0.0
  0
LINE
  5
9B64
  8
0
 10
683.05216013910081
 20
2545.9949051598451
 30
0.0
 11
683.05216013910103
 21
2566.4949051598451
 31
0.0
  0
LINE
  5
9B65
  8
0
 10
804.05216013910092
 20
2550.4151284028489
 30
0.0
 11
804.05216013910092
 21
2563.3569479291382
 31
0.0
  0
LINE
  5
9B66
  8
0
 10
754.05216013910103
 20
2425.4949051598451
 30
0.0
 11
724.05216013910103
 21
2425.4949051598451
 31
0.0
  0
ARC
  5
9B67
  8
0
 10
739.05216013910103
 20
2520.4949051598451
 30
0.0
 40
73.0
 50
240.00000000001401
 51
299.99999999998602
  0
LINE
  5
9B68
  8
0
 10
694.55216013910103
 20
2471.1314571441321
 30
0.0
 11
694.55216013910103
 21
2491.5826184001171
 31
0.0
  0
ARC
  5
9B69
  8
0
 10
710.55216013910103
 20
2471.1314571441321
 30
0.0
 40
16.0
 50
180.0
 51
240.00000000001401
  0
LINE
  5
9B6A
  8
0
 10
723.05216013910103
 20
2446.9082215819039
 30
0.0
 11
723.05216013910103
 21
2426.4949051598451
 31
0.0
  0
LINE
  5
9B6B
  8
0
 10
723.05216013910103
 20
2426.4949051598451
 30
0.0
 11
724.05216013910103
 21
2425.4949051598451
 31
0.0
  0
ARC
  5
9B6C
  8
0
 10
720.05216013910103
 20
2446.9082215819039
 30
0.0
 40
3.0
 50
0.0
 51
75.522487814070544
  0
LINE
  5
9B6D
  8
0
 10
783.55216013910103
 20
2471.1314571441321
 30
0.0
 11
783.55216013910103
 21
2491.5826184001171
 31
0.0
  0
LINE
  5
9B6E
  8
0
 10
755.05216013910103
 20
2446.9082215819039
 30
0.0
 11
755.05216013910103
 21
2426.4949051598451
 31
0.0
  0
LINE
  5
9B6F
  8
0
 10
754.05216013910103
 20
2425.4949051598451
 30
0.0
 11
755.05216013910103
 21
2426.4949051598451
 31
0.0
  0
ARC
  5
9B70
  8
0
 10
758.05216013910103
 20
2446.9082215819039
 30
0.0
 40
3.0
 50
104.4775121859294
 51
180.0
  0
ARC
  5
9B71
  8
0
 10
767.55216013910103
 20
2471.1314571441321
 30
0.0
 40
16.0
 50
299.99999999998602
 51
0.0
  0
LINE
  5
9B72
  8
0
 10
718.67897054828506
 20
2566.4949051598451
 30
0.0
 11
718.67897054828541
 21
2562.0746819168421
 31
0.0
  0
LINE
  5
9B73
  8
0
 10
718.67897054828541
 20
2550.415128402848
 30
0.0
 11
718.67897054828541
 21
2545.9949051598451
 31
0.0
  0
LINE
  5
9B74
  8
0
 10
683.05216013910103
 20
2566.4949051598451
 30
0.0
 11
718.67897054828506
 21
2566.4949051598451
 31
0.0
  0
LINE
  5
9B75
  8
0
 10
683.05216013910081
 20
2545.9949051598451
 30
0.0
 11
718.67897054828541
 21
2545.9949051598451
 31
0.0
  0
LINE
  5
9B76
  8
0
 10
694.55216013910103
 20
2491.5826184001171
 30
0.0
 11
694.55216013910103
 21
2545.9949051598451
 31
0.0
  0
LINE
  5
9B77
  8
0
 10
783.55216013910103
 20
2491.5826184001171
 30
0.0
 11
783.55216013910103
 21
2546.9949051598451
 31
0.0
  0
LINE
  5
9B78
  8
0
 10
784.55216013910103
 20
2547.9949051598451
 30
0.0
 11
784.55216013910103
 21
2550.3651284028492
 31
0.0
  0
ARC
  5
9B79
  8
0
 10
784.55216013910103
 20
2546.9949051598451
 30
0.0
 40
1.0
 50
90.0
 51
180.0
  0
LINE
  5
9B7A
  8
0
 10
783.55216013910103
 20
2491.5826184001171
 30
0.0
 11
694.55216013910103
 21
2491.5826184001171
 31
0.0
  0
LINE
  5
9B7B
  8
0
 10
739.05266013910114
 20
2696.8181808490731
 30
0.0
 11
728.57516013910106
 21
2686.8181808490722
 31
0.0
  0
LINE
  5
9B7C
  8
0
 10
749.5301601391011
 20
2686.8181808490731
 30
0.0
 11
739.05266013910114
 21
2696.8181808490731
 31
0.0
  0
LINE
  5
9B7D
  8
0
 10
739.05216013910103
 20
2686.8181808490731
 30
0.0
 11
749.5301601391011
 21
2696.8181808490731
 31
0.0
  0
LINE
  5
9B7E
  8
0
 10
728.57516013910094
 20
2696.8181808490731
 30
0.0
 11
739.05216013910103
 21
2686.8181808490731
 31
0.0
  0
LINE
  5
9B7F
  8
0
 10
749.5301601391011
 20
2696.8181808490731
 30
0.0
 11
749.5301601391011
 21
2686.8181808490731
 31
0.0
  0
LINE
  5
9B80
  8
0
 10
728.57516013910094
 20
2696.8181808490731
 30
0.0
 11
728.57516013910106
 21
2686.8181808490731
 31
0.0
  0
LINE
  5
9B81
  8
0
 10
749.5301601391011
 20
2686.8181808490731
 30
0.0
 11
728.57516013910094
 21
2686.8181808490731
 31
0.0
  0
LINE
  5
9B82
  8
0
 10
749.5301601391011
 20
2686.8181808490731
 30
0.0
 11
749.33248904255515
 21
2680.4949051598451
 31
0.0
  0
LINE
  5
9B83
  8
0
 10
748.36716013910097
 20
2686.8181808490731
 30
0.0
 11
748.16976396758514
 21
2680.4949051598451
 31
0.0
  0
LINE
  5
9B84
  8
0
 10
729.73716013910087
 20
2686.8181808490731
 30
0.0
 11
729.93455631061693
 21
2680.4949051598451
 31
0.0
  0
LINE
  5
9B85
  8
0
 10
728.57516013910094
 20
2686.8181808490731
 30
0.0
 11
728.77255631061678
 21
2680.4949051598451
 31
0.0
  0
LINE
  5
9B86
  8
0
 10
749.5301601391011
 20
2696.8181808490731
 30
0.0
 11
728.57516013910094
 21
2696.8181808490731
 31
0.0
  0
ARC
  5
9B87
  8
0
 10
773.35957077618764
 20
2647.4949051598451
 30
0.0
 40
8.000000000000119
 50
90.0
 51
152.96430821058701
  0
ARC
  5
9B88
  8
0
 10
763.56161180505467
 20
2652.4949051598451
 30
0.0
 40
3.0
 50
270.0
 51
332.96430821058698
  0
LINE
  5
9B89
  8
0
 10
755.11008563641155
 20
2649.4949051598451
 30
0.0
 11
763.60550893742186
 21
2649.4949051598451
 31
0.0
  0
ARC
  5
9B8A
  8
0
 10
704.3595707761873
 20
2647.4949051598451
 30
0.0
 40
8.000000000000119
 50
27.03569178941299
 51
90.0
  0
ARC
  5
9B8B
  8
0
 10
714.15752974732004
 20
2652.4949051598451
 30
0.0
 40
3.0
 50
207.03569178941299
 51
270.0
  0
LINE
  5
9B8C
  8
0
 10
722.9942346417904
 20
2649.4949051598451
 30
0.0
 11
714.11363261495296
 21
2649.4949051598451
 31
0.0
  0
ARC
  5
9B8D
  8
0
 10
758.05216013910103
 20
2650.0815887377862
 30
0.0
 40
3.0
 50
180.0
 51
255.5224878140705
  0
ARC
  5
9B8E
  8
0
 10
720.05216013910103
 20
2650.0815887377862
 30
0.0
 40
3.0
 50
284.47751218592953
 51
0.0
  0
LINE
  5
9BAF
  8
0
 10
724.05216013910103
 20
2609.9949051598451
 30
0.0
 11
754.05216013910103
 21
2609.9949051598451
 31
0.0
  0
ARC
  5
9BB0
  8
0
 10
724.05216013910103
 20
2611.9949051598451
 30
0.0
 40
2.0
 50
180.0
 51
270.0
  0
LINE
  5
9BB1
  8
0
 10
724.05216013910103
 20
2630.9949051598451
 30
0.0
 11
754.05216013910103
 21
2630.9949051598451
 31
0.0
  0
ARC
  5
9BB2
  8
0
 10
754.05216013910103
 20
2628.9949051598451
 30
0.0
 40
2.0
 50
0.0
 51
90.0
  0
LINE
  5
9BFD
  8
0
 10
1597.6404862362349
 20
2683.5238047505641
 30
0.0
 11
1627.6404862362349
 21
2683.5238047505641
 31
0.0
  0
LINE
  5
9BFE
  8
0
 10
1677.6404862362349
 20
2657.523804750565
 30
0.0
 11
1677.6404862362349
 21
2621.523804750565
 31
0.0
  0
LINE
  5
9BFF
  8
0
 10
1676.6404862362349
 20
2658.523804750565
 30
0.0
 11
1677.6404862362349
 21
2657.523804750565
 31
0.0
  0
LINE
  5
9C00
  8
0
 10
1660.1404862362349
 20
2620.523804750565
 30
0.0
 11
1676.6404862362349
 21
2620.523804750565
 31
0.0
  0
LINE
  5
9C01
  8
0
 10
1677.6404862362349
 20
2621.523804750565
 30
0.0
 11
1676.6404862362349
 21
2620.523804750565
 31
0.0
  0
ARC
  5
9C02
  8
0
 10
1584.1404862362349
 20
2628.8872527662779
 30
0.0
 40
16.0
 50
119.9999999999973
 51
180.0
  0
ARC
  5
9C03
  8
0
 10
1612.6404862362349
 20
2579.523804750565
 30
0.0
 40
73.0
 50
60.000000000002721
 51
119.9999999999973
  0
ARC
  5
9C04
  8
0
 10
1641.1404862362349
 20
2628.8872527662779
 30
0.0
 40
16.0
 50
0.0
 51
60.000000000002721
  0
LINE
  5
9C05
  8
0
 10
1657.1404862362349
 20
2617.523804750565
 30
0.0
 11
1657.1404862362349
 21
2565.103581507562
 31
0.0
  0
LINE
  5
9C06
  8
0
 10
1657.1404862362349
 20
2628.8872527662779
 30
0.0
 11
1657.1404862362349
 21
2616.8872649247678
 31
0.0
  0
LINE
  5
9C08
  8
0
 10
1596.6404862362349
 20
2682.523804750565
 30
0.0
 11
1596.640486236236
 21
2653.1104883285052
 31
0.0
  0
LINE
  5
9C09
  8
0
 10
1597.6404862362349
 20
2683.5238047505641
 30
0.0
 11
1596.6404862362349
 21
2682.523804750565
 31
0.0
  0
LINE
  5
9C0A
  8
0
 10
1628.6404862362349
 20
2682.523804750565
 30
0.0
 11
1628.6404862362349
 21
2653.1104883285052
 31
0.0
  0
LINE
  5
9C0B
  8
0
 10
1627.6404862362349
 20
2683.5238047505641
 30
0.0
 11
1628.6404862362349
 21
2682.523804750565
 31
0.0
  0
LINE
  5
9C0C
  8
0
 10
1547.6404862362349
 20
2657.523804750565
 30
0.0
 11
1547.6404862362349
 21
2621.523804750565
 31
0.0
  0
LINE
  5
9C0D
  8
0
 10
1548.6404862362349
 20
2658.523804750565
 30
0.0
 11
1596.640486236236
 21
2658.523804750565
 31
0.0
  0
LINE
  5
9C0E
  8
0
 10
1628.6404862362349
 20
2658.523804750565
 30
0.0
 11
1676.6404862362349
 21
2658.523804750565
 31
0.0
  0
LINE
  5
9C0F
  8
0
 10
1548.6404862362349
 20
2658.523804750565
 30
0.0
 11
1547.6404862362349
 21
2657.523804750565
 31
0.0
  0
LINE
  5
9C10
  8
0
 10
1568.1404862362349
 20
2617.523804750565
 30
0.0
 11
1568.1404862362349
 21
2569.523804750565
 31
0.0
  0
LINE
  5
9C11
  8
0
 10
1548.6404862362349
 20
2620.523804750565
 30
0.0
 11
1565.1404862362349
 21
2620.523804750565
 31
0.0
  0
LINE
  5
9C12
  8
0
 10
1568.1404862362349
 20
2628.8872527662779
 30
0.0
 11
1568.1404862362349
 21
2617.523804750565
 31
0.0
  0
ARC
  5
9C13
  8
0
 10
1565.1404862362349
 20
2617.523804750565
 30
0.0
 40
3.0
 50
0.0
 51
90.0
  0
LINE
  5
9C14
  8
0
 10
1547.6404862362349
 20
2621.523804750565
 30
0.0
 11
1548.6404862362349
 21
2620.523804750565
 31
0.0
  0
ARC
  5
9C15
  8
0
 10
1660.1404862362349
 20
2617.523804750565
 30
0.0
 40
3.0
 50
90.0
 51
180.0
  0
LINE
  5
9C16
  8
0
 10
1556.6404862362349
 20
2562.1238047505649
 30
0.0
 11
1556.6404862362349
 21
2559.2738047505641
 31
0.0
  0
LINE
  5
9C17
  8
0
 10
1556.6404862362349
 20
2556.123804750564
 30
0.0
 11
1556.6404862362349
 21
2559.2738047505641
 31
0.0
  0
LINE
  5
9C18
  8
0
 10
1658.6638657674021
 20
2565.1035815075611
 30
0.0
 11
1556.6404862362349
 21
2565.1035815075611
 31
0.0
  0
LINE
  5
9C19
  8
0
 10
1677.6404862362349
 20
2559.2738047505641
 30
0.0
 11
1649.6342633916749
 21
2559.2738047505641
 31
0.0
  0
LINE
  5
9C1A
  8
0
 10
1677.6404862362349
 20
2553.4440279935689
 30
0.0
 11
1556.6404862362349
 21
2553.4440279935689
 31
0.0
  0
LINE
  5
9C1B
  8
0
 10
1556.6404862362349
 20
2549.023804750565
 30
0.0
 11
1556.6404862362349
 21
2569.523804750565
 31
0.0
  0
LINE
  5
9C1C
  8
0
 10
1677.6404862362349
 20
2553.4440279935689
 30
0.0
 11
1677.6404862362349
 21
2567.023804750565
 31
0.0
  0
LINE
  5
9C1D
  8
0
 10
1627.6404862362349
 20
2428.523804750565
 30
0.0
 11
1597.6404862362349
 21
2428.523804750565
 31
0.0
  0
ARC
  5
9C1E
  8
0
 10
1612.6404862362349
 20
2523.523804750565
 30
0.0
 40
73.0
 50
240.00000000001401
 51
299.99999999998602
  0
LINE
  5
9C1F
  8
0
 10
1568.1404862362349
 20
2474.160356734852
 30
0.0
 11
1568.1404862362349
 21
2494.6115179908361
 31
0.0
  0
ARC
  5
9C20
  8
0
 10
1584.1404862362349
 20
2474.160356734852
 30
0.0
 40
16.0
 50
180.0
 51
240.00000000001401
  0
LINE
  5
9C21
  8
0
 10
1596.6404862362349
 20
2449.9371211726238
 30
0.0
 11
1596.6404862362349
 21
2429.5238047505641
 31
0.0
  0
LINE
  5
9C22
  8
0
 10
1596.6404862362349
 20
2429.5238047505641
 30
0.0
 11
1597.6404862362349
 21
2428.523804750565
 31
0.0
  0
ARC
  5
9C23
  8
0
 10
1593.6404862362349
 20
2449.9371211726238
 30
0.0
 40
3.0
 50
0.0
 51
75.522487814070544
  0
LINE
  5
9C24
  8
0
 10
1657.1404862362349
 20
2474.160356734852
 30
0.0
 11
1657.1404862362349
 21
2494.6115179908361
 31
0.0
  0
LINE
  5
9C25
  8
0
 10
1628.6404862362349
 20
2449.9371211726238
 30
0.0
 11
1628.6404862362349
 21
2429.5238047505641
 31
0.0
  0
LINE
  5
9C26
  8
0
 10
1627.6404862362349
 20
2428.523804750565
 30
0.0
 11
1628.6404862362349
 21
2429.5238047505641
 31
0.0
  0
ARC
  5
9C27
  8
0
 10
1631.6404862362349
 20
2449.9371211726238
 30
0.0
 40
3.0
 50
104.4775121859294
 51
180.0
  0
ARC
  5
9C28
  8
0
 10
1641.1404862362349
 20
2474.160356734852
 30
0.0
 40
16.0
 50
299.99999999998602
 51
0.0
  0
LINE
  5
9C29
  8
0
 10
1592.267296645419
 20
2569.523804750565
 30
0.0
 11
1592.2672966454199
 21
2565.1035815075611
 31
0.0
  0
LINE
  5
9C2A
  8
0
 10
1592.2672966454199
 20
2553.4440279935679
 30
0.0
 11
1592.2672966454199
 21
2549.023804750565
 31
0.0
  0
ARC
  5
9C2B
  8
0
 10
1667.6373748139549
 20
2569.523804750565
 30
0.0
 40
4.0
 50
218.68218745349299
 51
321.3178125465069
  0
ARC
  5
9C2C
  8
0
 10
1667.6373748139549
 20
2569.523804750565
 30
0.0
 40
4.0
 50
38.68218745349305
 51
141.3178125465069
  0
LINE
  5
9C2D
  8
0
 10
1556.6404862362349
 20
2569.523804750565
 30
0.0
 11
1592.267296645419
 21
2569.523804750565
 31
0.0
  0
LINE
  5
9C2E
  8
0
 10
1556.6404862362349
 20
2549.023804750565
 30
0.0
 11
1592.2672966454199
 21
2549.023804750565
 31
0.0
  0
LINE
  5
9C2F
  8
0
 10
1568.1404862362349
 20
2494.6115179908361
 30
0.0
 11
1568.1404862362349
 21
2549.023804750565
 31
0.0
  0
LINE
  5
9C30
  8
0
 10
1657.1404862362349
 20
2494.6115179908361
 30
0.0
 11
1657.1404862362349
 21
2550.023804750565
 31
0.0
  0
LINE
  5
9C31
  8
0
 10
1658.1404862362349
 20
2551.023804750565
 30
0.0
 11
1658.1404862362349
 21
2553.3940279935682
 31
0.0
  0
ARC
  5
9C32
  8
0
 10
1658.1404862362349
 20
2550.023804750565
 30
0.0
 40
1.0
 50
90.0
 51
180.0
  0
LINE
  5
9C33
  8
0
 10
1657.1404862362349
 20
2494.6115179908361
 30
0.0
 11
1568.1404862362349
 21
2494.6115179908361
 31
0.0
  0
LINE
  5
9C34
  8
0
 10
1612.640986236235
 20
2699.8470804397921
 30
0.0
 11
1602.163486236235
 21
2689.8470804397921
 31
0.0
  0
LINE
  5
9C35
  8
0
 10
1623.118486236235
 20
2689.8470804397921
 30
0.0
 11
1612.640986236235
 21
2699.8470804397921
 31
0.0
  0
LINE
  5
9C36
  8
0
 10
1612.6404862362349
 20
2689.8470804397921
 30
0.0
 11
1623.118486236235
 21
2699.8470804397921
 31
0.0
  0
LINE
  5
9C37
  8
0
 10
1602.163486236235
 20
2699.8470804397921
 30
0.0
 11
1612.6404862362349
 21
2689.8470804397921
 31
0.0
  0
LINE
  5
9C38
  8
0
 10
1623.118486236235
 20
2699.8470804397921
 30
0.0
 11
1623.118486236235
 21
2689.8470804397921
 31
0.0
  0
LINE
  5
9C39
  8
0
 10
1602.163486236235
 20
2699.8470804397921
 30
0.0
 11
1602.163486236235
 21
2689.8470804397921
 31
0.0
  0
LINE
  5
9C3A
  8
0
 10
1623.118486236235
 20
2689.8470804397921
 30
0.0
 11
1602.163486236235
 21
2689.8470804397921
 31
0.0
  0
LINE
  5
9C3B
  8
0
 10
1623.118486236235
 20
2689.8470804397921
 30
0.0
 11
1622.920815139689
 21
2683.5238047505641
 31
0.0
  0
LINE
  5
9C3C
  8
0
 10
1621.9554862362349
 20
2689.8470804397921
 30
0.0
 11
1621.758090064719
 21
2683.5238047505641
 31
0.0
  0
LINE
  5
9C3D
  8
0
 10
1603.3254862362351
 20
2689.8470804397921
 30
0.0
 11
1603.522882407751
 21
2683.5238047505641
 31
0.0
  0
LINE
  5
9C3E
  8
0
 10
1602.163486236235
 20
2689.8470804397921
 30
0.0
 11
1602.360882407751
 21
2683.5238047505641
 31
0.0
  0
LINE
  5
9C3F
  8
0
 10
1623.118486236235
 20
2699.8470804397921
 30
0.0
 11
1602.163486236235
 21
2699.8470804397921
 31
0.0
  0
ARC
  5
9C40
  8
0
 10
1646.947896873322
 20
2650.523804750565
 30
0.0
 40
8.000000000000119
 50
90.0
 51
152.96430821058701
  0
ARC
  5
9C41
  8
0
 10
1637.1499379021891
 20
2655.523804750565
 30
0.0
 40
3.0
 50
270.0
 51
332.96430821058698
  0
LINE
  5
9C42
  8
0
 10
1628.698411733546
 20
2652.523804750565
 30
0.0
 11
1637.1938350345561
 21
2652.523804750565
 31
0.0
  0
ARC
  5
9C43
  8
0
 10
1577.947896873322
 20
2650.523804750565
 30
0.0
 40
8.000000000000119
 50
27.03569178941299
 51
90.0
  0
ARC
  5
9C44
  8
0
 10
1587.7458558444539
 20
2655.523804750565
 30
0.0
 40
3.0
 50
207.03569178941299
 51
270.0
  0
LINE
  5
9C45
  8
0
 10
1596.5825607389249
 20
2652.523804750565
 30
0.0
 11
1587.7019587120869
 21
2652.523804750565
 31
0.0
  0
ARC
  5
9C46
  8
0
 10
1631.6404862362349
 20
2653.1104883285052
 30
0.0
 40
3.0
 50
180.0
 51
255.5224878140705
  0
ARC
  5
9C47
  8
0
 10
1593.6404862362349
 20
2653.1104883285052
 30
0.0
 40
3.0
 50
284.47751218592953
 51
0.0
  0
CIRCLE
  5
9C68
  8
0
 10
1667.6373748139549
 20
2569.523804750565
 30
0.0
 40
10.253035556680111
  0
CIRCLE
  5
9C69
  8
0
 10
1667.6373748139549
 20
2569.523804750565
 30
0.0
 40
4.0
  0
ARC
  5
9C6A
  8
0
 10
784.55216013910103
 20
2565.4949051598451
 30
0.0
 40
1.0
 50
180.0
 51
251.9534494656647
  0
CIRCLE
  5
9C6B
  8
0
 10
794.04904871682083
 20
2566.4949051598451
 30
0.0
 40
4.0
  0
CIRCLE
  5
9C6C
  8
0
 10
794.29836221745256
 20
2566.4718498153729
 30
0.0
 40
10.239100920355259
  0
LINE
  5
9C6D
  8
0
 10
1629.6404862362349
 20
2632.0238047505641
 30
0.0
 11
1629.6404862362349
 21
2615.0238047505641
 31
0.0
  0
ARC
  5
9C6E
  8
0
 10
1627.6404862362349
 20
2615.0238047505641
 30
0.0
 40
2.0
 50
270.0
 51
0.0
  0
LINE
  5
9C6F
  8
0
 10
1595.6404862362349
 20
2632.0238047505641
 30
0.0
 11
1595.6404862362349
 21
2615.0238047505641
 31
0.0
  0
ARC
  5
9C70
  8
0
 10
1597.6404862362349
 20
2632.0238047505641
 30
0.0
 40
2.0
 50
90.0
 51
180.0
  0
LINE
  5
9C71
  8
0
 10
1597.6404862362349
 20
2613.0238047505641
 30
0.0
 11
1627.6404862362349
 21
2613.0238047505641
 31
0.0
  0
ARC
  5
9C72
  8
0
 10
1597.6404862362349
 20
2615.0238047505641
 30
0.0
 40
2.0
 50
180.0
 51
270.0
  0
LINE
  5
9C73
  8
0
 10
1597.6404862362349
 20
2634.0238047505641
 30
0.0
 11
1627.6404862362349
 21
2634.0238047505641
 31
0.0
  0
ARC
  5
9C74
  8
0
 10
1627.6404862362349
 20
2632.0238047505641
 30
0.0
 40
2.0
 50
0.0
 51
90.0
  0
TEXT
  5
9C75
  8
0
 10
1573.1600523947641
 20
1839.4740532306989
 30
0.0
 40
20.0
  1
20mm
 41
0.8
 72
     4
 11
1608.2076714423829
 21
1849.474053230698
 31
0.0
  0
LINE
  5
9CC8
  8
0
 10
3190.4835742704749
 20
2680.6984933167082
 30
0.0
 11
3169.9835742704749
 21
2680.6984933167082
 31
0.0
  0
LINE
  5
9CC9
  8
0
 10
3191.4835742704749
 20
2681.6984933167082
 30
0.0
 11
3190.4835742704749
 21
2680.6984933167082
 31
0.0
  0
LINE
  5
9CCB
  8
0
 10
3042.483574270474
 20
2680.6984933167082
 30
0.0
 11
3062.9835742704749
 21
2680.6984933167082
 31
0.0
  0
ARC
  5
9CCC
  8
0
 10
3062.9835742704749
 20
2677.6984933167082
 30
0.0
 40
3.0
 50
0.0
 51
90.0
  0
LINE
  5
9CCD
  8
0
 10
3042.483574270474
 20
2726.6984933167082
 30
0.0
 11
3100.483433227972
 21
2726.6984933167082
 31
0.0
  0
LINE
  5
9CCE
  8
0
 10
3132.4837115132518
 20
2726.6984933167082
 30
0.0
 11
3190.4835742704749
 21
2726.6984933167082
 31
0.0
  0
LINE
  5
9CCF
  8
0
 10
3041.4835742704749
 20
2725.6984933167082
 30
0.0
 11
3042.483574270474
 21
2726.6984933167082
 31
0.0
  0
LINE
  5
9CD0
  8
0
 10
3131.4835742707319
 20
2750.1984933167082
 30
0.0
 11
3101.4835742702171
 21
2750.1984933167082
 31
0.0
  0
LINE
  5
9CD1
  8
0
 10
3132.4835742707328
 20
2749.1984933167082
 30
0.0
 11
3132.483748808188
 21
2720.5842362445319
 31
0.0
  0
LINE
  5
9CD2
  8
0
 10
3100.4835742702171
 20
2749.1984933167082
 30
0.0
 11
3100.4833949004719
 21
2720.5842346498939
 31
0.0
  0
LINE
  5
9CD3
  8
0
 10
3131.4835742707319
 20
2750.1984933167082
 30
0.0
 11
3101.4835742702171
 21
2750.1984933167082
 31
0.0
  0
LINE
  5
9CD4
  8
0
 10
3101.4835742702171
 20
2750.1984933167082
 30
0.0
 11
3100.4835742702171
 21
2749.1984933167082
 31
0.0
  0
LINE
  5
9CD5
  8
0
 10
3131.4835742707319
 20
2750.1984933167082
 30
0.0
 11
3132.4835742707328
 21
2749.1984933167082
 31
0.0
  0
LINE
  5
9CD6
  8
0
 10
3065.983574270474
 20
2692.774175406249
 30
0.0
 11
3065.983574270474
 21
2648.9484933167091
 31
0.0
  0
LINE
  5
9CD7
  8
0
 10
3166.9835742704749
 20
2677.6984933167082
 30
0.0
 11
3166.983574270474
 21
2647.9484933167082
 31
0.0
  0
ARC
  5
9CD8
  8
0
 10
3169.9835742704749
 20
2677.6984933167082
 30
0.0
 40
3.0
 50
90.0
 51
180.0
  0
LINE
  5
9CD9
  8
0
 10
3041.4835742704749
 20
2725.6984933167082
 30
0.0
 11
3041.4835742704749
 21
2681.6984933167082
 31
0.0
  0
LINE
  5
9CDA
  8
0
 10
3042.483574270474
 20
2680.6984933167082
 30
0.0
 11
3041.4835742704749
 21
2681.6984933167082
 31
0.0
  0
LINE
  5
9CDB
  8
0
 10
3191.4835742704749
 20
2725.6984933167082
 30
0.0
 11
3191.4835742704749
 21
2681.6984933167082
 31
0.0
  0
LINE
  5
9CDC
  8
0
 10
3190.4835742704749
 20
2726.6984933167082
 30
0.0
 11
3191.4835742704749
 21
2725.6984933167082
 31
0.0
  0
ARC
  5
9CDD
  8
0
 10
3116.483574270474
 20
2636.1967947669868
 30
0.0
 40
83.499999999999986
 50
60.507627324947293
 51
119.49237267505271
  0
ARC
  5
9CDE
  8
0
 10
3084.4835742704749
 20
2692.774175406249
 30
0.0
 40
18.5
 50
119.49237267505271
 51
180.0
  0
ARC
  5
9CDF
  8
0
 10
3148.4835742704749
 20
2692.774175406249
 30
0.0
 40
18.5
 50
0.0
 51
60.507627324947293
  0
LINE
  5
9CE0
  8
0
 10
3166.9835742704749
 20
2677.6984933167082
 30
0.0
 11
3166.9835742704749
 21
2692.774175406249
 31
0.0
  0
LINE
  5
9CE2
  8
0
 10
3133.483574270474
 20
2694.1984933167082
 30
0.0
 11
3133.483574270474
 21
2677.1984933167082
 31
0.0
  0
ARC
  5
9CE3
  8
0
 10
3131.483574270474
 20
2694.1984933167082
 30
0.0
 40
2.0
 50
0.0
 51
90.0
  0
LINE
  5
9CE4
  8
0
 10
3099.483574270474
 20
2694.1984933167082
 30
0.0
 11
3099.483574270474
 21
2677.1984933167082
 31
0.0
  0
ARC
  5
9CE5
  8
0
 10
3101.483574270474
 20
2694.1984933167082
 30
0.0
 40
2.0
 50
90.0
 51
180.0
  0
LINE
  5
9CE6
  8
0
 10
3166.9835742704749
 20
2629.6984933167082
 30
0.0
 11
3166.983574270474
 21
2528.6984933167082
 31
0.0
  0
LINE
  5
9CE7
  8
0
 10
3065.983574270474
 20
2628.4484933167082
 30
0.0
 11
3065.983574270474
 21
2528.6984933167091
 31
0.0
  0
LINE
  5
9CE8
  8
0
 10
3069.0835742704739
 20
2528.6984933167091
 30
0.0
 11
3163.8835742704741
 21
2528.6984933167082
 31
0.0
  0
LINE
  5
9CE9
  8
0
 10
3167.983574270474
 20
2630.7861088279501
 30
0.0
 11
3167.983574270474
 21
2630.6984933167082
 31
0.0
  0
LINE
  5
9CEA
  8
0
 10
3100.4835742704731
 20
2482.8235864613198
 30
0.0
 11
3100.4835742704731
 21
2462.6984933167082
 31
0.0
  0
LINE
  5
9CEB
  8
0
 10
3101.483574270474
 20
2461.6984933167082
 30
0.0
 11
3100.4835742704731
 21
2462.6984933167082
 31
0.0
  0
LINE
  5
9CEC
  8
0
 10
3132.4835742704731
 20
2482.8235864613198
 30
0.0
 11
3132.4835742704731
 21
2462.6984933167082
 31
0.0
  0
LINE
  5
9CED
  8
0
 10
3065.983574270474
 20
2528.6984933167091
 30
0.0
 11
3065.983574270474
 21
2508.7006485291631
 31
0.0
  0
LINE
  5
9CEE
  8
0
 10
3166.983574270474
 20
2528.6984933167082
 30
0.0
 11
3166.983574270474
 21
2508.7006485291622
 31
0.0
  0
LINE
  5
9CEF
  8
0
 10
3166.983574270474
 20
2528.6984933167082
 30
0.0
 11
3065.983574270474
 21
2528.6984933167091
 31
0.0
  0
LINE
  5
9CF0
  8
0
 10
3131.483574270474
 20
2461.6984933167082
 30
0.0
 11
3101.483574270474
 21
2461.6984933167082
 31
0.0
  0
LINE
  5
9CF1
  8
0
 10
3132.4835742704731
 20
2462.6984933167082
 30
0.0
 11
3131.483574270474
 21
2461.6984933167082
 31
0.0
  0
ARC
  5
9CF2
  8
0
 10
3116.483574270474
 20
2566.6984933167082
 30
0.0
 40
83.0
 50
238.5295450954122
 51
301.47045490458783
  0
ARC
  5
9CF3
  8
0
 10
3080.983574270474
 20
2508.7006485291631
 30
0.0
 40
15.0
 50
180.0
 51
238.5295450954122
  0
ARC
  5
9CF4
  8
0
 10
3151.983574270474
 20
2508.7006485291631
 30
0.0
 40
15.0
 50
301.47045490458783
 51
0.0
  0
ARC
  5
9CF6
  8
0
 10
3097.483574270474
 20
2482.8235864613198
 30
0.0
 40
3.0
 50
0.0
 51
77.23632410755765
  0
ARC
  5
9CF7
  8
0
 10
3135.483574270474
 20
2482.8235864613198
 30
0.0
 40
3.0
 50
102.76367589244229
 51
180.0
  0
LINE
  5
9CF8
  8
0
 10
3116.484074270475
 20
2766.5217690059349
 30
0.0
 11
3106.0065742704751
 21
2756.5217690059349
 31
0.0
  0
LINE
  5
9CF9
  8
0
 10
3126.961574270475
 20
2756.5217690059362
 30
0.0
 11
3116.484074270475
 21
2766.5217690059349
 31
0.0
  0
LINE
  5
9CFA
  8
0
 10
3116.4835742704749
 20
2756.5217690059362
 30
0.0
 11
3126.961574270475
 21
2766.5217690059349
 31
0.0
  0
LINE
  5
9CFB
  8
0
 10
3106.0065742704742
 20
2766.5217690059349
 30
0.0
 11
3116.4835742704749
 21
2756.5217690059362
 31
0.0
  0
LINE
  5
9CFC
  8
0
 10
3126.961574270475
 20
2766.5217690059349
 30
0.0
 11
3126.961574270475
 21
2756.5217690059362
 31
0.0
  0
LINE
  5
9CFD
  8
0
 10
3106.0065742704742
 20
2766.5217690059349
 30
0.0
 11
3106.0065742704751
 21
2756.5217690059362
 31
0.0
  0
LINE
  5
9CFE
  8
0
 10
3126.961574270475
 20
2756.5217690059362
 30
0.0
 11
3106.0065742704742
 21
2756.5217690059362
 31
0.0
  0
LINE
  5
9CFF
  8
0
 10
3126.961574270475
 20
2756.5217690059362
 30
0.0
 11
3126.7639031739291
 21
2750.1984933167082
 31
0.0
  0
LINE
  5
9D00
  8
0
 10
3125.798574270475
 20
2756.5217690059362
 30
0.0
 11
3125.6011780989588
 21
2750.1984933167082
 31
0.0
  0
LINE
  5
9D01
  8
0
 10
3107.168574270474
 20
2756.5217690059362
 30
0.0
 11
3107.3659704419902
 21
2750.1984933167082
 31
0.0
  0
LINE
  5
9D02
  8
0
 10
3106.0065742704742
 20
2756.5217690059362
 30
0.0
 11
3106.2039704419908
 21
2750.1984933167082
 31
0.0
  0
LINE
  5
9D03
  8
0
 10
3126.961574270475
 20
2766.5217690059349
 30
0.0
 11
3106.0065742704742
 21
2766.5217690059349
 31
0.0
  0
LINE
  5
9D04
  8
0
 10
3167.9835742704749
 20
2645.7868502794749
 30
0.0
 11
3167.9835742704749
 21
2644.5282700737039
 31
0.0
  0
LINE
  5
9D05
  8
0
 10
3052.9336025687271
 20
2641.5484933167081
 30
0.0
 11
3052.9336025687271
 21
2638.6984933167082
 31
0.0
  0
LINE
  5
9D06
  8
0
 10
3052.9336025687271
 20
2635.5484933167081
 30
0.0
 11
3052.9336025687271
 21
2638.6984933167082
 31
0.0
  0
LINE
  5
9D07
  8
0
 10
3168.506953801641
 20
2644.5282700737039
 30
0.0
 11
3052.9336025687271
 21
2644.5282700737039
 31
0.0
  0
LINE
  5
9D08
  8
0
 10
3187.4835742704749
 20
2638.6984933167082
 30
0.0
 11
3159.4773514259141
 21
2638.6984933167082
 31
0.0
  0
LINE
  5
9D09
  8
0
 10
3187.4835742704749
 20
2632.8687165597112
 30
0.0
 11
3052.9336025687271
 21
2632.8687165597121
 31
0.0
  0
LINE
  5
9D0A
  8
0
 10
3052.9336025687271
 20
2628.4484933167091
 30
0.0
 11
3052.9336025687271
 21
2648.9484933167091
 31
0.0
  0
LINE
  5
9D0B
  8
0
 10
3187.4835742704749
 20
2632.8687165597112
 30
0.0
 11
3187.4835742704749
 21
2645.8105360860018
 31
0.0
  0
LINE
  5
9D0C
  8
0
 10
3094.442165698912
 20
2648.9484933167091
 30
0.0
 11
3094.442165698912
 21
2644.5282700737039
 31
0.0
  0
LINE
  5
9D0D
  8
0
 10
3094.442165698912
 20
2632.8687165597121
 30
0.0
 11
3094.442165698912
 21
2628.4484933167082
 31
0.0
  0
LINE
  5
9D0E
  8
0
 10
3052.9336025687271
 20
2648.9484933167091
 30
0.0
 11
3094.442165698912
 21
2648.9484933167091
 31
0.0
  0
LINE
  5
9D0F
  8
0
 10
3052.9336025687271
 20
2628.4484933167091
 30
0.0
 11
3094.442165698912
 21
2628.4484933167082
 31
0.0
  0
LINE
  5
9D10
  8
0
 10
3167.9835742704749
 20
2630.4484933167082
 30
0.0
 11
3167.9835742704749
 21
2632.818716559711
 31
0.0
  0
ARC
  5
9D11
  8
0
 10
3167.9835742704749
 20
2629.4484933167082
 30
0.0
 40
1.0
 50
90.0
 51
180.0
  0
LINE
  5
9D12
  8
0
 10
3077.1296690266499
 20
2719.5317847998681
 30
0.0
 11
3100.2927311480389
 21
2719.531813505489
 31
0.0
  0
ARC
  5
9D13
  8
0
 10
3077.129656584365
 20
2729.5317847998599
 30
0.0
 40
10.0
 50
240.20042792993431
 51
270.00007128904417
  0
LINE
  5
9D14
  8
0
 10
3072.1599817857741
 20
2720.854093148489
 30
0.0
 11
3062.1870677977749
 21
2726.5655359268062
 31
0.0
  0
LINE
  5
9D15
  8
0
 10
3155.841830975874
 20
2719.5317852987691
 30
0.0
 11
3155.4376869669441
 21
2719.5317852987691
 31
0.0
  0
LINE
  5
9D16
  8
0
 10
3155.8386597063109
 20
2719.5317847998681
 30
0.0
 11
3132.6744129676658
 21
2719.531813506957
 31
0.0
  0
ARC
  5
9D17
  8
0
 10
3155.8386721485958
 20
2729.5317847998599
 30
0.0
 40
10.0
 50
269.99992871095583
 51
299.7995720700722
  0
LINE
  5
9D18
  8
0
 10
3160.8083469471871
 20
2720.854093148489
 30
0.0
 11
3170.7812609351859
 21
2726.5655359268062
 31
0.0
  0
ARC
  5
9D19
  8
0
 10
3097.4833949005301
 20
2720.5842534555259
 30
0.0
 40
3.0
 50
282.68878514851752
 51
359.99964083887289
  0
ARC
  5
9D1A
  8
0
 10
3135.483748808133
 20
2720.5842545435348
 30
0.0
 40
3.0
 50
180.00034948521241
 51
257.31121813240179
  0
LINE
  5
9D38
  8
0
 10
3191.4823940784622
 20
2723.6984933167082
 30
0.0
 11
3194.4823940784622
 21
2720.6984933167082
 31
0.0
  0
LINE
  5
9D39
  8
0
 10
3194.4823940784622
 20
2720.6984933167082
 30
0.0
 11
3194.4823940784622
 21
2686.6984933167091
 31
0.0
  0
LINE
  5
9D3A
  8
0
 10
3191.4823940784622
 20
2683.6984933167082
 30
0.0
 11
3194.4823940784622
 21
2686.6984933167082
 31
0.0
  0
CIRCLE
  5
9D3B
  8
0
 10
3177.7297763488259
 20
2648.9254379722361
 30
0.0
 40
10.239100920355201
  0
CIRCLE
  5
9D3C
  8
0
 10
3177.4804628481938
 20
2648.9484933167082
 30
0.0
 40
4.0
  0
ARC
  5
9D3D
  8
0
 10
3167.9835742704749
 20
2647.9484933167082
 30
0.0
 40
1.0
 50
180.0
 51
251.9534494656483
  0
LINE
  5
9D3E
  8
0
 10
3131.483574270474
 20
2675.1984933167082
 30
0.0
 11
3101.483574270474
 21
2675.1984933167082
 31
0.0
  0
ARC
  5
9D3F
  8
0
 10
3131.483574270474
 20
2677.1984933167082
 30
0.0
 40
2.0
 50
270.0
 51
0.0
  0
ARC
  5
9D40
  8
0
 10
3101.483574270474
 20
2677.1984933167082
 30
0.0
 40
2.0
 50
180.0
 51
270.0
  0
LINE
  5
9D41
  8
0
 10
3131.483574270474
 20
2696.1984933167082
 30
0.0
 11
3101.483574270474
 21
2696.1984933167082
 31
0.0
  0
LINE
  5
9D42
  8
0
 10
3061.9550128284641
 20
2306.7113227798809
 30
0.0
 11
3061.9550128284641
 21
2266.9675023309601
 31
0.0
  0
LINE
  5
9D43
  8
0
 10
3074.4677278709478
 20
2300.5741531190279
 30
0.0
 11
3074.4677278709478
 21
2273.1046719918122
 31
0.0
  0
LINE
  5
9D44
  8
0
 10
3171.012135712484
 20
2306.7113227798809
 30
0.0
 11
3171.012135712484
 21
2266.9675023309601
 31
0.0
  0
LINE
  5
9D45
  8
0
 10
3158.4994206699989
 20
2300.5741531190279
 30
0.0
 11
3158.4994206699989
 21
2273.1046719918122
 31
0.0
  0
LINE
  5
9D5C
  8
0
 10
1064.3417873598139
 20
766.09502959210613
 30
0.0
 11
1079.341787359813
 21
766.09502959210624
 31
0.0
  0
LINE
  5
9D5D
  8
0
 10
1064.3417873598139
 20
716.99502959210645
 30
0.0
 11
1079.341787359813
 21
716.99502959210645
 31
0.0
  0
LINE
  5
9D67
  8
0
 10
1060.3417873598139
 20
770.09502959210613
 30
0.0
 11
1064.3417873598139
 21
766.09502959210613
 31
0.0
  0
LINE
  5
9D68
  8
0
 10
1064.3417873598139
 20
766.09502959210613
 30
0.0
 11
1064.3417873598139
 21
716.99502959210645
 31
0.0
  0
LINE
  5
9D69
  8
0
 10
1060.3417873598139
 20
712.99502959210622
 30
0.0
 11
1064.3417873598139
 21
716.99502959210611
 31
0.0
  0
LINE
  5
9D6B
  8
0
 10
886.34178735981266
 20
766.09502959210613
 30
0.0
 11
871.34178735981368
 21
766.09502959210624
 31
0.0
  0
LINE
  5
9D6C
  8
0
 10
886.34178735981266
 20
716.99502959210645
 30
0.0
 11
871.34178735981368
 21
716.99502959210645
 31
0.0
  0
LINE
  5
9D76
  8
0
 10
890.34178735981277
 20
770.09502959210613
 30
0.0
 11
886.34178735981266
 21
766.09502959210613
 31
0.0
  0
LINE
  5
9D77
  8
0
 10
886.34178735981266
 20
766.09502959210613
 30
0.0
 11
886.34178735981266
 21
716.99502959210645
 31
0.0
  0
LINE
  5
9D78
  8
0
 10
890.34178735981277
 20
712.99502959210622
 30
0.0
 11
886.34178735981266
 21
716.99502959210611
 31
0.0
  0
LINE
  5
9D79
  8
0
 10
920.34178735981368
 20
1055.568529042089
 30
0.0
 11
920.34178735981368
 21
994.56852904208881
 31
0.0
  0
LINE
  5
9D7A
  8
0
 10
931.60011760901125
 20
1049.068529042089
 30
0.0
 11
931.60011760901125
 21
1001.068529042089
 31
0.0
  0
LINE
  5
9D7B
  8
0
 10
1030.3417873598139
 20
1055.568529042089
 30
0.0
 11
1030.341787359813
 21
994.56852904208881
 31
0.0
  0
LINE
  5
9D7C
  8
0
 10
1019.083457110616
 20
1049.068529042089
 30
0.0
 11
1019.083457110616
 21
1001.068529042089
 31
0.0
  0
LINE
  5
9D7F
  8
0
 10
1064.3417873598139
 20
1049.6185290420881
 30
0.0
 11
1079.341787359813
 21
1049.6185290420881
 31
0.0
  0
LINE
  5
9D80
  8
0
 10
1064.3417873598139
 20
1000.518529042089
 30
0.0
 11
1079.341787359813
 21
1000.518529042089
 31
0.0
  0
LINE
  5
9D8A
  8
0
 10
1060.3417873598139
 20
1053.6185290420881
 30
0.0
 11
1064.3417873598139
 21
1049.6185290420881
 31
0.0
  0
LINE
  5
9D8B
  8
0
 10
1064.3417873598139
 20
1049.6185290420881
 30
0.0
 11
1064.3417873598139
 21
1000.518529042089
 31
0.0
  0
LINE
  5
9D8C
  8
0
 10
1060.3417873598139
 20
996.51852904208874
 30
0.0
 11
1064.3417873598139
 21
1000.5185290420879
 31
0.0
  0
LINE
  5
9D8E
  8
0
 10
886.34178735981266
 20
1049.6185290420881
 30
0.0
 11
871.34178735981368
 21
1049.6185290420881
 31
0.0
  0
LINE
  5
9D8F
  8
0
 10
886.34178735981266
 20
1000.518529042089
 30
0.0
 11
871.34178735981368
 21
1000.518529042089
 31
0.0
  0
LINE
  5
9D99
  8
0
 10
890.34178735981277
 20
1053.6185290420881
 30
0.0
 11
886.34178735981266
 21
1049.6185290420881
 31
0.0
  0
LINE
  5
9D9A
  8
0
 10
886.34178735981266
 20
1049.6185290420881
 30
0.0
 11
886.34178735981266
 21
1000.518529042089
 31
0.0
  0
LINE
  5
9D9B
  8
0
 10
890.34178735981277
 20
996.51852904208874
 30
0.0
 11
886.34178735981266
 21
1000.5185290420879
 31
0.0
  0
CIRCLE
  5
9D9C
  8
0
 10
715.83024578012828
 20
741.5450295921064
 30
0.0
 40
69.999999999999886
  0
CIRCLE
  5
9DA1
  8
0
 10
1275.327609324105
 20
741.5450295921064
 30
0.0
 40
69.999999999999886
  0
LINE
  5
9E10
  8
0
 10
959.34178735981357
 20
1221.1611381738519
 30
0.0
 11
959.34178735981357
 21
1201.4444062469231
 31
0.0
  0
LINE
  5
9E11
  8
0
 10
960.34178735981357
 20
1200.4444062469231
 30
0.0
 11
959.34178735981357
 21
1201.4444062469231
 31
0.0
  0
LINE
  5
9E12
  8
0
 10
991.34178735981357
 20
1221.1611381738519
 30
0.0
 11
991.34178735981357
 21
1201.4444062469231
 31
0.0
  0
LINE
  5
9E13
  8
0
 10
918.34178735981357
 20
1272.4444062469231
 30
0.0
 11
918.34178735981357
 21
1251.7694444213471
 31
0.0
  0
LINE
  5
9E14
  8
0
 10
1032.341787359813
 20
1272.4444062469231
 30
0.0
 11
1032.341787359813
 21
1251.7694444213471
 31
0.0
  0
ARC
  5
9E15
  8
0
 10
975.34178735981357
 20
1325.4444062469231
 30
0.0
 40
103.0
 50
243.9583500440439
 51
296.04164995595607
  0
ARC
  5
9E16
  8
0
 10
1011.341787359813
 20
1251.7694444213471
 30
0.0
 40
21.0
 50
296.04164995595607
 51
0.000000000000007
  0
ARC
  5
9E17
  8
0
 10
939.34178735981368
 20
1251.7694444213471
 30
0.0
 40
21.0
 50
180.0
 51
243.9583500440439
  0
LINE
  5
9E18
  8
0
 10
1032.341787359813
 20
1272.4444062469231
 30
0.0
 11
918.34178735981357
 21
1272.4444062469231
 31
0.0
  0
LINE
  5
9E19
  8
0
 10
990.34178735981368
 20
1200.4444062469231
 30
0.0
 11
960.34178735981357
 21
1200.4444062469231
 31
0.0
  0
LINE
  5
9E1A
  8
0
 10
991.34178735981357
 20
1201.4444062469231
 30
0.0
 11
990.34178735981368
 21
1200.4444062469231
 31
0.0
  0
ARC
  5
9E1B
  8
0
 10
994.34178735981357
 20
1221.1611381738519
 30
0.0
 40
3.0
 50
100.3258027712407
 51
180.0
  0
ARC
  5
9E1C
  8
0
 10
956.34178735981368
 20
1221.1611381738519
 30
0.0
 40
3.0
 50
0.000000000000007
 51
79.674197228759226
  0
LINE
  5
9E1E
  8
0
 10
958.34178735981357
 20
1573.4444062469231
 30
0.0
 11
958.34178735981357
 21
1556.4444062469231
 31
0.0
  0
ARC
  5
9E1F
  8
0
 10
960.34178735981357
 20
1556.4444062469231
 30
0.0
 40
2.0
 50
180.0
 51
270.0
  0
LINE
  5
9E20
  8
0
 10
992.34178735981357
 20
1573.4444062469231
 30
0.0
 11
992.34178735981357
 21
1556.4444062469231
 31
0.0
  0
ARC
  5
9E21
  8
0
 10
990.34178735981368
 20
1573.4444062469231
 30
0.0
 40
2.0
 50
0.000000000000007
 51
90.0
  0
LINE
  5
9E22
  8
0
 10
917.84178735981368
 20
1514.7736141677151
 30
0.0
 11
917.84178735981368
 21
1272.4444062469231
 31
0.0
  0
LINE
  5
9E23
  8
0
 10
1032.8417873598139
 20
1519.80654162262
 30
0.0
 11
1032.8417873598139
 21
1272.4444062469231
 31
0.0
  0
LINE
  5
9E24
  8
0
 10
1032.8417873598139
 20
1272.4444062469231
 30
0.0
 11
917.84178735981368
 21
1272.4444062469231
 31
0.0
  0
LINE
  5
9E25
  8
0
 10
1007.676422855962
 20
1630.4444062469231
 30
0.0
 11
931.60011760901068
 21
1630.4444062469231
 31
0.0
  0
LINE
  5
9E26
  8
0
 10
991.34178735981334
 20
1660.4444062469231
 30
0.0
 11
959.34178735981357
 21
1660.4444062469231
 31
0.0
  0
LINE
  5
9E27
  8
0
 10
956.34178735981311
 20
1630.444406246922
 30
0.0
 11
931.60011760901125
 21
1630.444406246922
 31
0.0
  0
LINE
  5
9E28
  8
0
 10
1059.341787359813
 20
1636.9444062469231
 30
0.0
 11
994.34178735981266
 21
1636.9444062469231
 31
0.0
  0
LINE
  5
9E29
  8
0
 10
956.34178735981311
 20
1636.9444062469231
 30
0.0
 11
891.34178735981266
 21
1636.9444062469231
 31
0.0
  0
LINE
  5
9E2A
  8
0
 10
890.34178735981277
 20
1635.9444062469231
 30
0.0
 11
891.34178735981266
 21
1636.9444062469231
 31
0.0
  0
LINE
  5
9E2B
  8
0
 10
1059.341787359813
 20
1575.9444062469231
 30
0.0
 11
1032.341787359813
 21
1575.9444062469231
 31
0.0
  0
LINE
  5
9E2C
  8
0
 10
1060.341787359813
 20
1576.9444062469231
 30
0.0
 11
1059.341787359813
 21
1575.9444062469231
 31
0.0
  0
LINE
  5
9E2D
  8
0
 10
918.34178735981266
 20
1575.9444062469231
 30
0.0
 11
891.34178735981266
 21
1575.9444062469231
 31
0.0
  0
LINE
  5
9E2E
  8
0
 10
959.34178735981334
 20
1660.4444062469231
 30
0.0
 11
959.34178735981334
 21
1633.4444062469231
 31
0.0
  0
LINE
  5
9E2F
  8
0
 10
991.34178735981334
 20
1660.4444062469231
 30
0.0
 11
991.34178735981334
 21
1633.4444062469231
 31
0.0
  0
LINE
  5
9E30
  8
0
 10
890.34178735981277
 20
1635.9444062469231
 30
0.0
 11
890.34178735981277
 21
1576.9444062469231
 31
0.0
  0
LINE
  5
9E31
  8
0
 10
891.34178735981266
 20
1575.9444062469231
 30
0.0
 11
890.34178735981277
 21
1576.9444062469231
 31
0.0
  0
LINE
  5
9E32
  8
0
 10
1060.341787359813
 20
1635.9444062469231
 30
0.0
 11
1060.341787359813
 21
1576.9444062469231
 31
0.0
  0
LINE
  5
9E33
  8
0
 10
1059.341787359813
 20
1636.9444062469231
 30
0.0
 11
1060.341787359813
 21
1635.9444062469231
 31
0.0
  0
LINE
  5
9E34
  8
0
 10
918.34178735981266
 20
1599.3210142909311
 30
0.0
 11
918.34178735981322
 21
1538.1151983261309
 31
0.0
  0
LINE
  5
9E35
  8
0
 10
1032.341787359813
 20
1599.3210142909311
 30
0.0
 11
1032.341787359813
 21
1533.0822708712251
 31
0.0
  0
ARC
  5
9E37
  8
0
 10
1018.341787359813
 20
1627.9444062469231
 30
0.0
 40
9.0
 50
90.0
 51
152.7203872640271
  0
ARC
  5
9E38
  8
0
 10
1007.676422855962
 20
1633.4444062469231
 30
0.0
 40
3.0
 50
270.0
 51
332.72038726402712
  0
ARC
  5
9E39
  8
0
 10
956.34178735981311
 20
1633.4444062469231
 30
0.0
 40
3.0
 50
270.0
 51
0.000000000000007
  0
LINE
  5
9E3A
  8
0
 10
1007.676422855962
 20
1630.4444062469231
 30
0.0
 11
994.34178735981266
 21
1630.4444062469231
 31
0.0
  0
ARC
  5
9E3B
  8
0
 10
994.34178735981266
 20
1633.4444062469231
 30
0.0
 40
3.0
 50
180.0
 51
270.0
  0
LINE
  5
9E3C
  8
0
 10
931.60011760901068
 20
1630.4444062469231
 30
0.0
 11
920.34178735981322
 21
1636.9444062469231
 31
0.0
  0
ARC
  5
9E3D
  8
0
 10
956.34178735981311
 20
1639.9444062469231
 30
0.0
 40
3.0
 50
270.0
 51
0.000000000000007
  0
ARC
  5
9E3E
  8
0
 10
994.34178735981266
 20
1639.9444062469231
 30
0.0
 40
3.0
 50
180.0
 51
270.0
  0
ARC
  5
9E3F
  8
0
 10
975.34178735981357
 20
1526.4444062469231
 30
0.0
 40
104.0
 50
65.638022060024582
 51
114.3619779399873
  0
ARC
  5
9E40
  8
0
 10
942.34178735981266
 20
1599.3210142909311
 30
0.0
 40
24.0
 50
114.3619779399873
 51
180.0
  0
ARC
  5
9E41
  8
0
 10
1008.341787359813
 20
1599.3210142909311
 30
0.0
 40
24.0
 50
0.000000000000007
 51
65.638022060024582
  0
LINE
  5
9E42
  8
0
 10
917.84178735981368
 20
1472.181695638068
 30
0.0
 11
917.84178735981368
 21
1514.7736141677151
 31
0.0
  0
LINE
  5
9E44
  8
0
 10
902.98290868950789
 20
1529.6894557518731
 30
0.0
 11
902.98290868950789
 21
1526.4444062469231
 31
0.0
  0
LINE
  5
9E45
  8
0
 10
902.98290868950789
 20
1522.857772583556
 30
0.0
 11
902.98290868950789
 21
1526.4444062469231
 31
0.0
  0
LINE
  5
9E46
  8
0
 10
1034.576328410152
 20
1533.0822708712251
 30
0.0
 11
902.98290868950789
 21
1533.0822708712251
 31
0.0
  0
LINE
  5
9E47
  8
0
 10
1056.1833715182299
 20
1526.4444062469231
 30
0.0
 11
1024.295097982344
 21
1526.4444062469231
 31
0.0
  0
LINE
  5
9E48
  8
0
 10
1056.1833715182299
 20
1519.80654162262
 30
0.0
 11
902.98290868950789
 21
1519.80654162262
 31
0.0
  0
LINE
  5
9E49
  8
0
 10
902.98290868950789
 20
1514.7736141677151
 30
0.0
 11
902.98290868950789
 21
1538.1151983261309
 31
0.0
  0
LINE
  5
9E4A
  8
0
 10
1056.1833715182299
 20
1519.80654162262
 30
0.0
 11
1056.1833715182299
 21
1534.542276726811
 31
0.0
  0
LINE
  5
9E51
  8
0
 10
950.24513403575747
 20
1538.1151983261309
 30
0.0
 11
950.24513403575747
 21
1533.0822708712251
 31
0.0
  0
LINE
  5
9E52
  8
0
 10
950.24513403575747
 20
1519.80654162262
 30
0.0
 11
950.24513403575747
 21
1514.7736141677151
 31
0.0
  0
LINE
  5
9E55
  8
0
 10
902.98290868950789
 20
1538.1151983261309
 30
0.0
 11
950.24513403575747
 21
1538.1151983261309
 31
0.0
  0
LINE
  5
9E56
  8
0
 10
902.98290868950789
 20
1514.7736141677151
 30
0.0
 11
950.24513403575747
 21
1514.7736141677151
 31
0.0
  0
LINE
  5
9E57
  8
0
 10
975.34192482232811
 20
1676.76768193615
 30
0.0
 11
964.86442482232815
 21
1666.7676819361491
 31
0.0
  0
LINE
  5
9E58
  8
0
 10
985.81942482232807
 20
1666.76768193615
 30
0.0
 11
975.34192482232811
 21
1676.76768193615
 31
0.0
  0
LINE
  5
9E59
  8
0
 10
975.34142482232835
 20
1666.76768193615
 30
0.0
 11
985.81942482232807
 21
1676.76768193615
 31
0.0
  0
LINE
  5
9E5A
  8
0
 10
964.86442482232815
 20
1676.76768193615
 30
0.0
 11
975.34142482232835
 21
1666.76768193615
 31
0.0
  0
LINE
  5
9E5B
  8
0
 10
985.81942482232807
 20
1676.76768193615
 30
0.0
 11
985.81942482232807
 21
1666.76768193615
 31
0.0
  0
LINE
  5
9E5C
  8
0
 10
964.86442482232815
 20
1676.76768193615
 30
0.0
 11
964.86442482232815
 21
1666.76768193615
 31
0.0
  0
LINE
  5
9E5D
  8
0
 10
985.81942482232807
 20
1666.76768193615
 30
0.0
 11
964.86442482232815
 21
1666.76768193615
 31
0.0
  0
LINE
  5
9E5E
  8
0
 10
985.81942482232807
 20
1666.76768193615
 30
0.0
 11
985.62175372578258
 21
1660.4444062469231
 31
0.0
  0
LINE
  5
9E5F
  8
0
 10
984.65642482232863
 20
1666.76768193615
 30
0.0
 11
984.45902865081268
 21
1660.4444062469231
 31
0.0
  0
LINE
  5
9E60
  8
0
 10
966.02642482232829
 20
1666.76768193615
 30
0.0
 11
966.22382099384424
 21
1660.4444062469231
 31
0.0
  0
LINE
  5
9E61
  8
0
 10
964.86442482232815
 20
1666.76768193615
 30
0.0
 11
965.06182099384432
 21
1660.4444062469231
 31
0.0
  0
LINE
  5
9E62
  8
0
 10
985.81942482232807
 20
1676.76768193615
 30
0.0
 11
964.86442482232815
 21
1676.76768193615
 31
0.0
  0
LINE
  5
9E64
  8
0
 10
886.34178735981266
 20
1630.9944062469231
 30
0.0
 11
871.34178735981368
 21
1630.9944062469231
 31
0.0
  0
LINE
  5
9E65
  8
0
 10
886.34178735981266
 20
1581.8944062469229
 30
0.0
 11
871.34178735981368
 21
1581.8944062469229
 31
0.0
  0
LINE
  5
9E6C
  8
0
 10
867.34178735981379
 20
1634.9944062469231
 30
0.0
 11
871.34178735981368
 21
1630.9944062469231
 31
0.0
  0
LINE
  5
9E6D
  8
0
 10
871.34178735981368
 20
1630.9944062469231
 30
0.0
 11
871.34178735981368
 21
1581.8944062469229
 31
0.0
  0
LINE
  5
9E6E
  8
0
 10
867.34178735981379
 20
1577.8944062469229
 30
0.0
 11
871.34178735981368
 21
1581.8944062469229
 31
0.0
  0
LINE
  5
9E6F
  8
0
 10
890.34178735981277
 20
1634.9944062469231
 30
0.0
 11
886.34178735981266
 21
1630.9944062469231
 31
0.0
  0
LINE
  5
9E70
  8
0
 10
886.34178735981266
 20
1630.9944062469231
 30
0.0
 11
886.34178735981266
 21
1581.8944062469229
 31
0.0
  0
LINE
  5
9E71
  8
0
 10
890.34178735981277
 20
1577.8944062469229
 30
0.0
 11
886.34178735981266
 21
1581.8944062469229
 31
0.0
  0
LINE
  5
9E7E
  8
0
 10
1060.3417873598139
 20
1634.9944062469231
 30
0.0
 11
1064.3417873598139
 21
1630.9944062469231
 31
0.0
  0
LINE
  5
9E7F
  8
0
 10
1064.3417873598139
 20
1630.9944062469231
 30
0.0
 11
1064.3417873598139
 21
1581.8944062469229
 31
0.0
  0
LINE
  5
9E80
  8
0
 10
1060.3417873598139
 20
1577.8944062469229
 30
0.0
 11
1064.3417873598139
 21
1581.8944062469229
 31
0.0
  0
LINE
  5
9E81
  8
0
 10
990.34178735981368
 20
1554.4444062469231
 30
0.0
 11
960.34178735981357
 21
1554.4444062469231
 31
0.0
  0
ARC
  5
9E82
  8
0
 10
990.34178735981368
 20
1556.4444062469231
 30
0.0
 40
2.0
 50
270.0
 51
0.000000000000007
  0
LINE
  5
9E83
  8
0
 10
990.34178735981368
 20
1575.4444062469231
 30
0.0
 11
960.34178735981357
 21
1575.4444062469231
 31
0.0
  0
ARC
  5
9E84
  8
0
 10
960.34178735981357
 20
1573.4444062469231
 30
0.0
 40
2.0
 50
90.0
 51
180.0
  0
CIRCLE
  5
9E85
  8
0
 10
1044.7936901958319
 20
1538.11519832613
 30
0.0
 40
4.5544554455445896
  0
CIRCLE
  5
9E86
  8
0
 10
1045.0775620034819
 20
1538.0889471913349
 30
0.0
 40
11.65838223604803
  0
LINE
  5
9EF1
  8
0
 10
2388.9206970951491
 20
886.70049783579907
 30
0.0
 11
2392.9206970951491
 21
882.70049783579918
 31
0.0
  0
LINE
  5
9EF2
  8
0
 10
2392.9206970951491
 20
882.70049783579918
 30
0.0
 11
2392.9206970951491
 21
821.6004978357995
 31
0.0
  0
LINE
  5
9EF3
  8
0
 10
2388.9206970951491
 20
817.60049783579973
 30
0.0
 11
2392.9206970951491
 21
821.60049783579973
 31
0.0
  0
LINE
  5
9EF4
  8
0
 10
2168.92069709515
 20
888.15049783579889
 30
0.0
 11
2169.92069709515
 21
889.15049783579889
 31
0.0
  0
LINE
  5
9EF5
  8
0
 10
2169.92069709515
 20
815.15049783579911
 30
0.0
 11
2168.92069709515
 21
816.150497835799
 31
0.0
  0
LINE
  5
9F02
  8
0
 10
2168.92069709515
 20
886.70049783579907
 30
0.0
 11
2164.92069709515
 21
882.70049783579918
 31
0.0
  0
LINE
  5
9F03
  8
0
 10
2164.92069709515
 20
882.70049783579918
 30
0.0
 11
2164.92069709515
 21
821.6004978357995
 31
0.0
  0
LINE
  5
9F04
  8
0
 10
2168.92069709515
 20
817.60049783579973
 30
0.0
 11
2164.92069709515
 21
821.60049783579973
 31
0.0
  0
LINE
  5
9F14
  8
0
 10
2388.9206970951491
 20
1171.669485414978
 30
0.0
 11
2392.9206970951491
 21
1167.669485414978
 31
0.0
  0
LINE
  5
9F15
  8
0
 10
2392.9206970951491
 20
1167.669485414978
 30
0.0
 11
2392.9206970951491
 21
1106.569485414979
 31
0.0
  0
LINE
  5
9F16
  8
0
 10
2388.9206970951491
 20
1102.569485414979
 30
0.0
 11
2392.9206970951491
 21
1106.569485414979
 31
0.0
  0
LINE
  5
9F23
  8
0
 10
2168.92069709515
 20
1171.669485414978
 30
0.0
 11
2164.92069709515
 21
1167.669485414978
 31
0.0
  0
LINE
  5
9F24
  8
0
 10
2164.92069709515
 20
1167.669485414978
 30
0.0
 11
2164.92069709515
 21
1106.569485414979
 31
0.0
  0
LINE
  5
9F25
  8
0
 10
2168.92069709515
 20
1102.569485414979
 30
0.0
 11
2164.92069709515
 21
1106.569485414979
 31
0.0
  0
LINE
  5
9F26
  8
0
 10
2198.9206970951491
 20
1174.119485414979
 30
0.0
 11
2198.9206970951491
 21
1100.119485414979
 31
0.0
  0
LINE
  5
9F27
  8
0
 10
2211.9110781519162
 20
1107.619485414979
 30
0.0
 11
2211.9110781519171
 21
1166.619485414979
 31
0.0
  0
LINE
  5
9F29
  8
0
 10
2358.92069709515
 20
1174.119485414979
 30
0.0
 11
2358.92069709515
 21
1100.119485414978
 31
0.0
  0
LINE
  5
9F2A
  8
0
 10
2345.9303160383829
 20
1107.619485414979
 30
0.0
 11
2345.9303160383829
 21
1166.619485414979
 31
0.0
  0
LINE
  5
9F2C
  8
0
 10
2306.692172559031
 20
1215.506041657942
 30
0.0
 11
2306.6921725590319
 21
1220.985812503935
 31
0.0
  0
ARC
  5
9F2D
  8
0
 10
2305.0584996479888
 20
1220.985812503935
 30
0.0
 40
1.6336729110436721
 50
0.000000000000007
 51
90.0
  0
ARC
  5
9F30
  8
0
 10
2250.1492216312672
 20
1215.506041657942
 30
0.0
 40
1.0
 50
290.15546181159851
 51
0.0
  0
ARC
  5
9F31
  8
0
 10
2307.692172559031
 20
1215.506041657942
 30
0.0
 40
1.0
 50
180.0
 51
249.8445381884014
  0
LINE
  5
9F4D
  8
0
 10
2294.9206970951468
 20
1882.8015888869861
 30
0.0
 11
2262.9206970951468
 21
1882.8015888869861
 31
0.0
  0
LINE
  5
9F4E
  8
0
 10
2320.8273104726991
 20
1852.8015888869861
 30
0.0
 11
2297.9206970951482
 21
1852.8015888869861
 31
0.0
  0
LINE
  5
9F4F
  8
0
 10
2196.4206970951482
 20
1786.3015888869861
 30
0.0
 11
2169.9206970951482
 21
1786.3015888869861
 31
0.0
  0
LINE
  5
9F50
  8
0
 10
2198.9206970951468
 20
1860.3015888869861
 30
0.0
 11
2169.9206970951482
 21
1860.3015888869861
 31
0.0
  0
LINE
  5
9F51
  8
0
 10
2168.9206970951482
 20
1859.3015888869861
 30
0.0
 11
2169.9206970951482
 21
1860.3015888869861
 31
0.0
  0
LINE
  5
9F53
  8
0
 10
2262.9206970951468
 20
1882.8015888869861
 30
0.0
 11
2262.9206970951468
 21
1851.2434835914451
 31
0.0
  0
LINE
  5
9F54
  8
0
 10
2294.9206970951468
 20
1882.8015888869861
 30
0.0
 11
2294.9206970951468
 21
1851.2434835914451
 31
0.0
  0
LINE
  5
9F55
  8
0
 10
2168.9206970951482
 20
1859.3015888869861
 30
0.0
 11
2168.9206970951482
 21
1787.3015888869861
 31
0.0
  0
LINE
  5
9F56
  8
0
 10
2169.9206970951482
 20
1786.3015888869861
 30
0.0
 11
2168.9206970951482
 21
1787.3015888869861
 31
0.0
  0
LINE
  5
9F57
  8
0
 10
2196.4206970951482
 20
1807.5414090587849
 30
0.0
 11
2196.4206970951468
 21
1694.546891712972
 31
0.0
  0
LINE
  5
9F58
  8
0
 10
2361.4206970951468
 20
1807.5414090587849
 30
0.0
 11
2361.4206970951468
 21
1687.325625687356
 31
0.0
  0
LINE
  5
9F5A
  8
0
 10
2211.9110781519139
 20
1852.8015888869861
 30
0.0
 11
2198.9206970951468
 21
1860.3015888869861
 31
0.0
  0
LINE
  5
9F5B
  8
0
 10
2361.4206970951482
 20
1786.3015888869861
 30
0.0
 11
2387.9206970951468
 21
1786.3015888869861
 31
0.0
  0
LINE
  5
9F5C
  8
0
 10
2388.9206970951468
 20
1787.3015888869861
 30
0.0
 11
2387.9206970951468
 21
1786.3015888869861
 31
0.0
  0
LINE
  5
9F5D
  8
0
 10
2332.9206970951468
 20
1860.3015888869861
 30
0.0
 11
2387.9206970951468
 21
1860.3015888869861
 31
0.0
  0
LINE
  5
9F5E
  8
0
 10
2388.9206970951468
 20
1859.3015888869861
 30
0.0
 11
2388.9206970951468
 21
1787.3015888869861
 31
0.0
  0
LINE
  5
9F5F
  8
0
 10
2387.9206970951468
 20
1860.3015888869861
 30
0.0
 11
2388.9206970951468
 21
1859.3015888869861
 31
0.0
  0
ARC
  5
9F60
  8
0
 10
2278.9206970951468
 20
1730.8015888869861
 30
0.0
 40
121.5
 50
53.880331872851741
 51
126.1196681271482
  0
ARC
  5
9F61
  8
0
 10
2222.9206970951482
 20
1807.5414090587849
 30
0.0
 40
26.5
 50
126.1196681271482
 51
180.0
  0
ARC
  5
9F62
  8
0
 10
2332.9206970951468
 20
1849.801588886985
 30
0.0
 40
10.5
 50
90.0
 51
153.61220003876241
  0
ARC
  5
9F63
  8
0
 10
2320.8273104726991
 20
1855.8015888869861
 30
0.0
 40
3.0
 50
270.0
 51
333.61220003876241
  0
LINE
  5
9F64
  8
0
 10
2332.9206970951468
 20
1860.3015888869861
 30
0.0
 11
2294.9206970951468
 21
1860.3015888869861
 31
0.0
  0
LINE
  5
9F65
  8
0
 10
2262.9206970951468
 20
1860.3015888869861
 30
0.0
 11
2198.9206970951482
 21
1860.3015888869861
 31
0.0
  0
ARC
  5
9F66
  8
0
 10
2334.9206970951482
 20
1807.5414090587849
 30
0.0
 40
26.5
 50
0.000000000000007
 51
53.880331872851741
  0
ARC
  5
9F67
  8
0
 10
2297.9206970951482
 20
1855.8015888869861
 30
0.0
 40
3.0
 50
180.0
 51
270.0
  0
ARC
  5
9F68
  8
0
 10
2259.9206970951468
 20
1855.8015888869861
 30
0.0
 40
3.0
 50
270.0
 51
0.000000000000007
  0
LINE
  5
9F69
  8
0
 10
2259.9206970951468
 20
1852.8015888869861
 30
0.0
 11
2211.9110781519139
 21
1852.8015888869861
 31
0.0
  0
LINE
  5
9F6A
  8
0
 10
2262.9206970951468
 20
1338.265879805919
 30
0.0
 11
2262.9206970951468
 21
1318.8015888869861
 31
0.0
  0
LINE
  5
9F6B
  8
0
 10
2263.9206970951468
 20
1317.8015888869861
 30
0.0
 11
2262.9206970951468
 21
1318.8015888869861
 31
0.0
  0
LINE
  5
9F6C
  8
0
 10
2294.9206970951468
 20
1338.265879805919
 30
0.0
 11
2294.9206970951482
 21
1318.8015888869861
 31
0.0
  0
LINE
  5
9F6D
  8
0
 10
2196.0206970951472
 20
1394.8015888869861
 30
0.0
 11
2196.0206970951472
 21
1384.726691581764
 31
0.0
  0
LINE
  5
9F6E
  8
0
 10
2361.8206970951469
 20
1394.8015888869861
 30
0.0
 11
2361.8206970951469
 21
1384.726691581764
 31
0.0
  0
LINE
  5
9F6F
  8
0
 10
2196.4206970951482
 20
1661.056286061
 30
0.0
 11
2196.4206970951468
 21
1394.8015888869861
 31
0.0
  0
LINE
  5
9F71
  8
0
 10
2361.4206970951482
 20
1668.2775520866151
 30
0.0
 11
2361.4206970951468
 21
1394.8015888869861
 31
0.0
  0
LINE
  5
9F72
  8
0
 10
2361.4206970951468
 20
1394.8015888869861
 30
0.0
 11
2196.4206970951468
 21
1394.8015888869861
 31
0.0
  0
LINE
  5
9F73
  8
0
 10
2361.8206970951469
 20
1394.8015888869861
 30
0.0
 11
2196.0206970951472
 21
1394.8015888869861
 31
0.0
  0
LINE
  5
9F74
  8
0
 10
2293.9206970951482
 20
1317.8015888869861
 30
0.0
 11
2263.9206970951468
 21
1317.8015888869861
 31
0.0
  0
LINE
  5
9F75
  8
0
 10
2294.9206970951482
 20
1318.8015888869861
 30
0.0
 11
2293.9206970951482
 21
1317.8015888869861
 31
0.0
  0
ARC
  5
9F76
  8
0
 10
2278.9206970951468
 20
1460.8015888869861
 30
0.0
 40
121.0
 50
233.20545439748909
 51
306.79454560251088
  0
ARC
  5
9F77
  8
0
 10
2259.9206970951468
 20
1338.265879805919
 30
0.0
 40
3.0
 50
0.000000000000007
 51
81.186086681329229
  0
ARC
  5
9F78
  8
0
 10
2297.9206970951468
 20
1338.265879805919
 30
0.0
 40
3.0
 50
98.813913318670785
 51
180.0
  0
ARC
  5
9F79
  8
0
 10
2335.8206970951469
 20
1384.726691581764
 30
0.0
 40
26.0
 50
306.79454560251088
 51
0.000000000000007
  0
ARC
  5
9F7A
  8
0
 10
2222.0206970951472
 20
1384.726691581764
 30
0.0
 40
26.0
 50
180.0
 51
233.20545439748909
  0
LINE
  5
9F7C
  8
0
 10
2278.9211970951478
 20
1899.124864576213
 30
0.0
 11
2268.4436970951479
 21
1889.124864576213
 31
0.0
  0
LINE
  5
9F7D
  8
0
 10
2289.3986970951478
 20
1889.1248645762139
 30
0.0
 11
2278.9211970951478
 21
1899.124864576213
 31
0.0
  0
LINE
  5
9F7E
  8
0
 10
2278.9206970951482
 20
1889.1248645762139
 30
0.0
 11
2289.3986970951478
 21
1899.124864576213
 31
0.0
  0
LINE
  5
9F7F
  8
0
 10
2268.4436970951469
 20
1899.124864576213
 30
0.0
 11
2278.9206970951482
 21
1889.1248645762139
 31
0.0
  0
LINE
  5
9F80
  8
0
 10
2289.3986970951478
 20
1899.124864576213
 30
0.0
 11
2289.3986970951478
 21
1889.1248645762139
 31
0.0
  0
LINE
  5
9F81
  8
0
 10
2268.4436970951469
 20
1899.124864576213
 30
0.0
 11
2268.4436970951479
 21
1889.1248645762139
 31
0.0
  0
LINE
  5
9F82
  8
0
 10
2289.3986970951478
 20
1889.1248645762139
 30
0.0
 11
2268.4436970951469
 21
1889.1248645762139
 31
0.0
  0
LINE
  5
9F83
  8
0
 10
2289.3986970951478
 20
1889.1248645762139
 30
0.0
 11
2289.2010259986018
 21
1882.8015888869861
 31
0.0
  0
LINE
  5
9F84
  8
0
 10
2288.2356970951482
 20
1889.1248645762139
 30
0.0
 11
2288.0383009236321
 21
1882.8015888869861
 31
0.0
  0
LINE
  5
9F85
  8
0
 10
2269.6056970951472
 20
1889.1248645762139
 30
0.0
 11
2269.8030932666629
 21
1882.8015888869861
 31
0.0
  0
LINE
  5
9F86
  8
0
 10
2268.4436970951469
 20
1889.1248645762139
 30
0.0
 11
2268.641093266664
 21
1882.8015888869861
 31
0.0
  0
LINE
  5
9F87
  8
0
 10
2289.3986970951478
 20
1899.124864576213
 30
0.0
 11
2268.4436970951469
 21
1899.124864576213
 31
0.0
  0
LINE
  5
9F89
  8
0
 10
2175.0998658045519
 20
1682.45759991665
 30
0.0
 11
2175.0998658045519
 21
1677.801588886985
 31
0.0
  0
LINE
  5
9F8A
  8
0
 10
2175.0998658045519
 20
1672.6554714331451
 30
0.0
 11
2175.0998658045519
 21
1677.801588886985
 31
0.0
  0
LINE
  5
9F8B
  8
0
 10
2363.9106721469138
 20
1687.325625687356
 30
0.0
 11
2175.0998658045519
 21
1687.325625687356
 31
0.0
  0
LINE
  5
9F8C
  8
0
 10
2394.912550816613
 20
1677.801588886985
 30
0.0
 11
2349.1591183732749
 21
1677.8015888869861
 31
0.0
  0
LINE
  5
9F8D
  8
0
 10
2394.912550816613
 20
1668.2775520866151
 30
0.0
 11
2175.0998658045519
 21
1668.2775520866151
 31
0.0
  0
LINE
  5
9F8E
  8
0
 10
2175.099865804551
 20
1661.056286061
 30
0.0
 11
2175.0998658045519
 21
1694.546891712972
 31
0.0
  0
LINE
  5
9F8F
  8
0
 10
2394.912550816613
 20
1668.2775520866151
 30
0.0
 11
2394.912550816613
 21
1692.2573247449079
 31
0.0
  0
LINE
  5
9F96
  8
0
 10
2242.9119106325029
 20
1694.546891712972
 30
0.0
 11
2242.9119106325038
 21
1687.325625687356
 31
0.0
  0
LINE
  5
9F97
  8
0
 10
2242.9119106325038
 20
1668.2775520866151
 30
0.0
 11
2242.9119106325038
 21
1661.056286061
 31
0.0
  0
ARC
  5
9F98
  8
0
 10
2378.5705869172798
 20
1694.546891712972
 30
0.0
 40
6.5347523223360806
 50
218.6821874534931
 51
321.31781254650701
  0
ARC
  5
9F99
  8
0
 10
2378.5705869172798
 20
1694.546891712972
 30
0.0
 40
6.5347523223360806
 50
38.68218745349305
 51
141.3178125465069
  0
LINE
  5
9F9A
  8
0
 10
2175.0998658045519
 20
1694.546891712972
 30
0.0
 11
2242.9119106325029
 21
1694.546891712972
 31
0.0
  0
LINE
  5
9F9B
  8
0
 10
2175.099865804551
 20
1661.056286061
 30
0.0
 11
2242.9119106325038
 21
1661.056286061
 31
0.0
  0
LINE
  5
9FA8
  8
0
 10
2168.9206970951482
 20
1857.8515888869861
 30
0.0
 11
2164.9206970951482
 21
1853.8515888869861
 31
0.0
  0
LINE
  5
9FA9
  8
0
 10
2164.9206970951482
 20
1853.8515888869861
 30
0.0
 11
2164.9206970951482
 21
1792.7515888869859
 31
0.0
  0
LINE
  5
9FAA
  8
0
 10
2168.9206970951482
 20
1788.7515888869859
 30
0.0
 11
2164.9206970951482
 21
1792.7515888869859
 31
0.0
  0
LINE
  5
9FAB
  8
0
 10
2388.9206970951468
 20
1859.3015888869861
 30
0.0
 11
2387.9206970951468
 21
1860.3015888869861
 31
0.0
  0
LINE
  5
9FAC
  8
0
 10
2387.9206970951468
 20
1786.3015888869861
 30
0.0
 11
2388.9206970951468
 21
1787.3015888869861
 31
0.0
  0
LINE
  5
9FB9
  8
0
 10
2388.9206970951468
 20
1857.8515888869861
 30
0.0
 11
2392.9206970951468
 21
1853.8515888869861
 31
0.0
  0
LINE
  5
9FBA
  8
0
 10
2392.9206970951468
 20
1853.8515888869861
 30
0.0
 11
2392.9206970951468
 21
1792.7515888869859
 31
0.0
  0
LINE
  5
9FBB
  8
0
 10
2388.9206970951468
 20
1788.7515888869859
 30
0.0
 11
2392.9206970951468
 21
1792.7515888869859
 31
0.0
  0
LINE
  5
9FBC
  8
0
 10
2292.9206970951491
 20
1806.8015888869861
 30
0.0
 11
2264.9206970951491
 21
1806.8015888869861
 31
0.0
  0
LINE
  5
9FBD
  8
0
 10
2292.92069709515
 20
1785.8015888869861
 30
0.0
 11
2264.9206970951491
 21
1785.8015888869861
 31
0.0
  0
LINE
  5
9FBE
  8
0
 10
2295.9206970951491
 20
1803.8015888869861
 30
0.0
 11
2295.92069709515
 21
1788.8015888869861
 31
0.0
  0
LINE
  5
9FBF
  8
0
 10
2261.9206970951491
 20
1803.8015888869861
 30
0.0
 11
2261.9206970951491
 21
1788.8015888869861
 31
0.0
  0
ARC
  5
9FC0
  8
0
 10
2292.9206970951491
 20
1803.8015888869861
 30
0.0
 40
3.0
 50
0.000000000000007
 51
90.0
  0
ARC
  5
9FC1
  8
0
 10
2292.92069709515
 20
1788.8015888869861
 30
0.0
 40
3.0
 50
270.0
 51
360.0
  0
ARC
  5
9FC2
  8
0
 10
2264.9206970951491
 20
1788.8015888869861
 30
0.0
 40
3.0
 50
180.0
 51
270.0
  0
ARC
  5
9FC3
  8
0
 10
2264.9206970951491
 20
1803.8015888869861
 30
0.0
 40
3.0
 50
90.0
 51
180.0
  0
CIRCLE
  5
9FC4
  8
0
 10
2619.5013569017769
 20
852.15049783579934
 30
0.0
 40
77.499999999999886
  0
TEXT
  5
9FD7
  8
0
 10
2008.6676329791369
 20
125.4638491048654
 30
0.0
 40
50.0
  1
TLV  SF1 (JIS20K)
 41
0.8
 72
     4
 11
2268.477156788661
 21
146.89242053343679
 31
0.0
  0
CIRCLE
  5
9FDA
  8
0
 10
2378.5705869172798
 20
1694.546891712972
 30
0.0
 40
6.5347523223360886
  0
CIRCLE
  5
9FDB
  8
0
 10
2378.5705869172798
 20
1694.546891712972
 30
0.0
 40
16.501572682273618
  0
LINE
  5
A14F
  8
0
 10
704.74474950201443
 20
2328.017141505748
 30
0.0
 11
704.74474950201443
 21
2290.017141505748
 31
0.0
  0
LINE
  5
A152
  8
0
 10
714.49881134078009
 20
2322.017141505748
 30
0.0
 11
714.49881134078009
 21
2296.0171415057471
 31
0.0
  0
LINE
  5
A153
  8
0
 10
763.94679053088203
 20
2322.017141505748
 30
0.0
 11
763.99068766324899
 21
2296.0171415057471
 31
0.0
  0
LINE
  5
A154
  8
0
 10
773.74474950201466
 20
2328.0171415057471
 30
0.0
 11
773.74474950201466
 21
2290.017141505748
 31
0.0
  0
LINE
  5
A155
  8
0
 10
1578.3330755991481
 20
2328.0171415057471
 30
0.0
 11
1578.3330755991481
 21
2290.017141505748
 31
0.0
  0
LINE
  5
A156
  8
0
 10
1588.1310345702809
 20
2322.017141505748
 30
0.0
 11
1588.1310345702809
 21
2296.017141505748
 31
0.0
  0
LINE
  5
A157
  8
0
 10
1647.333075599149
 20
2328.0171415057471
 30
0.0
 11
1647.333075599149
 21
2290.017141505748
 31
0.0
  0
LINE
  5
A159
  8
0
 10
1637.5790137603831
 20
2296.0171415057471
 30
0.0
 11
1637.5351166280161
 21
2322.017141505748
 31
0.0
  0
LINE
  5
A1D8
  8
0
 10
808.05216013910103
 20
2647.344905159845
 30
0.0
 11
814.55216013910103
 21
2647.344905159845
 31
0.0
  0
LINE
  5
A1D9
  8
0
 10
808.05216013910103
 20
2625.6449051598452
 30
0.0
 11
814.55216013910103
 21
2625.6449051598452
 31
0.0
  0
LINE
  5
A1DA
  8
0
 10
834.55216013910092
 20
2683.9949051598451
 30
0.0
 11
834.55216013910092
 21
2588.9949051598451
 31
0.0
  0
LINE
  5
A1DC
  8
0
 10
822.55216013910103
 20
2681.9949051598451
 30
0.0
 11
822.55216013910103
 21
2590.9949051598451
 31
0.0
  0
LINE
  5
A1DD
  8
0
 10
824.55216013910092
 20
2683.9949051598451
 30
0.0
 11
822.55216013910103
 21
2681.9949051598451
 31
0.0
  0
ARC
  5
A1DE
  8
0
 10
818.55216013910115
 20
2655.46526193613
 30
0.0
 40
4.0
 50
307.55128212617927
 51
0.0
  0
ARC
  5
A1DF
  8
0
 10
818.55216013910115
 20
2617.5245483835611
 30
0.0
 40
4.0
 50
0.0
 51
52.44871787382074
  0
LINE
  5
A1E0
  8
0
 10
824.55216013910092
 20
2683.9949051598451
 30
0.0
 11
834.55216013910092
 21
2683.9949051598451
 31
0.0
  0
LINE
  5
A1E1
  8
0
 10
834.55216013910092
 20
2588.9949051598451
 30
0.0
 11
824.55216013910092
 21
2588.9949051598451
 31
0.0
  0
LINE
  5
A1E2
  8
0
 10
822.55216013910103
 20
2590.9949051598451
 30
0.0
 11
824.55216013910092
 21
2588.9949051598451
 31
0.0
  0
LINE
  5
A1E3
  8
0
 10
814.55216013910103
 20
2647.344905159845
 30
0.0
 11
820.99004521747941
 21
2652.294029313849
 31
0.0
  0
LINE
  5
A1E4
  8
0
 10
814.55216013910103
 20
2625.6449051598452
 30
0.0
 11
820.99004521747963
 21
2620.695781005842
 31
0.0
  0
LINE
  5
A1E6
  8
0
 10
814.55216013910103
 20
2647.344905159845
 30
0.0
 11
814.55216013910115
 21
2625.6449051598452
 31
0.0
  0
LINE
  5
A1E8
  8
0
 10
804.05216013910092
 20
2651.344905159845
 30
0.0
 11
808.05216013910103
 21
2647.344905159845
 31
0.0
  0
LINE
  5
A1E9
  8
0
 10
808.05216013910103
 20
2647.344905159845
 30
0.0
 11
808.05216013910103
 21
2625.6449051598452
 31
0.0
  0
LINE
  5
A1EA
  8
0
 10
804.05216013910092
 20
2621.6449051598461
 30
0.0
 11
808.05216013910103
 21
2625.6449051598452
 31
0.0
  0
LINE
  5
A1EB
  8
0
 10
670.05216013910103
 20
2647.344905159845
 30
0.0
 11
663.55216013910103
 21
2647.344905159845
 31
0.0
  0
LINE
  5
A1EC
  8
0
 10
670.05216013910103
 20
2625.6449051598452
 30
0.0
 11
663.55216013910103
 21
2625.6449051598452
 31
0.0
  0
LINE
  5
A1ED
  8
0
 10
643.55216013910103
 20
2683.9949051598451
 30
0.0
 11
643.55216013910103
 21
2588.9949051598451
 31
0.0
  0
LINE
  5
A1EE
  8
0
 10
655.55216013910103
 20
2681.9949051598451
 30
0.0
 11
655.55216013910103
 21
2590.9949051598451
 31
0.0
  0
LINE
  5
A1EF
  8
0
 10
653.55216013910103
 20
2683.9949051598451
 30
0.0
 11
655.55216013910103
 21
2681.9949051598451
 31
0.0
  0
ARC
  5
A1F0
  8
0
 10
659.55216013910103
 20
2655.46526193613
 30
0.0
 40
4.0
 50
180.0
 51
232.44871787382081
  0
ARC
  5
A1F1
  8
0
 10
659.55216013910103
 20
2617.5245483835611
 30
0.0
 40
4.0
 50
127.5512821261792
 51
180.0
  0
LINE
  5
A1F2
  8
0
 10
653.55216013910103
 20
2683.9949051598451
 30
0.0
 11
643.55216013910103
 21
2683.9949051598451
 31
0.0
  0
LINE
  5
A1F3
  8
0
 10
643.55216013910103
 20
2588.9949051598451
 30
0.0
 11
653.55216013910103
 21
2588.9949051598451
 31
0.0
  0
LINE
  5
A1F4
  8
0
 10
655.55216013910103
 20
2590.9949051598451
 30
0.0
 11
653.55216013910103
 21
2588.9949051598451
 31
0.0
  0
LINE
  5
A1F5
  8
0
 10
663.55216013910103
 20
2647.344905159845
 30
0.0
 11
657.11427506072255
 21
2652.294029313849
 31
0.0
  0
LINE
  5
A1F6
  8
0
 10
663.55216013910103
 20
2625.6449051598452
 30
0.0
 11
657.11427506072243
 21
2620.695781005842
 31
0.0
  0
LINE
  5
A1F8
  8
0
 10
663.55216013910103
 20
2647.344905159845
 30
0.0
 11
663.55216013910092
 21
2625.6449051598452
 31
0.0
  0
LINE
  5
A1F9
  8
0
 10
674.05216013910103
 20
2651.344905159845
 30
0.0
 11
670.05216013910103
 21
2647.344905159845
 31
0.0
  0
LINE
  5
A1FA
  8
0
 10
670.05216013910103
 20
2647.344905159845
 30
0.0
 11
670.05216013910103
 21
2625.6449051598452
 31
0.0
  0
LINE
  5
A1FB
  8
0
 10
674.05216013910103
 20
2621.6449051598461
 30
0.0
 11
670.05216013910103
 21
2625.6449051598452
 31
0.0
  0
CIRCLE
  5
A217
  8
0
 10
943.50775714938698
 20
2096.98649910616
 30
0.0
 40
7.5
  0
CIRCLE
  5
A218
  8
0
 10
943.50775714938698
 20
2146.483973789218
 30
0.0
 40
7.5
  0
CIRCLE
  5
A219
  8
0
 10
918.75901980785807
 20
2121.7352364476892
 30
0.0
 40
47.5
  0
CIRCLE
  5
A21A
  8
0
 10
894.01028246632904
 20
2096.98649910616
 30
0.0
 40
7.5
  0
CIRCLE
  5
A21B
  8
0
 10
894.01028246632904
 20
2146.483973789218
 30
0.0
 40
7.5
  0
CIRCLE
  5
A21D
  8
0
 10
569.16114445457333
 20
2096.98649910616
 30
0.0
 40
7.5
  0
CIRCLE
  5
A21E
  8
0
 10
569.16114445457333
 20
2146.483973789218
 30
0.0
 40
7.5
  0
CIRCLE
  5
A21F
  8
0
 10
544.41240711304431
 20
2121.7352364476892
 30
0.0
 40
47.5
  0
CIRCLE
  5
A220
  8
0
 10
519.66366977151529
 20
2096.98649910616
 30
0.0
 40
7.5
  0
CIRCLE
  5
A221
  8
0
 10
519.66366977151529
 20
2146.483973789218
 30
0.0
 40
7.5
  0
LINE
  5
A223
  8
0
 10
808.24474950201454
 20
2319.867141505747
 30
0.0
 11
814.74474950201466
 21
2319.867141505747
 31
0.0
  0
LINE
  5
A224
  8
0
 10
808.24474950201454
 20
2298.1671415057481
 30
0.0
 11
814.74474950201466
 21
2298.1671415057481
 31
0.0
  0
LINE
  5
A225
  8
0
 10
834.74474950201466
 20
2356.5171415057471
 30
0.0
 11
834.74474950201466
 21
2261.517141505748
 31
0.0
  0
LINE
  5
A226
  8
0
 10
822.74474950201466
 20
2354.5171415057471
 30
0.0
 11
822.74474950201466
 21
2263.5171415057471
 31
0.0
  0
LINE
  5
A227
  8
0
 10
824.74474950201466
 20
2356.5171415057471
 30
0.0
 11
822.74474950201466
 21
2354.5171415057471
 31
0.0
  0
ARC
  5
A228
  8
0
 10
818.74474950201466
 20
2327.987498282032
 30
0.0
 40
4.0
 50
307.55128212617927
 51
0.0
  0
ARC
  5
A229
  8
0
 10
818.74474950201466
 20
2290.0467847294631
 30
0.0
 40
4.0
 50
0.0
 51
52.44871787382074
  0
LINE
  5
A22A
  8
0
 10
824.74474950201466
 20
2356.5171415057471
 30
0.0
 11
834.74474950201466
 21
2356.5171415057471
 31
0.0
  0
LINE
  5
A22B
  8
0
 10
834.74474950201466
 20
2261.517141505748
 30
0.0
 11
824.74474950201466
 21
2261.517141505748
 31
0.0
  0
LINE
  5
A22C
  8
0
 10
822.74474950201466
 20
2263.5171415057471
 30
0.0
 11
824.74474950201466
 21
2261.517141505748
 31
0.0
  0
LINE
  5
A22D
  8
0
 10
814.74474950201466
 20
2319.867141505747
 30
0.0
 11
821.18263458039314
 21
2324.816265659751
 31
0.0
  0
LINE
  5
A22E
  8
0
 10
814.74474950201466
 20
2298.1671415057481
 30
0.0
 11
821.18263458039326
 21
2293.218017351744
 31
0.0
  0
LINE
  5
A22F
  8
0
 10
814.74474950201466
 20
2319.867141505747
 30
0.0
 11
814.74474950201466
 21
2298.1671415057481
 31
0.0
  0
LINE
  5
A230
  8
0
 10
804.24474950201466
 20
2323.867141505747
 30
0.0
 11
808.24474950201454
 21
2319.867141505747
 31
0.0
  0
LINE
  5
A231
  8
0
 10
808.24474950201454
 20
2319.867141505747
 30
0.0
 11
808.24474950201454
 21
2298.1671415057481
 31
0.0
  0
LINE
  5
A232
  8
0
 10
804.24474950201466
 20
2294.1671415057481
 30
0.0
 11
808.24474950201454
 21
2298.1671415057481
 31
0.0
  0
LINE
  5
A233
  8
0
 10
808.05216013910103
 20
2132.5852364476891
 30
0.0
 11
814.55216013910103
 21
2132.5852364476891
 31
0.0
  0
LINE
  5
A234
  8
0
 10
808.05216013910103
 20
2110.8852364476888
 30
0.0
 11
814.55216013910103
 21
2110.8852364476888
 31
0.0
  0
LINE
  5
A235
  8
0
 10
834.55216013910092
 20
2169.2352364476892
 30
0.0
 11
834.55216013910092
 21
2074.2352364476892
 31
0.0
  0
LINE
  5
A236
  8
0
 10
822.55216013910103
 20
2167.2352364476892
 30
0.0
 11
822.55216013910103
 21
2076.2352364476892
 31
0.0
  0
LINE
  5
A237
  8
0
 10
824.55216013910092
 20
2169.2352364476892
 30
0.0
 11
822.55216013910103
 21
2167.2352364476892
 31
0.0
  0
ARC
  5
A238
  8
0
 10
818.55216013910115
 20
2140.7055932239741
 30
0.0
 40
4.0
 50
307.55128212617927
 51
0.0
  0
ARC
  5
A239
  8
0
 10
818.55216013910115
 20
2102.7648796714052
 30
0.0
 40
4.0
 50
0.0
 51
52.44871787382074
  0
LINE
  5
A23A
  8
0
 10
824.55216013910092
 20
2169.2352364476892
 30
0.0
 11
834.55216013910092
 21
2169.2352364476892
 31
0.0
  0
LINE
  5
A23B
  8
0
 10
834.55216013910092
 20
2074.2352364476892
 30
0.0
 11
824.55216013910092
 21
2074.2352364476892
 31
0.0
  0
LINE
  5
A23C
  8
0
 10
822.55216013910103
 20
2076.2352364476892
 30
0.0
 11
824.55216013910092
 21
2074.2352364476892
 31
0.0
  0
LINE
  5
A23D
  8
0
 10
814.55216013910103
 20
2132.5852364476891
 30
0.0
 11
820.99004521747941
 21
2137.5343606016918
 31
0.0
  0
LINE
  5
A23E
  8
0
 10
814.55216013910103
 20
2110.8852364476888
 30
0.0
 11
820.99004521747963
 21
2105.9361122936862
 31
0.0
  0
LINE
  5
A23F
  8
0
 10
814.55216013910103
 20
2132.5852364476891
 30
0.0
 11
814.55216013910115
 21
2110.8852364476888
 31
0.0
  0
LINE
  5
A240
  8
0
 10
804.05216013910092
 20
2136.5852364476891
 30
0.0
 11
808.05216013910103
 21
2132.5852364476891
 31
0.0
  0
LINE
  5
A241
  8
0
 10
808.05216013910103
 20
2132.5852364476891
 30
0.0
 11
808.05216013910103
 21
2110.8852364476888
 31
0.0
  0
LINE
  5
A242
  8
0
 10
804.05216013910092
 20
2106.8852364476888
 30
0.0
 11
808.05216013910103
 21
2110.8852364476888
 31
0.0
  0
LINE
  5
A243
  8
0
 10
675.43733886492851
 20
2140.7352364476892
 30
0.0
 11
674.43733886492851
 21
2139.7352364476892
 31
0.0
  0
LINE
  5
A244
  8
0
 10
674.43733886492851
 20
2103.7352364476892
 30
0.0
 11
675.43733886492851
 21
2102.7352364476892
 31
0.0
  0
LINE
  5
A245
  8
0
 10
670.24474950201477
 20
2319.867141505747
 30
0.0
 11
663.74474950201488
 21
2319.867141505747
 31
0.0
  0
LINE
  5
A246
  8
0
 10
670.24474950201477
 20
2298.1671415057481
 30
0.0
 11
663.74474950201488
 21
2298.1671415057481
 31
0.0
  0
LINE
  5
A247
  8
0
 10
643.74474950201488
 20
2356.5171415057471
 30
0.0
 11
643.74474950201488
 21
2261.517141505748
 31
0.0
  0
LINE
  5
A248
  8
0
 10
655.74474950201488
 20
2354.5171415057471
 30
0.0
 11
655.74474950201488
 21
2263.5171415057471
 31
0.0
  0
LINE
  5
A249
  8
0
 10
653.74474950201477
 20
2356.5171415057471
 30
0.0
 11
655.74474950201488
 21
2354.5171415057471
 31
0.0
  0
ARC
  5
A24A
  8
0
 10
659.74474950201488
 20
2327.987498282032
 30
0.0
 40
4.0
 50
180.0
 51
232.44871787382081
  0
ARC
  5
A24B
  8
0
 10
659.74474950201488
 20
2290.0467847294631
 30
0.0
 40
4.0
 50
127.5512821261792
 51
180.0
  0
LINE
  5
A24C
  8
0
 10
653.74474950201477
 20
2356.5171415057471
 30
0.0
 11
643.74474950201488
 21
2356.5171415057471
 31
0.0
  0
LINE
  5
A24D
  8
0
 10
643.74474950201488
 20
2261.517141505748
 30
0.0
 11
653.74474950201477
 21
2261.517141505748
 31
0.0
  0
LINE
  5
A24E
  8
0
 10
655.74474950201488
 20
2263.5171415057471
 30
0.0
 11
653.74474950201477
 21
2261.517141505748
 31
0.0
  0
LINE
  5
A24F
  8
0
 10
663.74474950201488
 20
2319.867141505747
 30
0.0
 11
657.30686442363628
 21
2324.816265659751
 31
0.0
  0
LINE
  5
A250
  8
0
 10
663.74474950201488
 20
2298.1671415057481
 30
0.0
 11
657.30686442363628
 21
2293.218017351744
 31
0.0
  0
LINE
  5
A251
  8
0
 10
663.74474950201488
 20
2319.867141505747
 30
0.0
 11
663.74474950201466
 21
2298.1671415057481
 31
0.0
  0
LINE
  5
A252
  8
0
 10
674.24474950201477
 20
2323.867141505747
 30
0.0
 11
670.24474950201477
 21
2319.867141505747
 31
0.0
  0
LINE
  5
A253
  8
0
 10
670.24474950201477
 20
2319.867141505747
 30
0.0
 11
670.24474950201477
 21
2298.1671415057481
 31
0.0
  0
LINE
  5
A254
  8
0
 10
674.24474950201477
 20
2294.1671415057481
 30
0.0
 11
670.24474950201477
 21
2298.1671415057481
 31
0.0
  0
LINE
  5
A265
  8
0
 10
670.05216013910103
 20
2132.5852364476891
 30
0.0
 11
663.55216013910103
 21
2132.5852364476891
 31
0.0
  0
LINE
  5
A266
  8
0
 10
670.05216013910103
 20
2110.8852364476888
 30
0.0
 11
663.55216013910103
 21
2110.8852364476888
 31
0.0
  0
LINE
  5
A267
  8
0
 10
643.55216013910103
 20
2169.2352364476892
 30
0.0
 11
643.55216013910103
 21
2074.2352364476892
 31
0.0
  0
LINE
  5
A268
  8
0
 10
655.55216013910103
 20
2167.2352364476892
 30
0.0
 11
655.55216013910103
 21
2076.2352364476892
 31
0.0
  0
LINE
  5
A269
  8
0
 10
653.55216013910103
 20
2169.2352364476892
 30
0.0
 11
655.55216013910103
 21
2167.2352364476892
 31
0.0
  0
ARC
  5
A26A
  8
0
 10
659.55216013910103
 20
2140.7055932239741
 30
0.0
 40
4.0
 50
180.0
 51
232.44871787382081
  0
ARC
  5
A26B
  8
0
 10
659.55216013910103
 20
2102.7648796714052
 30
0.0
 40
4.0
 50
127.5512821261792
 51
180.0
  0
LINE
  5
A26C
  8
0
 10
653.55216013910103
 20
2169.2352364476892
 30
0.0
 11
643.55216013910103
 21
2169.2352364476892
 31
0.0
  0
LINE
  5
A26D
  8
0
 10
643.55216013910103
 20
2074.2352364476892
 30
0.0
 11
653.55216013910103
 21
2074.2352364476892
 31
0.0
  0
LINE
  5
A26E
  8
0
 10
655.55216013910103
 20
2076.2352364476892
 30
0.0
 11
653.55216013910103
 21
2074.2352364476892
 31
0.0
  0
LINE
  5
A26F
  8
0
 10
663.55216013910103
 20
2132.5852364476891
 30
0.0
 11
657.11427506072255
 21
2137.5343606016918
 31
0.0
  0
LINE
  5
A270
  8
0
 10
663.55216013910103
 20
2110.8852364476888
 30
0.0
 11
657.11427506072243
 21
2105.9361122936862
 31
0.0
  0
LINE
  5
A271
  8
0
 10
663.55216013910103
 20
2132.5852364476891
 30
0.0
 11
663.55216013910092
 21
2110.8852364476888
 31
0.0
  0
LINE
  5
A272
  8
0
 10
674.05216013910103
 20
2136.5852364476891
 30
0.0
 11
670.05216013910103
 21
2132.5852364476891
 31
0.0
  0
LINE
  5
A273
  8
0
 10
670.05216013910103
 20
2132.5852364476891
 30
0.0
 11
670.05216013910103
 21
2110.8852364476888
 31
0.0
  0
LINE
  5
A274
  8
0
 10
674.05216013910103
 20
2106.8852364476888
 30
0.0
 11
670.05216013910103
 21
2110.8852364476888
 31
0.0
  0
LINE
  5
A297
  8
0
 10
1760.4876095979221
 20
2623.7601480482572
 30
0.0
 11
1803.9876095979221
 21
2623.7601480482572
 31
0.0
  0
LINE
  5
A298
  8
0
 10
1760.4876095979221
 20
2643.7601480482572
 30
0.0
 11
1803.9876095979221
 21
2643.7601480482572
 31
0.0
  0
LINE
  5
A299
  8
0
 10
1760.4876095979221
 20
2647.3601480482571
 30
0.0
 11
1779.9876095979221
 21
2647.3601480482571
 31
0.0
  0
LINE
  5
A29A
  8
0
 10
1760.4876095979221
 20
2620.1601480482568
 30
0.0
 11
1779.9876095979221
 21
2620.1601480482568
 31
0.0
  0
LINE
  5
A29B
  8
0
 10
1791.987609597923
 20
2583.7601480482572
 30
0.0
 11
1803.9876095979221
 21
2583.7601480482572
 31
0.0
  0
LINE
  5
A29C
  8
0
 10
1789.987609597923
 20
2585.7601480482572
 30
0.0
 11
1791.987609597923
 21
2583.7601480482572
 31
0.0
  0
LINE
  5
A29D
  8
0
 10
1791.987609597923
 20
2683.7601480482581
 30
0.0
 11
1803.9876095979221
 21
2683.7601480482581
 31
0.0
  0
LINE
  5
A29E
  8
0
 10
1789.987609597923
 20
2681.7601480482572
 30
0.0
 11
1791.987609597923
 21
2683.7601480482581
 31
0.0
  0
LINE
  5
A29F
  8
0
 10
1803.9876095979221
 20
2683.7601480482581
 30
0.0
 11
1803.9876095979221
 21
2583.7601480482572
 31
0.0
  0
LINE
  5
A2A0
  8
0
 10
1760.4876095979221
 20
2647.3601480482571
 30
0.0
 11
1760.4876095979221
 21
2620.1601480482568
 31
0.0
  0
LINE
  5
A2A1
  8
0
 10
1789.987609597923
 20
2681.7601480482572
 30
0.0
 11
1789.987609597923
 21
2655.949211113747
 31
0.0
  0
ARC
  5
A2A2
  8
0
 10
1785.9876095979221
 20
2655.949211113747
 30
0.0
 40
4.0
 50
302.61924307119853
 51
0.0
  0
LINE
  5
A2A3
  8
0
 10
1789.987609597923
 20
2611.5710849827678
 30
0.0
 11
1789.987609597923
 21
2585.7601480482572
 31
0.0
  0
ARC
  5
A2A4
  8
0
 10
1785.9876095979221
 20
2611.5710849827678
 30
0.0
 40
4.0
 50
0.0
 51
57.380756928801482
  0
LINE
  5
A2A5
  8
0
 10
1779.9876095979221
 20
2647.3601480482571
 30
0.0
 11
1788.143824383616
 21
2652.580125511101
 31
0.0
  0
LINE
  5
A2A6
  8
0
 10
1779.9876095979221
 20
2620.1601480482568
 30
0.0
 11
1788.143824383616
 21
2614.9401705854139
 31
0.0
  0
CIRCLE
  5
A2AC
  8
0
 10
1895.6922733217159
 20
2607.2436437537622
 30
0.0
 40
7.5
  0
CIRCLE
  5
A2AE
  8
0
 10
1895.6922733217159
 20
2660.2766523427531
 30
0.0
 40
7.5
  0
LINE
  5
A2B4
  8
0
 10
1681.6404862362349
 20
2653.1238047505649
 30
0.0
 11
1684.1404862362349
 21
2653.1238047505649
 31
0.0
  0
LINE
  5
A2B5
  8
0
 10
1681.6404862362349
 20
2625.9238047505651
 30
0.0
 11
1684.1404862362349
 21
2625.9238047505651
 31
0.0
  0
LINE
  5
A2B6
  8
0
 10
1696.1404862362349
 20
2589.523804750565
 30
0.0
 11
1708.1404862362349
 21
2589.523804750565
 31
0.0
  0
LINE
  5
A2B7
  8
0
 10
1694.1404862362349
 20
2591.523804750565
 30
0.0
 11
1696.1404862362349
 21
2589.523804750565
 31
0.0
  0
LINE
  5
A2B8
  8
0
 10
1696.1404862362349
 20
2689.523804750565
 30
0.0
 11
1708.1404862362349
 21
2689.523804750565
 31
0.0
  0
LINE
  5
A2B9
  8
0
 10
1694.1404862362349
 20
2687.523804750565
 30
0.0
 11
1696.1404862362349
 21
2689.523804750565
 31
0.0
  0
LINE
  5
A2BA
  8
0
 10
1708.1404862362349
 20
2689.523804750565
 30
0.0
 11
1708.1404862362349
 21
2589.523804750565
 31
0.0
  0
LINE
  5
A2BC
  8
0
 10
1694.1404862362349
 20
2687.523804750565
 30
0.0
 11
1694.1404862362349
 21
2591.523804750565
 31
0.0
  0
ARC
  5
A2BD
  8
0
 10
1690.1404862362349
 20
2661.7128678160552
 30
0.0
 40
4.0
 50
302.61924307119853
 51
0.0
  0
ARC
  5
A2BF
  8
0
 10
1690.1404862362349
 20
2617.3347416850752
 30
0.0
 40
4.0
 50
0.0
 51
57.380756928801482
  0
LINE
  5
A2C0
  8
0
 10
1684.1404862362349
 20
2653.1238047505649
 30
0.0
 11
1692.296701021929
 21
2658.3437822134092
 31
0.0
  0
LINE
  5
A2C1
  8
0
 10
1684.1404862362349
 20
2625.9238047505651
 30
0.0
 11
1692.296701021929
 21
2620.7038272877212
 31
0.0
  0
LINE
  5
A2C3
  8
0
 10
1677.6404862362349
 20
2657.1238047505649
 30
0.0
 11
1681.6404862362349
 21
2653.1238047505649
 31
0.0
  0
LINE
  5
A2C4
  8
0
 10
1677.6404862362349
 20
2621.9238047505651
 30
0.0
 11
1681.6404862362349
 21
2625.9238047505651
 31
0.0
  0
LINE
  5
A2C5
  8
0
 10
1681.6404862362349
 20
2653.1238047505649
 30
0.0
 11
1681.6404862362349
 21
2625.9238047505651
 31
0.0
  0
LINE
  5
A337
  8
0
 10
1543.6404862362349
 20
2653.1238047505649
 30
0.0
 11
1541.1404862362349
 21
2653.1238047505649
 31
0.0
  0
LINE
  5
A338
  8
0
 10
1543.6404862362349
 20
2625.9238047505651
 30
0.0
 11
1541.1404862362349
 21
2625.9238047505651
 31
0.0
  0
LINE
  5
A339
  8
0
 10
1529.1404862362349
 20
2589.523804750565
 30
0.0
 11
1517.1404862362349
 21
2589.523804750565
 31
0.0
  0
LINE
  5
A33A
  8
0
 10
1531.1404862362349
 20
2591.523804750565
 30
0.0
 11
1529.1404862362349
 21
2589.523804750565
 31
0.0
  0
LINE
  5
A33B
  8
0
 10
1529.1404862362349
 20
2689.523804750565
 30
0.0
 11
1517.1404862362349
 21
2689.523804750565
 31
0.0
  0
LINE
  5
A33C
  8
0
 10
1531.1404862362349
 20
2687.523804750565
 30
0.0
 11
1529.1404862362349
 21
2689.523804750565
 31
0.0
  0
LINE
  5
A33D
  8
0
 10
1517.1404862362349
 20
2689.523804750565
 30
0.0
 11
1517.1404862362349
 21
2589.523804750565
 31
0.0
  0
LINE
  5
A33E
  8
0
 10
1531.1404862362349
 20
2687.523804750565
 30
0.0
 11
1531.1404862362349
 21
2591.523804750565
 31
0.0
  0
ARC
  5
A33F
  8
0
 10
1535.1404862362349
 20
2661.7128678160552
 30
0.0
 40
4.0
 50
180.0
 51
237.3807569288015
  0
ARC
  5
A340
  8
0
 10
1535.1404862362349
 20
2617.3347416850752
 30
0.0
 40
4.0
 50
122.6192430711985
 51
180.0
  0
LINE
  5
A341
  8
0
 10
1541.1404862362349
 20
2653.1238047505649
 30
0.0
 11
1532.9842714505421
 21
2658.3437822134092
 31
0.0
  0
LINE
  5
A342
  8
0
 10
1541.1404862362349
 20
2625.9238047505651
 30
0.0
 11
1532.9842714505421
 21
2620.7038272877212
 31
0.0
  0
LINE
  5
A343
  8
0
 10
1547.6404862362349
 20
2657.1238047505649
 30
0.0
 11
1543.6404862362349
 21
2653.1238047505649
 31
0.0
  0
LINE
  5
A344
  8
0
 10
1547.6404862362349
 20
2621.9238047505651
 30
0.0
 11
1543.6404862362349
 21
2625.9238047505651
 31
0.0
  0
LINE
  5
A345
  8
0
 10
1543.6404862362349
 20
2653.1238047505649
 30
0.0
 11
1543.6404862362349
 21
2625.9238047505651
 31
0.0
  0
LINE
  5
A346
  8
0
 10
1681.833075599149
 20
2322.6171415057479
 30
0.0
 11
1684.3330755991481
 21
2322.6171415057479
 31
0.0
  0
LINE
  5
A347
  8
0
 10
1681.833075599149
 20
2295.4171415057481
 30
0.0
 11
1684.3330755991481
 21
2295.4171415057481
 31
0.0
  0
LINE
  5
A348
  8
0
 10
1696.333075599149
 20
2259.017141505748
 30
0.0
 11
1708.3330755991481
 21
2259.017141505748
 31
0.0
  0
LINE
  5
A349
  8
0
 10
1694.333075599149
 20
2261.017141505748
 30
0.0
 11
1696.333075599149
 21
2259.017141505748
 31
0.0
  0
LINE
  5
A34A
  8
0
 10
1696.333075599149
 20
2359.017141505748
 30
0.0
 11
1708.3330755991481
 21
2359.017141505748
 31
0.0
  0
LINE
  5
A34B
  8
0
 10
1694.333075599149
 20
2357.017141505748
 30
0.0
 11
1696.333075599149
 21
2359.017141505748
 31
0.0
  0
LINE
  5
A34C
  8
0
 10
1708.3330755991481
 20
2359.017141505748
 30
0.0
 11
1708.3330755991481
 21
2259.017141505748
 31
0.0
  0
LINE
  5
A34D
  8
0
 10
1694.333075599149
 20
2357.017141505748
 30
0.0
 11
1694.333075599149
 21
2261.0171415057489
 31
0.0
  0
ARC
  5
A34E
  8
0
 10
1690.333075599149
 20
2331.2062045712378
 30
0.0
 40
4.0
 50
302.61924307119853
 51
0.0
  0
ARC
  5
A34F
  8
0
 10
1690.333075599149
 20
2286.8280784402582
 30
0.0
 40
4.0
 50
0.0
 51
57.380756928801482
  0
LINE
  5
A350
  8
0
 10
1684.3330755991481
 20
2322.6171415057479
 30
0.0
 11
1692.489290384842
 21
2327.8371189685922
 31
0.0
  0
LINE
  5
A351
  8
0
 10
1684.3330755991481
 20
2295.4171415057481
 30
0.0
 11
1692.489290384842
 21
2290.1971640429042
 31
0.0
  0
LINE
  5
A352
  8
0
 10
1677.833075599149
 20
2326.6171415057479
 30
0.0
 11
1681.8330755991481
 21
2322.6171415057479
 31
0.0
  0
LINE
  5
A353
  8
0
 10
1677.833075599149
 20
2291.4171415057481
 30
0.0
 11
1681.8330755991481
 21
2295.4171415057481
 31
0.0
  0
LINE
  5
A354
  8
0
 10
1681.8330755991481
 20
2322.6171415057479
 30
0.0
 11
1681.8330755991481
 21
2295.4171415057481
 31
0.0
  0
LINE
  5
A355
  8
0
 10
1681.833075599149
 20
2135.33523644769
 30
0.0
 11
1684.3330755991481
 21
2135.3352364476891
 31
0.0
  0
LINE
  5
A356
  8
0
 10
1681.833075599149
 20
2108.1352364476888
 30
0.0
 11
1684.3330755991481
 21
2108.1352364476888
 31
0.0
  0
LINE
  5
A357
  8
0
 10
1696.333075599149
 20
2071.7352364476892
 30
0.0
 11
1708.3330755991481
 21
2071.7352364476892
 31
0.0
  0
LINE
  5
A358
  8
0
 10
1694.333075599149
 20
2073.7352364476892
 30
0.0
 11
1696.333075599149
 21
2071.7352364476892
 31
0.0
  0
LINE
  5
A359
  8
0
 10
1696.333075599149
 20
2171.7352364476892
 30
0.0
 11
1708.3330755991481
 21
2171.7352364476892
 31
0.0
  0
LINE
  5
A35A
  8
0
 10
1694.333075599149
 20
2169.7352364476892
 30
0.0
 11
1696.333075599149
 21
2171.7352364476892
 31
0.0
  0
LINE
  5
A35B
  8
0
 10
1708.3330755991481
 20
2171.7352364476892
 30
0.0
 11
1708.3330755991481
 21
2071.7352364476892
 31
0.0
  0
LINE
  5
A35C
  8
0
 10
1694.333075599149
 20
2169.7352364476892
 30
0.0
 11
1694.333075599149
 21
2073.7352364476901
 31
0.0
  0
ARC
  5
A35D
  8
0
 10
1690.333075599149
 20
2143.924299513179
 30
0.0
 40
4.0
 50
302.61924307119853
 51
0.0
  0
ARC
  5
A35E
  8
0
 10
1690.333075599149
 20
2099.546173382199
 30
0.0
 40
4.0
 50
0.0
 51
57.380756928801482
  0
LINE
  5
A35F
  8
0
 10
1684.3330755991481
 20
2135.3352364476891
 30
0.0
 11
1692.489290384842
 21
2140.555213910533
 31
0.0
  0
LINE
  5
A360
  8
0
 10
1684.3330755991481
 20
2108.1352364476888
 30
0.0
 11
1692.489290384842
 21
2102.915258984845
 31
0.0
  0
LINE
  5
A361
  8
0
 10
1677.833075599149
 20
2139.3352364476891
 30
0.0
 11
1681.8330755991481
 21
2135.3352364476891
 31
0.0
  0
LINE
  5
A362
  8
0
 10
1677.833075599149
 20
2104.1352364476888
 30
0.0
 11
1681.8330755991481
 21
2108.1352364476888
 31
0.0
  0
LINE
  5
A363
  8
0
 10
1681.8330755991481
 20
2135.3352364476891
 30
0.0
 11
1681.8330755991481
 21
2108.1352364476888
 31
0.0
  0
LINE
  5
A365
  8
0
 10
1543.833075599149
 20
2135.33523644769
 30
0.0
 11
1541.333075599149
 21
2135.3352364476891
 31
0.0
  0
LINE
  5
A366
  8
0
 10
1543.833075599149
 20
2108.1352364476888
 30
0.0
 11
1541.333075599149
 21
2108.1352364476888
 31
0.0
  0
LINE
  5
A367
  8
0
 10
1529.3330755991481
 20
2071.7352364476892
 30
0.0
 11
1517.333075599149
 21
2071.7352364476892
 31
0.0
  0
LINE
  5
A368
  8
0
 10
1531.333075599149
 20
2073.7352364476892
 30
0.0
 11
1529.3330755991481
 21
2071.7352364476892
 31
0.0
  0
LINE
  5
A369
  8
0
 10
1529.3330755991481
 20
2171.7352364476892
 30
0.0
 11
1517.333075599149
 21
2171.7352364476892
 31
0.0
  0
LINE
  5
A36A
  8
0
 10
1531.333075599149
 20
2169.7352364476892
 30
0.0
 11
1529.3330755991481
 21
2171.7352364476892
 31
0.0
  0
LINE
  5
A36B
  8
0
 10
1517.333075599149
 20
2171.7352364476892
 30
0.0
 11
1517.333075599149
 21
2071.7352364476892
 31
0.0
  0
LINE
  5
A36C
  8
0
 10
1531.333075599149
 20
2169.7352364476892
 30
0.0
 11
1531.333075599149
 21
2073.7352364476901
 31
0.0
  0
ARC
  5
A36D
  8
0
 10
1535.3330755991481
 20
2143.924299513179
 30
0.0
 40
4.0
 50
180.0
 51
237.3807569288015
  0
ARC
  5
A36E
  8
0
 10
1535.3330755991481
 20
2099.546173382199
 30
0.0
 40
4.0
 50
122.6192430711985
 51
180.0
  0
LINE
  5
A36F
  8
0
 10
1541.333075599149
 20
2135.3352364476891
 30
0.0
 11
1533.1768608134551
 21
2140.555213910533
 31
0.0
  0
LINE
  5
A370
  8
0
 10
1541.333075599149
 20
2108.1352364476888
 30
0.0
 11
1533.1768608134551
 21
2102.915258984845
 31
0.0
  0
LINE
  5
A371
  8
0
 10
1547.833075599149
 20
2139.3352364476891
 30
0.0
 11
1543.833075599149
 21
2135.3352364476891
 31
0.0
  0
LINE
  5
A372
  8
0
 10
1547.833075599149
 20
2104.1352364476888
 30
0.0
 11
1543.833075599149
 21
2108.1352364476888
 31
0.0
  0
LINE
  5
A373
  8
0
 10
1543.833075599149
 20
2135.3352364476891
 30
0.0
 11
1543.833075599149
 21
2108.1352364476888
 31
0.0
  0
LINE
  5
A381
  8
0
 10
1543.833075599149
 20
2322.6171415057479
 30
0.0
 11
1541.333075599149
 21
2322.6171415057479
 31
0.0
  0
LINE
  5
A382
  8
0
 10
1543.833075599149
 20
2295.4171415057481
 30
0.0
 11
1541.333075599149
 21
2295.4171415057481
 31
0.0
  0
LINE
  5
A383
  8
0
 10
1529.3330755991481
 20
2259.017141505748
 30
0.0
 11
1517.333075599149
 21
2259.017141505748
 31
0.0
  0
LINE
  5
A384
  8
0
 10
1531.333075599149
 20
2261.017141505748
 30
0.0
 11
1529.3330755991481
 21
2259.017141505748
 31
0.0
  0
LINE
  5
A385
  8
0
 10
1529.3330755991481
 20
2359.017141505748
 30
0.0
 11
1517.333075599149
 21
2359.017141505748
 31
0.0
  0
LINE
  5
A386
  8
0
 10
1531.333075599149
 20
2357.017141505748
 30
0.0
 11
1529.3330755991481
 21
2359.017141505748
 31
0.0
  0
LINE
  5
A387
  8
0
 10
1517.333075599149
 20
2359.017141505748
 30
0.0
 11
1517.333075599149
 21
2259.017141505748
 31
0.0
  0
LINE
  5
A388
  8
0
 10
1531.333075599149
 20
2357.017141505748
 30
0.0
 11
1531.333075599149
 21
2261.0171415057489
 31
0.0
  0
ARC
  5
A389
  8
0
 10
1535.3330755991481
 20
2331.2062045712378
 30
0.0
 40
4.0
 50
180.0
 51
237.3807569288015
  0
ARC
  5
A38A
  8
0
 10
1535.3330755991481
 20
2286.8280784402582
 30
0.0
 40
4.0
 50
122.6192430711985
 51
180.0
  0
LINE
  5
A38B
  8
0
 10
1541.333075599149
 20
2322.6171415057479
 30
0.0
 11
1533.1768608134551
 21
2327.8371189685922
 31
0.0
  0
LINE
  5
A38C
  8
0
 10
1541.333075599149
 20
2295.4171415057481
 30
0.0
 11
1533.1768608134551
 21
2290.1971640429042
 31
0.0
  0
LINE
  5
A38D
  8
0
 10
1547.833075599149
 20
2326.6171415057479
 30
0.0
 11
1543.833075599149
 21
2322.6171415057479
 31
0.0
  0
LINE
  5
A38E
  8
0
 10
1547.833075599149
 20
2291.4171415057481
 30
0.0
 11
1543.833075599149
 21
2295.4171415057481
 31
0.0
  0
LINE
  5
A38F
  8
0
 10
1543.833075599149
 20
2322.6171415057479
 30
0.0
 11
1543.833075599149
 21
2295.4171415057481
 31
0.0
  0
CIRCLE
  5
A390
  8
0
 10
1869.17576902722
 20
2633.7601480482572
 30
0.0
 40
50.0
  0
CIRCLE
  5
A391
  8
0
 10
1842.659264732725
 20
2607.2436437537622
 30
0.0
 40
7.5
  0
CIRCLE
  5
A392
  8
0
 10
1842.659264732725
 20
2660.2766523427531
 30
0.0
 40
7.5
  0
CIRCLE
  5
A394
  8
0
 10
1883.622690651368
 20
2095.2187321531942
 30
0.0
 40
7.5
  0
CIRCLE
  5
A395
  8
0
 10
1883.622690651368
 20
2148.2517407421851
 30
0.0
 40
7.5
  0
CIRCLE
  5
A396
  8
0
 10
1857.1061863568721
 20
2121.7352364476892
 30
0.0
 40
50.0
  0
CIRCLE
  5
A397
  8
0
 10
1830.5896820623759
 20
2095.2187321531942
 30
0.0
 40
7.5
  0
CIRCLE
  5
A398
  8
0
 10
1830.5896820623759
 20
2148.2517407421851
 30
0.0
 40
7.5
  0
CIRCLE
  5
A39A
  8
0
 10
1368.330361982579
 20
2095.2187321531942
 30
0.0
 40
7.5
  0
CIRCLE
  5
A39B
  8
0
 10
1368.330361982579
 20
2148.2517407421851
 30
0.0
 40
7.5
  0
CIRCLE
  5
A39C
  8
0
 10
1341.813857688084
 20
2121.7352364476892
 30
0.0
 40
50.0
  0
CIRCLE
  5
A39D
  8
0
 10
1315.2973533935881
 20
2095.2187321531942
 30
0.0
 40
7.5
  0
CIRCLE
  5
A39E
  8
0
 10
1315.2973533935881
 20
2148.2517407421851
 30
0.0
 40
7.5
  0
LINE
  5
A3C3
  8
0
 10
3194.4823940784599
 20
2686.6984933167068
 30
0.0
 11
3205.9829841744672
 21
2686.6984933167068
 31
0.0
  0
LINE
  5
A3C4
  8
0
 10
3194.4823940784631
 20
2720.6984933167068
 30
0.0
 11
3205.9829841744672
 21
2720.6984933167068
 31
0.0
  0
LINE
  5
A3C5
  8
0
 10
3217.9829841744672
 20
2641.1984933167068
 30
0.0
 11
3229.9829841744681
 21
2641.1984933167068
 31
0.0
  0
LINE
  5
A3C6
  8
0
 10
3215.9829841744681
 20
2643.1984933167068
 30
0.0
 11
3217.9829841744672
 21
2641.1984933167068
 31
0.0
  0
LINE
  5
A3C7
  8
0
 10
3217.9829841744672
 20
2766.1984933167068
 30
0.0
 11
3229.9829841744681
 21
2766.1984933167068
 31
0.0
  0
LINE
  5
A3C8
  8
0
 10
3229.9829841744681
 20
2766.1984933167068
 30
0.0
 11
3229.9829841744681
 21
2641.1984933167068
 31
0.0
  0
LINE
  5
A3CA
  8
0
 10
3215.9829841744681
 20
2764.1984933167068
 30
0.0
 11
3215.9829841744681
 21
2643.1984933167068
 31
0.0
  0
LINE
  5
A3CB
  8
0
 10
3217.9829841744672
 20
2766.1984933167068
 30
0.0
 11
3215.9829841744681
 21
2764.1984933167068
 31
0.0
  0
LINE
  5
A3CD
  8
0
 10
3205.9829841744672
 20
2720.6984933167068
 30
0.0
 11
3214.1064594122399
 21
2727.1972735069239
 31
0.0
  0
ARC
  5
A3CE
  8
0
 10
3210.9829841744672
 20
2731.1016175541399
 30
0.0
 40
5.0
 50
308.65980825409008
 51
0.0
  0
LINE
  5
A3CF
  8
0
 10
3205.9829841744672
 20
2686.6984933167068
 30
0.0
 11
3214.1064594122399
 21
2680.1997131264889
 31
0.0
  0
ARC
  5
A3D0
  8
0
 10
3210.9829841744672
 20
2676.2953690792742
 30
0.0
 40
5.0
 50
0.0
 51
51.340191745909912
  0
LINE
  5
A3DB
  8
0
 10
3205.9829841744672
 20
2720.6984933167068
 30
0.0
 11
3205.9829841744672
 21
2686.6984933167068
 31
0.0
  0
LINE
  5
A3DC
  8
0
 10
3041.4847544624881
 20
2723.6984933167082
 30
0.0
 11
3038.4847544624881
 21
2720.6984933167082
 31
0.0
  0
LINE
  5
A3DD
  8
0
 10
3038.4847544624881
 20
2720.6984933167082
 30
0.0
 11
3038.4847544624881
 21
2686.6984933167091
 31
0.0
  0
LINE
  5
A3DE
  8
0
 10
3041.4847544624881
 20
2683.6984933167082
 30
0.0
 11
3038.4847544624881
 21
2686.6984933167082
 31
0.0
  0
LINE
  5
A3DF
  8
0
 10
3038.484754462489
 20
2686.6984933167068
 30
0.0
 11
3026.9841643664822
 21
2686.6984933167068
 31
0.0
  0
LINE
  5
A3E0
  8
0
 10
3038.4847544624872
 20
2720.6984933167068
 30
0.0
 11
3026.9841643664822
 21
2720.6984933167068
 31
0.0
  0
LINE
  5
A3E1
  8
0
 10
3014.9841643664822
 20
2641.1984933167068
 30
0.0
 11
3002.9841643664822
 21
2641.1984933167068
 31
0.0
  0
LINE
  5
A3E2
  8
0
 10
3016.9841643664822
 20
2643.1984933167068
 30
0.0
 11
3014.9841643664822
 21
2641.1984933167068
 31
0.0
  0
LINE
  5
A3E3
  8
0
 10
3014.9841643664822
 20
2766.1984933167068
 30
0.0
 11
3002.9841643664822
 21
2766.1984933167068
 31
0.0
  0
LINE
  5
A3E4
  8
0
 10
3002.9841643664822
 20
2766.1984933167068
 30
0.0
 11
3002.9841643664822
 21
2641.1984933167068
 31
0.0
  0
LINE
  5
A3E5
  8
0
 10
3016.9841643664822
 20
2764.1984933167068
 30
0.0
 11
3016.9841643664822
 21
2643.1984933167068
 31
0.0
  0
LINE
  5
A3E6
  8
0
 10
3014.9841643664822
 20
2766.1984933167068
 30
0.0
 11
3016.9841643664822
 21
2764.1984933167068
 31
0.0
  0
LINE
  5
A3E7
  8
0
 10
3026.9841643664822
 20
2720.6984933167068
 30
0.0
 11
3018.86068912871
 21
2727.1972735069239
 31
0.0
  0
ARC
  5
A3E8
  8
0
 10
3021.9841643664822
 20
2731.1016175541399
 30
0.0
 40
5.0
 50
180.0
 51
231.34019174590989
  0
LINE
  5
A3E9
  8
0
 10
3026.9841643664822
 20
2686.6984933167068
 30
0.0
 11
3018.86068912871
 21
2680.1997131264889
 31
0.0
  0
ARC
  5
A3EA
  8
0
 10
3021.9841643664822
 20
2676.2953690792742
 30
0.0
 40
5.0
 50
128.65980825409011
 51
180.0
  0
LINE
  5
A3EB
  8
0
 10
3026.9841643664822
 20
2720.6984933167068
 30
0.0
 11
3026.9841643664822
 21
2686.6984933167068
 31
0.0
  0
LINE
  5
A3ED
  8
0
 10
3191.4829841744681
 20
2306.8394125554209
 30
0.0
 11
3194.4829841744681
 21
2303.83941255542
 31
0.0
  0
LINE
  5
A3EE
  8
0
 10
3194.4829841744681
 20
2303.83941255542
 30
0.0
 11
3194.4829841744681
 21
2269.8394125554209
 31
0.0
  0
LINE
  5
A3EF
  8
0
 10
3191.4829841744681
 20
2266.83941255542
 30
0.0
 11
3194.4829841744681
 21
2269.8394125554209
 31
0.0
  0
LINE
  5
A3F0
  8
0
 10
3194.4829841744659
 20
2269.8394125554191
 30
0.0
 11
3205.983574270474
 21
2269.8394125554191
 31
0.0
  0
LINE
  5
A3F1
  8
0
 10
3194.4829841744681
 20
2303.8394125554191
 30
0.0
 11
3205.983574270474
 21
2303.8394125554191
 31
0.0
  0
LINE
  5
A3F2
  8
0
 10
3217.9835742704731
 20
2224.3394125554191
 30
0.0
 11
3229.9835742704731
 21
2224.3394125554191
 31
0.0
  0
LINE
  5
A3F3
  8
0
 10
3215.9835742704731
 20
2226.3394125554191
 30
0.0
 11
3217.9835742704731
 21
2224.3394125554191
 31
0.0
  0
LINE
  5
A3F4
  8
0
 10
3217.9835742704731
 20
2349.3394125554191
 30
0.0
 11
3229.9835742704731
 21
2349.3394125554191
 31
0.0
  0
LINE
  5
A3F5
  8
0
 10
3229.9835742704731
 20
2349.3394125554191
 30
0.0
 11
3229.9835742704731
 21
2224.3394125554191
 31
0.0
  0
LINE
  5
A3F6
  8
0
 10
3215.9835742704731
 20
2347.3394125554191
 30
0.0
 11
3215.9835742704731
 21
2226.3394125554191
 31
0.0
  0
LINE
  5
A3F7
  8
0
 10
3217.9835742704731
 20
2349.3394125554191
 30
0.0
 11
3215.9835742704731
 21
2347.3394125554191
 31
0.0
  0
LINE
  5
A3F8
  8
0
 10
3205.983574270474
 20
2303.8394125554191
 30
0.0
 11
3214.1070495082449
 21
2310.3381927456371
 31
0.0
  0
ARC
  5
A3F9
  8
0
 10
3210.9835742704731
 20
2314.2425367928522
 30
0.0
 40
5.0
 50
308.65980825409008
 51
0.0
  0
LINE
  5
A3FA
  8
0
 10
3205.983574270474
 20
2269.8394125554191
 30
0.0
 11
3214.1070495082449
 21
2263.3406323652021
 31
0.0
  0
ARC
  5
A3FB
  8
0
 10
3210.9835742704731
 20
2259.4362883179861
 30
0.0
 40
5.0
 50
0.0
 51
51.340191745909912
  0
LINE
  5
A3FC
  8
0
 10
3205.983574270474
 20
2303.8394125554191
 30
0.0
 11
3205.983574270474
 21
2269.8394125554191
 31
0.0
  0
LINE
  5
A3FD
  8
0
 10
3041.4853445584931
 20
2306.8394125554209
 30
0.0
 11
3038.4853445584931
 21
2303.83941255542
 31
0.0
  0
LINE
  5
A3FE
  8
0
 10
3038.4853445584931
 20
2303.83941255542
 30
0.0
 11
3038.4853445584931
 21
2269.8394125554209
 31
0.0
  0
LINE
  5
A3FF
  8
0
 10
3041.4853445584931
 20
2266.83941255542
 30
0.0
 11
3038.4853445584931
 21
2269.8394125554209
 31
0.0
  0
LINE
  5
A400
  8
0
 10
3038.4853445584949
 20
2269.8394125554191
 30
0.0
 11
3026.9847544624881
 21
2269.8394125554191
 31
0.0
  0
LINE
  5
A401
  8
0
 10
3038.4853445584931
 20
2303.8394125554191
 30
0.0
 11
3026.9847544624881
 21
2303.8394125554191
 31
0.0
  0
LINE
  5
A402
  8
0
 10
3014.9847544624881
 20
2224.3394125554191
 30
0.0
 11
3002.9847544624881
 21
2224.3394125554191
 31
0.0
  0
LINE
  5
A403
  8
0
 10
3016.9847544624881
 20
2226.3394125554191
 30
0.0
 11
3014.9847544624881
 21
2224.3394125554191
 31
0.0
  0
LINE
  5
A404
  8
0
 10
3014.9847544624881
 20
2349.3394125554191
 30
0.0
 11
3002.9847544624881
 21
2349.3394125554191
 31
0.0
  0
LINE
  5
A405
  8
0
 10
3002.9847544624881
 20
2349.3394125554191
 30
0.0
 11
3002.9847544624881
 21
2224.3394125554191
 31
0.0
  0
LINE
  5
A406
  8
0
 10
3016.9847544624881
 20
2347.3394125554191
 30
0.0
 11
3016.9847544624881
 21
2226.3394125554191
 31
0.0
  0
LINE
  5
A407
  8
0
 10
3014.9847544624881
 20
2349.3394125554191
 30
0.0
 11
3016.9847544624881
 21
2347.3394125554191
 31
0.0
  0
LINE
  5
A408
  8
0
 10
3026.9847544624881
 20
2303.8394125554191
 30
0.0
 11
3018.8612792247159
 21
2310.3381927456371
 31
0.0
  0
ARC
  5
A409
  8
0
 10
3021.9847544624881
 20
2314.2425367928522
 30
0.0
 40
5.0
 50
180.0
 51
231.34019174590989
  0
LINE
  5
A40A
  8
0
 10
3026.9847544624881
 20
2269.8394125554191
 30
0.0
 11
3018.8612792247159
 21
2263.3406323652021
 31
0.0
  0
ARC
  5
A40B
  8
0
 10
3021.9847544624881
 20
2259.4362883179861
 30
0.0
 40
5.0
 50
128.65980825409011
 51
180.0
  0
LINE
  5
A40C
  8
0
 10
3026.9847544624881
 20
2303.8394125554191
 30
0.0
 11
3026.9847544624881
 21
2269.8394125554191
 31
0.0
  0
LINE
  5
A40E
  8
0
 10
3191.4829841744681
 20
2130.2164051515228
 30
0.0
 11
3194.4829841744681
 21
2127.2164051515228
 31
0.0
  0
LINE
  5
A40F
  8
0
 10
3194.4829841744681
 20
2127.2164051515228
 30
0.0
 11
3194.4829841744681
 21
2093.2164051515242
 31
0.0
  0
LINE
  5
A410
  8
0
 10
3191.4829841744681
 20
2090.2164051515228
 30
0.0
 11
3194.4829841744681
 21
2093.2164051515228
 31
0.0
  0
LINE
  5
A411
  8
0
 10
3194.4829841744659
 20
2093.2164051515219
 30
0.0
 11
3205.983574270474
 21
2093.2164051515219
 31
0.0
  0
LINE
  5
A412
  8
0
 10
3194.4829841744681
 20
2127.2164051515219
 30
0.0
 11
3205.983574270474
 21
2127.2164051515219
 31
0.0
  0
LINE
  5
A413
  8
0
 10
3217.9835742704731
 20
2047.7164051515219
 30
0.0
 11
3229.9835742704731
 21
2047.7164051515219
 31
0.0
  0
LINE
  5
A414
  8
0
 10
3215.9835742704731
 20
2049.7164051515219
 30
0.0
 11
3217.9835742704731
 21
2047.7164051515219
 31
0.0
  0
LINE
  5
A415
  8
0
 10
3217.9835742704731
 20
2172.7164051515219
 30
0.0
 11
3229.9835742704731
 21
2172.7164051515219
 31
0.0
  0
LINE
  5
A416
  8
0
 10
3229.9835742704731
 20
2172.7164051515219
 30
0.0
 11
3229.9835742704731
 21
2047.7164051515219
 31
0.0
  0
LINE
  5
A417
  8
0
 10
3215.9835742704731
 20
2170.7164051515219
 30
0.0
 11
3215.9835742704731
 21
2049.7164051515219
 31
0.0
  0
LINE
  5
A418
  8
0
 10
3217.9835742704731
 20
2172.7164051515219
 30
0.0
 11
3215.9835742704731
 21
2170.7164051515219
 31
0.0
  0
LINE
  5
A419
  8
0
 10
3205.983574270474
 20
2127.2164051515219
 30
0.0
 11
3214.1070495082449
 21
2133.7151853417399
 31
0.0
  0
ARC
  5
A41A
  8
0
 10
3210.9835742704731
 20
2137.6195293889541
 30
0.0
 40
5.0
 50
308.65980825409008
 51
0.0
  0
LINE
  5
A41B
  8
0
 10
3205.983574270474
 20
2093.2164051515219
 30
0.0
 11
3214.1070495082449
 21
2086.7176249613049
 31
0.0
  0
ARC
  5
A41C
  8
0
 10
3210.9835742704731
 20
2082.8132809140889
 30
0.0
 40
5.0
 50
0.0
 51
51.340191745909912
  0
LINE
  5
A41D
  8
0
 10
3205.983574270474
 20
2127.2164051515219
 30
0.0
 11
3205.983574270474
 21
2093.2164051515219
 31
0.0
  0
LINE
  5
A41E
  8
0
 10
3041.4853445584931
 20
2130.2164051515228
 30
0.0
 11
3038.4853445584931
 21
2127.2164051515228
 31
0.0
  0
LINE
  5
A41F
  8
0
 10
3038.4853445584931
 20
2127.2164051515228
 30
0.0
 11
3038.4853445584931
 21
2093.2164051515242
 31
0.0
  0
LINE
  5
A420
  8
0
 10
3041.4853445584931
 20
2090.2164051515228
 30
0.0
 11
3038.4853445584931
 21
2093.2164051515228
 31
0.0
  0
LINE
  5
A421
  8
0
 10
3038.4853445584949
 20
2093.2164051515219
 30
0.0
 11
3026.9847544624881
 21
2093.2164051515219
 31
0.0
  0
LINE
  5
A422
  8
0
 10
3038.4853445584931
 20
2127.2164051515219
 30
0.0
 11
3026.9847544624881
 21
2127.2164051515219
 31
0.0
  0
LINE
  5
A423
  8
0
 10
3014.9847544624881
 20
2047.7164051515219
 30
0.0
 11
3002.9847544624881
 21
2047.7164051515219
 31
0.0
  0
LINE
  5
A424
  8
0
 10
3016.9847544624881
 20
2049.7164051515219
 30
0.0
 11
3014.9847544624881
 21
2047.7164051515219
 31
0.0
  0
LINE
  5
A425
  8
0
 10
3014.9847544624881
 20
2172.7164051515219
 30
0.0
 11
3002.9847544624881
 21
2172.7164051515219
 31
0.0
  0
LINE
  5
A426
  8
0
 10
3002.9847544624881
 20
2172.7164051515219
 30
0.0
 11
3002.9847544624881
 21
2047.7164051515219
 31
0.0
  0
LINE
  5
A427
  8
0
 10
3016.9847544624881
 20
2170.7164051515219
 30
0.0
 11
3016.9847544624881
 21
2049.7164051515219
 31
0.0
  0
LINE
  5
A428
  8
0
 10
3014.9847544624881
 20
2172.7164051515219
 30
0.0
 11
3016.9847544624881
 21
2170.7164051515219
 31
0.0
  0
LINE
  5
A429
  8
0
 10
3026.9847544624881
 20
2127.2164051515219
 30
0.0
 11
3018.8612792247159
 21
2133.7151853417399
 31
0.0
  0
ARC
  5
A42A
  8
0
 10
3021.9847544624881
 20
2137.6195293889541
 30
0.0
 40
5.0
 50
180.0
 51
231.34019174590989
  0
LINE
  5
A42B
  8
0
 10
3026.9847544624881
 20
2093.2164051515219
 30
0.0
 11
3018.8612792247159
 21
2086.7176249613049
 31
0.0
  0
ARC
  5
A42C
  8
0
 10
3021.9847544624881
 20
2082.8132809140889
 30
0.0
 40
5.0
 50
128.65980825409011
 51
180.0
  0
LINE
  5
A42D
  8
0
 10
3026.9847544624881
 20
2127.2164051515219
 30
0.0
 11
3026.9847544624881
 21
2093.2164051515219
 31
0.0
  0
CIRCLE
  5
A433
  8
0
 10
3447.7984672110301
 20
2078.3965999981269
 30
0.0
 40
9.5
  0
CIRCLE
  5
A434
  8
0
 10
3447.7984672110301
 20
2142.0362103049169
 30
0.0
 40
9.5
  0
CIRCLE
  5
A435
  8
0
 10
3415.978662057636
 20
2110.2164051515219
 30
0.0
 40
62.5
  0
CIRCLE
  5
A436
  8
0
 10
3384.158856904241
 20
2078.3965999981269
 30
0.0
 40
9.5
  0
CIRCLE
  5
A437
  8
0
 10
3384.158856904241
 20
2142.0362103049169
 30
0.0
 40
9.5
  0
CIRCLE
  5
A438
  8
0
 10
2841.79973073673
 20
2078.3965999981269
 30
0.0
 40
9.5
  0
CIRCLE
  5
A439
  8
0
 10
2841.79973073673
 20
2142.0362103049169
 30
0.0
 40
9.5
  0
CIRCLE
  5
A43A
  8
0
 10
2809.979925583335
 20
2110.2164051515219
 30
0.0
 40
62.5
  0
CIRCLE
  5
A43B
  8
0
 10
2778.1601204299409
 20
2078.3965999981269
 30
0.0
 40
9.5
  0
CIRCLE
  5
A43C
  8
0
 10
2778.1601204299409
 20
2142.0362103049169
 30
0.0
 40
9.5
  0
LINE
  5
A445
  8
0
 10
851.34178735981357
 20
1536.444406246922
 30
0.0
 11
867.34178735981379
 21
1536.444406246922
 31
0.0
  0
LINE
  5
A446
  8
0
 10
867.34178735981357
 20
1676.4444062469231
 30
0.0
 11
867.34178735981379
 21
1536.444406246922
 31
0.0
  0
LINE
  5
A447
  8
0
 10
851.34178735981357
 20
1676.4444062469231
 30
0.0
 11
851.34178735981357
 21
1536.444406246922
 31
0.0
  0
LINE
  5
A448
  8
0
 10
851.34178735981357
 20
1676.4444062469231
 30
0.0
 11
867.34178735981357
 21
1676.4444062469231
 31
0.0
  0
LINE
  5
A44A
  8
0
 10
1083.341787359813
 20
1634.9944062469231
 30
0.0
 11
1079.341787359813
 21
1630.9944062469231
 31
0.0
  0
LINE
  5
A44B
  8
0
 10
1079.341787359813
 20
1630.9944062469231
 30
0.0
 11
1079.341787359813
 21
1581.8944062469229
 31
0.0
  0
LINE
  5
A44C
  8
0
 10
1083.341787359813
 20
1577.8944062469229
 30
0.0
 11
1079.341787359813
 21
1581.8944062469229
 31
0.0
  0
LINE
  5
A44D
  8
0
 10
1099.341787359813
 20
1536.444406246922
 30
0.0
 11
1083.341787359813
 21
1536.444406246922
 31
0.0
  0
LINE
  5
A44E
  8
0
 10
1083.341787359813
 20
1676.4444062469231
 30
0.0
 11
1083.341787359813
 21
1536.444406246922
 31
0.0
  0
LINE
  5
A44F
  8
0
 10
1099.341787359813
 20
1676.4444062469231
 30
0.0
 11
1099.341787359813
 21
1536.444406246922
 31
0.0
  0
LINE
  5
A450
  8
0
 10
1099.341787359813
 20
1676.4444062469231
 30
0.0
 11
1083.341787359813
 21
1676.4444062469231
 31
0.0
  0
LINE
  5
A451
  8
0
 10
1064.3417873598139
 20
1630.9944062469231
 30
0.0
 11
1079.341787359813
 21
1630.9944062469231
 31
0.0
  0
LINE
  5
A452
  8
0
 10
1064.3417873598139
 20
1581.8944062469229
 30
0.0
 11
1079.341787359813
 21
1581.8944062469229
 31
0.0
  0
LINE
  5
A454
  8
0
 10
851.34178735981357
 20
955.06852904208847
 30
0.0
 11
867.34178735981379
 21
955.06852904208847
 31
0.0
  0
LINE
  5
A455
  8
0
 10
867.34178735981357
 20
1095.0685290420879
 30
0.0
 11
867.34178735981379
 21
955.06852904208847
 31
0.0
  0
LINE
  5
A456
  8
0
 10
851.34178735981357
 20
1095.0685290420879
 30
0.0
 11
851.34178735981357
 21
955.06852904208847
 31
0.0
  0
LINE
  5
A457
  8
0
 10
851.34178735981357
 20
1095.0685290420879
 30
0.0
 11
867.34178735981357
 21
1095.0685290420879
 31
0.0
  0
LINE
  5
A458
  8
0
 10
1099.341787359813
 20
955.06852904208847
 30
0.0
 11
1083.341787359813
 21
955.06852904208847
 31
0.0
  0
LINE
  5
A459
  8
0
 10
1083.341787359813
 20
1095.0685290420879
 30
0.0
 11
1083.341787359813
 21
955.06852904208847
 31
0.0
  0
LINE
  5
A45A
  8
0
 10
1099.341787359813
 20
1095.0685290420879
 30
0.0
 11
1099.341787359813
 21
955.06852904208847
 31
0.0
  0
LINE
  5
A45B
  8
0
 10
1099.341787359813
 20
1095.0685290420879
 30
0.0
 11
1083.341787359813
 21
1095.0685290420879
 31
0.0
  0
LINE
  5
A45C
  8
0
 10
867.34178735981379
 20
1053.6185290420881
 30
0.0
 11
871.34178735981368
 21
1049.6185290420881
 31
0.0
  0
LINE
  5
A45D
  8
0
 10
871.34178735981368
 20
1049.6185290420881
 30
0.0
 11
871.34178735981368
 21
1000.5185290420879
 31
0.0
  0
LINE
  5
A45E
  8
0
 10
867.34178735981379
 20
996.51852904208874
 30
0.0
 11
871.34178735981368
 21
1000.5185290420879
 31
0.0
  0
LINE
  5
A45F
  8
0
 10
1083.341787359813
 20
1053.6185290420881
 30
0.0
 11
1079.341787359813
 21
1049.6185290420881
 31
0.0
  0
LINE
  5
A460
  8
0
 10
1079.341787359813
 20
1049.6185290420881
 30
0.0
 11
1079.341787359813
 21
1000.5185290420879
 31
0.0
  0
LINE
  5
A461
  8
0
 10
1083.341787359813
 20
996.51852904208874
 30
0.0
 11
1079.341787359813
 21
1000.5185290420879
 31
0.0
  0
LINE
  5
A463
  8
0
 10
851.34178735981357
 20
671.54502959210606
 30
0.0
 11
867.34178735981379
 21
671.54502959210606
 31
0.0
  0
LINE
  5
A464
  8
0
 10
867.34178735981357
 20
811.54502959210606
 30
0.0
 11
867.34178735981379
 21
671.54502959210606
 31
0.0
  0
LINE
  5
A465
  8
0
 10
851.34178735981357
 20
811.54502959210606
 30
0.0
 11
851.34178735981357
 21
671.54502959210606
 31
0.0
  0
LINE
  5
A466
  8
0
 10
851.34178735981357
 20
811.54502959210606
 30
0.0
 11
867.34178735981357
 21
811.54502959210606
 31
0.0
  0
LINE
  5
A467
  8
0
 10
1099.341787359813
 20
671.54502959210606
 30
0.0
 11
1083.341787359813
 21
671.54502959210606
 31
0.0
  0
LINE
  5
A468
  8
0
 10
1083.341787359813
 20
811.54502959210606
 30
0.0
 11
1083.341787359813
 21
671.54502959210606
 31
0.0
  0
LINE
  5
A469
  8
0
 10
1099.341787359813
 20
811.54502959210606
 30
0.0
 11
1099.341787359813
 21
671.54502959210606
 31
0.0
  0
LINE
  5
A46A
  8
0
 10
1099.341787359813
 20
811.54502959210606
 30
0.0
 11
1083.341787359813
 21
811.54502959210606
 31
0.0
  0
LINE
  5
A46B
  8
0
 10
867.34178735981379
 20
770.09502959210624
 30
0.0
 11
871.34178735981368
 21
766.09502959210613
 31
0.0
  0
LINE
  5
A46C
  8
0
 10
871.34178735981368
 20
766.09502959210613
 30
0.0
 11
871.34178735981368
 21
716.99502959210611
 31
0.0
  0
LINE
  5
A46D
  8
0
 10
867.34178735981379
 20
712.99502959210622
 30
0.0
 11
871.34178735981368
 21
716.99502959210611
 31
0.0
  0
LINE
  5
A46E
  8
0
 10
1083.341787359813
 20
770.09502959210624
 30
0.0
 11
1079.341787359813
 21
766.09502959210613
 31
0.0
  0
LINE
  5
A46F
  8
0
 10
1079.341787359813
 20
766.09502959210613
 30
0.0
 11
1079.341787359813
 21
716.99502959210611
 31
0.0
  0
LINE
  5
A470
  8
0
 10
1083.341787359813
 20
712.99502959210622
 30
0.0
 11
1079.341787359813
 21
716.99502959210611
 31
0.0
  0
CIRCLE
  5
A487
  8
0
 10
752.95335179242215
 20
704.42192357981253
 30
0.0
 40
7.5
  0
CIRCLE
  5
A488
  8
0
 10
752.95335179242193
 20
778.66813560440016
 30
0.0
 40
7.5
  0
CIRCLE
  5
A489
  8
0
 10
678.70713976783406
 20
704.42192357981253
 30
0.0
 40
7.5
  0
CIRCLE
  5
A48A
  8
0
 10
678.70713976783441
 20
778.66813560440016
 30
0.0
 40
7.5
  0
CIRCLE
  5
A4E4
  8
0
 10
1952.8395679415819
 20
852.15049783579934
 30
0.0
 40
77.499999999999886
  0
CIRCLE
  5
A532
  8
0
 10
1312.4507153363991
 20
778.66813560440005
 30
0.0
 40
9.0
  0
CIRCLE
  5
A533
  8
0
 10
1312.4507153363991
 20
704.42192357981276
 30
0.0
 40
9.0
  0
CIRCLE
  5
A534
  8
0
 10
1238.2045033118111
 20
778.66813560440005
 30
0.0
 40
9.0
  0
CIRCLE
  5
A535
  8
0
 10
1238.2045033118111
 20
704.42192357981276
 30
0.0
 40
9.0
  0
LINE
  5
A553
  8
0
 10
2440.9206970951482
 20
1900.8015888869861
 30
0.0
 11
2440.9206970951482
 21
1745.8015888869861
 31
0.0
  0
LINE
  5
A55C
  8
0
 10
2420.9206970951482
 20
1853.8515888869861
 30
0.0
 11
2392.9206970951468
 21
1853.851588886987
 31
0.0
  0
LINE
  5
A55D
  8
0
 10
2420.9206970951482
 20
1792.7515888869859
 30
0.0
 11
2392.9206970951468
 21
1792.7515888869871
 31
0.0
  0
LINE
  5
A563
  8
0
 10
2440.9206970951482
 20
1900.8015888869861
 30
0.0
 11
2426.9206970951468
 21
1900.8015888869861
 31
0.0
  0
LINE
  5
A564
  8
0
 10
2440.9206970951482
 20
1745.8015888869861
 30
0.0
 11
2426.9206970951468
 21
1745.8015888869861
 31
0.0
  0
LINE
  5
A566
  8
0
 10
2424.9206970951482
 20
1898.801588886987
 30
0.0
 11
2424.9206970951482
 21
1747.801588886987
 31
0.0
  0
LINE
  5
A567
  8
0
 10
2424.9206970951482
 20
1898.801588886987
 30
0.0
 11
2426.9206970951468
 21
1900.8015888869861
 31
0.0
  0
LINE
  5
A568
  8
0
 10
2424.9206970951482
 20
1747.8015888869861
 30
0.0
 11
2426.9206970951468
 21
1745.8015888869861
 31
0.0
  0
LINE
  5
A56B
  8
0
 10
2424.9206970951482
 20
1857.8515888869861
 30
0.0
 11
2420.9206970951482
 21
1853.8515888869861
 31
0.0
  0
LINE
  5
A56C
  8
0
 10
2420.9206970951482
 20
1853.8515888869861
 30
0.0
 11
2420.9206970951482
 21
1792.7515888869871
 31
0.0
  0
LINE
  5
A56D
  8
0
 10
2424.9206970951482
 20
1788.7515888869859
 30
0.0
 11
2420.9206970951482
 21
1792.7515888869871
 31
0.0
  0
LINE
  5
A56F
  8
0
 10
2116.9206970951482
 20
1900.8015888869861
 30
0.0
 11
2116.9206970951482
 21
1745.8015888869861
 31
0.0
  0
LINE
  5
A570
  8
0
 10
2136.9206970951468
 20
1853.8515888869861
 30
0.0
 11
2164.9206970951482
 21
1853.851588886987
 31
0.0
  0
LINE
  5
A571
  8
0
 10
2136.9206970951459
 20
1792.7515888869859
 30
0.0
 11
2164.9206970951482
 21
1792.7515888869871
 31
0.0
  0
LINE
  5
A572
  8
0
 10
2116.9206970951482
 20
1900.8015888869861
 30
0.0
 11
2130.9206970951468
 21
1900.8015888869861
 31
0.0
  0
LINE
  5
A573
  8
0
 10
2116.9206970951482
 20
1745.8015888869861
 30
0.0
 11
2130.9206970951468
 21
1745.8015888869861
 31
0.0
  0
LINE
  5
A574
  8
0
 10
2132.9206970951468
 20
1898.801588886987
 30
0.0
 11
2132.9206970951468
 21
1747.801588886987
 31
0.0
  0
LINE
  5
A575
  8
0
 10
2132.9206970951468
 20
1898.801588886987
 30
0.0
 11
2130.9206970951468
 21
1900.8015888869861
 31
0.0
  0
LINE
  5
A576
  8
0
 10
2132.9206970951468
 20
1747.8015888869861
 30
0.0
 11
2130.9206970951468
 21
1745.8015888869861
 31
0.0
  0
LINE
  5
A578
  8
0
 10
2132.9206970951468
 20
1857.8515888869861
 30
0.0
 11
2136.9206970951468
 21
1853.8515888869861
 31
0.0
  0
LINE
  5
A579
  8
0
 10
2136.9206970951468
 20
1853.8515888869861
 30
0.0
 11
2136.9206970951468
 21
1792.7515888869871
 31
0.0
  0
LINE
  5
A57A
  8
0
 10
2132.9206970951468
 20
1788.7515888869859
 30
0.0
 11
2136.9206970951468
 21
1792.7515888869871
 31
0.0
  0
LINE
  5
A57C
  8
0
 10
2440.92069709515
 20
1214.619485414979
 30
0.0
 11
2440.92069709515
 21
1059.619485414979
 31
0.0
  0
LINE
  5
A57D
  8
0
 10
2420.92069709515
 20
1167.669485414978
 30
0.0
 11
2392.92069709515
 21
1167.6694854149789
 31
0.0
  0
LINE
  5
A57E
  8
0
 10
2420.9206970951509
 20
1106.569485414979
 30
0.0
 11
2392.92069709515
 21
1106.569485414979
 31
0.0
  0
LINE
  5
A57F
  8
0
 10
2440.92069709515
 20
1214.619485414979
 30
0.0
 11
2426.92069709515
 21
1214.619485414979
 31
0.0
  0
LINE
  5
A580
  8
0
 10
2440.92069709515
 20
1059.619485414979
 30
0.0
 11
2426.92069709515
 21
1059.619485414979
 31
0.0
  0
LINE
  5
A581
  8
0
 10
2424.92069709515
 20
1212.619485414979
 30
0.0
 11
2424.92069709515
 21
1061.619485414979
 31
0.0
  0
LINE
  5
A582
  8
0
 10
2424.92069709515
 20
1212.619485414979
 30
0.0
 11
2426.92069709515
 21
1214.619485414979
 31
0.0
  0
LINE
  5
A583
  8
0
 10
2424.92069709515
 20
1061.619485414979
 30
0.0
 11
2426.92069709515
 21
1059.619485414979
 31
0.0
  0
LINE
  5
A584
  8
0
 10
2424.92069709515
 20
1171.669485414978
 30
0.0
 11
2420.92069709515
 21
1167.669485414978
 31
0.0
  0
LINE
  5
A585
  8
0
 10
2420.92069709515
 20
1167.669485414978
 30
0.0
 11
2420.92069709515
 21
1106.569485414979
 31
0.0
  0
LINE
  5
A586
  8
0
 10
2424.92069709515
 20
1102.569485414979
 30
0.0
 11
2420.92069709515
 21
1106.569485414979
 31
0.0
  0
LINE
  5
A587
  8
0
 10
2116.92069709515
 20
1214.619485414979
 30
0.0
 11
2116.92069709515
 21
1059.619485414979
 31
0.0
  0
LINE
  5
A588
  8
0
 10
2136.92069709515
 20
1167.669485414978
 30
0.0
 11
2164.92069709515
 21
1167.6694854149789
 31
0.0
  0
LINE
  5
A589
  8
0
 10
2136.9206970951491
 20
1106.569485414979
 30
0.0
 11
2164.9206970951509
 21
1106.569485414979
 31
0.0
  0
LINE
  5
A58A
  8
0
 10
2116.92069709515
 20
1214.619485414979
 30
0.0
 11
2130.92069709515
 21
1214.619485414979
 31
0.0
  0
LINE
  5
A58B
  8
0
 10
2116.92069709515
 20
1059.619485414979
 30
0.0
 11
2130.92069709515
 21
1059.619485414979
 31
0.0
  0
LINE
  5
A58C
  8
0
 10
2132.92069709515
 20
1212.619485414979
 30
0.0
 11
2132.92069709515
 21
1061.619485414979
 31
0.0
  0
LINE
  5
A58D
  8
0
 10
2132.92069709515
 20
1212.619485414979
 30
0.0
 11
2130.92069709515
 21
1214.619485414979
 31
0.0
  0
LINE
  5
A58E
  8
0
 10
2132.92069709515
 20
1061.619485414979
 30
0.0
 11
2130.92069709515
 21
1059.619485414979
 31
0.0
  0
LINE
  5
A58F
  8
0
 10
2132.92069709515
 20
1171.669485414978
 30
0.0
 11
2136.92069709515
 21
1167.669485414978
 31
0.0
  0
LINE
  5
A590
  8
0
 10
2136.92069709515
 20
1167.669485414978
 30
0.0
 11
2136.92069709515
 21
1106.569485414979
 31
0.0
  0
LINE
  5
A591
  8
0
 10
2132.92069709515
 20
1102.569485414979
 30
0.0
 11
2136.92069709515
 21
1106.569485414979
 31
0.0
  0
LINE
  5
A593
  8
0
 10
2440.92069709515
 20
929.65049783579957
 30
0.0
 11
2440.92069709515
 21
774.65049783579957
 31
0.0
  0
LINE
  5
A594
  8
0
 10
2420.92069709515
 20
882.70049783579918
 30
0.0
 11
2392.92069709515
 21
882.70049783579964
 31
0.0
  0
LINE
  5
A595
  8
0
 10
2420.9206970951509
 20
821.60049783579973
 30
0.0
 11
2392.92069709515
 21
821.60049783579996
 31
0.0
  0
LINE
  5
A596
  8
0
 10
2440.92069709515
 20
929.65049783579957
 30
0.0
 11
2426.92069709515
 21
929.65049783579957
 31
0.0
  0
LINE
  5
A597
  8
0
 10
2440.92069709515
 20
774.65049783579957
 30
0.0
 11
2426.92069709515
 21
774.65049783579957
 31
0.0
  0
LINE
  5
A598
  8
0
 10
2424.92069709515
 20
927.65049783579957
 30
0.0
 11
2424.92069709515
 21
776.65049783580002
 31
0.0
  0
LINE
  5
A599
  8
0
 10
2424.92069709515
 20
927.65049783579957
 30
0.0
 11
2426.92069709515
 21
929.65049783579957
 31
0.0
  0
LINE
  5
A59A
  8
0
 10
2424.92069709515
 20
776.65049783579946
 30
0.0
 11
2426.92069709515
 21
774.65049783579957
 31
0.0
  0
LINE
  5
A59B
  8
0
 10
2424.92069709515
 20
886.7004978357993
 30
0.0
 11
2420.92069709515
 21
882.70049783579918
 31
0.0
  0
LINE
  5
A59C
  8
0
 10
2420.92069709515
 20
882.70049783579918
 30
0.0
 11
2420.92069709515
 21
821.60049783579984
 31
0.0
  0
LINE
  5
A59D
  8
0
 10
2424.92069709515
 20
817.60049783579973
 30
0.0
 11
2420.92069709515
 21
821.60049783579984
 31
0.0
  0
LINE
  5
A59E
  8
0
 10
2116.92069709515
 20
929.65049783579957
 30
0.0
 11
2116.92069709515
 21
774.65049783579957
 31
0.0
  0
LINE
  5
A59F
  8
0
 10
2136.92069709515
 20
882.70049783579918
 30
0.0
 11
2164.92069709515
 21
882.70049783579964
 31
0.0
  0
LINE
  5
A5A0
  8
0
 10
2136.9206970951491
 20
821.60049783579973
 30
0.0
 11
2164.9206970951509
 21
821.60049783579996
 31
0.0
  0
LINE
  5
A5A1
  8
0
 10
2116.92069709515
 20
929.65049783579957
 30
0.0
 11
2130.92069709515
 21
929.65049783579957
 31
0.0
  0
LINE
  5
A5A2
  8
0
 10
2116.92069709515
 20
774.65049783579957
 30
0.0
 11
2130.92069709515
 21
774.65049783579957
 31
0.0
  0
LINE
  5
A5A3
  8
0
 10
2132.92069709515
 20
927.65049783579957
 30
0.0
 11
2132.92069709515
 21
776.65049783580002
 31
0.0
  0
LINE
  5
A5A4
  8
0
 10
2132.92069709515
 20
927.65049783579957
 30
0.0
 11
2130.92069709515
 21
929.65049783579957
 31
0.0
  0
LINE
  5
A5A5
  8
0
 10
2132.92069709515
 20
776.65049783579946
 30
0.0
 11
2130.92069709515
 21
774.65049783579957
 31
0.0
  0
LINE
  5
A5A6
  8
0
 10
2132.92069709515
 20
886.7004978357993
 30
0.0
 11
2136.92069709515
 21
882.70049783579918
 31
0.0
  0
LINE
  5
A5A7
  8
0
 10
2136.92069709515
 20
882.70049783579918
 30
0.0
 11
2136.92069709515
 21
821.60049783579984
 31
0.0
  0
LINE
  5
A5A8
  8
0
 10
2132.92069709515
 20
817.60049783579973
 30
0.0
 11
2136.92069709515
 21
821.60049783579984
 31
0.0
  0
CIRCLE
  5
A5A9
  8
0
 10
2661.9277637729701
 20
894.57690470699208
 30
0.0
 40
9.0
  0
CIRCLE
  5
A5AA
  8
0
 10
2661.9277637729701
 20
809.72409096460638
 30
0.0
 40
9.0
  0
CIRCLE
  5
A5AB
  8
0
 10
2577.0749500305842
 20
894.57690470699208
 30
0.0
 40
9.0
  0
CIRCLE
  5
A5AC
  8
0
 10
2577.0749500305842
 20
809.72409096460638
 30
0.0
 40
9.0
  0
CIRCLE
  5
A5B1
  8
0
 10
1995.2659748127751
 20
894.57690470699208
 30
0.0
 40
9.0
  0
CIRCLE
  5
A5B2
  8
0
 10
1995.2659748127751
 20
809.72409096460638
 30
0.0
 40
9.0
  0
CIRCLE
  5
A5B3
  8
0
 10
1910.4131610703889
 20
894.57690470699208
 30
0.0
 40
9.0
  0
CIRCLE
  5
A5B4
  8
0
 10
1910.4131610703889
 20
809.72409096460638
 30
0.0
 40
9.0
  0
VIEWPORT
  5
41
 67
     1
  8
0
 10
117.358407079646
 20
73.5
 30
0.0
 40
234.716814159292
 41
147.0
 68
     1
 69
     1
1001
ACAD
1000
MVIEW
1002
{
1070
    16
1010
0.0
1020
0.0
1030
0.0
1010
0.0
1020
0.0
1030
1.0
1040
0.0
1040
147.0
1040
117.358407079646
1040
73.5
1040
50.0
1040
0.0
1040
0.0
1070
     0
1070
   100
1070
     1
1070
     1
1070
     0
1070
     0
1070
     0
1070
     0
1040
0.0
1040
0.0
1040
0.0
1040
1.0
1040
1.0
1040
0.0
1040
0.0
1070
     0
1002
{
1002
}
1002
}
  0
ENDSEC
  0
EOF
