  0
SECTION
  2
HEADER
  9
$ACADVER
  1
AC1012
  9
$DWGCODEPAGE
  3
dos932
  9
$INSBASE
 10
0.0
 20
0.0
 30
0.0
  9
$EXTMIN
 10
275.0
 20
125.0
 30
0.0
  9
$EXTMAX
 10
7150.0
 20
4775.0
 30
0.0
  9
$LIMMIN
 10
0.0
 20
0.0
  9
$LIMMAX
 10
7425.0
 20
5250.0
  9
$ORTHOMODE
 70
     1
  9
$REGENMODE
 70
     1
  9
$FILLMODE
 70
     1
  9
$QTEXTMODE
 70
     0
  9
$MIRRTEXT
 70
     1
  9
$DRAGMODE
 70
     2
  9
$LTSCALE
 40
100.0
  9
$OSMODE
 70
   163
  9
$ATTMODE
 70
     1
  9
$TEXTSIZE
 40
100.0
  9
$TRACEWID
 40
0.05
  9
$TEXTSTYLE
  7
STANDARD
  9
$CLAYER
  8
0
  9
$CELTYPE
  6
BYLAYER
  9
$CECOLOR
 62
   256
  9
$CELTSCALE
 40
1.0
  9
$DELOBJ
 70
     1
  9
$DISPSILH
 70
     0
  9
$DIMSCALE
 40
25.0
  9
$DIMASZ
 40
2.8
  9
$DIMEXO
 40
1.0
  9
$DIMDLI
 40
5.0
  9
$DIMRND
 40
0.1
  9
$DIMDLE
 40
0.0
  9
$DIMEXE
 40
1.0
  9
$DIMTP
 40
0.0
  9
$DIMTM
 40
0.0
  9
$DIMTXT
 40
2.5
  9
$DIMCEN
 40
0.0
  9
$DIMTSZ
 40
0.0
  9
$DIMTOL
 70
     0
  9
$DIMLIM
 70
     0
  9
$DIMTIH
 70
     0
  9
$DIMTOH
 70
     0
  9
$DIMSE1
 70
     0
  9
$DIMSE2
 70
     0
  9
$DIMTAD
 70
     3
  9
$DIMZIN
 70
     8
  9
$DIMBLK
  1

  9
$DIMASO
 70
     1
  9
$DIMSHO
 70
     1
  9
$DIMPOST
  1
 
  9
$DIMAPOST
  1

  9
$DIMALT
 70
     0
  9
$DIMALTD
 70
     2
  9
$DIMALTF
 40
1.0
  9
$DIMLFAC
 40
1.0
  9
$DIMTOFL
 70
     1
  9
$DIMTVP
 40
0.0
  9
$DIMTIX
 70
     0
  9
$DIMSOXD
 70
     0
  9
$DIMSAH
 70
     1
  9
$DIMBLK1
  1
_OPEN
  9
$DIMBLK2
  1
_OPEN
  9
$DIMSTYLE
  2
DIM1
  9
$DIMCLRD
 70
     2
  9
$DIMCLRE
 70
     2
  9
$DIMCLRT
 70
     2
  9
$DIMTFAC
 40
0.7
  9
$DIMGAP
 40
0.85
  9
$DIMJUST
 70
     0
  9
$DIMSD1
 70
     0
  9
$DIMSD2
 70
     0
  9
$DIMTOLJ
 70
     1
  9
$DIMTZIN
 70
     8
  9
$DIMALTZ
 70
     8
  9
$DIMALTTZ
 70
     8
  9
$DIMFIT
 70
     0
  9
$DIMUPT
 70
     0
  9
$DIMUNIT
 70
     2
  9
$DIMDEC
 70
     4
  9
$DIMTDEC
 70
     4
  9
$DIMALTU
 70
     2
  9
$DIMALTTD
 70
     2
  9
$DIMTXSTY
  7
STANDARD
  9
$DIMAUNIT
 70
     0
  9
$LUNITS
 70
     2
  9
$LUPREC
 70
     4
  9
$SKETCHINC
 40
0.1
  9
$FILLETRAD
 40
0.0
  9
$AUNITS
 70
     0
  9
$AUPREC
 70
     0
  9
$MENU
  1
C:\ACADR13\WIN\SUPPORT\ACAD.mnc
  9
$ELEVATION
 40
0.0
  9
$PELEVATION
 40
0.0
  9
$THICKNESS
 40
0.0
  9
$LIMCHECK
 70
     0
  9
$BLIPMODE
 70
     1
  9
$CHAMFERA
 40
0.0
  9
$CHAMFERB
 40
0.0
  9
$CHAMFERC
 40
0.0
  9
$CHAMFERD
 40
0.0
  9
$SKPOLY
 70
     0
  9
$TDCREATE
 40
2451592.409667916
  9
$TDUPDATE
 40
2451967.652215347
  9
$TDINDWG
 40
0.2586662500
  9
$TDUSRTIMER
 40
0.2586662500
  9
$USRTIMER
 70
     1
  9
$ANGBASE
 50
0.0
  9
$ANGDIR
 70
     0
  9
$PDMODE
 70
     0
  9
$PDSIZE
 40
0.0
  9
$PLINEWID
 40
0.0
  9
$COORDS
 70
     1
  9
$SPLFRAME
 70
     0
  9
$SPLINETYPE
 70
     6
  9
$SPLINESEGS
 70
     8
  9
$ATTDIA
 70
     0
  9
$ATTREQ
 70
     1
  9
$HANDLING
 70
     1
  9
$HANDSEED
  5
12767
  9
$SURFTAB1
 70
     6
  9
$SURFTAB2
 70
     6
  9
$SURFTYPE
 70
     6
  9
$SURFU
 70
     6
  9
$SURFV
 70
     6
  9
$UCSNAME
  2

  9
$UCSORG
 10
0.0
 20
0.0
 30
0.0
  9
$UCSXDIR
 10
1.0
 20
0.0
 30
0.0
  9
$UCSYDIR
 10
0.0
 20
1.0
 30
0.0
  9
$PUCSNAME
  2

  9
$PUCSORG
 10
0.0
 20
0.0
 30
0.0
  9
$PUCSXDIR
 10
1.0
 20
0.0
 30
0.0
  9
$PUCSYDIR
 10
0.0
 20
1.0
 30
0.0
  9
$USERI1
 70
     0
  9
$USERI2
 70
     0
  9
$USERI3
 70
     0
  9
$USERI4
 70
     0
  9
$USERI5
 70
     0
  9
$USERR1
 40
0.0
  9
$USERR2
 40
0.0
  9
$USERR3
 40
0.0
  9
$USERR4
 40
0.0
  9
$USERR5
 40
0.0
  9
$WORLDVIEW
 70
     1
  9
$SHADEDGE
 70
     3
  9
$SHADEDIF
 70
    70
  9
$TILEMODE
 70
     1
  9
$MAXACTVP
 70
    16
  9
$PINSBASE
 10
0.0
 20
0.0
 30
0.0
  9
$PLIMCHECK
 70
     0
  9
$PEXTMIN
 10
1.000000E+20
 20
1.000000E+20
 30
1.000000E+20
  9
$PEXTMAX
 10
-1.000000E+20
 20
-1.000000E+20
 30
-1.000000E+20
  9
$PLIMMIN
 10
0.0
 20
0.0
  9
$PLIMMAX
 10
20.0
 20
147.0
  9
$UNITMODE
 70
     0
  9
$VISRETAIN
 70
     0
  9
$PLINEGEN
 70
     0
  9
$PSLTSCALE
 70
     1
  9
$TREEDEPTH
 70
  3020
  9
$PICKSTYLE
 70
     1
  9
$CMLSTYLE
  2
STANDARD
  9
$CMLJUST
 70
     0
  9
$CMLSCALE
 40
1.0
  9
$SAVEIMAGES
 70
     1
  0
ENDSEC
  0
SECTION
  2
CLASSES
  0
CLASS
  1
LWPOLYLINE
  2
AcDbPolyline
  3
"AutoCAD"
 90
    32768
280
     0
281
     1
  0
ENDSEC
  0
SECTION
  2
TABLES
  0
TABLE
  2
VPORT
  5
8
100
AcDbSymbolTable
 70
     2
  0
VPORT
  5
12766
100
AcDbSymbolTableRecord
100
AcDbViewportTableRecord
  2
*ACTIVE
 70
     0
 10
0.0
 20
0.0
 11
1.0
 21
1.0
 12
4789.39523
 22
2718.060938
 13
0.0
 23
0.0
 14
1.0
 24
1.0
 15
0.0
 25
0.0
 16
0.0
 26
0.0
 36
1.0
 17
0.0
 27
0.0
 37
0.0
 40
5436.121876
 41
1.762063
 42
50.0
 43
0.0
 44
0.0
 50
0.0
 51
0.0
 71
     0
 72
   100
 73
     1
 74
     1
 75
     0
 76
     0
 77
     0
 78
     0
  0
ENDTAB
  0
TABLE
  2
LTYPE
  5
5
100
AcDbSymbolTable
 70
     5
  0
LTYPE
  5
12
100
AcDbSymbolTableRecord
100
AcDbLinetypeTableRecord
  2
BYBLOCK
 70
     0
  3

 72
    65
 73
     0
 40
0.0
  0
LTYPE
  5
13
100
AcDbSymbolTableRecord
100
AcDbLinetypeTableRecord
  2
BYLAYER
 70
     0
  3

 72
    65
 73
     0
 40
0.0
  0
LTYPE
  5
14
100
AcDbSymbolTableRecord
100
AcDbLinetypeTableRecord
  2
CONTINUOUS
 70
     0
  3
Solid line
 72
    65
 73
     0
 40
0.0
  0
ENDTAB
  0
TABLE
  2
LAYER
  5
2
100
AcDbSymbolTable
 70
     4
  0
LAYER
  5
F
100
AcDbSymbolTableRecord
100
AcDbLayerTableRecord
  2
0
 70
     0
 62
     7
  6
CONTINUOUS
  0
ENDTAB
  0
TABLE
  2
STYLE
  5
3
100
AcDbSymbolTable
 70
     3
  0
STYLE
  5
10
100
AcDbSymbolTableRecord
100
AcDbTextStyleTableRecord
  2
STANDARD
 70
     0
 40
0.0
 41
0.8
 50
0.0
 71
     0
 42
100.0
  3
simplex
  4
extfont
  0
STYLE
  5
237C
100
AcDbSymbolTableRecord
100
AcDbTextStyleTableRecord
  2
PTSH
 70
     0
 40
0.0
 41
0.9
 50
0.0
 71
     0
 42
4.0
  3
SIMPLEX
  4
EXTFONT
  0
ENDTAB
  0
TABLE
  2
VIEW
  5
6
100
AcDbSymbolTable
 70
     0
  0
ENDTAB
  0
TABLE
  2
UCS
  5
7
100
AcDbSymbolTable
 70
     0
  0
ENDTAB
  0
TABLE
  2
APPID
  5
9
100
AcDbSymbolTable
 70
     1
  0
APPID
  5
11
100
AcDbSymbolTableRecord
100
AcDbRegAppTableRecord
  2
ACAD
 70
     0
  0
ENDTAB
  0
TABLE
  2
DIMSTYLE
  5
A
100
AcDbSymbolTable
 70
     1
  0
DIMSTYLE
105
2237
100
AcDbSymbolTableRecord
100
AcDbDimStyleTableRecord
  2
DIM1
 70
     0
  3
 
  4

  5

  6
_OPEN
  7
_OPEN
 40
25.0
 41
2.8
 42
1.0
 43
5.0
 44
1.0
 45
0.1
 46
0.0
 47
0.0
 48
0.0
140
2.5
141
0.0
142
0.0
143
1.0
144
1.0
145
0.0
146
0.7
147
0.85
 71
     0
 72
     0
 73
     0
 74
     0
 75
     0
 76
     0
 77
     3
 78
     8
170
     0
171
     2
172
     1
173
     1
174
     0
175
     0
176
     2
177
     2
178
     2
270
     2
271
     4
272
     4
273
     2
274
     2
340
10
275
     0
280
     0
281
     0
282
     0
283
     1
284
     8
285
     8
286
     8
287
     0
288
     0
  0
ENDTAB
  0
TABLE
  2
BLOCK_RECORD
  5
1
100
AcDbSymbolTable
 70
     2
  0
BLOCK_RECORD
  5
18
100
AcDbSymbolTableRecord
100
AcDbBlockTableRecord
  2
*MODEL_SPACE
  0
BLOCK_RECORD
  5
15
100
AcDbSymbolTableRecord
100
AcDbBlockTableRecord
  2
*PAPER_SPACE
  0
BLOCK_RECORD
  5
2448
100
AcDbSymbolTableRecord
100
AcDbBlockTableRecord
  2
_OPEN
  0
BLOCK_RECORD
  5
9BAD
100
AcDbSymbolTableRecord
100
AcDbBlockTableRecord
  2
YA
  0
ENDTAB
  0
ENDSEC
  0
SECTION
  2
BLOCKS
  0
BLOCK
  5
3C
100
AcDbEntity
  8
0
100
AcDbBlockBegin
  2
*MODEL_SPACE
 70
     0
 10
0.0
 20
0.0
 30
0.0
  3
*MODEL_SPACE
  1

  0
ENDBLK
  5
3D
100
AcDbEntity
  8
0
100
AcDbBlockEnd
  0
BLOCK
  5
3A
100
AcDbEntity
 67
     1
  8
0
100
AcDbBlockBegin
  2
*PAPER_SPACE
 70
     0
 10
0.0
 20
0.0
 30
0.0
  3
*PAPER_SPACE
  1

  0
ENDBLK
  5
3B
100
AcDbEntity
 67
     1
  8
0
100
AcDbBlockEnd
  0
BLOCK
  5
2449
100
AcDbEntity
  8
0
 48
4.0
100
AcDbBlockBegin
  2
_OPEN
 70
     0
 10
0.0
 20
0.0
 30
0.0
  3
_OPEN
  1
H1111.DWG
  0
LINE
  5
244A
100
AcDbEntity
  8
0
  6
BYBLOCK
 62
     0
 48
4.0
100
AcDbLine
 10
-1.0
 20
0.166667
 30
0.0
 11
0.0
 21
0.0
 31
0.0
  0
LINE
  5
244B
100
AcDbEntity
  8
0
  6
BYBLOCK
 62
     0
 48
4.0
100
AcDbLine
 10
0.0
 20
0.0
 30
0.0
 11
-1.0
 21
-0.166667
 31
0.0
  0
LINE
  5
244C
100
AcDbEntity
  8
0
  6
BYBLOCK
 62
     0
 48
4.0
100
AcDbLine
 10
0.0
 20
0.0
 30
0.0
 11
-1.0
 21
0.0
 31
0.0
  0
ENDBLK
  5
244D
100
AcDbEntity
  8
0
 48
4.0
100
AcDbBlockEnd
  0
BLOCK
  5
9BB5
100
AcDbEntity
  8
0
100
AcDbBlockBegin
  2
YA
 70
     0
 10
0.0
 20
0.0
 30
0.0
  3
YA
  1

  0
LINE
  5
9BAE
100
AcDbEntity
  8
0
100
AcDbLine
 10
-16.8065
 20
2.801
 30
0.0
 11
-8.4035
 21
2.801
 31
0.0
  0
LINE
  5
9BAF
100
AcDbEntity
  8
0
100
AcDbLine
 10
-8.4035
 20
2.801
 30
0.0
 11
-7.0025
 21
1.4005
 31
0.0
  0
LINE
  5
9BB0
100
AcDbEntity
  8
0
100
AcDbLine
 10
-7.0025
 20
1.4005
 30
0.0
 11
-2.862
 21
1.4005
 31
0.0
  0
LINE
  5
9BB1
100
AcDbEntity
  8
0
100
AcDbLine
 10
-2.862
 20
1.4005
 30
0.0
 11
-2.862
 21
2.801
 31
0.0
  0
LINE
  5
9BB2
100
AcDbEntity
  8
0
100
AcDbLine
 10
-2.862
 20
2.801
 30
0.0
 11
0.0
 21
0.0
 31
0.0
  0
LINE
  5
9BB3
100
AcDbEntity
  8
0
100
AcDbLine
 10
0.0
 20
0.0
 30
0.0
 11
-14.0055
 21
0.0
 31
0.0
  0
LINE
  5
9BB4
100
AcDbEntity
  8
0
100
AcDbLine
 10
-14.0055
 20
0.0
 30
0.0
 11
-16.8065
 21
2.801
 31
0.0
  0
ENDBLK
  5
9BB6
100
AcDbEntity
  8
0
100
AcDbBlockEnd
  0
ENDSEC
  0
SECTION
  2
ENTITIES
  0
MTEXT
  5
ADA
100
AcDbEntity
  8
0
100
AcDbMText
 10
9503.481994
 20
1246.157778
 30
0.0
 40
5.0
 41
1180.661621
 71
     1
 72
     1
  1

  0
MTEXT
  5
ADB
100
AcDbEntity
  8
0
100
AcDbMText
 10
9726.248329
 20
1446.269843
 30
0.0
 40
5.0
 41
1136.108354
 71
     1
 72
     1
  1

  0
MTEXT
  5
ADC
100
AcDbEntity
  8
0
100
AcDbMText
 10
9592.588528
 20
-1199.65616
 30
0.0
 40
5.0
 41
1292.044789
 71
     1
 72
     1
  1

  0
TEXT
  5
2529
100
AcDbEntity
  8
0
  6
CONTINUOUS
100
AcDbText
 10
6777.040816
 20
176.785714
 30
0.0
 40
71.428571
  1
SR-3
 41
0.9
  7
PTSH
 72
     2
 11
7025.0
 21
212.5
 31
0.0
100
AcDbText
 73
     2
  0
POLYLINE
  5
2563
100
AcDbEntity
  8
0
100
AcDb2dPolyline
 66
     1
 10
0.0
 20
0.0
 30
0.0
 70
     1
  0
VERTEX
  5
12761
100
AcDbEntity
  8
0
100
AcDbVertex
100
AcDb2dVertex
 10
275.0
 20
125.0
 30
0.0
  0
VERTEX
  5
12762
100
AcDbEntity
  8
0
100
AcDbVertex
100
AcDb2dVertex
 10
7150.0
 20
125.0
 30
0.0
  0
VERTEX
  5
12763
100
AcDbEntity
  8
0
100
AcDbVertex
100
AcDb2dVertex
 10
7150.0
 20
4775.0
 30
0.0
  0
VERTEX
  5
12764
100
AcDbEntity
  8
0
100
AcDbVertex
100
AcDb2dVertex
 10
275.0
 20
4775.0
 30
0.0
  0
SEQEND
  5
12765
100
AcDbEntity
  8
0
  0
TEXT
  5
B5D3
100
AcDbEntity
  8
0
100
AcDbText
 10
3110.0
 20
262.5
 30
0.0
 40
87.5
  1
TLV SR-3 (JIS10K)
 72
     4
 11
3712.5
 21
300.0
 31
0.0
100
AcDbText
  0
LINE
  5
12346
100
AcDbEntity
  8
0
100
AcDbLine
 10
1980.123792
 20
1945.446329
 30
0.0
 11
2310.123792
 21
1945.446329
 31
0.0
  0
LINE
  5
12347
100
AcDbEntity
  8
0
100
AcDbLine
 10
2310.123792
 20
1923.446329
 30
0.0
 11
1980.123792
 21
1923.446329
 31
0.0
  0
CIRCLE
  5
12348
100
AcDbEntity
  8
0
100
AcDbCircle
 10
2075.832827
 20
1716.745072
 30
0.0
 40
9.5
  0
CIRCLE
  5
12349
100
AcDbEntity
  8
0
100
AcDbCircle
 10
2145.123792
 20
1745.446329
 30
0.0
 40
92.5
  0
CIRCLE
  5
1234A
100
AcDbEntity
  8
0
100
AcDbCircle
 10
2075.832827
 20
1774.147587
 30
0.0
 40
9.5
  0
LINE
  5
1234B
100
AcDbEntity
  8
0
100
AcDbLine
 10
2365.123792
 20
1845.446329
 30
0.0
 11
2036.973792
 21
1845.446329
 31
0.0
  0
LINE
  5
1234C
100
AcDbEntity
  8
0
100
AcDbLine
 10
1925.123792
 20
1845.446329
 30
0.0
 11
2135.758828
 21
1845.446329
 31
0.0
  0
LINE
  5
1234D
100
AcDbEntity
  8
0
100
AcDbLine
 10
2128.533132
 20
1836.446329
 30
0.0
 11
1925.123792
 21
1836.446329
 31
0.0
  0
LINE
  5
1234E
100
AcDbEntity
  8
0
100
AcDbLine
 10
2067.623792
 20
861.450329
 30
0.0
 11
2220.063792
 21
861.450329
 31
0.0
  0
LINE
  5
1234F
100
AcDbEntity
  8
0
100
AcDbLine
 10
2220.063792
 20
845.450329
 30
0.0
 11
2067.623792
 21
845.450329
 31
0.0
  0
LINE
  5
12350
100
AcDbEntity
  8
0
100
AcDbLine
 10
2308.723292
 20
921.450329
 30
0.0
 11
1981.515292
 21
921.450329
 31
0.0
  0
LINE
  5
12351
100
AcDbEntity
  8
0
100
AcDbLine
 10
1941.923792
 20
1077.439419
 30
0.0
 11
1941.923792
 21
1836.446329
 31
0.0
  0
LINE
  5
12352
100
AcDbEntity
  8
0
100
AcDbLine
 10
1931.674292
 20
1072.587515
 30
0.0
 11
1931.674292
 21
654.450329
 31
0.0
  0
LINE
  5
12353
100
AcDbEntity
  8
0
100
AcDbLine
 10
1981.515292
 20
1095.450329
 30
0.0
 11
1981.515292
 21
654.450329
 31
0.0
  0
LINE
  5
12354
100
AcDbEntity
  8
0
100
AcDbLine
 10
1931.676012
 20
1072.588329
 30
0.0
 11
1931.676012
 21
654.450329
 31
0.0
  0
LINE
  5
12355
100
AcDbEntity
  8
0
100
AcDbLine
 10
1979.971292
 20
1095.450329
 30
0.0
 11
1979.971292
 21
654.450329
 31
0.0
  0
INSERT
  5
12356
100
AcDbEntity
  8
0
100
AcDbBlockReference
  2
YA
 10
1995.120292
 20
402.94601
 30
0.0
 41
-10.710078
 42
10.710078
 43
10.710078
 50
90.0
  0
LINE
  5
12357
100
AcDbEntity
  8
0
100
AcDbLine
 10
1913.308947
 20
645.450329
 30
0.0
 11
2011.275292
 21
645.450329
 31
0.0
  0
LINE
  5
12358
100
AcDbEntity
  8
0
100
AcDbLine
 10
2011.275292
 20
654.450329
 30
0.0
 11
1913.308947
 21
654.450329
 31
0.0
  0
LINE
  5
12359
100
AcDbEntity
  8
0
100
AcDbLine
 10
1934.009292
 20
654.450329
 30
0.0
 11
1934.009292
 21
645.450329
 31
0.0
  0
LINE
  5
1235A
100
AcDbEntity
  8
0
100
AcDbLine
 10
1913.308947
 20
654.450329
 30
0.0
 11
1913.308947
 21
645.450329
 31
0.0
  0
LINE
  5
1235B
100
AcDbEntity
  8
0
100
AcDbLine
 10
2011.275292
 20
654.450329
 30
0.0
 11
2011.275292
 21
645.450329
 31
0.0
  0
LINE
  5
1235C
100
AcDbEntity
  8
0
100
AcDbLine
 10
1927.123792
 20
753.448329
 30
0.0
 11
1927.123792
 21
823.451329
 31
0.0
  0
LINE
  5
1235D
100
AcDbEntity
  8
0
100
AcDbLine
 10
1931.676012
 20
753.448329
 30
0.0
 11
1927.123792
 21
753.448329
 31
0.0
  0
LINE
  5
1235E
100
AcDbEntity
  8
0
100
AcDbLine
 10
1928.623792
 20
824.951329
 30
0.0
 11
1928.623792
 21
835.451329
 31
0.0
  0
ARC
  5
1235F
100
AcDbEntity
  8
0
100
AcDbCircle
 10
2165.786932
 20
756.336131
 30
0.0
 40
250.011139
100
AcDbArc
 50
159.455834
 51
161.551829
  0
LINE
  5
12360
100
AcDbEntity
  8
0
100
AcDbLine
 10
1927.123792
 20
823.451329
 30
0.0
 11
1931.676012
 21
828.004114
 31
0.0
  0
ARC
  5
12361
100
AcDbEntity
  8
0
100
AcDbCircle
 10
1995.123792
 20
843.951329
 30
0.0
 40
19.5
100
AcDbArc
 50
247.380135
 51
292.619865
  0
ARC
  5
12362
100
AcDbEntity
  8
0
100
AcDbCircle
 10
1995.123792
 20
856.451329
 30
0.0
 40
19.5
100
AcDbArc
 50
247.380135
 51
292.619865
  0
LINE
  5
12363
100
AcDbEntity
  8
0
100
AcDbLine
 10
1987.623792
 20
840.451329
 30
0.0
 11
2002.623792
 21
840.451329
 31
0.0
  0
LINE
  5
12364
100
AcDbEntity
  8
0
100
AcDbLine
 10
2008.623792
 20
824.451329
 30
0.0
 11
1995.123792
 21
824.451329
 31
0.0
  0
LINE
  5
12365
100
AcDbEntity
  8
0
100
AcDbLine
 10
2002.623792
 20
825.951329
 30
0.0
 11
2002.623792
 21
838.451329
 31
0.0
  0
LINE
  5
12366
100
AcDbEntity
  8
0
100
AcDbLine
 10
2010.123792
 20
825.951329
 30
0.0
 11
2010.123792
 21
836.451329
 31
0.0
  0
ARC
  5
12367
100
AcDbEntity
  8
0
100
AcDbCircle
 10
2006.373792
 20
842.388829
 30
0.0
 40
5.4375
100
AcDbArc
 50
226.397181
 51
313.602819
  0
ARC
  5
12368
100
AcDbEntity
  8
0
100
AcDbCircle
 10
2012.123792
 20
836.451329
 30
0.0
 40
2.0
100
AcDbArc
 50
90.0
 51
180.0
  0
LINE
  5
12369
100
AcDbEntity
  8
0
100
AcDbLine
 10
2003.623792
 20
838.451329
 30
0.0
 11
2012.123792
 21
838.451329
 31
0.0
  0
ARC
  5
1236A
100
AcDbEntity
  8
0
100
AcDbCircle
 10
2003.623792
 20
839.451329
 30
0.0
 40
1.0
100
AcDbArc
 50
180.0
 51
270.0
  0
LINE
  5
1236B
100
AcDbEntity
  8
0
100
AcDbLine
 10
2010.123792
 20
825.951329
 30
0.0
 11
2008.623792
 21
824.451329
 31
0.0
  0
ARC
  5
1236C
100
AcDbEntity
  8
0
100
AcDbCircle
 10
2006.373792
 20
829.888829
 30
0.0
 40
5.4375
100
AcDbArc
 50
226.397181
 51
313.602819
  0
LINE
  5
1236D
100
AcDbEntity
  8
0
100
AcDbLine
 10
1987.623792
 20
825.951329
 30
0.0
 11
1987.623792
 21
838.451329
 31
0.0
  0
ARC
  5
1236E
100
AcDbEntity
  8
0
100
AcDbCircle
 10
1986.623792
 20
839.451329
 30
0.0
 40
1.0
100
AcDbArc
 50
270.0
 51
0.0
  0
LINE
  5
1236F
100
AcDbEntity
  8
0
100
AcDbLine
 10
1995.123792
 20
824.451329
 30
0.0
 11
1981.623792
 21
824.451329
 31
0.0
  0
LINE
  5
12370
100
AcDbEntity
  8
0
100
AcDbLine
 10
2016.623792
 20
853.451329
 30
0.0
 11
2016.623792
 21
865.451329
 31
0.0
  0
LINE
  5
12371
100
AcDbEntity
  8
0
100
AcDbLine
 10
2012.123792
 20
861.451329
 30
0.0
 11
2005.623792
 21
861.451329
 31
0.0
  0
LINE
  5
12372
100
AcDbEntity
  8
0
100
AcDbLine
 10
2016.623792
 20
865.451329
 30
0.0
 11
2015.123792
 21
865.451329
 31
0.0
  0
ARC
  5
12373
100
AcDbEntity
  8
0
100
AcDbCircle
 10
2012.123792
 20
864.451329
 30
0.0
 40
3.0
100
AcDbArc
 50
270.0
 51
0.0
  0
ARC
  5
12374
100
AcDbEntity
  8
0
100
AcDbCircle
 10
2005.623792
 20
858.451329
 30
0.0
 40
3.0
100
AcDbArc
 50
90.0
 51
180.0
  0
LINE
  5
12375
100
AcDbEntity
  8
0
100
AcDbLine
 10
2016.623792
 20
853.451329
 30
0.0
 11
2015.123792
 21
853.451329
 31
0.0
  0
ARC
  5
12376
100
AcDbEntity
  8
0
100
AcDbCircle
 10
2015.123792
 20
850.451329
 30
0.0
 40
3.0
100
AcDbArc
 50
90.0
 51
180.0
  0
ARC
  5
12377
100
AcDbEntity
  8
0
100
AcDbCircle
 10
1984.623792
 20
858.451329
 30
0.0
 40
3.0
100
AcDbArc
 50
0.0
 51
68.804695
  0
ARC
  5
12378
100
AcDbEntity
  8
0
100
AcDbCircle
 10
1986.069984
 20
862.180743
 30
0.0
 40
1.0
100
AcDbArc
 50
185.565338
 51
248.804695
  0
ARC
  5
12379
100
AcDbEntity
  8
0
100
AcDbCircle
 10
1995.123792
 20
862.451329
 30
0.0
 40
19.5
100
AcDbArc
 50
67.380135
 51
112.619865
  0
LINE
  5
1237A
100
AcDbEntity
  8
0
100
AcDbLine
 10
2002.623792
 20
892.951329
 30
0.0
 11
2002.623792
 21
880.451329
 31
0.0
  0
LINE
  5
1237B
100
AcDbEntity
  8
0
100
AcDbLine
 10
2010.123792
 20
892.951329
 30
0.0
 11
2010.123792
 21
882.451329
 31
0.0
  0
ARC
  5
1237C
100
AcDbEntity
  8
0
100
AcDbCircle
 10
2006.373792
 20
876.513829
 30
0.0
 40
5.4375
100
AcDbArc
 50
46.397181
 51
133.602819
  0
ARC
  5
1237D
100
AcDbEntity
  8
0
100
AcDbCircle
 10
2012.123792
 20
882.451329
 30
0.0
 40
2.0
100
AcDbArc
 50
180.0
 51
270.0
  0
LINE
  5
1237E
100
AcDbEntity
  8
0
100
AcDbLine
 10
2012.123792
 20
880.451329
 30
0.0
 11
2015.123792
 21
879.451329
 31
0.0
  0
LINE
  5
1237F
100
AcDbEntity
  8
0
100
AcDbLine
 10
1987.623792
 20
892.951329
 30
0.0
 11
1987.623792
 21
880.451329
 31
0.0
  0
LINE
  5
12380
100
AcDbEntity
  8
0
100
AcDbLine
 10
2015.123792
 20
864.451329
 30
0.0
 11
2015.123792
 21
879.451329
 31
0.0
  0
LINE
  5
12381
100
AcDbEntity
  8
0
100
AcDbLine
 10
2008.623792
 20
894.451329
 30
0.0
 11
1995.123792
 21
894.451329
 31
0.0
  0
LINE
  5
12382
100
AcDbEntity
  8
0
100
AcDbLine
 10
1995.123792
 20
894.451329
 30
0.0
 11
1981.623792
 21
894.451329
 31
0.0
  0
ARC
  5
12383
100
AcDbEntity
  8
0
100
AcDbCircle
 10
1995.123792
 20
874.951329
 30
0.0
 40
19.5
100
AcDbArc
 50
67.380135
 51
112.619865
  0
ARC
  5
12384
100
AcDbEntity
  8
0
100
AcDbCircle
 10
2006.373792
 20
889.013829
 30
0.0
 40
5.4375
100
AcDbArc
 50
46.397181
 51
133.602819
  0
LINE
  5
12385
100
AcDbEntity
  8
0
100
AcDbLine
 10
2010.123792
 20
892.951329
 30
0.0
 11
2008.623792
 21
894.451329
 31
0.0
  0
LINE
  5
12386
100
AcDbEntity
  8
0
100
AcDbLine
 10
2022.123792
 20
855.451329
 30
0.0
 11
2022.123792
 21
863.451329
 31
0.0
  0
LINE
  5
12387
100
AcDbEntity
  8
0
100
AcDbLine
 10
2016.623792
 20
853.451329
 30
0.0
 11
2022.123792
 21
855.451329
 31
0.0
  0
LINE
  5
12388
100
AcDbEntity
  8
0
100
AcDbLine
 10
2016.623792
 20
865.451329
 30
0.0
 11
2022.123792
 21
863.451329
 31
0.0
  0
LINE
  5
12389
100
AcDbEntity
  8
0
100
AcDbLine
 10
2002.623792
 20
839.451329
 30
0.0
 11
2002.623792
 21
858.451329
 31
0.0
  0
LINE
  5
1238A
100
AcDbEntity
  8
0
100
AcDbLine
 10
2012.123792
 20
838.451329
 30
0.0
 11
2012.123792
 21
850.451329
 31
0.0
  0
LINE
  5
1238B
100
AcDbEntity
  8
0
100
AcDbLine
 10
1987.623792
 20
839.451329
 30
0.0
 11
1987.623792
 21
858.451329
 31
0.0
  0
LINE
  5
1238C
100
AcDbEntity
  8
0
100
AcDbLine
 10
2067.623792
 20
845.450329
 30
0.0
 11
2067.623792
 21
861.450329
 31
0.0
  0
LINE
  5
1238D
100
AcDbEntity
  8
0
100
AcDbLine
 10
1981.515292
 20
894.342829
 30
0.0
 11
1981.623792
 21
894.451329
 31
0.0
  0
ARC
  5
1238E
100
AcDbEntity
  8
0
100
AcDbCircle
 10
1983.873792
 20
876.513829
 30
0.0
 40
5.4375
100
AcDbArc
 50
46.397181
 51
115.705598
  0
LINE
  5
1238F
100
AcDbEntity
  8
0
100
AcDbLine
 10
2015.123792
 20
876.451329
 30
0.0
 11
1981.515292
 21
876.451329
 31
0.0
  0
ARC
  5
12390
100
AcDbEntity
  8
0
100
AcDbCircle
 10
1968.042026
 20
859.299703
 30
0.0
 40
17.258705
100
AcDbArc
 50
9.283134
 51
38.678505
  0
LINE
  5
12391
100
AcDbEntity
  8
0
100
AcDbLine
 10
2015.123792
 20
879.451329
 30
0.0
 11
1981.515292
 21
879.451329
 31
0.0
  0
ARC
  5
12392
100
AcDbEntity
  8
0
100
AcDbCircle
 10
1970.60407
 20
859.779528
 30
0.0
 40
17.830499
100
AcDbArc
 50
307.730015
 51
342.655319
  0
LINE
  5
12393
100
AcDbEntity
  8
0
100
AcDbLine
 10
1981.515292
 20
838.451329
 30
0.0
 11
1986.623792
 21
838.451329
 31
0.0
  0
LINE
  5
12394
100
AcDbEntity
  8
0
100
AcDbLine
 10
1981.515292
 20
824.559829
 30
0.0
 11
1981.623792
 21
824.451329
 31
0.0
  0
ARC
  5
12395
100
AcDbEntity
  8
0
100
AcDbCircle
 10
1983.873792
 20
829.888829
 30
0.0
 40
5.4375
100
AcDbArc
 50
244.294402
 51
313.602819
  0
ARC
  5
12396
100
AcDbEntity
  8
0
100
AcDbCircle
 10
1983.873792
 20
842.388829
 30
0.0
 40
5.4375
100
AcDbArc
 50
244.294402
 51
313.602819
  0
ARC
  5
12397
100
AcDbEntity
  8
0
100
AcDbCircle
 10
1983.873792
 20
889.013829
 30
0.0
 40
5.4375
100
AcDbArc
 50
46.397181
 51
115.705598
  0
LINE
  5
12398
100
AcDbEntity
  8
0
100
AcDbLine
 10
1984.273792
 20
894.451329
 30
0.0
 11
1984.273792
 21
921.450329
 31
0.0
  0
LINE
  5
12399
100
AcDbEntity
  8
0
100
AcDbLine
 10
2005.973792
 20
894.451329
 30
0.0
 11
2005.973792
 21
921.450329
 31
0.0
  0
LINE
  5
1239A
100
AcDbEntity
  8
0
100
AcDbLine
 10
1944.203292
 20
1110.450329
 30
0.0
 11
1944.203292
 21
1078.518488
 31
0.0
  0
LINE
  5
1239B
100
AcDbEntity
  8
0
100
AcDbLine
 10
1931.674292
 20
1072.587515
 30
0.0
 11
1979.971292
 21
1095.450329
 31
0.0
  0
LINE
  5
1239C
100
AcDbEntity
  8
0
100
AcDbLine
 10
1994.203292
 20
1110.450329
 30
0.0
 11
1994.203292
 21
960.450329
 31
0.0
  0
LINE
  5
1239D
100
AcDbEntity
  8
0
100
AcDbLine
 10
1998.532292
 20
1110.450329
 30
0.0
 11
1998.532292
 21
960.450329
 31
0.0
  0
LINE
  5
1239E
100
AcDbEntity
  8
0
100
AcDbLine
 10
1981.524292
 20
960.450329
 30
0.0
 11
1998.532292
 21
960.450329
 31
0.0
  0
LINE
  5
1239F
100
AcDbEntity
  8
0
100
AcDbLine
 10
1979.971292
 20
1095.450329
 30
0.0
 11
1981.515292
 21
1095.450329
 31
0.0
  0
LINE
  5
123A0
100
AcDbEntity
  8
0
100
AcDbLine
 10
1998.532292
 20
1110.450329
 30
0.0
 11
1944.203292
 21
1110.450329
 31
0.0
  0
TEXT
  5
123A1
100
AcDbEntity
  8
0
100
AcDbText
 10
419.565691
 20
1745.446329
 30
0.0
 40
105.0
  1
正面
100
AcDbText
  0
LINE
  5
123A2
100
AcDbEntity
  8
0
100
AcDbLine
 10
1925.123792
 20
1836.446329
 30
0.0
 11
1925.123792
 21
1845.446329
 31
0.0
  0
LINE
  5
123A3
100
AcDbEntity
  8
0
100
AcDbLine
 10
1980.123792
 20
1923.446329
 30
0.0
 11
1980.123792
 21
1945.446329
 31
0.0
  0
LINE
  5
123A4
100
AcDbEntity
  8
0
100
AcDbLine
 10
2036.973792
 20
1845.446329
 30
0.0
 11
2036.973792
 21
1923.446329
 31
0.0
  0
TEXT
  5
123A5
100
AcDbEntity
  8
0
100
AcDbText
 10
407.307903
 20
2880.270032
 30
0.0
 40
105.0
  1
平面
100
AcDbText
  0
LINE
  5
123A6
100
AcDbEntity
  8
0
100
AcDbLine
 10
3963.754949
 20
1110.450329
 30
0.0
 11
3963.754949
 21
1545.446329
 31
0.0
  0
LINE
  5
123A7
100
AcDbEntity
  8
0
100
AcDbLine
 10
5579.186106
 20
921.450329
 30
0.0
 11
5579.186106
 21
1836.446329
 31
0.0
  0
LINE
  5
123A8
100
AcDbEntity
  8
0
100
AcDbLine
 10
5172.786106
 20
1836.446329
 30
0.0
 11
5172.786106
 21
921.450329
 31
0.0
  0
LINE
  5
123A9
100
AcDbEntity
  8
0
100
AcDbLine
 10
3557.354949
 20
1700.896329
 30
0.0
 11
3557.354949
 21
921.450329
 31
0.0
  0
LINE
  5
123AA
100
AcDbEntity
  8
0
100
AcDbLine
 10
2348.323792
 20
1836.446329
 30
0.0
 11
2348.323792
 21
1077.439419
 31
0.0
  0
LINE
  5
123AB
100
AcDbEntity
  8
0
100
AcDbLine
 10
2109.772292
 20
654.450329
 30
0.0
 11
2109.772292
 21
845.450329
 31
0.0
  0
LINE
  5
123AC
100
AcDbEntity
  8
0
100
AcDbLine
 10
2180.482292
 20
654.450329
 30
0.0
 11
2180.482292
 21
845.450329
 31
0.0
  0
LINE
  5
123AD
100
AcDbEntity
  8
0
100
AcDbLine
 10
2145.121108
 20
845.450329
 30
0.0
 11
2145.116652
 21
654.450329
 31
0.0
  0
LINE
  5
123AE
100
AcDbEntity
  8
0
100
AcDbLine
 10
2358.571572
 20
1072.588329
 30
0.0
 11
2358.571572
 21
654.450329
 31
0.0
  0
LINE
  5
123AF
100
AcDbEntity
  8
0
100
AcDbLine
 10
2308.732292
 20
1095.450329
 30
0.0
 11
2308.732292
 21
654.450329
 31
0.0
  0
LINE
  5
123B0
100
AcDbEntity
  8
0
100
AcDbLine
 10
2310.276292
 20
1095.450329
 30
0.0
 11
2310.276292
 21
654.450329
 31
0.0
  0
LINE
  5
123B1
100
AcDbEntity
  8
0
100
AcDbLine
 10
2358.573292
 20
1072.587515
 30
0.0
 11
2358.573292
 21
654.450329
 31
0.0
  0
LINE
  5
123B2
100
AcDbEntity
  8
0
100
AcDbLine
 10
2278.972292
 20
654.450329
 30
0.0
 11
2376.938637
 21
654.450329
 31
0.0
  0
LINE
  5
123B3
100
AcDbEntity
  8
0
100
AcDbLine
 10
2376.938637
 20
645.450329
 30
0.0
 11
2278.972292
 21
645.450329
 31
0.0
  0
INSERT
  5
123B4
100
AcDbEntity
  8
0
100
AcDbBlockReference
  2
YA
 10
2145.123792
 20
402.94601
 30
0.0
 41
-10.710078
 42
10.710078
 43
10.710078
 50
90.0
  0
LINE
  5
123B5
100
AcDbEntity
  8
0
100
AcDbLine
 10
2201.693792
 20
645.450329
 30
0.0
 11
2201.693792
 21
654.450329
 31
0.0
  0
LINE
  5
123B6
100
AcDbEntity
  8
0
100
AcDbLine
 10
2201.692292
 20
645.450329
 30
0.0
 11
2201.692292
 21
654.450329
 31
0.0
  0
LINE
  5
123B7
100
AcDbEntity
  8
0
100
AcDbLine
 10
2145.127292
 20
654.450329
 30
0.0
 11
2145.127292
 21
645.450329
 31
0.0
  0
LINE
  5
123B8
100
AcDbEntity
  8
0
100
AcDbLine
 10
2088.562292
 20
645.450329
 30
0.0
 11
2088.562292
 21
654.450329
 31
0.0
  0
LINE
  5
123B9
100
AcDbEntity
  8
0
100
AcDbLine
 10
2088.562292
 20
654.450329
 30
0.0
 11
2201.692292
 21
654.450329
 31
0.0
  0
LINE
  5
123BA
100
AcDbEntity
  8
0
100
AcDbLine
 10
2201.692292
 20
645.450329
 30
0.0
 11
2088.562292
 21
645.450329
 31
0.0
  0
LINE
  5
123BB
100
AcDbEntity
  8
0
100
AcDbLine
 10
2278.972292
 20
654.450329
 30
0.0
 11
2278.972292
 21
645.450329
 31
0.0
  0
LINE
  5
123BC
100
AcDbEntity
  8
0
100
AcDbLine
 10
2356.238292
 20
654.450329
 30
0.0
 11
2356.238292
 21
645.450329
 31
0.0
  0
LINE
  5
123BD
100
AcDbEntity
  8
0
100
AcDbLine
 10
2376.938637
 20
654.450329
 30
0.0
 11
2376.938637
 21
645.450329
 31
0.0
  0
INSERT
  5
123BE
100
AcDbEntity
  8
0
100
AcDbBlockReference
  2
YA
 10
2636.495992
 20
1046.272876
 30
0.0
 41
-10.710078
 42
10.710078
 43
10.710078
  0
LINE
  5
123BF
100
AcDbEntity
  8
0
100
AcDbLine
 10
2220.063792
 20
861.450329
 30
0.0
 11
2220.063792
 21
845.450329
 31
0.0
  0
LINE
  5
123C0
100
AcDbEntity
  8
0
100
AcDbLine
 10
2175.372882
 20
861.450329
 30
0.0
 11
2175.372882
 21
921.450329
 31
0.0
  0
LINE
  5
123C1
100
AcDbEntity
  8
0
100
AcDbLine
 10
2114.872882
 20
921.450329
 30
0.0
 11
2114.872882
 21
861.450329
 31
0.0
  0
LINE
  5
123C2
100
AcDbEntity
  8
0
100
AcDbLine
 10
2109.772292
 20
861.450329
 30
0.0
 11
2109.772292
 21
921.450329
 31
0.0
  0
LINE
  5
123C3
100
AcDbEntity
  8
0
100
AcDbLine
 10
2180.482292
 20
861.450329
 30
0.0
 11
2180.482292
 21
921.450329
 31
0.0
  0
LINE
  5
123C4
100
AcDbEntity
  8
0
100
AcDbLine
 10
2358.571572
 20
1059.872876
 30
0.0
 11
2395.123792
 21
1059.872876
 31
0.0
  0
LINE
  5
123C5
100
AcDbEntity
  8
0
100
AcDbLine
 10
2358.571572
 20
1032.672876
 30
0.0
 11
2395.123792
 21
1032.672876
 31
0.0
  0
LINE
  5
123C6
100
AcDbEntity
  8
0
100
AcDbLine
 10
2358.573292
 20
1072.587515
 30
0.0
 11
2310.276292
 21
1095.450329
 31
0.0
  0
LINE
  5
123C7
100
AcDbEntity
  8
0
100
AcDbLine
 10
2346.044292
 20
1110.450329
 30
0.0
 11
2346.044292
 21
1078.518488
 31
0.0
  0
LINE
  5
123C8
100
AcDbEntity
  8
0
100
AcDbLine
 10
2291.715292
 20
1110.450329
 30
0.0
 11
2291.715292
 21
960.450329
 31
0.0
  0
LINE
  5
123C9
100
AcDbEntity
  8
0
100
AcDbLine
 10
2296.044292
 20
1110.450329
 30
0.0
 11
2296.044292
 21
960.450329
 31
0.0
  0
LINE
  5
123CA
100
AcDbEntity
  8
0
100
AcDbLine
 10
2308.723292
 20
960.450329
 30
0.0
 11
2291.715292
 21
960.450329
 31
0.0
  0
LINE
  5
123CB
100
AcDbEntity
  8
0
100
AcDbLine
 10
2291.715292
 20
1110.450329
 30
0.0
 11
2346.044292
 21
1110.450329
 31
0.0
  0
LINE
  5
123CC
100
AcDbEntity
  8
0
100
AcDbLine
 10
2308.732292
 20
1095.450329
 30
0.0
 11
2310.276292
 21
1095.450329
 31
0.0
  0
LINE
  5
123CD
100
AcDbEntity
  8
0
100
AcDbLine
 10
2454.123792
 20
1100.267158
 30
0.0
 11
2454.123792
 21
1077.772876
 31
0.0
  0
LINE
  5
123CE
100
AcDbEntity
  8
0
100
AcDbLine
 10
2416.123792
 20
1077.772876
 30
0.0
 11
2416.12826
 21
1098.772876
 31
0.0
  0
LINE
  5
123CF
100
AcDbEntity
  8
0
100
AcDbLine
 10
2473.373792
 20
1064.022876
 30
0.0
 11
2460.623792
 21
1064.022876
 31
0.0
  0
LINE
  5
123D0
100
AcDbEntity
  8
0
100
AcDbLine
 10
2473.373792
 20
1055.147876
 30
0.0
 11
2460.623792
 21
1055.147876
 31
0.0
  0
ARC
  5
123D1
100
AcDbEntity
  8
0
100
AcDbCircle
 10
2455.872676
 20
1059.585376
 30
0.0
 40
6.501116
100
AcDbArc
 50
316.9548
 51
43.0452
  0
LINE
  5
123D2
100
AcDbEntity
  8
0
100
AcDbLine
 10
2475.123792
 20
1062.272876
 30
0.0
 11
2473.373792
 21
1064.022876
 31
0.0
  0
ARC
  5
123D3
100
AcDbEntity
  8
0
100
AcDbCircle
 10
2468.622676
 20
1059.585376
 30
0.0
 40
6.501116
100
AcDbArc
 50
316.9548
 51
43.0452
  0
ARC
  5
123D4
100
AcDbEntity
  8
0
100
AcDbCircle
 10
2416.123792
 20
1069.772876
 30
0.0
 40
3.0
100
AcDbArc
 50
270.0
 51
0.0
  0
ARC
  5
123D5
100
AcDbEntity
  8
0
100
AcDbCircle
 10
2436.986487
 20
1088.387659
 30
0.0
 40
28.048501
100
AcDbArc
 50
230.746072
 51
258.356337
  0
ARC
  5
123D6
100
AcDbEntity
  8
0
100
AcDbCircle
 10
2454.123792
 20
1069.772876
 30
0.0
 40
3.0
100
AcDbArc
 50
180.0
 51
270.0
  0
ARC
  5
123D7
100
AcDbEntity
  8
0
100
AcDbCircle
 10
2458.706625
 20
1065.272876
 30
0.0
 40
1.5
100
AcDbArc
 50
15.945396
 51
90.0
  0
ARC
  5
123D8
100
AcDbEntity
  8
0
100
AcDbCircle
 10
2435.468123
 20
1076.61461
 30
0.0
 40
18.149062
100
AcDbArc
 50
259.483158
 51
327.906853
  0
ARC
  5
123D9
100
AcDbEntity
  8
0
100
AcDbCircle
 10
2412.014241
 20
1065.272876
 30
0.0
 40
1.5
100
AcDbArc
 50
90.0
 51
151.38954
  0
LINE
  5
123DA
100
AcDbEntity
  8
0
100
AcDbLine
 10
2459.123792
 20
1055.272876
 30
0.0
 11
2436.123792
 21
1055.272876
 31
0.0
  0
LINE
  5
123DB
100
AcDbEntity
  8
0
100
AcDbLine
 10
2460.623792
 20
1064.022876
 30
0.0
 11
2460.148911
 21
1065.684958
 31
0.0
  0
ARC
  5
123DC
100
AcDbEntity
  8
0
100
AcDbCircle
 10
2459.123792
 20
1056.772876
 30
0.0
 40
1.5
100
AcDbArc
 50
270.0
 51
0.0
  0
LINE
  5
123DD
100
AcDbEntity
  8
0
100
AcDbLine
 10
2460.623792
 20
1064.022876
 30
0.0
 11
2460.623792
 21
1056.772876
 31
0.0
  0
ARC
  5
123DE
100
AcDbEntity
  8
0
100
AcDbCircle
 10
2436.123792
 20
1059.272876
 30
0.0
 40
4.0
100
AcDbArc
 50
180.0
 51
270.0
  0
ARC
  5
123DF
100
AcDbEntity
  8
0
100
AcDbCircle
 10
2431.123792
 20
1059.936926
 30
0.0
 40
1.0
100
AcDbArc
 50
0.0
 51
78.356337
  0
LINE
  5
123E0
100
AcDbEntity
  8
0
100
AcDbLine
 10
2432.123792
 20
1059.936926
 30
0.0
 11
2432.123792
 21
1059.272876
 31
0.0
  0
ARC
  5
123E1
100
AcDbEntity
  8
0
100
AcDbCircle
 10
2408.436526
 20
1066.022876
 30
0.0
 40
2.0
100
AcDbArc
 50
270.0
 51
331.38954
  0
ARC
  5
123E2
100
AcDbEntity
  8
0
100
AcDbCircle
 10
2414.374908
 20
1059.585376
 30
0.0
 40
6.501116
100
AcDbArc
 50
136.9548
 51
223.0452
  0
LINE
  5
123E3
100
AcDbEntity
  8
0
100
AcDbLine
 10
2396.873792
 20
1055.147876
 30
0.0
 11
2409.623792
 21
1055.147876
 31
0.0
  0
LINE
  5
123E4
100
AcDbEntity
  8
0
100
AcDbLine
 10
2396.873792
 20
1064.022876
 30
0.0
 11
2408.436526
 21
1064.022876
 31
0.0
  0
LINE
  5
123E5
100
AcDbEntity
  8
0
100
AcDbLine
 10
2409.623792
 20
1064.022876
 30
0.0
 11
2410.697398
 21
1065.991154
 31
0.0
  0
LINE
  5
123E6
100
AcDbEntity
  8
0
100
AcDbLine
 10
2416.123792
 20
1066.772876
 30
0.0
 11
2412.014241
 21
1066.772876
 31
0.0
  0
LINE
  5
123E7
100
AcDbEntity
  8
0
100
AcDbLine
 10
2416.123792
 20
1077.772876
 30
0.0
 11
2454.123792
 21
1077.772876
 31
0.0
  0
LINE
  5
123E8
100
AcDbEntity
  8
0
100
AcDbLine
 10
2451.123792
 20
1076.272876
 30
0.0
 11
2419.123792
 21
1076.272876
 31
0.0
  0
LINE
  5
123E9
100
AcDbEntity
  8
0
100
AcDbLine
 10
2451.123792
 20
1076.272876
 30
0.0
 11
2451.123792
 21
1077.772876
 31
0.0
  0
LINE
  5
123EA
100
AcDbEntity
  8
0
100
AcDbLine
 10
2458.706625
 20
1066.772876
 30
0.0
 11
2454.123792
 21
1066.772876
 31
0.0
  0
LINE
  5
123EB
100
AcDbEntity
  8
0
100
AcDbLine
 10
2451.123792
 20
1076.272876
 30
0.0
 11
2451.123792
 21
1069.772876
 31
0.0
  0
LINE
  5
123EC
100
AcDbEntity
  8
0
100
AcDbLine
 10
2419.123792
 20
1077.772876
 30
0.0
 11
2419.123792
 21
1076.272876
 31
0.0
  0
LINE
  5
123ED
100
AcDbEntity
  8
0
100
AcDbLine
 10
2419.123792
 20
1076.272876
 30
0.0
 11
2419.123792
 21
1069.772876
 31
0.0
  0
LINE
  5
123EE
100
AcDbEntity
  8
0
100
AcDbLine
 10
2395.123792
 20
1062.272876
 30
0.0
 11
2396.873792
 21
1064.022876
 31
0.0
  0
ARC
  5
123EF
100
AcDbEntity
  8
0
100
AcDbCircle
 10
2401.624908
 20
1059.585376
 30
0.0
 40
6.501116
100
AcDbArc
 50
136.9548
 51
223.0452
  0
LINE
  5
123F0
100
AcDbEntity
  8
0
100
AcDbLine
 10
2473.373792
 20
1037.397876
 30
0.0
 11
2460.623792
 21
1037.397876
 31
0.0
  0
LINE
  5
123F1
100
AcDbEntity
  8
0
100
AcDbLine
 10
2459.123792
 20
1037.272876
 30
0.0
 11
2436.155474
 21
1037.272876
 31
0.0
  0
ARC
  5
123F2
100
AcDbEntity
  8
0
100
AcDbCircle
 10
2459.123792
 20
1035.772876
 30
0.0
 40
1.5
100
AcDbArc
 50
0.0
 51
90.0
  0
LINE
  5
123F3
100
AcDbEntity
  8
0
100
AcDbLine
 10
2396.873792
 20
1037.397876
 30
0.0
 11
2409.623792
 21
1037.397876
 31
0.0
  0
LINE
  5
123F4
100
AcDbEntity
  8
0
100
AcDbLine
 10
2473.373792
 20
1028.522876
 30
0.0
 11
2460.623792
 21
1028.522876
 31
0.0
  0
LINE
  5
123F5
100
AcDbEntity
  8
0
100
AcDbLine
 10
2475.123792
 20
1030.272876
 30
0.0
 11
2473.373792
 21
1028.522876
 31
0.0
  0
LINE
  5
123F6
100
AcDbEntity
  8
0
100
AcDbLine
 10
2458.706625
 20
1025.772876
 30
0.0
 11
2412.014241
 21
1025.772876
 31
0.0
  0
LINE
  5
123F7
100
AcDbEntity
  8
0
100
AcDbLine
 10
2439.623792
 20
1016.272876
 30
0.0
 11
2430.623792
 21
1016.272876
 31
0.0
  0
LINE
  5
123F8
100
AcDbEntity
  8
0
100
AcDbLine
 10
2443.123792
 20
1023.272876
 30
0.0
 11
2427.123792
 21
1023.272876
 31
0.0
  0
ARC
  5
123F9
100
AcDbEntity
  8
0
100
AcDbCircle
 10
2446.123792
 20
1023.272876
 30
0.0
 40
3.0
100
AcDbArc
 50
123.55731
 51
180.0
  0
LINE
  5
123FA
100
AcDbEntity
  8
0
100
AcDbLine
 10
2443.123792
 20
1023.272876
 30
0.0
 11
2439.623792
 21
1016.272876
 31
0.0
  0
LINE
  5
123FB
100
AcDbEntity
  8
0
100
AcDbLine
 10
2460.623792
 20
1028.522876
 30
0.0
 11
2460.148911
 21
1026.860794
 31
0.0
  0
ARC
  5
123FC
100
AcDbEntity
  8
0
100
AcDbCircle
 10
2458.706625
 20
1027.272876
 30
0.0
 40
1.5
100
AcDbArc
 50
270.0
 51
344.054604
  0
LINE
  5
123FD
100
AcDbEntity
  8
0
100
AcDbLine
 10
2427.123792
 20
1025.772876
 30
0.0
 11
2427.123792
 21
1023.272876
 31
0.0
  0
LINE
  5
123FE
100
AcDbEntity
  8
0
100
AcDbLine
 10
2427.123792
 20
1023.272876
 30
0.0
 11
2430.623792
 21
1016.272876
 31
0.0
  0
LINE
  5
123FF
100
AcDbEntity
  8
0
100
AcDbLine
 10
2432.155474
 20
1033.272876
 30
0.0
 11
2432.155474
 21
1025.772876
 31
0.0
  0
ARC
  5
12400
100
AcDbEntity
  8
0
100
AcDbCircle
 10
2408.436526
 20
1026.522876
 30
0.0
 40
2.0
100
AcDbArc
 50
28.61046
 51
90.0
  0
LINE
  5
12401
100
AcDbEntity
  8
0
100
AcDbLine
 10
2396.873792
 20
1028.522876
 30
0.0
 11
2408.436526
 21
1028.522876
 31
0.0
  0
LINE
  5
12402
100
AcDbEntity
  8
0
100
AcDbLine
 10
2409.623792
 20
1028.522876
 30
0.0
 11
2410.697398
 21
1026.554598
 31
0.0
  0
ARC
  5
12403
100
AcDbEntity
  8
0
100
AcDbCircle
 10
2412.014241
 20
1027.272876
 30
0.0
 40
1.5
100
AcDbArc
 50
208.61046
 51
270.0
  0
ARC
  5
12404
100
AcDbEntity
  8
0
100
AcDbCircle
 10
2455.872676
 20
1032.960376
 30
0.0
 40
6.501116
100
AcDbArc
 50
316.9548
 51
43.0452
  0
ARC
  5
12405
100
AcDbEntity
  8
0
100
AcDbCircle
 10
2468.622676
 20
1032.960376
 30
0.0
 40
6.501116
100
AcDbArc
 50
316.9548
 51
43.0452
  0
LINE
  5
12406
100
AcDbEntity
  8
0
100
AcDbLine
 10
2475.123792
 20
1046.272876
 30
0.0
 11
2475.123792
 21
1030.272876
 31
0.0
  0
ARC
  5
12407
100
AcDbEntity
  8
0
100
AcDbCircle
 10
2436.155474
 20
1033.272876
 30
0.0
 40
4.0
100
AcDbArc
 50
90.0
 51
180.0
  0
LINE
  5
12408
100
AcDbEntity
  8
0
100
AcDbLine
 10
2460.623792
 20
1035.772876
 30
0.0
 11
2460.623792
 21
1028.522876
 31
0.0
  0
ARC
  5
12409
100
AcDbEntity
  8
0
100
AcDbCircle
 10
2414.374908
 20
1032.960376
 30
0.0
 40
6.501116
100
AcDbArc
 50
136.9548
 51
223.0452
  0
LINE
  5
1240A
100
AcDbEntity
  8
0
100
AcDbLine
 10
2395.123792
 20
1046.272876
 30
0.0
 11
2395.123792
 21
1030.272876
 31
0.0
  0
LINE
  5
1240B
100
AcDbEntity
  8
0
100
AcDbLine
 10
2395.123792
 20
1030.272876
 30
0.0
 11
2396.873792
 21
1028.522876
 31
0.0
  0
ARC
  5
1240C
100
AcDbEntity
  8
0
100
AcDbCircle
 10
2401.624908
 20
1032.960376
 30
0.0
 40
6.501116
100
AcDbArc
 50
136.9548
 51
223.0452
  0
ARC
  5
1240D
100
AcDbEntity
  8
0
100
AcDbCircle
 10
2438.994327
 20
1046.272876
 30
0.0
 40
23.379464
100
AcDbArc
 50
337.690681
 51
22.309319
  0
LINE
  5
1240E
100
AcDbEntity
  8
0
100
AcDbLine
 10
2475.123792
 20
1062.272876
 30
0.0
 11
2475.123792
 21
1046.272876
 31
0.0
  0
ARC
  5
1240F
100
AcDbEntity
  8
0
100
AcDbCircle
 10
2451.744327
 20
1046.272876
 30
0.0
 40
23.379464
100
AcDbArc
 50
337.690681
 51
22.309319
  0
LINE
  5
12410
100
AcDbEntity
  8
0
100
AcDbLine
 10
2459.123792
 20
1055.272876
 30
0.0
 11
2459.123792
 21
1037.272876
 31
0.0
  0
LINE
  5
12411
100
AcDbEntity
  8
0
100
AcDbLine
 10
2395.123792
 20
1062.272876
 30
0.0
 11
2395.123792
 21
1046.272876
 31
0.0
  0
ARC
  5
12412
100
AcDbEntity
  8
0
100
AcDbCircle
 10
2431.253256
 20
1046.272876
 30
0.0
 40
23.379464
100
AcDbArc
 50
157.690681
 51
202.309319
  0
ARC
  5
12413
100
AcDbEntity
  8
0
100
AcDbCircle
 10
2418.503256
 20
1046.272876
 30
0.0
 40
23.379464
100
AcDbArc
 50
157.690681
 51
202.309319
  0
LINE
  5
12414
100
AcDbEntity
  8
0
100
AcDbLine
 10
2414.623792
 20
1066.772876
 30
0.0
 11
2414.623792
 21
1025.772876
 31
0.0
  0
LINE
  5
12415
100
AcDbEntity
  8
0
100
AcDbLine
 10
2411.123792
 20
1065.481891
 30
0.0
 11
2411.123792
 21
1027.063861
 31
0.0
  0
LINE
  5
12416
100
AcDbEntity
  8
0
100
AcDbLine
 10
2565.122792
 20
1114.775916
 30
0.0
 11
2465.623792
 21
1111.772876
 31
0.0
  0
LINE
  5
12417
100
AcDbEntity
  8
0
100
AcDbLine
 10
2475.123792
 20
1121.272876
 30
0.0
 11
2565.122792
 21
1121.272876
 31
0.0
  0
LINE
  5
12418
100
AcDbEntity
  8
0
100
AcDbLine
 10
2459.123792
 20
1119.772876
 30
0.0
 11
2473.623792
 21
1119.772876
 31
0.0
  0
LINE
  5
12419
100
AcDbEntity
  8
0
100
AcDbLine
 10
2475.123792
 20
1121.272876
 30
0.0
 11
2454.123792
 21
1100.267158
 31
0.0
  0
ARC
  5
1241A
100
AcDbEntity
  8
0
100
AcDbCircle
 10
2568.695561
 20
840.920288
 30
0.0
 40
299.607641
100
AcDbArc
 50
111.451748
 51
120.613125
  0
LINE
  5
1241B
100
AcDbEntity
  8
0
100
AcDbLine
 10
2417.647598
 20
1098.772876
 30
0.0
 11
2452.806792
 21
1098.772876
 31
0.0
  0
LINE
  5
1241C
100
AcDbEntity
  8
0
100
AcDbLine
 10
2565.122792
 20
1121.272876
 30
0.0
 11
2565.122792
 21
1114.775916
 31
0.0
  0
LINE
  5
1241D
100
AcDbEntity
  8
0
100
AcDbLine
 10
3967.434949
 20
1095.450329
 30
0.0
 11
3967.434949
 21
654.450329
 31
0.0
  0
LINE
  5
1241E
100
AcDbEntity
  8
0
100
AcDbLine
 10
4007.024949
 20
654.450329
 30
0.0
 11
4007.024949
 21
1072.588329
 31
0.0
  0
LINE
  5
1241F
100
AcDbEntity
  8
0
100
AcDbLine
 10
3971.674949
 20
1093.001329
 30
0.0
 11
3971.674949
 21
654.450329
 31
0.0
  0
LINE
  5
12420
100
AcDbEntity
  8
0
100
AcDbLine
 10
3624.384949
 20
1095.450329
 30
0.0
 11
3624.384949
 21
654.450329
 31
0.0
  0
LINE
  5
12421
100
AcDbEntity
  8
0
100
AcDbLine
 10
3637.324949
 20
1072.588329
 30
0.0
 11
3637.324949
 21
654.450329
 31
0.0
  0
LINE
  5
12422
100
AcDbEntity
  8
0
100
AcDbLine
 10
3685.614949
 20
654.450329
 30
0.0
 11
3685.614949
 21
1095.450329
 31
0.0
  0
INSERT
  5
12423
100
AcDbEntity
  8
0
100
AcDbBlockReference
  2
YA
 10
3760.554949
 20
402.94601
 30
0.0
 41
-10.710078
 42
10.710078
 43
10.710078
 50
90.0
  0
LINE
  5
12424
100
AcDbEntity
  8
0
100
AcDbLine
 10
3703.984949
 20
654.450329
 30
0.0
 11
3606.004949
 21
654.450329
 31
0.0
  0
LINE
  5
12425
100
AcDbEntity
  8
0
100
AcDbLine
 10
3606.004949
 20
645.450329
 30
0.0
 11
3703.984949
 21
645.450329
 31
0.0
  0
LINE
  5
12426
100
AcDbEntity
  8
0
100
AcDbLine
 10
3626.714949
 20
654.450329
 30
0.0
 11
3626.714949
 21
645.450329
 31
0.0
  0
LINE
  5
12427
100
AcDbEntity
  8
0
100
AcDbLine
 10
3606.004949
 20
654.450329
 30
0.0
 11
3606.004949
 21
645.450329
 31
0.0
  0
LINE
  5
12428
100
AcDbEntity
  8
0
100
AcDbLine
 10
3703.984949
 20
645.450329
 30
0.0
 11
3703.984949
 21
654.450329
 31
0.0
  0
LINE
  5
12429
100
AcDbEntity
  8
0
100
AcDbLine
 10
3915.104949
 20
645.450329
 30
0.0
 11
4028.244949
 21
645.450329
 31
0.0
  0
LINE
  5
1242A
100
AcDbEntity
  8
0
100
AcDbLine
 10
4028.244949
 20
654.450329
 30
0.0
 11
3915.104949
 21
654.450329
 31
0.0
  0
LINE
  5
1242B
100
AcDbEntity
  8
0
100
AcDbLine
 10
3915.104949
 20
654.450329
 30
0.0
 11
3915.104949
 21
645.450329
 31
0.0
  0
LINE
  5
1242C
100
AcDbEntity
  8
0
100
AcDbLine
 10
4028.244949
 20
645.450329
 30
0.0
 11
4028.244949
 21
654.450329
 31
0.0
  0
LINE
  5
1242D
100
AcDbEntity
  8
0
100
AcDbLine
 10
3971.674949
 20
645.450329
 30
0.0
 11
3971.674949
 21
654.450329
 31
0.0
  0
LINE
  5
1242E
100
AcDbEntity
  8
0
100
AcDbLine
 10
3685.614949
 20
921.450329
 30
0.0
 11
3963.754949
 21
921.450329
 31
0.0
  0
LINE
  5
1242F
100
AcDbEntity
  8
0
100
AcDbLine
 10
3838.054949
 20
861.450329
 30
0.0
 11
3685.614949
 21
861.450329
 31
0.0
  0
LINE
  5
12430
100
AcDbEntity
  8
0
100
AcDbLine
 10
3685.614949
 20
845.450329
 30
0.0
 11
3838.054949
 21
845.450329
 31
0.0
  0
LINE
  5
12431
100
AcDbEntity
  8
0
100
AcDbLine
 10
3766.554949
 20
822.12284
 30
0.0
 11
3768.910856
 21
759.321479
 31
0.0
  0
LINE
  5
12432
100
AcDbEntity
  8
0
100
AcDbLine
 10
3754.554949
 20
821.853578
 30
0.0
 11
3752.255459
 21
759.317801
 31
0.0
  0
ARC
  5
12433
100
AcDbEntity
  8
0
100
AcDbCircle
 10
3763.414722
 20
759.115299
 30
0.0
 40
5.5
100
AcDbArc
 50
276.632519
 51
2.148365
  0
ARC
  5
12434
100
AcDbEntity
  8
0
100
AcDbCircle
 10
3757.751745
 20
759.115698
 30
0.0
 40
5.5
100
AcDbArc
 50
177.894138
 51
263.359403
  0
ARC
  5
12435
100
AcDbEntity
  8
0
100
AcDbCircle
 10
3760.584949
 20
783.451329
 30
0.0
 40
30.0
100
AcDbArc
 50
263.359403
 51
276.632519
  0
LINE
  5
12436
100
AcDbEntity
  8
0
100
AcDbLine
 10
3557.354949
 20
921.450329
 30
0.0
 11
3624.384949
 21
921.450329
 31
0.0
  0
ARC
  5
12437
100
AcDbEntity
  8
0
100
AcDbCircle
 10
3767.304949
 20
849.709116
 30
0.0
 40
14.133787
100
AcDbArc
 50
241.472597
 51
298.527403
  0
ARC
  5
12438
100
AcDbEntity
  8
0
100
AcDbCircle
 10
3767.304949
 20
838.957116
 30
0.0
 40
14.133787
100
AcDbArc
 50
241.472597
 51
298.527403
  0
LINE
  5
12439
100
AcDbEntity
  8
0
100
AcDbLine
 10
3774.054949
 20
824.451329
 30
0.0
 11
3747.054949
 21
824.451329
 31
0.0
  0
LINE
  5
1243A
100
AcDbEntity
  8
0
100
AcDbLine
 10
3764.056706
 20
822.029122
 30
0.0
 11
3764.190997
 21
818.449329
 31
0.0
  0
LINE
  5
1243B
100
AcDbEntity
  8
0
100
AcDbLine
 10
3764.054949
 20
822.12284
 30
0.0
 11
3764.054949
 21
824.451329
 31
0.0
  0
LINE
  5
1243C
100
AcDbEntity
  8
0
100
AcDbLine
 10
3766.554949
 20
822.12284
 30
0.0
 11
3766.554949
 21
824.451329
 31
0.0
  0
LINE
  5
1243D
100
AcDbEntity
  8
0
100
AcDbLine
 10
3760.554949
 20
826.539329
 30
0.0
 11
3760.554949
 21
837.291329
 31
0.0
  0
LINE
  5
1243E
100
AcDbEntity
  8
0
100
AcDbLine
 10
3757.053261
 20
821.761713
 30
0.0
 11
3756.931462
 21
818.449329
 31
0.0
  0
LINE
  5
1243F
100
AcDbEntity
  8
0
100
AcDbLine
 10
3757.054949
 20
821.853578
 30
0.0
 11
3757.054949
 21
824.451329
 31
0.0
  0
LINE
  5
12440
100
AcDbEntity
  8
0
100
AcDbLine
 10
3754.554949
 20
821.853578
 30
0.0
 11
3754.554949
 21
824.451329
 31
0.0
  0
LINE
  5
12441
100
AcDbEntity
  8
0
100
AcDbLine
 10
3740.554949
 20
841.190329
 30
0.0
 11
3740.554949
 21
845.450329
 31
0.0
  0
LINE
  5
12442
100
AcDbEntity
  8
0
100
AcDbLine
 10
3743.554949
 20
845.450329
 30
0.0
 11
3743.554949
 21
841.032329
 31
0.0
  0
LINE
  5
12443
100
AcDbEntity
  8
0
100
AcDbLine
 10
3747.054949
 20
824.451329
 30
0.0
 11
3747.054949
 21
837.291329
 31
0.0
  0
LINE
  5
12444
100
AcDbEntity
  8
0
100
AcDbLine
 10
3747.054949
 20
837.291329
 30
0.0
 11
3743.554949
 21
841.032329
 31
0.0
  0
LINE
  5
12445
100
AcDbEntity
  8
0
100
AcDbLine
 10
3747.054949
 20
837.291329
 30
0.0
 11
3740.554949
 21
841.190329
 31
0.0
  0
LINE
  5
12446
100
AcDbEntity
  8
0
100
AcDbLine
 10
3766.692756
 20
818.449329
 30
0.0
 11
3754.429772
 21
818.449329
 31
0.0
  0
ARC
  5
12447
100
AcDbEntity
  8
0
100
AcDbCircle
 10
3753.804949
 20
849.709116
 30
0.0
 40
14.133787
100
AcDbArc
 50
241.472597
 51
298.527403
  0
ARC
  5
12448
100
AcDbEntity
  8
0
100
AcDbCircle
 10
3753.804949
 20
838.957116
 30
0.0
 40
14.133787
100
AcDbArc
 50
241.472597
 51
298.527403
  0
LINE
  5
12449
100
AcDbEntity
  8
0
100
AcDbLine
 10
3780.554949
 20
845.450329
 30
0.0
 11
3780.554949
 21
841.190329
 31
0.0
  0
LINE
  5
1244A
100
AcDbEntity
  8
0
100
AcDbLine
 10
3777.554949
 20
845.450329
 30
0.0
 11
3777.554949
 21
841.032329
 31
0.0
  0
LINE
  5
1244B
100
AcDbEntity
  8
0
100
AcDbLine
 10
3774.054949
 20
837.291329
 30
0.0
 11
3774.054949
 21
824.451329
 31
0.0
  0
LINE
  5
1244C
100
AcDbEntity
  8
0
100
AcDbLine
 10
3774.054949
 20
837.291329
 30
0.0
 11
3780.554949
 21
841.190329
 31
0.0
  0
LINE
  5
1244D
100
AcDbEntity
  8
0
100
AcDbLine
 10
3774.054949
 20
837.291329
 30
0.0
 11
3777.554949
 21
841.032329
 31
0.0
  0
LINE
  5
1244E
100
AcDbEntity
  8
0
100
AcDbLine
 10
3730.304949
 20
921.450329
 30
0.0
 11
3730.304949
 21
861.450329
 31
0.0
  0
LINE
  5
1244F
100
AcDbEntity
  8
0
100
AcDbLine
 10
3790.804949
 20
861.450329
 30
0.0
 11
3790.804949
 21
921.450329
 31
0.0
  0
LINE
  5
12450
100
AcDbEntity
  8
0
100
AcDbLine
 10
3685.614949
 20
861.450329
 30
0.0
 11
3685.614949
 21
845.450329
 31
0.0
  0
LINE
  5
12451
100
AcDbEntity
  8
0
100
AcDbLine
 10
3741.554949
 20
1097.272876
 30
0.0
 11
3741.554949
 21
1076.272876
 31
0.0
  0
LINE
  5
12452
100
AcDbEntity
  8
0
100
AcDbLine
 10
3779.554949
 20
1097.272876
 30
0.0
 11
3779.554949
 21
1076.272876
 31
0.0
  0
LINE
  5
12453
100
AcDbEntity
  8
0
100
AcDbLine
 10
3705.384949
 20
960.450329
 30
0.0
 11
3705.384949
 21
1110.450329
 31
0.0
  0
LINE
  5
12454
100
AcDbEntity
  8
0
100
AcDbLine
 10
3702.294949
 20
1110.450329
 30
0.0
 11
3702.294949
 21
960.450329
 31
0.0
  0
LINE
  5
12455
100
AcDbEntity
  8
0
100
AcDbLine
 10
3685.614949
 20
1095.450329
 30
0.0
 11
3637.324949
 21
1072.588329
 31
0.0
  0
LINE
  5
12456
100
AcDbEntity
  8
0
100
AcDbLine
 10
3637.324949
 20
1072.588329
 30
0.0
 11
3624.384949
 21
1095.450329
 31
0.0
  0
LINE
  5
12457
100
AcDbEntity
  8
0
100
AcDbLine
 10
3615.684949
 20
1110.450329
 30
0.0
 11
3615.684949
 21
960.450329
 31
0.0
  0
LINE
  5
12458
100
AcDbEntity
  8
0
100
AcDbLine
 10
3615.684949
 20
960.450329
 30
0.0
 11
3624.384949
 21
960.450329
 31
0.0
  0
LINE
  5
12459
100
AcDbEntity
  8
0
100
AcDbLine
 10
3760.554949
 20
1064.748085
 30
0.0
 11
3776.554949
 21
1055.51048
 31
0.0
  0
ARC
  5
1245A
100
AcDbEntity
  8
0
100
AcDbCircle
 10
3760.554949
 20
1046.272876
 30
0.0
 40
20.5
100
AcDbArc
 50
29.267578
 51
150.732422
  0
LINE
  5
1245B
100
AcDbEntity
  8
0
100
AcDbLine
 10
3741.554949
 20
1076.272876
 30
0.0
 11
3779.554949
 21
1076.272876
 31
0.0
  0
ARC
  5
1245C
100
AcDbEntity
  8
0
100
AcDbCircle
 10
3740.927163
 20
1057.272876
 30
0.0
 40
2.0
100
AcDbArc
 50
270.0
 51
330.732422
  0
LINE
  5
1245D
100
AcDbEntity
  8
0
100
AcDbLine
 10
3739.388939
 20
1055.272876
 30
0.0
 11
3740.927163
 21
1055.272876
 31
0.0
  0
LINE
  5
1245E
100
AcDbEntity
  8
0
100
AcDbLine
 10
3743.554949
 20
1076.272876
 30
0.0
 11
3743.554949
 21
1057.729315
 31
0.0
  0
LINE
  5
1245F
100
AcDbEntity
  8
0
100
AcDbLine
 10
3744.554949
 20
1055.51048
 30
0.0
 11
3760.554949
 21
1064.748085
 31
0.0
  0
ARC
  5
12460
100
AcDbEntity
  8
0
100
AcDbCircle
 10
3780.182735
 20
1057.272876
 30
0.0
 40
2.0
100
AcDbArc
 50
209.267578
 51
270.0
  0
LINE
  5
12461
100
AcDbEntity
  8
0
100
AcDbLine
 10
3780.182735
 20
1055.272876
 30
0.0
 11
3781.72096
 21
1055.272876
 31
0.0
  0
LINE
  5
12462
100
AcDbEntity
  8
0
100
AcDbLine
 10
3777.554949
 20
1076.272876
 30
0.0
 11
3777.554949
 21
1057.729315
 31
0.0
  0
LINE
  5
12463
100
AcDbEntity
  8
0
100
AcDbLine
 10
3765.054949
 20
1016.272876
 30
0.0
 11
3768.554949
 21
1023.272876
 31
0.0
  0
LINE
  5
12464
100
AcDbEntity
  8
0
100
AcDbLine
 10
3760.554949
 20
1027.797668
 30
0.0
 11
3776.554949
 21
1037.035272
 31
0.0
  0
ARC
  5
12465
100
AcDbEntity
  8
0
100
AcDbCircle
 10
3760.554949
 20
1046.272876
 30
0.0
 40
20.5
100
AcDbArc
 50
209.267578
 51
330.732422
  0
LINE
  5
12466
100
AcDbEntity
  8
0
100
AcDbLine
 10
3752.554949
 20
1023.272876
 30
0.0
 11
3768.554949
 21
1023.272876
 31
0.0
  0
ARC
  5
12467
100
AcDbEntity
  8
0
100
AcDbCircle
 10
3740.927163
 20
1035.272876
 30
0.0
 40
2.0
100
AcDbArc
 50
29.267578
 51
90.0
  0
LINE
  5
12468
100
AcDbEntity
  8
0
100
AcDbLine
 10
3739.388939
 20
1037.272876
 30
0.0
 11
3740.927163
 21
1037.272876
 31
0.0
  0
LINE
  5
12469
100
AcDbEntity
  8
0
100
AcDbLine
 10
3752.554949
 20
1027.39829
 30
0.0
 11
3752.554949
 21
1023.272876
 31
0.0
  0
LINE
  5
1246A
100
AcDbEntity
  8
0
100
AcDbLine
 10
3756.054949
 20
1016.272876
 30
0.0
 11
3752.554949
 21
1023.272876
 31
0.0
  0
LINE
  5
1246B
100
AcDbEntity
  8
0
100
AcDbLine
 10
3756.054949
 20
1016.272876
 30
0.0
 11
3765.054949
 21
1016.272876
 31
0.0
  0
LINE
  5
1246C
100
AcDbEntity
  8
0
100
AcDbLine
 10
3744.554949
 20
1037.035272
 30
0.0
 11
3760.554949
 21
1027.797668
 31
0.0
  0
ARC
  5
1246D
100
AcDbEntity
  8
0
100
AcDbCircle
 10
3780.182735
 20
1035.272876
 30
0.0
 40
2.0
100
AcDbArc
 50
90.0
 51
150.732422
  0
LINE
  5
1246E
100
AcDbEntity
  8
0
100
AcDbLine
 10
3780.182735
 20
1037.272876
 30
0.0
 11
3781.72096
 21
1037.272876
 31
0.0
  0
LINE
  5
1246F
100
AcDbEntity
  8
0
100
AcDbLine
 10
3768.554949
 20
1027.39829
 30
0.0
 11
3768.554949
 21
1023.272876
 31
0.0
  0
LINE
  5
12470
100
AcDbEntity
  8
0
100
AcDbLine
 10
3776.554949
 20
1055.51048
 30
0.0
 11
3776.554949
 21
1037.035272
 31
0.0
  0
ARC
  5
12471
100
AcDbEntity
  8
0
100
AcDbCircle
 10
3760.554949
 20
1046.272876
 30
0.0
 40
23.0
100
AcDbArc
 50
290.354406
 51
42.342605
  0
LINE
  5
12472
100
AcDbEntity
  8
0
100
AcDbLine
 10
3744.554949
 20
1055.51048
 30
0.0
 11
3744.554949
 21
1037.035272
 31
0.0
  0
ARC
  5
12473
100
AcDbEntity
  8
0
100
AcDbCircle
 10
3760.554949
 20
1046.272876
 30
0.0
 40
23.0
100
AcDbArc
 50
137.657395
 51
249.645594
  0
CIRCLE
  5
12474
100
AcDbEntity
  8
0
100
AcDbCircle
 10
3760.554949
 20
1046.272876
 30
0.0
 40
16.0
  0
CIRCLE
  5
12475
100
AcDbEntity
  8
0
100
AcDbCircle
 10
3760.554949
 20
1046.272876
 30
0.0
 40
10.0
  0
LINE
  5
12476
100
AcDbEntity
  8
0
100
AcDbLine
 10
3685.614949
 20
960.450329
 30
0.0
 11
3705.384949
 21
960.450329
 31
0.0
  0
LINE
  5
12477
100
AcDbEntity
  8
0
100
AcDbLine
 10
3685.614949
 20
1095.450329
 30
0.0
 11
3624.384949
 21
1095.450329
 31
0.0
  0
LINE
  5
12478
100
AcDbEntity
  8
0
100
AcDbLine
 10
3705.384949
 20
1110.450329
 30
0.0
 11
3615.684949
 21
1110.450329
 31
0.0
  0
LINE
  5
12479
100
AcDbEntity
  8
0
100
AcDbLine
 10
3753.054949
 20
1120.772876
 30
0.0
 11
3768.054949
 21
1120.772876
 31
0.0
  0
LINE
  5
1247A
100
AcDbEntity
  8
0
100
AcDbLine
 10
3753.054949
 20
1114.272876
 30
0.0
 11
3768.054949
 21
1114.272876
 31
0.0
  0
LINE
  5
1247B
100
AcDbEntity
  8
0
100
AcDbLine
 10
3741.554949
 20
1097.272876
 30
0.0
 11
3779.554949
 21
1097.272876
 31
0.0
  0
LINE
  5
1247C
100
AcDbEntity
  8
0
100
AcDbLine
 10
3767.554949
 20
1097.272876
 30
0.0
 11
3767.054949
 21
1114.272876
 31
0.0
  0
LINE
  5
1247D
100
AcDbEntity
  8
0
100
AcDbLine
 10
3753.554949
 20
1097.272876
 30
0.0
 11
3754.054949
 21
1114.272876
 31
0.0
  0
ARC
  5
1247E
100
AcDbEntity
  8
0
100
AcDbCircle
 10
3753.054949
 20
1118.772876
 30
0.0
 40
2.0
100
AcDbArc
 50
90.0
 51
180.0
  0
LINE
  5
1247F
100
AcDbEntity
  8
0
100
AcDbLine
 10
3751.054949
 20
1118.772876
 30
0.0
 11
3751.054949
 21
1116.272876
 31
0.0
  0
ARC
  5
12480
100
AcDbEntity
  8
0
100
AcDbCircle
 10
3753.054949
 20
1116.272876
 30
0.0
 40
2.0
100
AcDbArc
 50
180.0
 51
270.0
  0
ARC
  5
12481
100
AcDbEntity
  8
0
100
AcDbCircle
 10
3768.054949
 20
1116.272876
 30
0.0
 40
2.0
100
AcDbArc
 50
270.0
 51
0.0
  0
LINE
  5
12482
100
AcDbEntity
  8
0
100
AcDbLine
 10
3770.054949
 20
1118.772876
 30
0.0
 11
3770.054949
 21
1116.272876
 31
0.0
  0
ARC
  5
12483
100
AcDbEntity
  8
0
100
AcDbCircle
 10
3768.054949
 20
1118.772876
 30
0.0
 40
2.0
100
AcDbArc
 50
0.0
 51
90.0
  0
LINE
  5
12484
100
AcDbEntity
  8
0
100
AcDbLine
 10
3963.754949
 20
921.450329
 30
0.0
 11
3963.754949
 21
960.450329
 31
0.0
  0
LINE
  5
12485
100
AcDbEntity
  8
0
100
AcDbLine
 10
3838.054949
 20
845.450329
 30
0.0
 11
3838.054949
 21
861.450329
 31
0.0
  0
LINE
  5
12486
100
AcDbEntity
  8
0
100
AcDbLine
 10
4007.024949
 20
1072.588329
 30
0.0
 11
3967.434949
 21
1095.450329
 31
0.0
  0
LINE
  5
12487
100
AcDbEntity
  8
0
100
AcDbLine
 10
3957.864949
 20
1110.450329
 30
0.0
 11
3957.864949
 21
960.450329
 31
0.0
  0
LINE
  5
12488
100
AcDbEntity
  8
0
100
AcDbLine
 10
3967.434949
 20
960.450329
 30
0.0
 11
3967.434949
 21
1110.450329
 31
0.0
  0
LINE
  5
12489
100
AcDbEntity
  8
0
100
AcDbLine
 10
3957.864949
 20
960.450329
 30
0.0
 11
3967.434949
 21
960.450329
 31
0.0
  0
LINE
  5
1248A
100
AcDbEntity
  8
0
100
AcDbLine
 10
3967.434949
 20
1110.450329
 30
0.0
 11
3957.864949
 21
1110.450329
 31
0.0
  0
ARC
  5
1248B
100
AcDbEntity
  8
0
100
AcDbCircle
 10
5550.505828
 20
859.779528
 30
0.0
 40
17.830499
100
AcDbArc
 50
197.344681
 51
245.270322
  0
ARC
  5
1248C
100
AcDbEntity
  8
0
100
AcDbCircle
 10
5537.236106
 20
889.013829
 30
0.0
 40
5.4375
100
AcDbArc
 50
46.397181
 51
133.602819
  0
LINE
  5
1248D
100
AcDbEntity
  8
0
100
AcDbLine
 10
5525.986106
 20
894.451329
 30
0.0
 11
5539.486106
 21
894.451329
 31
0.0
  0
ARC
  5
1248E
100
AcDbEntity
  8
0
100
AcDbCircle
 10
5553.067872
 20
859.299703
 30
0.0
 40
17.258705
100
AcDbArc
 50
110.633463
 51
170.716866
  0
ARC
  5
1248F
100
AcDbEntity
  8
0
100
AcDbCircle
 10
5537.236106
 20
876.513829
 30
0.0
 40
5.4375
100
AcDbArc
 50
46.397181
 51
133.602819
  0
LINE
  5
12490
100
AcDbEntity
  8
0
100
AcDbLine
 10
5505.986106
 20
879.451329
 30
0.0
 11
5545.986106
 21
879.451329
 31
0.0
  0
LINE
  5
12491
100
AcDbEntity
  8
0
100
AcDbLine
 10
5505.986106
 20
876.451329
 30
0.0
 11
5545.986106
 21
876.451329
 31
0.0
  0
ARC
  5
12492
100
AcDbEntity
  8
0
100
AcDbCircle
 10
5537.236106
 20
829.888829
 30
0.0
 40
5.4375
100
AcDbArc
 50
226.397181
 51
313.602819
  0
LINE
  5
12493
100
AcDbEntity
  8
0
100
AcDbLine
 10
5542.986106
 20
838.451329
 30
0.0
 11
5534.486106
 21
838.451329
 31
0.0
  0
ARC
  5
12494
100
AcDbEntity
  8
0
100
AcDbCircle
 10
5537.236106
 20
842.388829
 30
0.0
 40
5.4375
100
AcDbArc
 50
226.397181
 51
313.602819
  0
LINE
  5
12495
100
AcDbEntity
  8
0
100
AcDbLine
 10
5525.986106
 20
824.451329
 30
0.0
 11
5539.486106
 21
824.451329
 31
0.0
  0
LINE
  5
12496
100
AcDbEntity
  8
0
100
AcDbLine
 10
5509.834606
 20
654.450329
 30
0.0
 11
5607.800952
 21
654.450329
 31
0.0
  0
LINE
  5
12497
100
AcDbEntity
  8
0
100
AcDbLine
 10
5607.800952
 20
645.450329
 30
0.0
 11
5509.834606
 21
645.450329
 31
0.0
  0
LINE
  5
12498
100
AcDbEntity
  8
0
100
AcDbLine
 10
5411.337606
 20
921.450329
 30
0.0
 11
5579.186106
 21
921.450329
 31
0.0
  0
LINE
  5
12499
100
AcDbEntity
  8
0
100
AcDbLine
 10
5162.538326
 20
1032.672876
 30
0.0
 11
5162.538326
 21
654.450329
 31
0.0
  0
LINE
  5
1249A
100
AcDbEntity
  8
0
100
AcDbLine
 10
5175.477606
 20
921.450329
 30
0.0
 11
5175.477606
 21
654.450329
 31
0.0
  0
LINE
  5
1249B
100
AcDbEntity
  8
0
100
AcDbLine
 10
5181.273606
 20
921.450329
 30
0.0
 11
5181.273606
 21
654.450329
 31
0.0
  0
LINE
  5
1249C
100
AcDbEntity
  8
0
100
AcDbLine
 10
5212.386606
 20
921.450329
 30
0.0
 11
5212.386606
 21
654.450329
 31
0.0
  0
LINE
  5
1249D
100
AcDbEntity
  8
0
100
AcDbLine
 10
5411.337606
 20
654.450329
 30
0.0
 11
5411.337606
 21
1095.450329
 31
0.0
  0
LINE
  5
1249E
100
AcDbEntity
  8
0
100
AcDbLine
 10
5340.627606
 20
654.450329
 30
0.0
 11
5340.627606
 21
1095.450329
 31
0.0
  0
LINE
  5
1249F
100
AcDbEntity
  8
0
100
AcDbLine
 10
5375.98349
 20
1072.590021
 30
0.0
 11
5375.993246
 21
654.450329
 31
0.0
  0
LINE
  5
124A0
100
AcDbEntity
  8
0
100
AcDbLine
 10
5164.871606
 20
654.450329
 30
0.0
 11
5164.871606
 21
645.450329
 31
0.0
  0
LINE
  5
124A1
100
AcDbEntity
  8
0
100
AcDbLine
 10
5144.171261
 20
645.450329
 30
0.0
 11
5242.137606
 21
645.450329
 31
0.0
  0
LINE
  5
124A2
100
AcDbEntity
  8
0
100
AcDbLine
 10
5242.137606
 20
654.450329
 30
0.0
 11
5242.137606
 21
645.450329
 31
0.0
  0
LINE
  5
124A3
100
AcDbEntity
  8
0
100
AcDbLine
 10
5242.137606
 20
654.450329
 30
0.0
 11
5144.171261
 21
654.450329
 31
0.0
  0
LINE
  5
124A4
100
AcDbEntity
  8
0
100
AcDbLine
 10
5144.171261
 20
654.450329
 30
0.0
 11
5144.171261
 21
645.450329
 31
0.0
  0
LINE
  5
124A5
100
AcDbEntity
  8
0
100
AcDbLine
 10
5319.417606
 20
645.450329
 30
0.0
 11
5432.547606
 21
645.450329
 31
0.0
  0
LINE
  5
124A6
100
AcDbEntity
  8
0
100
AcDbLine
 10
5432.547606
 20
654.450329
 30
0.0
 11
5319.417606
 21
654.450329
 31
0.0
  0
LINE
  5
124A7
100
AcDbEntity
  8
0
100
AcDbLine
 10
5375.982606
 20
654.450329
 30
0.0
 11
5375.982606
 21
645.450329
 31
0.0
  0
LINE
  5
124A8
100
AcDbEntity
  8
0
100
AcDbLine
 10
5319.417606
 20
645.450329
 30
0.0
 11
5319.417606
 21
654.450329
 31
0.0
  0
LINE
  5
124A9
100
AcDbEntity
  8
0
100
AcDbLine
 10
5319.416106
 20
645.450329
 30
0.0
 11
5319.416106
 21
654.450329
 31
0.0
  0
LINE
  5
124AA
100
AcDbEntity
  8
0
100
AcDbLine
 10
5432.547606
 20
645.450329
 30
0.0
 11
5432.547606
 21
654.450329
 31
0.0
  0
LINE
  5
124AB
100
AcDbEntity
  8
0
100
AcDbLine
 10
5509.834606
 20
654.450329
 30
0.0
 11
5509.834606
 21
645.450329
 31
0.0
  0
LINE
  5
124AC
100
AcDbEntity
  8
0
100
AcDbLine
 10
5045.986106
 20
1121.272876
 30
0.0
 11
4955.987106
 21
1121.272876
 31
0.0
  0
LINE
  5
124AD
100
AcDbEntity
  8
0
100
AcDbLine
 10
4955.987106
 20
1114.775916
 30
0.0
 11
5055.486106
 21
1111.772876
 31
0.0
  0
INSERT
  5
124AE
100
AcDbEntity
  8
0
100
AcDbBlockReference
  2
YA
 10
4884.613906
 20
1046.272876
 30
0.0
 41
10.710078
 42
10.710078
 43
10.710078
  0
LINE
  5
124AF
100
AcDbEntity
  8
0
100
AcDbLine
 10
4955.987106
 20
1121.272876
 30
0.0
 11
4955.987106
 21
1114.775916
 31
0.0
  0
LINE
  5
124B0
100
AcDbEntity
  8
0
100
AcDbLine
 10
5172.786106
 20
921.450329
 30
0.0
 11
5340.627606
 21
921.450329
 31
0.0
  0
LINE
  5
124B1
100
AcDbEntity
  8
0
100
AcDbLine
 10
5301.046106
 20
861.450329
 30
0.0
 11
5301.046106
 21
845.450329
 31
0.0
  0
LINE
  5
124B2
100
AcDbEntity
  8
0
100
AcDbLine
 10
5340.627606
 20
861.450329
 30
0.0
 11
5301.046106
 21
861.450329
 31
0.0
  0
LINE
  5
124B3
100
AcDbEntity
  8
0
100
AcDbLine
 10
5301.046106
 20
845.450329
 30
0.0
 11
5340.627606
 21
845.450329
 31
0.0
  0
LINE
  5
124B4
100
AcDbEntity
  8
0
100
AcDbLine
 10
5453.486106
 20
845.450329
 30
0.0
 11
5453.486106
 21
861.450329
 31
0.0
  0
LINE
  5
124B5
100
AcDbEntity
  8
0
100
AcDbLine
 10
5533.486106
 20
839.451329
 30
0.0
 11
5533.486106
 21
858.451329
 31
0.0
  0
LINE
  5
124B6
100
AcDbEntity
  8
0
100
AcDbLine
 10
5508.986106
 20
838.451329
 30
0.0
 11
5508.986106
 21
850.451329
 31
0.0
  0
LINE
  5
124B7
100
AcDbEntity
  8
0
100
AcDbLine
 10
5518.486106
 20
839.451329
 30
0.0
 11
5518.486106
 21
858.451329
 31
0.0
  0
LINE
  5
124B8
100
AcDbEntity
  8
0
100
AcDbLine
 10
5504.486106
 20
865.451329
 30
0.0
 11
5498.986106
 21
863.451329
 31
0.0
  0
LINE
  5
124B9
100
AcDbEntity
  8
0
100
AcDbLine
 10
5504.486106
 20
853.451329
 30
0.0
 11
5498.986106
 21
855.451329
 31
0.0
  0
LINE
  5
124BA
100
AcDbEntity
  8
0
100
AcDbLine
 10
5498.986106
 20
855.451329
 30
0.0
 11
5498.986106
 21
863.451329
 31
0.0
  0
LINE
  5
124BB
100
AcDbEntity
  8
0
100
AcDbLine
 10
5510.986106
 20
892.951329
 30
0.0
 11
5512.486106
 21
894.451329
 31
0.0
  0
ARC
  5
124BC
100
AcDbEntity
  8
0
100
AcDbCircle
 10
5514.736106
 20
889.013829
 30
0.0
 40
5.4375
100
AcDbArc
 50
46.397181
 51
133.602819
  0
ARC
  5
124BD
100
AcDbEntity
  8
0
100
AcDbCircle
 10
5525.986106
 20
874.951329
 30
0.0
 40
19.5
100
AcDbArc
 50
67.380135
 51
112.619865
  0
LINE
  5
124BE
100
AcDbEntity
  8
0
100
AcDbLine
 10
5512.486106
 20
894.451329
 30
0.0
 11
5525.986106
 21
894.451329
 31
0.0
  0
LINE
  5
124BF
100
AcDbEntity
  8
0
100
AcDbLine
 10
5505.986106
 20
864.451329
 30
0.0
 11
5505.986106
 21
879.451329
 31
0.0
  0
LINE
  5
124C0
100
AcDbEntity
  8
0
100
AcDbLine
 10
5533.486106
 20
892.951329
 30
0.0
 11
5533.486106
 21
880.451329
 31
0.0
  0
LINE
  5
124C1
100
AcDbEntity
  8
0
100
AcDbLine
 10
5508.986106
 20
880.451329
 30
0.0
 11
5505.986106
 21
879.451329
 31
0.0
  0
ARC
  5
124C2
100
AcDbEntity
  8
0
100
AcDbCircle
 10
5508.986106
 20
882.451329
 30
0.0
 40
2.0
100
AcDbArc
 50
270.0
 51
0.0
  0
ARC
  5
124C3
100
AcDbEntity
  8
0
100
AcDbCircle
 10
5514.736106
 20
876.513829
 30
0.0
 40
5.4375
100
AcDbArc
 50
46.397181
 51
133.602819
  0
LINE
  5
124C4
100
AcDbEntity
  8
0
100
AcDbLine
 10
5510.986106
 20
892.951329
 30
0.0
 11
5510.986106
 21
882.451329
 31
0.0
  0
LINE
  5
124C5
100
AcDbEntity
  8
0
100
AcDbLine
 10
5518.486106
 20
892.951329
 30
0.0
 11
5518.486106
 21
880.451329
 31
0.0
  0
ARC
  5
124C6
100
AcDbEntity
  8
0
100
AcDbCircle
 10
5525.986106
 20
862.451329
 30
0.0
 40
19.5
100
AcDbArc
 50
67.380135
 51
112.619865
  0
ARC
  5
124C7
100
AcDbEntity
  8
0
100
AcDbCircle
 10
5535.039914
 20
862.180743
 30
0.0
 40
1.0
100
AcDbArc
 50
291.195305
 51
354.434662
  0
ARC
  5
124C8
100
AcDbEntity
  8
0
100
AcDbCircle
 10
5536.486106
 20
858.451329
 30
0.0
 40
3.0
100
AcDbArc
 50
111.195305
 51
180.0
  0
ARC
  5
124C9
100
AcDbEntity
  8
0
100
AcDbCircle
 10
5505.986106
 20
850.451329
 30
0.0
 40
3.0
100
AcDbArc
 50
0.0
 51
90.0
  0
LINE
  5
124CA
100
AcDbEntity
  8
0
100
AcDbLine
 10
5504.486106
 20
853.451329
 30
0.0
 11
5505.986106
 21
853.451329
 31
0.0
  0
ARC
  5
124CB
100
AcDbEntity
  8
0
100
AcDbCircle
 10
5515.486106
 20
858.451329
 30
0.0
 40
3.0
100
AcDbArc
 50
0.0
 51
90.0
  0
ARC
  5
124CC
100
AcDbEntity
  8
0
100
AcDbCircle
 10
5508.986106
 20
864.451329
 30
0.0
 40
3.0
100
AcDbArc
 50
180.0
 51
270.0
  0
LINE
  5
124CD
100
AcDbEntity
  8
0
100
AcDbLine
 10
5504.486106
 20
865.451329
 30
0.0
 11
5505.986106
 21
865.451329
 31
0.0
  0
LINE
  5
124CE
100
AcDbEntity
  8
0
100
AcDbLine
 10
5508.986106
 20
861.451329
 30
0.0
 11
5515.486106
 21
861.451329
 31
0.0
  0
LINE
  5
124CF
100
AcDbEntity
  8
0
100
AcDbLine
 10
5504.486106
 20
853.451329
 30
0.0
 11
5504.486106
 21
865.451329
 31
0.0
  0
ARC
  5
124D0
100
AcDbEntity
  8
0
100
AcDbCircle
 10
5534.486106
 20
839.451329
 30
0.0
 40
1.0
100
AcDbArc
 50
180.0
 51
270.0
  0
LINE
  5
124D1
100
AcDbEntity
  8
0
100
AcDbLine
 10
5533.486106
 20
825.951329
 30
0.0
 11
5533.486106
 21
838.451329
 31
0.0
  0
ARC
  5
124D2
100
AcDbEntity
  8
0
100
AcDbCircle
 10
5514.736106
 20
829.888829
 30
0.0
 40
5.4375
100
AcDbArc
 50
226.397181
 51
313.602819
  0
LINE
  5
124D3
100
AcDbEntity
  8
0
100
AcDbLine
 10
5510.986106
 20
825.951329
 30
0.0
 11
5512.486106
 21
824.451329
 31
0.0
  0
ARC
  5
124D4
100
AcDbEntity
  8
0
100
AcDbCircle
 10
5517.486106
 20
839.451329
 30
0.0
 40
1.0
100
AcDbArc
 50
270.0
 51
0.0
  0
LINE
  5
124D5
100
AcDbEntity
  8
0
100
AcDbLine
 10
5517.486106
 20
838.451329
 30
0.0
 11
5508.986106
 21
838.451329
 31
0.0
  0
ARC
  5
124D6
100
AcDbEntity
  8
0
100
AcDbCircle
 10
5508.986106
 20
836.451329
 30
0.0
 40
2.0
100
AcDbArc
 50
0.0
 51
90.0
  0
ARC
  5
124D7
100
AcDbEntity
  8
0
100
AcDbCircle
 10
5514.736106
 20
842.388829
 30
0.0
 40
5.4375
100
AcDbArc
 50
226.397181
 51
313.602819
  0
LINE
  5
124D8
100
AcDbEntity
  8
0
100
AcDbLine
 10
5510.986106
 20
825.951329
 30
0.0
 11
5510.986106
 21
836.451329
 31
0.0
  0
LINE
  5
124D9
100
AcDbEntity
  8
0
100
AcDbLine
 10
5518.486106
 20
825.951329
 30
0.0
 11
5518.486106
 21
838.451329
 31
0.0
  0
LINE
  5
124DA
100
AcDbEntity
  8
0
100
AcDbLine
 10
5512.486106
 20
824.451329
 30
0.0
 11
5525.986106
 21
824.451329
 31
0.0
  0
LINE
  5
124DB
100
AcDbEntity
  8
0
100
AcDbLine
 10
5533.486106
 20
840.451329
 30
0.0
 11
5518.486106
 21
840.451329
 31
0.0
  0
ARC
  5
124DC
100
AcDbEntity
  8
0
100
AcDbCircle
 10
5525.986106
 20
856.451329
 30
0.0
 40
19.5
100
AcDbArc
 50
247.380135
 51
292.619865
  0
ARC
  5
124DD
100
AcDbEntity
  8
0
100
AcDbCircle
 10
5525.986106
 20
843.951329
 30
0.0
 40
19.5
100
AcDbArc
 50
247.380135
 51
292.619865
  0
LINE
  5
124DE
100
AcDbEntity
  8
0
100
AcDbLine
 10
5515.136106
 20
894.451329
 30
0.0
 11
5515.136106
 21
921.450329
 31
0.0
  0
LINE
  5
124DF
100
AcDbEntity
  8
0
100
AcDbLine
 10
5536.836106
 20
894.451329
 30
0.0
 11
5536.836106
 21
921.450329
 31
0.0
  0
LINE
  5
124E0
100
AcDbEntity
  8
0
100
AcDbLine
 10
5453.486106
 20
861.450329
 30
0.0
 11
5411.337606
 21
861.450329
 31
0.0
  0
LINE
  5
124E1
100
AcDbEntity
  8
0
100
AcDbLine
 10
5411.337606
 20
845.450329
 30
0.0
 11
5453.486106
 21
845.450329
 31
0.0
  0
LINE
  5
124E2
100
AcDbEntity
  8
0
100
AcDbLine
 10
5104.986106
 20
1077.772876
 30
0.0
 11
5104.981638
 21
1098.772876
 31
0.0
  0
LINE
  5
124E3
100
AcDbEntity
  8
0
100
AcDbLine
 10
5066.986106
 20
1100.267158
 30
0.0
 11
5066.986106
 21
1077.772876
 31
0.0
  0
LINE
  5
124E4
100
AcDbEntity
  8
0
100
AcDbLine
 10
5104.986106
 20
1066.772876
 30
0.0
 11
5109.095657
 21
1066.772876
 31
0.0
  0
LINE
  5
124E5
100
AcDbEntity
  8
0
100
AcDbLine
 10
5062.403273
 20
1025.772876
 30
0.0
 11
5109.095657
 21
1025.772876
 31
0.0
  0
LINE
  5
124E6
100
AcDbEntity
  8
0
100
AcDbLine
 10
5101.986106
 20
1076.272876
 30
0.0
 11
5101.986106
 21
1069.772876
 31
0.0
  0
LINE
  5
124E7
100
AcDbEntity
  8
0
100
AcDbLine
 10
5101.986106
 20
1077.772876
 30
0.0
 11
5101.986106
 21
1076.272876
 31
0.0
  0
LINE
  5
124E8
100
AcDbEntity
  8
0
100
AcDbLine
 10
5069.986106
 20
1076.272876
 30
0.0
 11
5069.986106
 21
1069.772876
 31
0.0
  0
LINE
  5
124E9
100
AcDbEntity
  8
0
100
AcDbLine
 10
5062.403273
 20
1066.772876
 30
0.0
 11
5066.986106
 21
1066.772876
 31
0.0
  0
LINE
  5
124EA
100
AcDbEntity
  8
0
100
AcDbLine
 10
5069.986106
 20
1076.272876
 30
0.0
 11
5069.986106
 21
1077.772876
 31
0.0
  0
LINE
  5
124EB
100
AcDbEntity
  8
0
100
AcDbLine
 10
5069.986106
 20
1076.272876
 30
0.0
 11
5101.986106
 21
1076.272876
 31
0.0
  0
LINE
  5
124EC
100
AcDbEntity
  8
0
100
AcDbLine
 10
5104.986106
 20
1077.772876
 30
0.0
 11
5066.986106
 21
1077.772876
 31
0.0
  0
LINE
  5
124ED
100
AcDbEntity
  8
0
100
AcDbLine
 10
5088.986106
 20
1059.936926
 30
0.0
 11
5088.986106
 21
1059.272876
 31
0.0
  0
ARC
  5
124EE
100
AcDbEntity
  8
0
100
AcDbCircle
 10
5089.986106
 20
1059.936926
 30
0.0
 40
1.0
100
AcDbArc
 50
101.643663
 51
180.0
  0
ARC
  5
124EF
100
AcDbEntity
  8
0
100
AcDbCircle
 10
5084.986106
 20
1059.272876
 30
0.0
 40
4.0
100
AcDbArc
 50
270.0
 51
0.0
  0
LINE
  5
124F0
100
AcDbEntity
  8
0
100
AcDbLine
 10
5060.486106
 20
1064.022876
 30
0.0
 11
5060.486106
 21
1056.772876
 31
0.0
  0
ARC
  5
124F1
100
AcDbEntity
  8
0
100
AcDbCircle
 10
5061.986106
 20
1056.772876
 30
0.0
 40
1.5
100
AcDbArc
 50
180.0
 51
270.0
  0
LINE
  5
124F2
100
AcDbEntity
  8
0
100
AcDbLine
 10
5060.486106
 20
1064.022876
 30
0.0
 11
5060.960987
 21
1065.684958
 31
0.0
  0
LINE
  5
124F3
100
AcDbEntity
  8
0
100
AcDbLine
 10
5061.986106
 20
1055.272876
 30
0.0
 11
5084.986106
 21
1055.272876
 31
0.0
  0
ARC
  5
124F4
100
AcDbEntity
  8
0
100
AcDbCircle
 10
5085.641775
 20
1076.61461
 30
0.0
 40
18.149062
100
AcDbArc
 50
212.093147
 51
280.516842
  0
ARC
  5
124F5
100
AcDbEntity
  8
0
100
AcDbCircle
 10
5062.403273
 20
1065.272876
 30
0.0
 40
1.5
100
AcDbArc
 50
90.0
 51
164.054604
  0
ARC
  5
124F6
100
AcDbEntity
  8
0
100
AcDbCircle
 10
5066.986106
 20
1069.772876
 30
0.0
 40
3.0
100
AcDbArc
 50
270.0
 51
0.0
  0
ARC
  5
124F7
100
AcDbEntity
  8
0
100
AcDbCircle
 10
5084.123411
 20
1088.387659
 30
0.0
 40
28.048501
100
AcDbArc
 50
281.643663
 51
309.253928
  0
ARC
  5
124F8
100
AcDbEntity
  8
0
100
AcDbCircle
 10
5104.986106
 20
1069.772876
 30
0.0
 40
3.0
100
AcDbArc
 50
180.0
 51
270.0
  0
ARC
  5
124F9
100
AcDbEntity
  8
0
100
AcDbCircle
 10
5052.487222
 20
1059.585376
 30
0.0
 40
6.501116
100
AcDbArc
 50
136.9548
 51
223.0452
  0
LINE
  5
124FA
100
AcDbEntity
  8
0
100
AcDbLine
 10
5045.986106
 20
1062.272876
 30
0.0
 11
5047.736106
 21
1064.022876
 31
0.0
  0
ARC
  5
124FB
100
AcDbEntity
  8
0
100
AcDbCircle
 10
5065.237222
 20
1059.585376
 30
0.0
 40
6.501116
100
AcDbArc
 50
136.9548
 51
223.0452
  0
LINE
  5
124FC
100
AcDbEntity
  8
0
100
AcDbLine
 10
5047.736106
 20
1055.147876
 30
0.0
 11
5060.486106
 21
1055.147876
 31
0.0
  0
LINE
  5
124FD
100
AcDbEntity
  8
0
100
AcDbLine
 10
5047.736106
 20
1064.022876
 30
0.0
 11
5060.486106
 21
1064.022876
 31
0.0
  0
LINE
  5
124FE
100
AcDbEntity
  8
0
100
AcDbLine
 10
5060.486106
 20
1035.772876
 30
0.0
 11
5060.486106
 21
1028.522876
 31
0.0
  0
ARC
  5
124FF
100
AcDbEntity
  8
0
100
AcDbCircle
 10
5084.954424
 20
1033.272876
 30
0.0
 40
4.0
100
AcDbArc
 50
0.0
 51
90.0
  0
LINE
  5
12500
100
AcDbEntity
  8
0
100
AcDbLine
 10
5045.986106
 20
1046.272876
 30
0.0
 11
5045.986106
 21
1030.272876
 31
0.0
  0
ARC
  5
12501
100
AcDbEntity
  8
0
100
AcDbCircle
 10
5052.487222
 20
1032.960376
 30
0.0
 40
6.501116
100
AcDbArc
 50
136.9548
 51
223.0452
  0
ARC
  5
12502
100
AcDbEntity
  8
0
100
AcDbCircle
 10
5065.237222
 20
1032.960376
 30
0.0
 40
6.501116
100
AcDbArc
 50
136.9548
 51
223.0452
  0
LINE
  5
12503
100
AcDbEntity
  8
0
100
AcDbLine
 10
5088.954424
 20
1033.272876
 30
0.0
 11
5088.954424
 21
1025.772876
 31
0.0
  0
LINE
  5
12504
100
AcDbEntity
  8
0
100
AcDbLine
 10
5093.986106
 20
1023.272876
 30
0.0
 11
5090.486106
 21
1016.272876
 31
0.0
  0
LINE
  5
12505
100
AcDbEntity
  8
0
100
AcDbLine
 10
5093.986106
 20
1025.772876
 30
0.0
 11
5093.986106
 21
1023.272876
 31
0.0
  0
ARC
  5
12506
100
AcDbEntity
  8
0
100
AcDbCircle
 10
5062.403273
 20
1027.272876
 30
0.0
 40
1.5
100
AcDbArc
 50
195.945396
 51
270.0
  0
LINE
  5
12507
100
AcDbEntity
  8
0
100
AcDbLine
 10
5060.486106
 20
1028.522876
 30
0.0
 11
5060.960987
 21
1026.860794
 31
0.0
  0
LINE
  5
12508
100
AcDbEntity
  8
0
100
AcDbLine
 10
5077.986106
 20
1023.272876
 30
0.0
 11
5081.486106
 21
1016.272876
 31
0.0
  0
ARC
  5
12509
100
AcDbEntity
  8
0
100
AcDbCircle
 10
5074.986106
 20
1023.272876
 30
0.0
 40
3.0
100
AcDbArc
 50
0.0
 51
56.44269
  0
LINE
  5
1250A
100
AcDbEntity
  8
0
100
AcDbLine
 10
5077.986106
 20
1023.272876
 30
0.0
 11
5093.986106
 21
1023.272876
 31
0.0
  0
LINE
  5
1250B
100
AcDbEntity
  8
0
100
AcDbLine
 10
5081.486106
 20
1016.272876
 30
0.0
 11
5090.486106
 21
1016.272876
 31
0.0
  0
LINE
  5
1250C
100
AcDbEntity
  8
0
100
AcDbLine
 10
5045.986106
 20
1030.272876
 30
0.0
 11
5047.736106
 21
1028.522876
 31
0.0
  0
LINE
  5
1250D
100
AcDbEntity
  8
0
100
AcDbLine
 10
5047.736106
 20
1028.522876
 30
0.0
 11
5060.486106
 21
1028.522876
 31
0.0
  0
ARC
  5
1250E
100
AcDbEntity
  8
0
100
AcDbCircle
 10
5061.986106
 20
1035.772876
 30
0.0
 40
1.5
100
AcDbArc
 50
90.0
 51
180.0
  0
LINE
  5
1250F
100
AcDbEntity
  8
0
100
AcDbLine
 10
5061.986106
 20
1037.272876
 30
0.0
 11
5084.954424
 21
1037.272876
 31
0.0
  0
LINE
  5
12510
100
AcDbEntity
  8
0
100
AcDbLine
 10
5047.736106
 20
1037.397876
 30
0.0
 11
5060.486106
 21
1037.397876
 31
0.0
  0
LINE
  5
12511
100
AcDbEntity
  8
0
100
AcDbLine
 10
5061.986106
 20
1055.272876
 30
0.0
 11
5061.986106
 21
1037.272876
 31
0.0
  0
ARC
  5
12512
100
AcDbEntity
  8
0
100
AcDbCircle
 10
5069.365571
 20
1046.272876
 30
0.0
 40
23.379464
100
AcDbArc
 50
157.690681
 51
202.309319
  0
LINE
  5
12513
100
AcDbEntity
  8
0
100
AcDbLine
 10
5045.986106
 20
1062.272876
 30
0.0
 11
5045.986106
 21
1046.272876
 31
0.0
  0
ARC
  5
12514
100
AcDbEntity
  8
0
100
AcDbCircle
 10
5082.115571
 20
1046.272876
 30
0.0
 40
23.379464
100
AcDbArc
 50
157.690681
 51
202.309319
  0
LINE
  5
12515
100
AcDbEntity
  8
0
100
AcDbLine
 10
5162.538326
 20
1072.588329
 30
0.0
 11
5172.786106
 21
1085.093333
 31
0.0
  0
LINE
  5
12516
100
AcDbEntity
  8
0
100
AcDbLine
 10
5162.538326
 20
1072.588329
 30
0.0
 11
5162.538326
 21
1059.872876
 31
0.0
  0
LINE
  5
12517
100
AcDbEntity
  8
0
100
AcDbLine
 10
5111.486106
 20
1064.022876
 30
0.0
 11
5110.4125
 21
1065.991154
 31
0.0
  0
LINE
  5
12518
100
AcDbEntity
  8
0
100
AcDbLine
 10
5124.236106
 20
1064.022876
 30
0.0
 11
5112.673373
 21
1064.022876
 31
0.0
  0
ARC
  5
12519
100
AcDbEntity
  8
0
100
AcDbCircle
 10
5119.48499
 20
1059.585376
 30
0.0
 40
6.501116
100
AcDbArc
 50
316.9548
 51
43.0452
  0
LINE
  5
1251A
100
AcDbEntity
  8
0
100
AcDbLine
 10
5125.986106
 20
1062.272876
 30
0.0
 11
5124.236106
 21
1064.022876
 31
0.0
  0
LINE
  5
1251B
100
AcDbEntity
  8
0
100
AcDbLine
 10
5124.236106
 20
1055.147876
 30
0.0
 11
5111.486106
 21
1055.147876
 31
0.0
  0
ARC
  5
1251C
100
AcDbEntity
  8
0
100
AcDbCircle
 10
5106.73499
 20
1059.585376
 30
0.0
 40
6.501116
100
AcDbArc
 50
316.9548
 51
43.0452
  0
ARC
  5
1251D
100
AcDbEntity
  8
0
100
AcDbCircle
 10
5112.673373
 20
1066.022876
 30
0.0
 40
2.0
100
AcDbArc
 50
208.61046
 51
270.0
  0
ARC
  5
1251E
100
AcDbEntity
  8
0
100
AcDbCircle
 10
5109.095657
 20
1065.272876
 30
0.0
 40
1.5
100
AcDbArc
 50
28.61046
 51
90.0
  0
LINE
  5
1251F
100
AcDbEntity
  8
0
100
AcDbLine
 10
5172.837172
 20
1059.872876
 30
0.0
 11
5125.986106
 21
1059.872876
 31
0.0
  0
LINE
  5
12520
100
AcDbEntity
  8
0
100
AcDbLine
 10
5125.986106
 20
1046.272876
 30
0.0
 11
5125.986106
 21
1030.272876
 31
0.0
  0
ARC
  5
12521
100
AcDbEntity
  8
0
100
AcDbCircle
 10
5119.48499
 20
1032.960376
 30
0.0
 40
6.501116
100
AcDbArc
 50
316.9548
 51
43.0452
  0
ARC
  5
12522
100
AcDbEntity
  8
0
100
AcDbCircle
 10
5106.73499
 20
1032.960376
 30
0.0
 40
6.501116
100
AcDbArc
 50
316.9548
 51
43.0452
  0
ARC
  5
12523
100
AcDbEntity
  8
0
100
AcDbCircle
 10
5109.095657
 20
1027.272876
 30
0.0
 40
1.5
100
AcDbArc
 50
270.0
 51
331.38954
  0
LINE
  5
12524
100
AcDbEntity
  8
0
100
AcDbLine
 10
5111.486106
 20
1028.522876
 30
0.0
 11
5110.4125
 21
1026.554598
 31
0.0
  0
LINE
  5
12525
100
AcDbEntity
  8
0
100
AcDbLine
 10
5124.236106
 20
1028.522876
 30
0.0
 11
5112.673373
 21
1028.522876
 31
0.0
  0
LINE
  5
12526
100
AcDbEntity
  8
0
100
AcDbLine
 10
5125.986106
 20
1030.272876
 30
0.0
 11
5124.236106
 21
1028.522876
 31
0.0
  0
ARC
  5
12527
100
AcDbEntity
  8
0
100
AcDbCircle
 10
5112.673373
 20
1026.522876
 30
0.0
 40
2.0
100
AcDbArc
 50
90.0
 51
151.38954
  0
LINE
  5
12528
100
AcDbEntity
  8
0
100
AcDbLine
 10
5124.236106
 20
1037.397876
 30
0.0
 11
5111.486106
 21
1037.397876
 31
0.0
  0
LINE
  5
12529
100
AcDbEntity
  8
0
100
AcDbLine
 10
5172.786106
 20
1032.672876
 30
0.0
 11
5125.986106
 21
1032.672876
 31
0.0
  0
LINE
  5
1252A
100
AcDbEntity
  8
0
100
AcDbLine
 10
5109.986106
 20
1065.481891
 30
0.0
 11
5109.986106
 21
1027.063861
 31
0.0
  0
LINE
  5
1252B
100
AcDbEntity
  8
0
100
AcDbLine
 10
5106.486106
 20
1066.772876
 30
0.0
 11
5106.486106
 21
1025.772876
 31
0.0
  0
ARC
  5
1252C
100
AcDbEntity
  8
0
100
AcDbCircle
 10
5102.606642
 20
1046.272876
 30
0.0
 40
23.379464
100
AcDbArc
 50
337.690681
 51
22.309319
  0
ARC
  5
1252D
100
AcDbEntity
  8
0
100
AcDbCircle
 10
5089.856642
 20
1046.272876
 30
0.0
 40
23.379464
100
AcDbArc
 50
337.690681
 51
22.309319
  0
LINE
  5
1252E
100
AcDbEntity
  8
0
100
AcDbLine
 10
5125.986106
 20
1062.272876
 30
0.0
 11
5125.986106
 21
1046.272876
 31
0.0
  0
LINE
  5
1252F
100
AcDbEntity
  8
0
100
AcDbLine
 10
5103.4623
 20
1098.772876
 30
0.0
 11
5068.303106
 21
1098.772876
 31
0.0
  0
ARC
  5
12530
100
AcDbEntity
  8
0
100
AcDbCircle
 10
4952.414337
 20
840.920288
 30
0.0
 40
299.607641
100
AcDbArc
 50
59.386875
 51
68.548252
  0
LINE
  5
12531
100
AcDbEntity
  8
0
100
AcDbLine
 10
5045.986106
 20
1121.272876
 30
0.0
 11
5066.986106
 21
1100.267158
 31
0.0
  0
LINE
  5
12532
100
AcDbEntity
  8
0
100
AcDbLine
 10
5061.986106
 20
1119.772876
 30
0.0
 11
5047.486106
 21
1119.772876
 31
0.0
  0
LINE
  5
12533
100
AcDbEntity
  8
0
100
AcDbLine
 10
5340.627606
 20
1095.450329
 30
0.0
 11
5375.986106
 21
1072.588329
 31
0.0
  0
LINE
  5
12534
100
AcDbEntity
  8
0
100
AcDbLine
 10
5375.986106
 20
1072.588329
 30
0.0
 11
5411.337606
 21
1095.450329
 31
0.0
  0
LINE
  5
12535
100
AcDbEntity
  8
0
100
AcDbLine
 10
5425.984606
 20
960.450329
 30
0.0
 11
5425.984606
 21
1110.450329
 31
0.0
  0
LINE
  5
12536
100
AcDbEntity
  8
0
100
AcDbLine
 10
5325.991635
 20
960.450329
 30
0.0
 11
5325.991635
 21
1110.450329
 31
0.0
  0
LINE
  5
12537
100
AcDbEntity
  8
0
100
AcDbLine
 10
5325.991635
 20
960.450329
 30
0.0
 11
5340.627606
 21
960.450329
 31
0.0
  0
LINE
  5
12538
100
AcDbEntity
  8
0
100
AcDbLine
 10
5411.337606
 20
960.450329
 30
0.0
 11
5425.984606
 21
960.450329
 31
0.0
  0
LINE
  5
12539
100
AcDbEntity
  8
0
100
AcDbLine
 10
5340.627606
 20
1095.450329
 30
0.0
 11
5411.337606
 21
1095.450329
 31
0.0
  0
LINE
  5
1253A
100
AcDbEntity
  8
0
100
AcDbLine
 10
5425.984606
 20
1110.450329
 30
0.0
 11
5325.991635
 21
1110.450329
 31
0.0
  0
LINE
  5
1253B
100
AcDbEntity
  8
0
100
AcDbLine
 10
5589.433886
 20
753.448329
 30
0.0
 11
5589.433886
 21
654.450329
 31
0.0
  0
LINE
  5
1253C
100
AcDbEntity
  8
0
100
AcDbLine
 10
5576.494606
 20
840.451329
 30
0.0
 11
5576.494606
 21
654.450329
 31
0.0
  0
LINE
  5
1253D
100
AcDbEntity
  8
0
100
AcDbLine
 10
5570.698606
 20
840.451329
 30
0.0
 11
5570.698606
 21
654.450329
 31
0.0
  0
LINE
  5
1253E
100
AcDbEntity
  8
0
100
AcDbLine
 10
5539.585606
 20
824.550829
 30
0.0
 11
5539.585606
 21
654.450329
 31
0.0
  0
LINE
  5
1253F
100
AcDbEntity
  8
0
100
AcDbLine
 10
5607.800952
 20
654.450329
 30
0.0
 11
5607.800952
 21
645.450329
 31
0.0
  0
LINE
  5
12540
100
AcDbEntity
  8
0
100
AcDbLine
 10
5587.100606
 20
654.450329
 30
0.0
 11
5587.100606
 21
645.450329
 31
0.0
  0
LINE
  5
12541
100
AcDbEntity
  8
0
100
AcDbLine
 10
5589.433886
 20
1072.588329
 30
0.0
 11
5589.433886
 21
844.072365
 31
0.0
  0
LINE
  5
12542
100
AcDbEntity
  8
0
100
AcDbLine
 10
5593.986106
 20
753.448329
 30
0.0
 11
5593.986106
 21
823.451329
 31
0.0
  0
LINE
  5
12543
100
AcDbEntity
  8
0
100
AcDbLine
 10
5585.486106
 20
831.951329
 30
0.0
 11
5587.98308
 21
753.448329
 31
0.0
  0
LINE
  5
12544
100
AcDbEntity
  8
0
100
AcDbLine
 10
5587.98308
 20
753.448329
 30
0.0
 11
5593.986106
 21
753.448329
 31
0.0
  0
LINE
  5
12545
100
AcDbEntity
  8
0
100
AcDbLine
 10
5573.486106
 20
876.364329
 30
0.0
 11
5573.486106
 21
840.451329
 31
0.0
  0
ARC
  5
12546
100
AcDbEntity
  8
0
100
AcDbCircle
 10
5355.322966
 20
756.336131
 30
0.0
 40
250.011139
100
AcDbArc
 50
18.448171
 51
29.238035
  0
LINE
  5
12547
100
AcDbEntity
  8
0
100
AcDbLine
 10
5593.986106
 20
823.451329
 30
0.0
 11
5576.988215
 21
840.451329
 31
0.0
  0
LINE
  5
12548
100
AcDbEntity
  8
0
100
AcDbLine
 10
5592.486106
 20
824.951329
 30
0.0
 11
5592.486106
 21
835.451329
 31
0.0
  0
LINE
  5
12549
100
AcDbEntity
  8
0
100
AcDbLine
 10
5551.986106
 20
840.451329
 30
0.0
 11
5551.986106
 21
878.451329
 31
0.0
  0
LINE
  5
1254A
100
AcDbEntity
  8
0
100
AcDbLine
 10
5540.986106
 20
892.951329
 30
0.0
 11
5539.486106
 21
894.451329
 31
0.0
  0
LINE
  5
1254B
100
AcDbEntity
  8
0
100
AcDbLine
 10
5546.986106
 20
875.451329
 30
0.0
 11
5551.986106
 21
875.451329
 31
0.0
  0
ARC
  5
1254C
100
AcDbEntity
  8
0
100
AcDbCircle
 10
5542.986106
 20
882.451329
 30
0.0
 40
2.0
100
AcDbArc
 50
180.0
 51
270.0
  0
LINE
  5
1254D
100
AcDbEntity
  8
0
100
AcDbLine
 10
5542.986106
 20
880.451329
 30
0.0
 11
5545.986106
 21
879.451329
 31
0.0
  0
LINE
  5
1254E
100
AcDbEntity
  8
0
100
AcDbLine
 10
5545.986106
 20
876.451329
 30
0.0
 11
5545.986106
 21
879.451329
 31
0.0
  0
LINE
  5
1254F
100
AcDbEntity
  8
0
100
AcDbLine
 10
5545.986106
 20
876.451329
 30
0.0
 11
5546.986106
 21
875.451329
 31
0.0
  0
LINE
  5
12550
100
AcDbEntity
  8
0
100
AcDbLine
 10
5540.986106
 20
892.951329
 30
0.0
 11
5540.986106
 21
882.451329
 31
0.0
  0
LINE
  5
12551
100
AcDbEntity
  8
0
100
AcDbLine
 10
5540.986106
 20
825.951329
 30
0.0
 11
5539.486106
 21
824.451329
 31
0.0
  0
LINE
  5
12552
100
AcDbEntity
  8
0
100
AcDbLine
 10
5542.986106
 20
838.451329
 30
0.0
 11
5542.986106
 21
841.451329
 31
0.0
  0
ARC
  5
12553
100
AcDbEntity
  8
0
100
AcDbCircle
 10
5542.986106
 20
836.451329
 30
0.0
 40
2.0
100
AcDbArc
 50
90.0
 51
180.0
  0
ARC
  5
12554
100
AcDbEntity
  8
0
100
AcDbCircle
 10
5544.986106
 20
841.451329
 30
0.0
 40
2.0
100
AcDbArc
 50
90.0
 51
180.0
  0
LINE
  5
12555
100
AcDbEntity
  8
0
100
AcDbLine
 10
5544.986106
 20
843.451329
 30
0.0
 11
5551.986106
 21
843.451329
 31
0.0
  0
LINE
  5
12556
100
AcDbEntity
  8
0
100
AcDbLine
 10
5540.986106
 20
825.951329
 30
0.0
 11
5540.986106
 21
836.451329
 31
0.0
  0
LINE
  5
12557
100
AcDbEntity
  8
0
100
AcDbLine
 10
5551.986106
 20
840.451329
 30
0.0
 11
5576.988215
 21
840.451329
 31
0.0
  0
LINE
  5
12558
100
AcDbEntity
  8
0
100
AcDbLine
 10
5573.482193
 20
878.451329
 30
0.0
 11
5551.986106
 21
878.451329
 31
0.0
  0
LINE
  5
12559
100
AcDbEntity
  8
0
100
AcDbLine
 10
5576.494606
 20
921.450329
 30
0.0
 11
5576.494606
 21
872.906604
 31
0.0
  0
LINE
  5
1255A
100
AcDbEntity
  8
0
100
AcDbLine
 10
5570.698606
 20
921.450329
 30
0.0
 11
5570.698606
 21
878.451329
 31
0.0
  0
LINE
  5
1255B
100
AcDbEntity
  8
0
100
AcDbLine
 10
5539.585606
 20
921.450329
 30
0.0
 11
5539.585606
 21
894.351829
 31
0.0
  0
LINE
  5
1255C
100
AcDbEntity
  8
0
100
AcDbLine
 10
5589.433886
 20
1072.588329
 30
0.0
 11
5579.186106
 21
1085.093333
 31
0.0
  0
INSERT
  5
1255D
100
AcDbEntity
  8
0
100
AcDbBlockReference
  2
YA
 10
3359.465058
 20
1745.446329
 30
0.0
 41
10.710078
 42
10.710078
 43
10.710078
  0
LINE
  5
1255E
100
AcDbEntity
  8
0
100
AcDbLine
 10
2416.123792
 20
1807.668762
 30
0.0
 11
2416.12826
 21
1828.668762
 31
0.0
  0
LINE
  5
1255F
100
AcDbEntity
  8
0
100
AcDbLine
 10
2454.123792
 20
1830.163045
 30
0.0
 11
2454.123792
 21
1807.668762
 31
0.0
  0
CIRCLE
  5
12560
100
AcDbEntity
  8
0
100
AcDbCircle
 10
2173.825049
 20
1814.737294
 30
0.0
 40
9.5
  0
CIRCLE
  5
12561
100
AcDbEntity
  8
0
100
AcDbCircle
 10
2116.422534
 20
1814.737294
 30
0.0
 40
9.5
  0
INSERT
  5
12562
100
AcDbEntity
  8
0
100
AcDbBlockReference
  2
YA
 10
2786.495992
 20
1776.168762
 30
0.0
 41
10.710078
 42
10.710078
 43
10.710078
  0
LINE
  5
12563
100
AcDbEntity
  8
0
100
AcDbLine
 10
2348.272727
 20
1789.768762
 30
0.0
 11
2395.123792
 21
1789.768762
 31
0.0
  0
LINE
  5
12564
100
AcDbEntity
  8
0
100
AcDbLine
 10
2348.323792
 20
1762.568762
 30
0.0
 11
2395.123792
 21
1762.568762
 31
0.0
  0
CIRCLE
  5
12565
100
AcDbEntity
  8
0
100
AcDbCircle
 10
2173.825049
 20
1676.155364
 30
0.0
 40
9.5
  0
CIRCLE
  5
12566
100
AcDbEntity
  8
0
100
AcDbCircle
 10
2116.422534
 20
1676.155364
 30
0.0
 40
9.5
  0
CIRCLE
  5
12567
100
AcDbEntity
  8
0
100
AcDbCircle
 10
2214.414757
 20
1716.745072
 30
0.0
 40
9.5
  0
CIRCLE
  5
12568
100
AcDbEntity
  8
0
100
AcDbCircle
 10
2214.414757
 20
1774.147587
 30
0.0
 40
9.5
  0
LINE
  5
12569
100
AcDbEntity
  8
0
100
AcDbLine
 10
2419.123792
 20
1806.168762
 30
0.0
 11
2419.123792
 21
1799.668762
 31
0.0
  0
LINE
  5
1256A
100
AcDbEntity
  8
0
100
AcDbLine
 10
2419.123792
 20
1807.668762
 30
0.0
 11
2419.123792
 21
1806.168762
 31
0.0
  0
LINE
  5
1256B
100
AcDbEntity
  8
0
100
AcDbLine
 10
2451.123792
 20
1806.168762
 30
0.0
 11
2451.123792
 21
1799.668762
 31
0.0
  0
LINE
  5
1256C
100
AcDbEntity
  8
0
100
AcDbLine
 10
2458.706625
 20
1796.668762
 30
0.0
 11
2454.123792
 21
1796.668762
 31
0.0
  0
LINE
  5
1256D
100
AcDbEntity
  8
0
100
AcDbLine
 10
2451.123792
 20
1806.168762
 30
0.0
 11
2451.123792
 21
1807.668762
 31
0.0
  0
LINE
  5
1256E
100
AcDbEntity
  8
0
100
AcDbLine
 10
2451.123792
 20
1806.168762
 30
0.0
 11
2419.123792
 21
1806.168762
 31
0.0
  0
LINE
  5
1256F
100
AcDbEntity
  8
0
100
AcDbLine
 10
2416.123792
 20
1807.668762
 30
0.0
 11
2454.123792
 21
1807.668762
 31
0.0
  0
LINE
  5
12570
100
AcDbEntity
  8
0
100
AcDbLine
 10
2416.123792
 20
1796.668762
 30
0.0
 11
2412.014241
 21
1796.668762
 31
0.0
  0
ARC
  5
12571
100
AcDbEntity
  8
0
100
AcDbCircle
 10
2431.253256
 20
1776.168762
 30
0.0
 40
23.379464
100
AcDbArc
 50
157.690681
 51
202.309319
  0
LINE
  5
12572
100
AcDbEntity
  8
0
100
AcDbLine
 10
2396.873792
 20
1767.293762
 30
0.0
 11
2409.623792
 21
1767.293762
 31
0.0
  0
LINE
  5
12573
100
AcDbEntity
  8
0
100
AcDbLine
 10
2409.623792
 20
1793.918762
 30
0.0
 11
2410.697398
 21
1795.887041
 31
0.0
  0
LINE
  5
12574
100
AcDbEntity
  8
0
100
AcDbLine
 10
2396.873792
 20
1793.918762
 30
0.0
 11
2408.436526
 21
1793.918762
 31
0.0
  0
LINE
  5
12575
100
AcDbEntity
  8
0
100
AcDbLine
 10
2396.873792
 20
1785.043762
 30
0.0
 11
2409.623792
 21
1785.043762
 31
0.0
  0
ARC
  5
12576
100
AcDbEntity
  8
0
100
AcDbCircle
 10
2414.374908
 20
1789.481262
 30
0.0
 40
6.501116
100
AcDbArc
 50
136.9548
 51
223.0452
  0
ARC
  5
12577
100
AcDbEntity
  8
0
100
AcDbCircle
 10
2408.436526
 20
1795.918762
 30
0.0
 40
2.0
100
AcDbArc
 50
270.0
 51
331.38954
  0
LINE
  5
12578
100
AcDbEntity
  8
0
100
AcDbLine
 10
2432.123792
 20
1789.832812
 30
0.0
 11
2432.123792
 21
1789.168762
 31
0.0
  0
ARC
  5
12579
100
AcDbEntity
  8
0
100
AcDbCircle
 10
2431.123792
 20
1789.832812
 30
0.0
 40
1.0
100
AcDbArc
 50
0.0
 51
78.356337
  0
ARC
  5
1257A
100
AcDbEntity
  8
0
100
AcDbCircle
 10
2436.123792
 20
1789.168762
 30
0.0
 40
4.0
100
AcDbArc
 50
180.0
 51
270.0
  0
LINE
  5
1257B
100
AcDbEntity
  8
0
100
AcDbLine
 10
2459.123792
 20
1785.168762
 30
0.0
 11
2459.123792
 21
1767.168762
 31
0.0
  0
ARC
  5
1257C
100
AcDbEntity
  8
0
100
AcDbCircle
 10
2459.123792
 20
1765.668762
 30
0.0
 40
1.5
100
AcDbArc
 50
0.0
 51
90.0
  0
LINE
  5
1257D
100
AcDbEntity
  8
0
100
AcDbLine
 10
2460.623792
 20
1793.918762
 30
0.0
 11
2460.623792
 21
1786.668762
 31
0.0
  0
ARC
  5
1257E
100
AcDbEntity
  8
0
100
AcDbCircle
 10
2459.123792
 20
1786.668762
 30
0.0
 40
1.5
100
AcDbArc
 50
270.0
 51
0.0
  0
LINE
  5
1257F
100
AcDbEntity
  8
0
100
AcDbLine
 10
2460.623792
 20
1793.918762
 30
0.0
 11
2460.148911
 21
1795.580844
 31
0.0
  0
LINE
  5
12580
100
AcDbEntity
  8
0
100
AcDbLine
 10
2459.123792
 20
1767.168762
 30
0.0
 11
2436.155474
 21
1767.168762
 31
0.0
  0
LINE
  5
12581
100
AcDbEntity
  8
0
100
AcDbLine
 10
2459.123792
 20
1785.168762
 30
0.0
 11
2436.123792
 21
1785.168762
 31
0.0
  0
ARC
  5
12582
100
AcDbEntity
  8
0
100
AcDbCircle
 10
2412.014241
 20
1795.168762
 30
0.0
 40
1.5
100
AcDbArc
 50
90.0
 51
151.38954
  0
ARC
  5
12583
100
AcDbEntity
  8
0
100
AcDbCircle
 10
2435.468123
 20
1806.510497
 30
0.0
 40
18.149062
100
AcDbArc
 50
259.483158
 51
327.906853
  0
ARC
  5
12584
100
AcDbEntity
  8
0
100
AcDbCircle
 10
2458.706625
 20
1795.168762
 30
0.0
 40
1.5
100
AcDbArc
 50
15.945396
 51
90.0
  0
ARC
  5
12585
100
AcDbEntity
  8
0
100
AcDbCircle
 10
2454.123792
 20
1799.668762
 30
0.0
 40
3.0
100
AcDbArc
 50
180.0
 51
270.0
  0
ARC
  5
12586
100
AcDbEntity
  8
0
100
AcDbCircle
 10
2436.986487
 20
1818.283546
 30
0.0
 40
28.048501
100
AcDbArc
 50
230.746072
 51
258.356337
  0
ARC
  5
12587
100
AcDbEntity
  8
0
100
AcDbCircle
 10
2416.123792
 20
1799.668762
 30
0.0
 40
3.0
100
AcDbArc
 50
270.0
 51
0.0
  0
ARC
  5
12588
100
AcDbEntity
  8
0
100
AcDbCircle
 10
2451.744327
 20
1776.168762
 30
0.0
 40
23.379464
100
AcDbArc
 50
337.690681
 51
22.309319
  0
LINE
  5
12589
100
AcDbEntity
  8
0
100
AcDbLine
 10
2475.123792
 20
1792.168762
 30
0.0
 11
2475.123792
 21
1776.168762
 31
0.0
  0
ARC
  5
1258A
100
AcDbEntity
  8
0
100
AcDbCircle
 10
2468.622676
 20
1789.481262
 30
0.0
 40
6.501116
100
AcDbArc
 50
316.9548
 51
43.0452
  0
LINE
  5
1258B
100
AcDbEntity
  8
0
100
AcDbLine
 10
2475.123792
 20
1792.168762
 30
0.0
 11
2473.373792
 21
1793.918762
 31
0.0
  0
ARC
  5
1258C
100
AcDbEntity
  8
0
100
AcDbCircle
 10
2455.872676
 20
1789.481262
 30
0.0
 40
6.501116
100
AcDbArc
 50
316.9548
 51
43.0452
  0
ARC
  5
1258D
100
AcDbEntity
  8
0
100
AcDbCircle
 10
2438.994327
 20
1776.168762
 30
0.0
 40
23.379464
100
AcDbArc
 50
337.690681
 51
22.309319
  0
LINE
  5
1258E
100
AcDbEntity
  8
0
100
AcDbLine
 10
2473.373792
 20
1785.043762
 30
0.0
 11
2460.623792
 21
1785.043762
 31
0.0
  0
LINE
  5
1258F
100
AcDbEntity
  8
0
100
AcDbLine
 10
2473.373792
 20
1793.918762
 30
0.0
 11
2460.623792
 21
1793.918762
 31
0.0
  0
LINE
  5
12590
100
AcDbEntity
  8
0
100
AcDbLine
 10
2473.373792
 20
1767.293762
 30
0.0
 11
2460.623792
 21
1767.293762
 31
0.0
  0
LINE
  5
12591
100
AcDbEntity
  8
0
100
AcDbLine
 10
2395.123792
 20
1792.168762
 30
0.0
 11
2395.123792
 21
1776.168762
 31
0.0
  0
ARC
  5
12592
100
AcDbEntity
  8
0
100
AcDbCircle
 10
2418.503256
 20
1776.168762
 30
0.0
 40
23.379464
100
AcDbArc
 50
157.690681
 51
202.309319
  0
ARC
  5
12593
100
AcDbEntity
  8
0
100
AcDbCircle
 10
2401.624908
 20
1789.481262
 30
0.0
 40
6.501116
100
AcDbArc
 50
136.9548
 51
223.0452
  0
LINE
  5
12594
100
AcDbEntity
  8
0
100
AcDbLine
 10
2395.123792
 20
1792.168762
 30
0.0
 11
2396.873792
 21
1793.918762
 31
0.0
  0
ARC
  5
12595
100
AcDbEntity
  8
0
100
AcDbCircle
 10
2412.014241
 20
1757.168762
 30
0.0
 40
1.5
100
AcDbArc
 50
208.61046
 51
270.0
  0
LINE
  5
12596
100
AcDbEntity
  8
0
100
AcDbLine
 10
2409.623792
 20
1758.418762
 30
0.0
 11
2410.697398
 21
1756.450484
 31
0.0
  0
LINE
  5
12597
100
AcDbEntity
  8
0
100
AcDbLine
 10
2396.873792
 20
1758.418762
 30
0.0
 11
2408.436526
 21
1758.418762
 31
0.0
  0
ARC
  5
12598
100
AcDbEntity
  8
0
100
AcDbCircle
 10
2408.436526
 20
1756.418762
 30
0.0
 40
2.0
100
AcDbArc
 50
28.61046
 51
90.0
  0
LINE
  5
12599
100
AcDbEntity
  8
0
100
AcDbLine
 10
2432.155474
 20
1763.168762
 30
0.0
 11
2432.155474
 21
1755.668762
 31
0.0
  0
LINE
  5
1259A
100
AcDbEntity
  8
0
100
AcDbLine
 10
2427.123792
 20
1753.168762
 30
0.0
 11
2430.623792
 21
1746.168762
 31
0.0
  0
LINE
  5
1259B
100
AcDbEntity
  8
0
100
AcDbLine
 10
2427.123792
 20
1755.668762
 30
0.0
 11
2427.123792
 21
1753.168762
 31
0.0
  0
ARC
  5
1259C
100
AcDbEntity
  8
0
100
AcDbCircle
 10
2458.706625
 20
1757.168762
 30
0.0
 40
1.5
100
AcDbArc
 50
270.0
 51
344.054604
  0
LINE
  5
1259D
100
AcDbEntity
  8
0
100
AcDbLine
 10
2460.623792
 20
1758.418762
 30
0.0
 11
2460.148911
 21
1756.756681
 31
0.0
  0
LINE
  5
1259E
100
AcDbEntity
  8
0
100
AcDbLine
 10
2443.123792
 20
1753.168762
 30
0.0
 11
2439.623792
 21
1746.168762
 31
0.0
  0
ARC
  5
1259F
100
AcDbEntity
  8
0
100
AcDbCircle
 10
2446.123792
 20
1753.168762
 30
0.0
 40
3.0
100
AcDbArc
 50
123.55731
 51
180.0
  0
LINE
  5
125A0
100
AcDbEntity
  8
0
100
AcDbLine
 10
2443.123792
 20
1753.168762
 30
0.0
 11
2427.123792
 21
1753.168762
 31
0.0
  0
LINE
  5
125A1
100
AcDbEntity
  8
0
100
AcDbLine
 10
2439.623792
 20
1746.168762
 30
0.0
 11
2430.623792
 21
1746.168762
 31
0.0
  0
LINE
  5
125A2
100
AcDbEntity
  8
0
100
AcDbLine
 10
2458.706625
 20
1755.668762
 30
0.0
 11
2412.014241
 21
1755.668762
 31
0.0
  0
LINE
  5
125A3
100
AcDbEntity
  8
0
100
AcDbLine
 10
2475.123792
 20
1760.168762
 30
0.0
 11
2473.373792
 21
1758.418762
 31
0.0
  0
LINE
  5
125A4
100
AcDbEntity
  8
0
100
AcDbLine
 10
2473.373792
 20
1758.418762
 30
0.0
 11
2460.623792
 21
1758.418762
 31
0.0
  0
LINE
  5
125A5
100
AcDbEntity
  8
0
100
AcDbLine
 10
2395.123792
 20
1760.168762
 30
0.0
 11
2396.873792
 21
1758.418762
 31
0.0
  0
LINE
  5
125A6
100
AcDbEntity
  8
0
100
AcDbLine
 10
2411.123792
 20
1795.377777
 30
0.0
 11
2411.123792
 21
1756.959748
 31
0.0
  0
LINE
  5
125A7
100
AcDbEntity
  8
0
100
AcDbLine
 10
2395.123792
 20
1776.168762
 30
0.0
 11
2395.123792
 21
1760.168762
 31
0.0
  0
ARC
  5
125A8
100
AcDbEntity
  8
0
100
AcDbCircle
 10
2401.624908
 20
1762.856262
 30
0.0
 40
6.501116
100
AcDbArc
 50
136.9548
 51
223.0452
  0
ARC
  5
125A9
100
AcDbEntity
  8
0
100
AcDbCircle
 10
2414.374908
 20
1762.856262
 30
0.0
 40
6.501116
100
AcDbArc
 50
136.9548
 51
223.0452
  0
LINE
  5
125AA
100
AcDbEntity
  8
0
100
AcDbLine
 10
2460.623792
 20
1765.668762
 30
0.0
 11
2460.623792
 21
1758.418762
 31
0.0
  0
ARC
  5
125AB
100
AcDbEntity
  8
0
100
AcDbCircle
 10
2436.155474
 20
1763.168762
 30
0.0
 40
4.0
100
AcDbArc
 50
90.0
 51
180.0
  0
LINE
  5
125AC
100
AcDbEntity
  8
0
100
AcDbLine
 10
2414.623792
 20
1796.668762
 30
0.0
 11
2414.623792
 21
1755.668762
 31
0.0
  0
LINE
  5
125AD
100
AcDbEntity
  8
0
100
AcDbLine
 10
2475.123792
 20
1776.168762
 30
0.0
 11
2475.123792
 21
1760.168762
 31
0.0
  0
ARC
  5
125AE
100
AcDbEntity
  8
0
100
AcDbCircle
 10
2468.622676
 20
1762.856262
 30
0.0
 40
6.501116
100
AcDbArc
 50
316.9548
 51
43.0452
  0
ARC
  5
125AF
100
AcDbEntity
  8
0
100
AcDbCircle
 10
2455.872676
 20
1762.856262
 30
0.0
 40
6.501116
100
AcDbArc
 50
316.9548
 51
43.0452
  0
LINE
  5
125B0
100
AcDbEntity
  8
0
100
AcDbLine
 10
2365.123792
 20
1836.446329
 30
0.0
 11
2161.714452
 21
1836.446329
 31
0.0
  0
LINE
  5
125B1
100
AcDbEntity
  8
0
100
AcDbLine
 10
2310.123792
 20
1945.446329
 30
0.0
 11
2310.123792
 21
1923.446329
 31
0.0
  0
LINE
  5
125B2
100
AcDbEntity
  8
0
100
AcDbLine
 10
2365.123792
 20
1845.446329
 30
0.0
 11
2365.123792
 21
1836.446329
 31
0.0
  0
LINE
  5
125B3
100
AcDbEntity
  8
0
100
AcDbLine
 10
2253.273792
 20
1923.446329
 30
0.0
 11
2253.273792
 21
1845.446329
 31
0.0
  0
LINE
  5
125B4
100
AcDbEntity
  8
0
100
AcDbLine
 10
2475.123792
 20
1851.168762
 30
0.0
 11
2565.122792
 21
1851.168762
 31
0.0
  0
LINE
  5
125B5
100
AcDbEntity
  8
0
100
AcDbLine
 10
2565.122792
 20
1844.671802
 30
0.0
 11
2465.623792
 21
1841.668762
 31
0.0
  0
LINE
  5
125B6
100
AcDbEntity
  8
0
100
AcDbLine
 10
2417.647598
 20
1828.668762
 30
0.0
 11
2452.806792
 21
1828.668762
 31
0.0
  0
ARC
  5
125B7
100
AcDbEntity
  8
0
100
AcDbCircle
 10
2568.695561
 20
1570.816174
 30
0.0
 40
299.607641
100
AcDbArc
 50
111.451748
 51
120.613125
  0
LINE
  5
125B8
100
AcDbEntity
  8
0
100
AcDbLine
 10
2475.123792
 20
1851.168762
 30
0.0
 11
2454.123792
 21
1830.163045
 31
0.0
  0
LINE
  5
125B9
100
AcDbEntity
  8
0
100
AcDbLine
 10
2459.123792
 20
1849.668762
 30
0.0
 11
2473.623792
 21
1849.668762
 31
0.0
  0
LINE
  5
125BA
100
AcDbEntity
  8
0
100
AcDbLine
 10
2565.122792
 20
1851.168762
 30
0.0
 11
2565.122792
 21
1844.671802
 31
0.0
  0
LINE
  5
125BB
100
AcDbEntity
  8
0
100
AcDbLine
 10
3741.554949
 20
1827.168762
 30
0.0
 11
3741.554949
 21
1806.168762
 31
0.0
  0
LINE
  5
125BC
100
AcDbEntity
  8
0
100
AcDbLine
 10
3779.554949
 20
1827.168762
 30
0.0
 11
3779.554949
 21
1806.168762
 31
0.0
  0
LINE
  5
125BD
100
AcDbEntity
  8
0
100
AcDbLine
 10
3963.754949
 20
1605.446329
 30
0.0
 11
3963.754949
 21
1836.446329
 31
0.0
  0
LINE
  5
125BE
100
AcDbEntity
  8
0
100
AcDbLine
 10
3557.354949
 20
1836.446329
 30
0.0
 11
3557.354949
 21
1789.996329
 31
0.0
  0
LINE
  5
125BF
100
AcDbEntity
  8
0
100
AcDbLine
 10
3460.554949
 20
1745.446329
 30
0.0
 11
3460.554949
 21
1837.946329
 31
0.0
  0
LINE
  5
125C0
100
AcDbEntity
  8
0
100
AcDbLine
 10
3478.554949
 20
1652.946329
 30
0.0
 11
3478.554949
 21
1837.946329
 31
0.0
  0
LINE
  5
125C1
100
AcDbEntity
  8
0
100
AcDbLine
 10
3557.354949
 20
1789.996329
 30
0.0
 11
3478.554949
 21
1789.996329
 31
0.0
  0
LINE
  5
125C2
100
AcDbEntity
  8
0
100
AcDbLine
 10
3478.554949
 20
1700.896329
 30
0.0
 11
3557.354949
 21
1700.896329
 31
0.0
  0
LINE
  5
125C3
100
AcDbEntity
  8
0
100
AcDbLine
 10
3460.554949
 20
1745.446329
 30
0.0
 11
3460.554949
 21
1652.946329
 31
0.0
  0
LINE
  5
125C4
100
AcDbEntity
  8
0
100
AcDbLine
 10
3460.554949
 20
1652.946329
 30
0.0
 11
3478.554949
 21
1652.946329
 31
0.0
  0
LINE
  5
125C5
100
AcDbEntity
  8
0
100
AcDbLine
 10
3478.554949
 20
1789.996329
 30
0.0
 11
3478.554949
 21
1700.896329
 31
0.0
  0
ARC
  5
125C6
100
AcDbEntity
  8
0
100
AcDbCircle
 10
3359.354949
 20
1745.446329
 30
0.0
 40
202.95
100
AcDbArc
 50
347.319617
 51
12.680383
  0
LINE
  5
125C7
100
AcDbEntity
  8
0
100
AcDbLine
 10
3760.554949
 20
1794.643971
 30
0.0
 11
3776.554949
 21
1785.406367
 31
0.0
  0
LINE
  5
125C8
100
AcDbEntity
  8
0
100
AcDbLine
 10
3741.554949
 20
1806.168762
 30
0.0
 11
3779.554949
 21
1806.168762
 31
0.0
  0
CIRCLE
  5
125C9
100
AcDbEntity
  8
0
100
AcDbCircle
 10
3760.554949
 20
1776.168762
 30
0.0
 40
10.0
  0
ARC
  5
125CA
100
AcDbEntity
  8
0
100
AcDbCircle
 10
3760.554949
 20
1776.168762
 30
0.0
 40
20.5
100
AcDbArc
 50
29.267578
 51
150.732422
  0
LINE
  5
125CB
100
AcDbEntity
  8
0
100
AcDbLine
 10
3744.554949
 20
1785.406367
 30
0.0
 11
3744.554949
 21
1766.931158
 31
0.0
  0
LINE
  5
125CC
100
AcDbEntity
  8
0
100
AcDbLine
 10
3739.388939
 20
1785.168762
 30
0.0
 11
3740.927163
 21
1785.168762
 31
0.0
  0
ARC
  5
125CD
100
AcDbEntity
  8
0
100
AcDbCircle
 10
3740.927163
 20
1787.168762
 30
0.0
 40
2.0
100
AcDbArc
 50
270.0
 51
330.732422
  0
LINE
  5
125CE
100
AcDbEntity
  8
0
100
AcDbLine
 10
3739.388939
 20
1767.168762
 30
0.0
 11
3740.927163
 21
1767.168762
 31
0.0
  0
ARC
  5
125CF
100
AcDbEntity
  8
0
100
AcDbCircle
 10
3740.927163
 20
1765.168762
 30
0.0
 40
2.0
100
AcDbArc
 50
29.267578
 51
90.0
  0
LINE
  5
125D0
100
AcDbEntity
  8
0
100
AcDbLine
 10
3743.554949
 20
1806.168762
 30
0.0
 11
3743.554949
 21
1787.625202
 31
0.0
  0
LINE
  5
125D1
100
AcDbEntity
  8
0
100
AcDbLine
 10
3744.554949
 20
1785.406367
 30
0.0
 11
3760.554949
 21
1794.643971
 31
0.0
  0
LINE
  5
125D2
100
AcDbEntity
  8
0
100
AcDbLine
 10
3776.554949
 20
1785.406367
 30
0.0
 11
3776.554949
 21
1766.931158
 31
0.0
  0
LINE
  5
125D3
100
AcDbEntity
  8
0
100
AcDbLine
 10
3780.182735
 20
1767.168762
 30
0.0
 11
3781.72096
 21
1767.168762
 31
0.0
  0
ARC
  5
125D4
100
AcDbEntity
  8
0
100
AcDbCircle
 10
3780.182735
 20
1765.168762
 30
0.0
 40
2.0
100
AcDbArc
 50
90.0
 51
150.732422
  0
LINE
  5
125D5
100
AcDbEntity
  8
0
100
AcDbLine
 10
3780.182735
 20
1785.168762
 30
0.0
 11
3781.72096
 21
1785.168762
 31
0.0
  0
ARC
  5
125D6
100
AcDbEntity
  8
0
100
AcDbCircle
 10
3780.182735
 20
1787.168762
 30
0.0
 40
2.0
100
AcDbArc
 50
209.267578
 51
270.0
  0
LINE
  5
125D7
100
AcDbEntity
  8
0
100
AcDbLine
 10
3777.554949
 20
1806.168762
 30
0.0
 11
3777.554949
 21
1787.625202
 31
0.0
  0
LINE
  5
125D8
100
AcDbEntity
  8
0
100
AcDbLine
 10
3765.054949
 20
1746.168762
 30
0.0
 11
3768.554949
 21
1753.168762
 31
0.0
  0
LINE
  5
125D9
100
AcDbEntity
  8
0
100
AcDbLine
 10
3752.554949
 20
1753.168762
 30
0.0
 11
3768.554949
 21
1753.168762
 31
0.0
  0
LINE
  5
125DA
100
AcDbEntity
  8
0
100
AcDbLine
 10
3756.054949
 20
1746.168762
 30
0.0
 11
3752.554949
 21
1753.168762
 31
0.0
  0
LINE
  5
125DB
100
AcDbEntity
  8
0
100
AcDbLine
 10
3752.554949
 20
1757.294176
 30
0.0
 11
3752.554949
 21
1753.168762
 31
0.0
  0
LINE
  5
125DC
100
AcDbEntity
  8
0
100
AcDbLine
 10
3756.054949
 20
1746.168762
 30
0.0
 11
3765.054949
 21
1746.168762
 31
0.0
  0
LINE
  5
125DD
100
AcDbEntity
  8
0
100
AcDbLine
 10
3768.554949
 20
1757.294176
 30
0.0
 11
3768.554949
 21
1753.168762
 31
0.0
  0
LINE
  5
125DE
100
AcDbEntity
  8
0
100
AcDbLine
 10
3760.554949
 20
1757.693554
 30
0.0
 11
3776.554949
 21
1766.931158
 31
0.0
  0
CIRCLE
  5
125DF
100
AcDbEntity
  8
0
100
AcDbCircle
 10
3760.554949
 20
1776.168762
 30
0.0
 40
16.0
  0
ARC
  5
125E0
100
AcDbEntity
  8
0
100
AcDbCircle
 10
3760.554949
 20
1776.168762
 30
0.0
 40
20.5
100
AcDbArc
 50
209.267578
 51
330.732422
  0
ARC
  5
125E1
100
AcDbEntity
  8
0
100
AcDbCircle
 10
3760.554949
 20
1776.168762
 30
0.0
 40
23.0
100
AcDbArc
 50
137.657395
 51
249.645594
  0
LINE
  5
125E2
100
AcDbEntity
  8
0
100
AcDbLine
 10
3744.554949
 20
1766.931158
 30
0.0
 11
3760.554949
 21
1757.693554
 31
0.0
  0
ARC
  5
125E3
100
AcDbEntity
  8
0
100
AcDbCircle
 10
3760.554949
 20
1776.168762
 30
0.0
 40
23.0
100
AcDbArc
 50
290.354406
 51
42.342605
  0
LINE
  5
125E4
100
AcDbEntity
  8
0
100
AcDbLine
 10
4010.554949
 20
1605.446329
 30
0.0
 11
3951.554949
 21
1605.446329
 31
0.0
  0
LINE
  5
125E5
100
AcDbEntity
  8
0
100
AcDbLine
 10
3951.554949
 20
1545.446329
 30
0.0
 11
4010.554949
 21
1545.446329
 31
0.0
  0
LINE
  5
125E6
100
AcDbEntity
  8
0
100
AcDbLine
 10
3951.554949
 20
1605.446329
 30
0.0
 11
3951.554949
 21
1545.446329
 31
0.0
  0
LINE
  5
125E7
100
AcDbEntity
  8
0
100
AcDbLine
 10
4010.554949
 20
1545.446329
 30
0.0
 11
4010.554949
 21
1605.446329
 31
0.0
  0
LINE
  5
125E8
100
AcDbEntity
  8
0
100
AcDbLine
 10
3769.919913
 20
1845.446329
 30
0.0
 11
3868.704949
 21
1845.446329
 31
0.0
  0
LINE
  5
125E9
100
AcDbEntity
  8
0
100
AcDbLine
 10
3980.554949
 20
1845.446329
 30
0.0
 11
3769.919913
 21
1845.446329
 31
0.0
  0
LINE
  5
125EA
100
AcDbEntity
  8
0
100
AcDbLine
 10
3767.282079
 20
1836.446329
 30
0.0
 11
3980.554949
 21
1836.446329
 31
0.0
  0
LINE
  5
125EB
100
AcDbEntity
  8
0
100
AcDbLine
 10
3925.554949
 20
1945.446329
 30
0.0
 11
3595.554949
 21
1945.446329
 31
0.0
  0
LINE
  5
125EC
100
AcDbEntity
  8
0
100
AcDbLine
 10
3595.554949
 20
1923.446329
 30
0.0
 11
3925.554949
 21
1923.446329
 31
0.0
  0
INSERT
  5
125ED
100
AcDbEntity
  8
0
100
AcDbBlockReference
  2
YA
 10
3760.554949
 20
2219.400649
 30
0.0
 41
10.710078
 42
10.710078
 43
10.710078
 50
90.0
  0
LINE
  5
125EE
100
AcDbEntity
  8
0
100
AcDbLine
 10
3478.554949
 20
1837.946329
 30
0.0
 11
3460.554949
 21
1837.946329
 31
0.0
  0
LINE
  5
125EF
100
AcDbEntity
  8
0
100
AcDbLine
 10
3652.404949
 20
1845.446329
 30
0.0
 11
3751.189985
 21
1845.446329
 31
0.0
  0
LINE
  5
125F0
100
AcDbEntity
  8
0
100
AcDbLine
 10
3751.189985
 20
1845.446329
 30
0.0
 11
3540.554949
 21
1845.446329
 31
0.0
  0
LINE
  5
125F1
100
AcDbEntity
  8
0
100
AcDbLine
 10
3540.554949
 20
1836.446329
 30
0.0
 11
3753.827819
 21
1836.446329
 31
0.0
  0
LINE
  5
125F2
100
AcDbEntity
  8
0
100
AcDbLine
 10
3595.554949
 20
1945.446329
 30
0.0
 11
3595.554949
 21
1923.446329
 31
0.0
  0
LINE
  5
125F3
100
AcDbEntity
  8
0
100
AcDbLine
 10
3540.554949
 20
1845.446329
 30
0.0
 11
3540.554949
 21
1836.446329
 31
0.0
  0
LINE
  5
125F4
100
AcDbEntity
  8
0
100
AcDbLine
 10
3652.404949
 20
1923.446329
 30
0.0
 11
3652.404949
 21
1845.446329
 31
0.0
  0
LINE
  5
125F5
100
AcDbEntity
  8
0
100
AcDbLine
 10
3767.554949
 20
1827.168762
 30
0.0
 11
3767.054949
 21
1844.168762
 31
0.0
  0
LINE
  5
125F6
100
AcDbEntity
  8
0
100
AcDbLine
 10
3753.554949
 20
1827.168762
 30
0.0
 11
3754.054949
 21
1844.168762
 31
0.0
  0
LINE
  5
125F7
100
AcDbEntity
  8
0
100
AcDbLine
 10
3741.554949
 20
1827.168762
 30
0.0
 11
3779.554949
 21
1827.168762
 31
0.0
  0
LINE
  5
125F8
100
AcDbEntity
  8
0
100
AcDbLine
 10
3753.054949
 20
1844.168762
 30
0.0
 11
3768.054949
 21
1844.168762
 31
0.0
  0
LINE
  5
125F9
100
AcDbEntity
  8
0
100
AcDbLine
 10
3753.054949
 20
1850.668762
 30
0.0
 11
3768.054949
 21
1850.668762
 31
0.0
  0
ARC
  5
125FA
100
AcDbEntity
  8
0
100
AcDbCircle
 10
3753.054949
 20
1846.168762
 30
0.0
 40
2.0
100
AcDbArc
 50
180.0
 51
270.0
  0
LINE
  5
125FB
100
AcDbEntity
  8
0
100
AcDbLine
 10
3751.054949
 20
1848.668762
 30
0.0
 11
3751.054949
 21
1846.168762
 31
0.0
  0
ARC
  5
125FC
100
AcDbEntity
  8
0
100
AcDbCircle
 10
3753.054949
 20
1848.668762
 30
0.0
 40
2.0
100
AcDbArc
 50
90.0
 51
180.0
  0
ARC
  5
125FD
100
AcDbEntity
  8
0
100
AcDbCircle
 10
3768.054949
 20
1848.668762
 30
0.0
 40
2.0
100
AcDbArc
 50
0.0
 51
90.0
  0
LINE
  5
125FE
100
AcDbEntity
  8
0
100
AcDbLine
 10
3770.054949
 20
1848.668762
 30
0.0
 11
3770.054949
 21
1846.168762
 31
0.0
  0
ARC
  5
125FF
100
AcDbEntity
  8
0
100
AcDbCircle
 10
3768.054949
 20
1846.168762
 30
0.0
 40
2.0
100
AcDbArc
 50
270.0
 51
0.0
  0
LINE
  5
12600
100
AcDbEntity
  8
0
100
AcDbLine
 10
3925.554949
 20
1923.446329
 30
0.0
 11
3925.554949
 21
1945.446329
 31
0.0
  0
LINE
  5
12601
100
AcDbEntity
  8
0
100
AcDbLine
 10
3868.704949
 20
1845.446329
 30
0.0
 11
3868.704949
 21
1923.446329
 31
0.0
  0
LINE
  5
12602
100
AcDbEntity
  8
0
100
AcDbLine
 10
3980.554949
 20
1836.446329
 30
0.0
 11
3980.554949
 21
1845.446329
 31
0.0
  0
INSERT
  5
12603
100
AcDbEntity
  8
0
100
AcDbBlockReference
  2
YA
 10
3329.465058
 20
2882.782884
 30
0.0
 41
10.710078
 42
10.710078
 43
10.710078
  0
ARC
  5
12604
100
AcDbEntity
  8
0
100
AcDbCircle
 10
3760.5551
 20
2590.245717
 30
0.0
 40
19.000259
100
AcDbArc
 50
90.000455
 51
248.381548
  0
LINE
  5
12605
100
AcDbEntity
  8
0
100
AcDbLine
 10
3740.054949
 20
2567.326976
 30
0.0
 11
3740.054949
 21
2597.745976
 31
0.0
  0
LINE
  5
12606
100
AcDbEntity
  8
0
100
AcDbLine
 10
3737.554949
 20
2614.244816
 30
0.0
 11
3737.554949
 21
2567.457976
 31
0.0
  0
ARC
  5
12607
100
AcDbEntity
  8
0
100
AcDbCircle
 10
3760.554798
 20
2590.245717
 30
0.0
 40
19.000259
100
AcDbArc
 50
291.618452
 51
89.999545
  0
LINE
  5
12608
100
AcDbEntity
  8
0
100
AcDbLine
 10
3767.554949
 20
2607.908976
 30
0.0
 11
3767.554949
 21
2566.245976
 31
0.0
  0
LINE
  5
12609
100
AcDbEntity
  8
0
100
AcDbLine
 10
3753.554949
 20
2566.245976
 30
0.0
 11
3753.554949
 21
2607.908976
 31
0.0
  0
LINE
  5
1260A
100
AcDbEntity
  8
0
100
AcDbLine
 10
3781.054949
 20
2567.326976
 30
0.0
 11
3781.054949
 21
2597.745976
 31
0.0
  0
LINE
  5
1260B
100
AcDbEntity
  8
0
100
AcDbLine
 10
3783.554949
 20
2567.457976
 30
0.0
 11
3783.554949
 21
2614.244816
 31
0.0
  0
LINE
  5
1260C
100
AcDbEntity
  8
0
100
AcDbLine
 10
3744.554949
 20
2550.244976
 30
0.0
 11
3753.174949
 21
2550.244976
 31
0.0
  0
ARC
  5
1260D
100
AcDbEntity
  8
0
100
AcDbCircle
 10
3752.554949
 20
2564.404047
 30
0.0
 40
14.162071
100
AcDbArc
 50
235.605407
 51
272.510167
  0
ARC
  5
1260E
100
AcDbEntity
  8
0
100
AcDbCircle
 10
3752.554949
 20
2574.988047
 30
0.0
 40
14.162071
100
AcDbArc
 50
235.605407
 51
273.529781
  0
LINE
  5
1260F
100
AcDbEntity
  8
0
100
AcDbLine
 10
3753.554949
 20
2566.245976
 30
0.0
 11
3741.554949
 21
2566.245976
 31
0.0
  0
LINE
  5
12610
100
AcDbEntity
  8
0
100
AcDbLine
 10
3744.554949
 20
2563.303976
 30
0.0
 11
3744.554949
 21
2550.244976
 31
0.0
  0
LINE
  5
12611
100
AcDbEntity
  8
0
100
AcDbLine
 10
3744.554949
 20
2563.301976
 30
0.0
 11
3737.554949
 21
2567.457976
 31
0.0
  0
LINE
  5
12612
100
AcDbEntity
  8
0
100
AcDbLine
 10
3744.554949
 20
2563.303976
 30
0.0
 11
3740.054949
 21
2567.326976
 31
0.0
  0
LINE
  5
12613
100
AcDbEntity
  8
0
100
AcDbLine
 10
3776.554949
 20
2563.129976
 30
0.0
 11
3781.054949
 21
2567.326976
 31
0.0
  0
LINE
  5
12614
100
AcDbEntity
  8
0
100
AcDbLine
 10
3776.554949
 20
2563.129976
 30
0.0
 11
3783.554949
 21
2567.457976
 31
0.0
  0
LINE
  5
12615
100
AcDbEntity
  8
0
100
AcDbLine
 10
3776.554949
 20
2550.244976
 30
0.0
 11
3776.554949
 21
2563.129976
 31
0.0
  0
LINE
  5
12616
100
AcDbEntity
  8
0
100
AcDbLine
 10
3767.554949
 20
2566.245976
 30
0.0
 11
3767.934949
 21
2550.244976
 31
0.0
  0
LINE
  5
12617
100
AcDbEntity
  8
0
100
AcDbLine
 10
3760.554949
 20
2550.245976
 30
0.0
 11
3765.884949
 21
2550.245976
 31
0.0
  0
LINE
  5
12618
100
AcDbEntity
  8
0
100
AcDbLine
 10
3753.174949
 20
2550.244976
 30
0.0
 11
3753.554949
 21
2566.245976
 31
0.0
  0
LINE
  5
12619
100
AcDbEntity
  8
0
100
AcDbLine
 10
3752.554949
 20
2550.244976
 30
0.0
 11
3753.174949
 21
2550.245976
 31
0.0
  0
ARC
  5
1261A
100
AcDbEntity
  8
0
100
AcDbCircle
 10
3755.229525
 20
2553.717422
 30
0.0
 40
1.971764
100
AcDbArc
 50
177.804005
 51
271.029413
  0
ARC
  5
1261B
100
AcDbEntity
  8
0
100
AcDbCircle
 10
3755.189525
 20
2552.217422
 30
0.0
 40
1.971764
100
AcDbArc
 50
177.804005
 51
271.029413
  0
LINE
  5
1261C
100
AcDbEntity
  8
0
100
AcDbLine
 10
3755.224949
 20
2550.245976
 30
0.0
 11
3760.554949
 21
2550.245976
 31
0.0
  0
LINE
  5
1261D
100
AcDbEntity
  8
0
100
AcDbLine
 10
3754.834949
 20
2566.245976
 30
0.0
 11
3766.334949
 21
2566.245976
 31
0.0
  0
LINE
  5
1261E
100
AcDbEntity
  8
0
100
AcDbLine
 10
3755.264949
 20
2551.745976
 30
0.0
 11
3765.844949
 21
2551.745976
 31
0.0
  0
ARC
  5
1261F
100
AcDbEntity
  8
0
100
AcDbCircle
 10
3765.880373
 20
2552.217422
 30
0.0
 40
1.971764
100
AcDbArc
 50
268.970587
 51
2.195995
  0
ARC
  5
12620
100
AcDbEntity
  8
0
100
AcDbCircle
 10
3765.880373
 20
2553.717422
 30
0.0
 40
1.971764
100
AcDbArc
 50
268.970587
 51
2.195995
  0
LINE
  5
12621
100
AcDbEntity
  8
0
100
AcDbLine
 10
3778.524949
 20
2566.245976
 30
0.0
 11
3767.554949
 21
2566.245976
 31
0.0
  0
LINE
  5
12622
100
AcDbEntity
  8
0
100
AcDbLine
 10
3767.934949
 20
2550.244976
 30
0.0
 11
3776.554949
 21
2550.244976
 31
0.0
  0
ARC
  5
12623
100
AcDbEntity
  8
0
100
AcDbCircle
 10
3768.554949
 20
2564.404047
 30
0.0
 40
14.162071
100
AcDbArc
 50
267.489833
 51
304.394593
  0
ARC
  5
12624
100
AcDbEntity
  8
0
100
AcDbCircle
 10
3768.554949
 20
2574.988047
 30
0.0
 40
14.162071
100
AcDbArc
 50
266.470219
 51
309.044087
  0
ARC
  5
12625
100
AcDbEntity
  8
0
100
AcDbCircle
 10
3757.200231
 20
2466.434533
 30
0.0
 40
5.996998
100
AcDbArc
 50
178.629402
 51
263.342246
  0
ARC
  5
12626
100
AcDbEntity
  8
0
100
AcDbCircle
 10
3760.554949
 20
2495.279756
 30
0.0
 40
35.036643
100
AcDbArc
 50
263.362155
 51
276.637845
  0
ARC
  5
12627
100
AcDbEntity
  8
0
100
AcDbCircle
 10
3763.909421
 20
2466.434746
 30
0.0
 40
5.997238
100
AcDbArc
 50
276.659846
 51
1.368505
  0
LINE
  5
12628
100
AcDbEntity
  8
0
100
AcDbLine
 10
3769.904949
 20
2466.577976
 30
0.0
 11
3767.934949
 21
2550.244976
 31
0.0
  0
LINE
  5
12629
100
AcDbEntity
  8
0
100
AcDbLine
 10
3753.174949
 20
2550.244976
 30
0.0
 11
3751.204949
 21
2466.577976
 31
0.0
  0
CIRCLE
  5
1262A
100
AcDbEntity
  8
0
100
AcDbCircle
 10
3760.554949
 20
2880.245976
 30
0.0
 40
104.15
  0
CIRCLE
  5
1262B
100
AcDbEntity
  8
0
100
AcDbCircle
 10
3760.554949
 20
2880.245976
 30
0.0
 40
108.15
  0
CIRCLE
  5
1262C
100
AcDbEntity
  8
0
100
AcDbCircle
 10
3760.554949
 20
2880.245976
 30
0.0
 40
220.0
  0
CIRCLE
  5
1262D
100
AcDbEntity
  8
0
100
AcDbCircle
 10
3760.554949
 20
2880.245976
 30
0.0
 40
165.0
  0
CIRCLE
  5
1262E
100
AcDbEntity
  8
0
100
AcDbCircle
 10
3760.554949
 20
2880.245976
 30
0.0
 40
26.45
  0
CIRCLE
  5
1262F
100
AcDbEntity
  8
0
100
AcDbCircle
 10
3760.554949
 20
2880.245976
 30
0.0
 40
30.25
  0
LINE
  5
12630
100
AcDbEntity
  8
0
100
AcDbLine
 10
3478.554949
 20
2835.695976
 30
0.0
 11
3478.554949
 21
2924.792976
 31
0.0
  0
LINE
  5
12631
100
AcDbEntity
  8
0
100
AcDbLine
 10
3460.554949
 20
2787.745976
 30
0.0
 11
3460.554949
 21
2880.244476
 31
0.0
  0
LINE
  5
12632
100
AcDbEntity
  8
0
100
AcDbLine
 10
3478.554949
 20
2972.742976
 30
0.0
 11
3478.554949
 21
2787.745976
 31
0.0
  0
LINE
  5
12633
100
AcDbEntity
  8
0
100
AcDbLine
 10
3545.114949
 20
2835.695976
 30
0.0
 11
3478.554949
 21
2835.695976
 31
0.0
  0
LINE
  5
12634
100
AcDbEntity
  8
0
100
AcDbLine
 10
3478.554949
 20
2787.745976
 30
0.0
 11
3460.554949
 21
2787.745976
 31
0.0
  0
LINE
  5
12635
100
AcDbEntity
  8
0
100
AcDbLine
 10
3675.974949
 20
2677.153976
 30
0.0
 11
3637.314949
 21
2666.794976
 31
0.0
  0
LINE
  5
12636
100
AcDbEntity
  8
0
100
AcDbLine
 10
3701.234949
 20
2668.392976
 30
0.0
 11
3626.714949
 21
2648.423976
 31
0.0
  0
LINE
  5
12637
100
AcDbEntity
  8
0
100
AcDbLine
 10
3637.314949
 20
2666.794976
 30
0.0
 11
3626.964949
 21
2705.452976
 31
0.0
  0
LINE
  5
12638
100
AcDbEntity
  8
0
100
AcDbLine
 10
3626.714949
 20
2648.423976
 30
0.0
 11
3606.744949
 21
2722.949976
 31
0.0
  0
ARC
  5
12639
100
AcDbEntity
  8
0
100
AcDbCircle
 10
3752.554949
 20
2616.083905
 30
0.0
 40
14.162071
100
AcDbArc
 50
55.605407
 51
124.394593
  0
ARC
  5
1263A
100
AcDbEntity
  8
0
100
AcDbCircle
 10
3752.554949
 20
2605.503905
 30
0.0
 40
14.162071
100
AcDbArc
 50
55.605407
 51
124.394593
  0
LINE
  5
1263B
100
AcDbEntity
  8
0
100
AcDbLine
 10
3776.554949
 20
2630.245976
 30
0.0
 11
3744.554949
 21
2630.245976
 31
0.0
  0
LINE
  5
1263C
100
AcDbEntity
  8
0
100
AcDbLine
 10
3779.764949
 20
2614.245976
 30
0.0
 11
3741.354949
 21
2614.245976
 31
0.0
  0
LINE
  5
1263D
100
AcDbEntity
  8
0
100
AcDbLine
 10
3783.554949
 20
2610.745976
 30
0.0
 11
3737.554949
 21
2610.745976
 31
0.0
  0
LINE
  5
1263E
100
AcDbEntity
  8
0
100
AcDbLine
 10
3744.554949
 20
2630.245976
 30
0.0
 11
3744.554949
 21
2615.745761
 31
0.0
  0
LINE
  5
1263F
100
AcDbEntity
  8
0
100
AcDbLine
 10
3744.554949
 20
2615.745761
 30
0.0
 11
3737.554949
 21
2614.244816
 31
0.0
  0
LINE
  5
12640
100
AcDbEntity
  8
0
100
AcDbLine
 10
3740.054949
 20
2597.745976
 30
0.0
 11
3743.094949
 21
2597.745976
 31
0.0
  0
LINE
  5
12641
100
AcDbEntity
  8
0
100
AcDbLine
 10
3774.154949
 20
2660.666976
 30
0.0
 11
3774.154949
 21
2630.245976
 31
0.0
  0
LINE
  5
12642
100
AcDbEntity
  8
0
100
AcDbLine
 10
3746.954949
 20
2630.245976
 30
0.0
 11
3746.954949
 21
2660.666976
 31
0.0
  0
LINE
  5
12643
100
AcDbEntity
  8
0
100
AcDbLine
 10
3783.554949
 20
2614.244816
 30
0.0
 11
3776.554949
 21
2615.745761
 31
0.0
  0
LINE
  5
12644
100
AcDbEntity
  8
0
100
AcDbLine
 10
3781.054949
 20
2597.745976
 30
0.0
 11
3778.014949
 21
2597.745976
 31
0.0
  0
LINE
  5
12645
100
AcDbEntity
  8
0
100
AcDbLine
 10
3776.554949
 20
2615.745761
 30
0.0
 11
3776.554949
 21
2630.245976
 31
0.0
  0
LINE
  5
12646
100
AcDbEntity
  8
0
100
AcDbLine
 10
3760.554949
 20
2627.769976
 30
0.0
 11
3760.554949
 21
2617.189976
 31
0.0
  0
ARC
  5
12647
100
AcDbEntity
  8
0
100
AcDbCircle
 10
3768.554949
 20
2605.503905
 30
0.0
 40
14.162071
100
AcDbArc
 50
55.605407
 51
124.394593
  0
ARC
  5
12648
100
AcDbEntity
  8
0
100
AcDbCircle
 10
3768.554949
 20
2616.083905
 30
0.0
 40
14.162071
100
AcDbArc
 50
55.605407
 51
124.394593
  0
CIRCLE
  5
12649
100
AcDbEntity
  8
0
100
AcDbCircle
 10
3760.554949
 20
2590.245976
 30
0.0
 40
4.75021
  0
CIRCLE
  5
1264A
100
AcDbEntity
  8
0
100
AcDbCircle
 10
3658.024949
 20
2777.714976
 30
0.0
 40
11.5
  0
CIRCLE
  5
1264B
100
AcDbEntity
  8
0
100
AcDbCircle
 10
3620.494949
 20
2842.716976
 30
0.0
 40
11.5
  0
CIRCLE
  5
1264C
100
AcDbEntity
  8
0
100
AcDbCircle
 10
3723.024949
 20
2740.186976
 30
0.0
 40
11.5
  0
CIRCLE
  5
1264D
100
AcDbEntity
  8
0
100
AcDbCircle
 10
3798.084949
 20
2740.186976
 30
0.0
 40
11.5
  0
LINE
  5
1264E
100
AcDbEntity
  8
0
100
AcDbLine
 10
3478.554949
 20
2924.792976
 30
0.0
 11
3545.114949
 21
2924.792976
 31
0.0
  0
LINE
  5
1264F
100
AcDbEntity
  8
0
100
AcDbLine
 10
3460.554949
 20
2972.742976
 30
0.0
 11
3478.554949
 21
2972.742976
 31
0.0
  0
LINE
  5
12650
100
AcDbEntity
  8
0
100
AcDbLine
 10
3460.554949
 20
2880.244476
 30
0.0
 11
3460.554949
 21
2972.742976
 31
0.0
  0
CIRCLE
  5
12651
100
AcDbEntity
  8
0
100
AcDbCircle
 10
3723.024949
 20
3020.302976
 30
0.0
 40
11.5
  0
CIRCLE
  5
12652
100
AcDbEntity
  8
0
100
AcDbCircle
 10
3798.084949
 20
3020.302976
 30
0.0
 40
11.5
  0
CIRCLE
  5
12653
100
AcDbEntity
  8
0
100
AcDbCircle
 10
3658.024949
 20
2982.772976
 30
0.0
 40
11.5
  0
CIRCLE
  5
12654
100
AcDbEntity
  8
0
100
AcDbCircle
 10
3620.494949
 20
2917.772976
 30
0.0
 40
11.5
  0
LINE
  5
12655
100
AcDbEntity
  8
0
100
AcDbLine
 10
3637.314949
 20
3093.692976
 30
0.0
 11
3675.974949
 21
3083.342976
 31
0.0
  0
LINE
  5
12656
100
AcDbEntity
  8
0
100
AcDbLine
 10
3626.714949
 20
3112.062976
 30
0.0
 11
3701.234949
 21
3092.102976
 31
0.0
  0
LINE
  5
12657
100
AcDbEntity
  8
0
100
AcDbLine
 10
3626.964949
 20
3055.042976
 30
0.0
 11
3637.314949
 21
3093.692976
 31
0.0
  0
LINE
  5
12658
100
AcDbEntity
  8
0
100
AcDbLine
 10
3606.744949
 20
3037.542976
 30
0.0
 11
3626.714949
 21
3112.062976
 31
0.0
  0
LINE
  5
12659
100
AcDbEntity
  8
0
100
AcDbLine
 10
4028.234949
 20
2880.245976
 30
0.0
 11
4010.554949
 21
2862.560976
 31
0.0
  0
LINE
  5
1265A
100
AcDbEntity
  8
0
100
AcDbLine
 10
4007.024949
 20
2880.245976
 30
0.0
 11
3978.724949
 21
2851.946976
 31
0.0
  0
LINE
  5
1265B
100
AcDbEntity
  8
0
100
AcDbLine
 10
4010.554949
 20
2944.742976
 30
0.0
 11
4010.554949
 21
2815.745976
 31
0.0
  0
LINE
  5
1265C
100
AcDbEntity
  8
0
100
AcDbLine
 10
4007.554949
 20
2815.745976
 30
0.0
 11
4007.554949
 21
2944.742976
 31
0.0
  0
CIRCLE
  5
1265D
100
AcDbEntity
  8
0
100
AcDbCircle
 10
3900.614949
 20
2842.716976
 30
0.0
 40
11.5
  0
CIRCLE
  5
1265E
100
AcDbEntity
  8
0
100
AcDbCircle
 10
3863.084949
 20
2777.714976
 30
0.0
 40
11.5
  0
ARC
  5
1265F
100
AcDbEntity
  8
0
100
AcDbCircle
 10
4002.52506
 20
2815.775865
 30
0.0
 40
5.029978
100
AcDbArc
 50
270.340465
 51
359.659535
  0
ARC
  5
12660
100
AcDbEntity
  8
0
100
AcDbCircle
 10
4002.493414
 20
2815.807512
 30
0.0
 40
8.06177
100
AcDbArc
 50
270.437343
 51
359.562657
  0
LINE
  5
12661
100
AcDbEntity
  8
0
100
AcDbLine
 10
4007.554949
 20
2859.560976
 30
0.0
 11
3973.684949
 21
2825.688976
 31
0.0
  0
LINE
  5
12662
100
AcDbEntity
  8
0
100
AcDbLine
 10
3969.284949
 20
2810.745976
 30
0.0
 11
4002.554949
 21
2810.745976
 31
0.0
  0
LINE
  5
12663
100
AcDbEntity
  8
0
100
AcDbLine
 10
4002.554949
 20
2807.745976
 30
0.0
 11
3968.264949
 21
2807.745976
 31
0.0
  0
CIRCLE
  5
12664
100
AcDbEntity
  8
0
100
AcDbCircle
 10
3863.084949
 20
2982.772976
 30
0.0
 40
11.5
  0
CIRCLE
  5
12665
100
AcDbEntity
  8
0
100
AcDbCircle
 10
3900.614949
 20
2917.772976
 30
0.0
 40
11.5
  0
LINE
  5
12666
100
AcDbEntity
  8
0
100
AcDbLine
 10
4010.554949
 20
2897.932976
 30
0.0
 11
4028.234949
 21
2880.245976
 31
0.0
  0
LINE
  5
12667
100
AcDbEntity
  8
0
100
AcDbLine
 10
3978.724949
 20
2908.542976
 30
0.0
 11
4007.024949
 21
2880.245976
 31
0.0
  0
ARC
  5
12668
100
AcDbEntity
  8
0
100
AcDbCircle
 10
4002.52506
 20
2944.713087
 30
0.0
 40
5.029978
100
AcDbArc
 50
0.340465
 51
89.659535
  0
ARC
  5
12669
100
AcDbEntity
  8
0
100
AcDbCircle
 10
4002.493414
 20
2944.681441
 30
0.0
 40
8.06177
100
AcDbArc
 50
0.437343
 51
89.562657
  0
LINE
  5
1266A
100
AcDbEntity
  8
0
100
AcDbLine
 10
3973.684949
 20
2934.802976
 30
0.0
 11
4007.554949
 21
2900.932976
 31
0.0
  0
LINE
  5
1266B
100
AcDbEntity
  8
0
100
AcDbLine
 10
3968.264949
 20
2952.742976
 30
0.0
 11
4002.554949
 21
2952.742976
 31
0.0
  0
LINE
  5
1266C
100
AcDbEntity
  8
0
100
AcDbLine
 10
4002.554949
 20
2949.742976
 30
0.0
 11
3969.284949
 21
2949.742976
 31
0.0
  0
LINE
  5
1266D
100
AcDbEntity
  8
0
100
AcDbLine
 10
5210.986106
 20
1923.446329
 30
0.0
 11
5540.986106
 21
1923.446329
 31
0.0
  0
LINE
  5
1266E
100
AcDbEntity
  8
0
100
AcDbLine
 10
5540.986106
 20
1945.446329
 30
0.0
 11
5210.986106
 21
1945.446329
 31
0.0
  0
LINE
  5
1266F
100
AcDbEntity
  8
0
100
AcDbLine
 10
5595.986106
 20
1845.446329
 30
0.0
 11
5385.35107
 21
1845.446329
 31
0.0
  0
LINE
  5
12670
100
AcDbEntity
  8
0
100
AcDbLine
 10
5155.986106
 20
1836.446329
 30
0.0
 11
5595.986106
 21
1836.446329
 31
0.0
  0
LINE
  5
12671
100
AcDbEntity
  8
0
100
AcDbLine
 10
5066.986106
 20
1830.163045
 30
0.0
 11
5066.986106
 21
1807.668762
 31
0.0
  0
LINE
  5
12672
100
AcDbEntity
  8
0
100
AcDbLine
 10
5104.986106
 20
1807.668762
 30
0.0
 11
5104.981638
 21
1828.668762
 31
0.0
  0
INSERT
  5
12673
100
AcDbEntity
  8
0
100
AcDbBlockReference
  2
YA
 10
4734.613906
 20
1776.168762
 30
0.0
 41
-10.710078
 42
10.710078
 43
10.710078
  0
LINE
  5
12674
100
AcDbEntity
  8
0
100
AcDbLine
 10
5104.986106
 20
1796.668762
 30
0.0
 11
5109.095657
 21
1796.668762
 31
0.0
  0
LINE
  5
12675
100
AcDbEntity
  8
0
100
AcDbLine
 10
5062.403273
 20
1755.668762
 30
0.0
 11
5109.095657
 21
1755.668762
 31
0.0
  0
LINE
  5
12676
100
AcDbEntity
  8
0
100
AcDbLine
 10
5047.736106
 20
1767.293762
 30
0.0
 11
5060.486106
 21
1767.293762
 31
0.0
  0
LINE
  5
12677
100
AcDbEntity
  8
0
100
AcDbLine
 10
5047.736106
 20
1793.918762
 30
0.0
 11
5060.486106
 21
1793.918762
 31
0.0
  0
LINE
  5
12678
100
AcDbEntity
  8
0
100
AcDbLine
 10
5047.736106
 20
1785.043762
 30
0.0
 11
5060.486106
 21
1785.043762
 31
0.0
  0
ARC
  5
12679
100
AcDbEntity
  8
0
100
AcDbCircle
 10
5082.115571
 20
1776.168762
 30
0.0
 40
23.379464
100
AcDbArc
 50
157.690681
 51
202.309319
  0
ARC
  5
1267A
100
AcDbEntity
  8
0
100
AcDbCircle
 10
5065.237222
 20
1789.481262
 30
0.0
 40
6.501116
100
AcDbArc
 50
136.9548
 51
223.0452
  0
LINE
  5
1267B
100
AcDbEntity
  8
0
100
AcDbLine
 10
5045.986106
 20
1792.168762
 30
0.0
 11
5047.736106
 21
1793.918762
 31
0.0
  0
ARC
  5
1267C
100
AcDbEntity
  8
0
100
AcDbCircle
 10
5052.487222
 20
1789.481262
 30
0.0
 40
6.501116
100
AcDbArc
 50
136.9548
 51
223.0452
  0
LINE
  5
1267D
100
AcDbEntity
  8
0
100
AcDbLine
 10
5045.986106
 20
1792.168762
 30
0.0
 11
5045.986106
 21
1776.168762
 31
0.0
  0
ARC
  5
1267E
100
AcDbEntity
  8
0
100
AcDbCircle
 10
5069.365571
 20
1776.168762
 30
0.0
 40
23.379464
100
AcDbArc
 50
157.690681
 51
202.309319
  0
ARC
  5
1267F
100
AcDbEntity
  8
0
100
AcDbCircle
 10
5104.986106
 20
1799.668762
 30
0.0
 40
3.0
100
AcDbArc
 50
180.0
 51
270.0
  0
ARC
  5
12680
100
AcDbEntity
  8
0
100
AcDbCircle
 10
5084.123411
 20
1818.283546
 30
0.0
 40
28.048501
100
AcDbArc
 50
281.643663
 51
309.253928
  0
ARC
  5
12681
100
AcDbEntity
  8
0
100
AcDbCircle
 10
5066.986106
 20
1799.668762
 30
0.0
 40
3.0
100
AcDbArc
 50
270.0
 51
0.0
  0
ARC
  5
12682
100
AcDbEntity
  8
0
100
AcDbCircle
 10
5062.403273
 20
1795.168762
 30
0.0
 40
1.5
100
AcDbArc
 50
90.0
 51
164.054604
  0
ARC
  5
12683
100
AcDbEntity
  8
0
100
AcDbCircle
 10
5085.641775
 20
1806.510497
 30
0.0
 40
18.149062
100
AcDbArc
 50
212.093147
 51
280.516842
  0
LINE
  5
12684
100
AcDbEntity
  8
0
100
AcDbLine
 10
5061.986106
 20
1785.168762
 30
0.0
 11
5084.986106
 21
1785.168762
 31
0.0
  0
LINE
  5
12685
100
AcDbEntity
  8
0
100
AcDbLine
 10
5061.986106
 20
1767.168762
 30
0.0
 11
5084.954424
 21
1767.168762
 31
0.0
  0
LINE
  5
12686
100
AcDbEntity
  8
0
100
AcDbLine
 10
5060.486106
 20
1793.918762
 30
0.0
 11
5060.960987
 21
1795.580844
 31
0.0
  0
ARC
  5
12687
100
AcDbEntity
  8
0
100
AcDbCircle
 10
5061.986106
 20
1786.668762
 30
0.0
 40
1.5
100
AcDbArc
 50
180.0
 51
270.0
  0
LINE
  5
12688
100
AcDbEntity
  8
0
100
AcDbLine
 10
5060.486106
 20
1793.918762
 30
0.0
 11
5060.486106
 21
1786.668762
 31
0.0
  0
ARC
  5
12689
100
AcDbEntity
  8
0
100
AcDbCircle
 10
5061.986106
 20
1765.668762
 30
0.0
 40
1.5
100
AcDbArc
 50
90.0
 51
180.0
  0
LINE
  5
1268A
100
AcDbEntity
  8
0
100
AcDbLine
 10
5061.986106
 20
1785.168762
 30
0.0
 11
5061.986106
 21
1767.168762
 31
0.0
  0
ARC
  5
1268B
100
AcDbEntity
  8
0
100
AcDbCircle
 10
5084.986106
 20
1789.168762
 30
0.0
 40
4.0
100
AcDbArc
 50
270.0
 51
0.0
  0
ARC
  5
1268C
100
AcDbEntity
  8
0
100
AcDbCircle
 10
5089.986106
 20
1789.832812
 30
0.0
 40
1.0
100
AcDbArc
 50
101.643663
 51
180.0
  0
LINE
  5
1268D
100
AcDbEntity
  8
0
100
AcDbLine
 10
5088.986106
 20
1789.832812
 30
0.0
 11
5088.986106
 21
1789.168762
 31
0.0
  0
LINE
  5
1268E
100
AcDbEntity
  8
0
100
AcDbLine
 10
5104.986106
 20
1807.668762
 30
0.0
 11
5066.986106
 21
1807.668762
 31
0.0
  0
LINE
  5
1268F
100
AcDbEntity
  8
0
100
AcDbLine
 10
5069.986106
 20
1806.168762
 30
0.0
 11
5101.986106
 21
1806.168762
 31
0.0
  0
LINE
  5
12690
100
AcDbEntity
  8
0
100
AcDbLine
 10
5069.986106
 20
1806.168762
 30
0.0
 11
5069.986106
 21
1807.668762
 31
0.0
  0
LINE
  5
12691
100
AcDbEntity
  8
0
100
AcDbLine
 10
5062.403273
 20
1796.668762
 30
0.0
 11
5066.986106
 21
1796.668762
 31
0.0
  0
LINE
  5
12692
100
AcDbEntity
  8
0
100
AcDbLine
 10
5069.986106
 20
1806.168762
 30
0.0
 11
5069.986106
 21
1799.668762
 31
0.0
  0
LINE
  5
12693
100
AcDbEntity
  8
0
100
AcDbLine
 10
5101.986106
 20
1807.668762
 30
0.0
 11
5101.986106
 21
1806.168762
 31
0.0
  0
LINE
  5
12694
100
AcDbEntity
  8
0
100
AcDbLine
 10
5101.986106
 20
1806.168762
 30
0.0
 11
5101.986106
 21
1799.668762
 31
0.0
  0
LINE
  5
12695
100
AcDbEntity
  8
0
100
AcDbLine
 10
5047.736106
 20
1758.418762
 30
0.0
 11
5060.486106
 21
1758.418762
 31
0.0
  0
LINE
  5
12696
100
AcDbEntity
  8
0
100
AcDbLine
 10
5045.986106
 20
1760.168762
 30
0.0
 11
5047.736106
 21
1758.418762
 31
0.0
  0
LINE
  5
12697
100
AcDbEntity
  8
0
100
AcDbLine
 10
5081.486106
 20
1746.168762
 30
0.0
 11
5090.486106
 21
1746.168762
 31
0.0
  0
LINE
  5
12698
100
AcDbEntity
  8
0
100
AcDbLine
 10
5077.986106
 20
1753.168762
 30
0.0
 11
5093.986106
 21
1753.168762
 31
0.0
  0
ARC
  5
12699
100
AcDbEntity
  8
0
100
AcDbCircle
 10
5074.986106
 20
1753.168762
 30
0.0
 40
3.0
100
AcDbArc
 50
0.0
 51
56.44269
  0
LINE
  5
1269A
100
AcDbEntity
  8
0
100
AcDbLine
 10
5077.986106
 20
1753.168762
 30
0.0
 11
5081.486106
 21
1746.168762
 31
0.0
  0
LINE
  5
1269B
100
AcDbEntity
  8
0
100
AcDbLine
 10
5060.486106
 20
1758.418762
 30
0.0
 11
5060.960987
 21
1756.756681
 31
0.0
  0
ARC
  5
1269C
100
AcDbEntity
  8
0
100
AcDbCircle
 10
5062.403273
 20
1757.168762
 30
0.0
 40
1.5
100
AcDbArc
 50
195.945396
 51
270.0
  0
LINE
  5
1269D
100
AcDbEntity
  8
0
100
AcDbLine
 10
5093.986106
 20
1755.668762
 30
0.0
 11
5093.986106
 21
1753.168762
 31
0.0
  0
LINE
  5
1269E
100
AcDbEntity
  8
0
100
AcDbLine
 10
5093.986106
 20
1753.168762
 30
0.0
 11
5090.486106
 21
1746.168762
 31
0.0
  0
LINE
  5
1269F
100
AcDbEntity
  8
0
100
AcDbLine
 10
5088.954424
 20
1763.168762
 30
0.0
 11
5088.954424
 21
1755.668762
 31
0.0
  0
ARC
  5
126A0
100
AcDbEntity
  8
0
100
AcDbCircle
 10
5065.237222
 20
1762.856262
 30
0.0
 40
6.501116
100
AcDbArc
 50
136.9548
 51
223.0452
  0
ARC
  5
126A1
100
AcDbEntity
  8
0
100
AcDbCircle
 10
5052.487222
 20
1762.856262
 30
0.0
 40
6.501116
100
AcDbArc
 50
136.9548
 51
223.0452
  0
LINE
  5
126A2
100
AcDbEntity
  8
0
100
AcDbLine
 10
5045.986106
 20
1776.168762
 30
0.0
 11
5045.986106
 21
1760.168762
 31
0.0
  0
ARC
  5
126A3
100
AcDbEntity
  8
0
100
AcDbCircle
 10
5084.954424
 20
1763.168762
 30
0.0
 40
4.0
100
AcDbArc
 50
0.0
 51
90.0
  0
LINE
  5
126A4
100
AcDbEntity
  8
0
100
AcDbLine
 10
5060.486106
 20
1765.668762
 30
0.0
 11
5060.486106
 21
1758.418762
 31
0.0
  0
ARC
  5
126A5
100
AcDbEntity
  8
0
100
AcDbCircle
 10
5109.095657
 20
1795.168762
 30
0.0
 40
1.5
100
AcDbArc
 50
28.61046
 51
90.0
  0
ARC
  5
126A6
100
AcDbEntity
  8
0
100
AcDbCircle
 10
5112.673373
 20
1795.918762
 30
0.0
 40
2.0
100
AcDbArc
 50
208.61046
 51
270.0
  0
ARC
  5
126A7
100
AcDbEntity
  8
0
100
AcDbCircle
 10
5106.73499
 20
1789.481262
 30
0.0
 40
6.501116
100
AcDbArc
 50
316.9548
 51
43.0452
  0
LINE
  5
126A8
100
AcDbEntity
  8
0
100
AcDbLine
 10
5124.236106
 20
1785.043762
 30
0.0
 11
5111.486106
 21
1785.043762
 31
0.0
  0
LINE
  5
126A9
100
AcDbEntity
  8
0
100
AcDbLine
 10
5125.986106
 20
1792.168762
 30
0.0
 11
5124.236106
 21
1793.918762
 31
0.0
  0
ARC
  5
126AA
100
AcDbEntity
  8
0
100
AcDbCircle
 10
5119.48499
 20
1789.481262
 30
0.0
 40
6.501116
100
AcDbArc
 50
316.9548
 51
43.0452
  0
LINE
  5
126AB
100
AcDbEntity
  8
0
100
AcDbLine
 10
5125.986106
 20
1792.168762
 30
0.0
 11
5125.986106
 21
1776.168762
 31
0.0
  0
LINE
  5
126AC
100
AcDbEntity
  8
0
100
AcDbLine
 10
5124.236106
 20
1793.918762
 30
0.0
 11
5112.673373
 21
1793.918762
 31
0.0
  0
LINE
  5
126AD
100
AcDbEntity
  8
0
100
AcDbLine
 10
5111.486106
 20
1793.918762
 30
0.0
 11
5110.4125
 21
1795.887041
 31
0.0
  0
LINE
  5
126AE
100
AcDbEntity
  8
0
100
AcDbLine
 10
5124.236106
 20
1767.293762
 30
0.0
 11
5111.486106
 21
1767.293762
 31
0.0
  0
ARC
  5
126AF
100
AcDbEntity
  8
0
100
AcDbCircle
 10
5089.856642
 20
1776.168762
 30
0.0
 40
23.379464
100
AcDbArc
 50
337.690681
 51
22.309319
  0
ARC
  5
126B0
100
AcDbEntity
  8
0
100
AcDbCircle
 10
5102.606642
 20
1776.168762
 30
0.0
 40
23.379464
100
AcDbArc
 50
337.690681
 51
22.309319
  0
ARC
  5
126B1
100
AcDbEntity
  8
0
100
AcDbCircle
 10
5112.673373
 20
1756.418762
 30
0.0
 40
2.0
100
AcDbArc
 50
90.0
 51
151.38954
  0
LINE
  5
126B2
100
AcDbEntity
  8
0
100
AcDbLine
 10
5125.986106
 20
1760.168762
 30
0.0
 11
5124.236106
 21
1758.418762
 31
0.0
  0
LINE
  5
126B3
100
AcDbEntity
  8
0
100
AcDbLine
 10
5124.236106
 20
1758.418762
 30
0.0
 11
5112.673373
 21
1758.418762
 31
0.0
  0
LINE
  5
126B4
100
AcDbEntity
  8
0
100
AcDbLine
 10
5111.486106
 20
1758.418762
 30
0.0
 11
5110.4125
 21
1756.450484
 31
0.0
  0
ARC
  5
126B5
100
AcDbEntity
  8
0
100
AcDbCircle
 10
5109.095657
 20
1757.168762
 30
0.0
 40
1.5
100
AcDbArc
 50
270.0
 51
331.38954
  0
LINE
  5
126B6
100
AcDbEntity
  8
0
100
AcDbLine
 10
5106.486106
 20
1796.668762
 30
0.0
 11
5106.486106
 21
1755.668762
 31
0.0
  0
ARC
  5
126B7
100
AcDbEntity
  8
0
100
AcDbCircle
 10
5106.73499
 20
1762.856262
 30
0.0
 40
6.501116
100
AcDbArc
 50
316.9548
 51
43.0452
  0
ARC
  5
126B8
100
AcDbEntity
  8
0
100
AcDbCircle
 10
5119.48499
 20
1762.856262
 30
0.0
 40
6.501116
100
AcDbArc
 50
316.9548
 51
43.0452
  0
LINE
  5
126B9
100
AcDbEntity
  8
0
100
AcDbLine
 10
5125.986106
 20
1776.168762
 30
0.0
 11
5125.986106
 21
1760.168762
 31
0.0
  0
LINE
  5
126BA
100
AcDbEntity
  8
0
100
AcDbLine
 10
5109.986106
 20
1795.377777
 30
0.0
 11
5109.986106
 21
1756.959748
 31
0.0
  0
LINE
  5
126BB
100
AcDbEntity
  8
0
100
AcDbLine
 10
5172.837172
 20
1789.768762
 30
0.0
 11
5125.986106
 21
1789.768762
 31
0.0
  0
LINE
  5
126BC
100
AcDbEntity
  8
0
100
AcDbLine
 10
5172.786106
 20
1762.568762
 30
0.0
 11
5125.986106
 21
1762.568762
 31
0.0
  0
LINE
  5
126BD
100
AcDbEntity
  8
0
100
AcDbLine
 10
5303.486106
 20
1545.446329
 30
0.0
 11
5448.486106
 21
1545.446329
 31
0.0
  0
LINE
  5
126BE
100
AcDbEntity
  8
0
100
AcDbLine
 10
5448.486106
 20
1605.446329
 30
0.0
 11
5303.486106
 21
1605.446329
 31
0.0
  0
LINE
  5
126BF
100
AcDbEntity
  8
0
100
AcDbLine
 10
5443.486106
 20
1600.446329
 30
0.0
 11
5308.486106
 21
1600.446329
 31
0.0
  0
LINE
  5
126C0
100
AcDbEntity
  8
0
100
AcDbLine
 10
5308.486106
 20
1550.446329
 30
0.0
 11
5443.486106
 21
1550.446329
 31
0.0
  0
LINE
  5
126C1
100
AcDbEntity
  8
0
100
AcDbLine
 10
5303.486106
 20
1605.446329
 30
0.0
 11
5303.486106
 21
1545.446329
 31
0.0
  0
LINE
  5
126C2
100
AcDbEntity
  8
0
100
AcDbLine
 10
5308.486106
 20
1600.446329
 30
0.0
 11
5308.486106
 21
1550.446329
 31
0.0
  0
LINE
  5
126C3
100
AcDbEntity
  8
0
100
AcDbLine
 10
5448.486106
 20
1605.446329
 30
0.0
 11
5448.486106
 21
1545.446329
 31
0.0
  0
LINE
  5
126C4
100
AcDbEntity
  8
0
100
AcDbLine
 10
5443.486106
 20
1600.446329
 30
0.0
 11
5443.486106
 21
1550.446329
 31
0.0
  0
LINE
  5
126C5
100
AcDbEntity
  8
0
100
AcDbLine
 10
4955.987106
 20
1844.671802
 30
0.0
 11
5055.486106
 21
1841.668762
 31
0.0
  0
LINE
  5
126C6
100
AcDbEntity
  8
0
100
AcDbLine
 10
5045.986106
 20
1851.168762
 30
0.0
 11
4955.987106
 21
1851.168762
 31
0.0
  0
LINE
  5
126C7
100
AcDbEntity
  8
0
100
AcDbLine
 10
4955.987106
 20
1851.168762
 30
0.0
 11
4955.987106
 21
1844.671802
 31
0.0
  0
LINE
  5
126C8
100
AcDbEntity
  8
0
100
AcDbLine
 10
5155.986106
 20
1845.446329
 30
0.0
 11
5484.136106
 21
1845.446329
 31
0.0
  0
LINE
  5
126C9
100
AcDbEntity
  8
0
100
AcDbLine
 10
5061.986106
 20
1849.668762
 30
0.0
 11
5047.486106
 21
1849.668762
 31
0.0
  0
LINE
  5
126CA
100
AcDbEntity
  8
0
100
AcDbLine
 10
5045.986106
 20
1851.168762
 30
0.0
 11
5066.986106
 21
1830.163045
 31
0.0
  0
ARC
  5
126CB
100
AcDbEntity
  8
0
100
AcDbCircle
 10
4952.414337
 20
1570.816174
 30
0.0
 40
299.607641
100
AcDbArc
 50
59.386875
 51
68.548252
  0
LINE
  5
126CC
100
AcDbEntity
  8
0
100
AcDbLine
 10
5103.4623
 20
1828.668762
 30
0.0
 11
5068.303106
 21
1828.668762
 31
0.0
  0
LINE
  5
126CD
100
AcDbEntity
  8
0
100
AcDbLine
 10
5210.986106
 20
1945.446329
 30
0.0
 11
5210.986106
 21
1923.446329
 31
0.0
  0
LINE
  5
126CE
100
AcDbEntity
  8
0
100
AcDbLine
 10
5155.986106
 20
1845.446329
 30
0.0
 11
5155.986106
 21
1836.446329
 31
0.0
  0
LINE
  5
126CF
100
AcDbEntity
  8
0
100
AcDbLine
 10
5267.836106
 20
1923.446329
 30
0.0
 11
5267.836106
 21
1845.446329
 31
0.0
  0
LINE
  5
126D0
100
AcDbEntity
  8
0
100
AcDbLine
 10
5484.136106
 20
1845.446329
 30
0.0
 11
5484.136106
 21
1923.446329
 31
0.0
  0
LINE
  5
126D1
100
AcDbEntity
  8
0
100
AcDbLine
 10
5540.986106
 20
1923.446329
 30
0.0
 11
5540.986106
 21
1945.446329
 31
0.0
  0
LINE
  5
126D2
100
AcDbEntity
  8
0
100
AcDbLine
 10
5595.986106
 20
1836.446329
 30
0.0
 11
5595.986106
 21
1845.446329
 31
0.0
  0
TEXT
  5
126D3
100
AcDbEntity
  8
0
100
AcDbText
 10
485.842174
 20
4384.882832
 30
0.0
 40
105.0
  1
背面
100
AcDbText
  0
LINE
  5
126D4
100
AcDbEntity
  8
0
100
AcDbLine
 10
3557.354949
 20
3752.117613
 30
0.0
 11
3557.354949
 21
4187.113613
 31
0.0
  0
LINE
  5
126D5
100
AcDbEntity
  8
0
100
AcDbLine
 10
3963.754949
 20
4342.563613
 30
0.0
 11
3963.754949
 21
3563.117613
 31
0.0
  0
LINE
  5
126D6
100
AcDbEntity
  8
0
100
AcDbLine
 10
3883.784949
 20
3714.255613
 30
0.0
 11
3883.784949
 21
3296.117613
 31
0.0
  0
LINE
  5
126D7
100
AcDbEntity
  8
0
100
AcDbLine
 10
3835.494949
 20
3296.117613
 30
0.0
 11
3835.494949
 21
3737.117613
 31
0.0
  0
LINE
  5
126D8
100
AcDbEntity
  8
0
100
AcDbLine
 10
3896.724949
 20
3737.117613
 30
0.0
 11
3896.724949
 21
3296.117613
 31
0.0
  0
LINE
  5
126D9
100
AcDbEntity
  8
0
100
AcDbLine
 10
3549.434949
 20
3734.668613
 30
0.0
 11
3549.434949
 21
3296.117613
 31
0.0
  0
LINE
  5
126DA
100
AcDbEntity
  8
0
100
AcDbLine
 10
3514.084949
 20
3296.117613
 30
0.0
 11
3514.084949
 21
3714.255613
 31
0.0
  0
LINE
  5
126DB
100
AcDbEntity
  8
0
100
AcDbLine
 10
3553.674949
 20
3737.117613
 30
0.0
 11
3553.674949
 21
3296.117613
 31
0.0
  0
LINE
  5
126DC
100
AcDbEntity
  8
0
100
AcDbLine
 10
3492.864949
 20
3296.117613
 30
0.0
 11
3606.004949
 21
3296.117613
 31
0.0
  0
LINE
  5
126DD
100
AcDbEntity
  8
0
100
AcDbLine
 10
3606.004949
 20
3287.117613
 30
0.0
 11
3492.864949
 21
3287.117613
 31
0.0
  0
LINE
  5
126DE
100
AcDbEntity
  8
0
100
AcDbLine
 10
3492.864949
 20
3287.117613
 30
0.0
 11
3492.864949
 21
3296.117613
 31
0.0
  0
LINE
  5
126DF
100
AcDbEntity
  8
0
100
AcDbLine
 10
3606.004949
 20
3296.117613
 30
0.0
 11
3606.004949
 21
3287.117613
 31
0.0
  0
LINE
  5
126E0
100
AcDbEntity
  8
0
100
AcDbLine
 10
3549.434949
 20
3287.117613
 30
0.0
 11
3549.434949
 21
3296.117613
 31
0.0
  0
LINE
  5
126E1
100
AcDbEntity
  8
0
100
AcDbLine
 10
3817.124949
 20
3296.117613
 30
0.0
 11
3915.104949
 21
3296.117613
 31
0.0
  0
LINE
  5
126E2
100
AcDbEntity
  8
0
100
AcDbLine
 10
3915.104949
 20
3287.117613
 30
0.0
 11
3817.124949
 21
3287.117613
 31
0.0
  0
LINE
  5
126E3
100
AcDbEntity
  8
0
100
AcDbLine
 10
3817.124949
 20
3287.117613
 30
0.0
 11
3817.124949
 21
3296.117613
 31
0.0
  0
LINE
  5
126E4
100
AcDbEntity
  8
0
100
AcDbLine
 10
3894.394949
 20
3296.117613
 30
0.0
 11
3894.394949
 21
3287.117613
 31
0.0
  0
LINE
  5
126E5
100
AcDbEntity
  8
0
100
AcDbLine
 10
3915.104949
 20
3296.117613
 30
0.0
 11
3915.104949
 21
3287.117613
 31
0.0
  0
LINE
  5
126E6
100
AcDbEntity
  8
0
100
AcDbLine
 10
3835.494949
 20
3563.117613
 30
0.0
 11
3557.354949
 21
3563.117613
 31
0.0
  0
LINE
  5
126E7
100
AcDbEntity
  8
0
100
AcDbLine
 10
3780.554949
 20
3503.117613
 30
0.0
 11
3835.494949
 21
3503.117613
 31
0.0
  0
LINE
  5
126E8
100
AcDbEntity
  8
0
100
AcDbLine
 10
3835.494949
 20
3487.117613
 30
0.0
 11
3780.554949
 21
3487.117613
 31
0.0
  0
LINE
  5
126E9
100
AcDbEntity
  8
0
100
AcDbLine
 10
3553.674949
 20
3602.117613
 30
0.0
 11
3553.674949
 21
3752.117613
 31
0.0
  0
LINE
  5
126EA
100
AcDbEntity
  8
0
100
AcDbLine
 10
3563.244949
 20
3752.117613
 30
0.0
 11
3563.244949
 21
3602.117613
 31
0.0
  0
LINE
  5
126EB
100
AcDbEntity
  8
0
100
AcDbLine
 10
3790.804949
 20
3563.117613
 30
0.0
 11
3790.804949
 21
3503.117613
 31
0.0
  0
LINE
  5
126EC
100
AcDbEntity
  8
0
100
AcDbLine
 10
3730.304949
 20
3503.117613
 30
0.0
 11
3730.304949
 21
3563.117613
 31
0.0
  0
LINE
  5
126ED
100
AcDbEntity
  8
0
100
AcDbLine
 10
3749.704949
 20
3536.118613
 30
0.0
 11
3749.704949
 21
3563.117613
 31
0.0
  0
LINE
  5
126EE
100
AcDbEntity
  8
0
100
AcDbLine
 10
3771.404949
 20
3563.117613
 30
0.0
 11
3771.404949
 21
3536.118613
 31
0.0
  0
LINE
  5
126EF
100
AcDbEntity
  8
0
100
AcDbLine
 10
3683.054949
 20
3503.117613
 30
0.0
 11
3740.554949
 21
3503.117613
 31
0.0
  0
LINE
  5
126F0
100
AcDbEntity
  8
0
100
AcDbLine
 10
3740.554949
 20
3487.117613
 30
0.0
 11
3683.054949
 21
3487.117613
 31
0.0
  0
LINE
  5
126F1
100
AcDbEntity
  8
0
100
AcDbLine
 10
3683.054949
 20
3487.117613
 30
0.0
 11
3683.054949
 21
3503.117613
 31
0.0
  0
ARC
  5
126F2
100
AcDbEntity
  8
0
100
AcDbCircle
 10
3760.554779
 20
3501.118897
 30
0.0
 40
18.999716
100
AcDbArc
 50
89.999487
 51
251.591776
  0
ARC
  5
126F3
100
AcDbEntity
  8
0
100
AcDbCircle
 10
3760.554961
 20
3501.118867
 30
0.0
 40
18.999746
100
AcDbArc
 50
288.408696
 51
90.000037
  0
LINE
  5
126F4
100
AcDbEntity
  8
0
100
AcDbLine
 10
3780.554949
 20
3482.857613
 30
0.0
 11
3780.554949
 21
3521.118563
 31
0.0
  0
LINE
  5
126F5
100
AcDbEntity
  8
0
100
AcDbLine
 10
3740.554949
 20
3521.118563
 30
0.0
 11
3740.554949
 21
3482.857613
 31
0.0
  0
CIRCLE
  5
126F6
100
AcDbEntity
  8
0
100
AcDbCircle
 10
3760.554949
 20
3501.118613
 30
0.0
 40
4.75014
  0
LINE
  5
126F7
100
AcDbEntity
  8
0
100
AcDbLine
 10
3765.466457
 20
3472.116613
 30
0.0
 11
3755.656071
 21
3472.116613
 31
0.0
  0
LINE
  5
126F8
100
AcDbEntity
  8
0
100
AcDbLine
 10
3747.054949
 20
3478.958613
 30
0.0
 11
3743.554949
 21
3482.699613
 31
0.0
  0
LINE
  5
126F9
100
AcDbEntity
  8
0
100
AcDbLine
 10
3747.054949
 20
3478.958613
 30
0.0
 11
3740.554949
 21
3482.857613
 31
0.0
  0
LINE
  5
126FA
100
AcDbEntity
  8
0
100
AcDbLine
 10
3745.194949
 20
3482.118613
 30
0.0
 11
3754.554949
 21
3482.118613
 31
0.0
  0
ARC
  5
126FB
100
AcDbEntity
  8
0
100
AcDbCircle
 10
3753.799719
 20
3494.781794
 30
0.0
 40
16.140037
100
AcDbArc
 50
245.298516
 51
272.681983
  0
LINE
  5
126FC
100
AcDbEntity
  8
0
100
AcDbLine
 10
3743.554949
 20
3492.633613
 30
0.0
 11
3743.554949
 21
3482.699613
 31
0.0
  0
LINE
  5
126FD
100
AcDbEntity
  8
0
100
AcDbLine
 10
3774.054949
 20
3478.958613
 30
0.0
 11
3780.554949
 21
3482.857613
 31
0.0
  0
LINE
  5
126FE
100
AcDbEntity
  8
0
100
AcDbLine
 10
3774.054949
 20
3478.958613
 30
0.0
 11
3777.554949
 21
3482.699613
 31
0.0
  0
LINE
  5
126FF
100
AcDbEntity
  8
0
100
AcDbLine
 10
3766.554949
 20
3482.118613
 30
0.0
 11
3776.244949
 21
3482.118613
 31
0.0
  0
ARC
  5
12700
100
AcDbEntity
  8
0
100
AcDbCircle
 10
3767.310179
 20
3494.781794
 30
0.0
 40
16.140037
100
AcDbArc
 50
267.318017
 51
294.701484
  0
LINE
  5
12701
100
AcDbEntity
  8
0
100
AcDbLine
 10
3777.554949
 20
3492.633613
 30
0.0
 11
3777.554949
 21
3482.699613
 31
0.0
  0
ARC
  5
12702
100
AcDbEntity
  8
0
100
AcDbCircle
 10
3753.804949
 20
3521.612827
 30
0.0
 40
14.133787
100
AcDbArc
 50
61.472597
 51
118.527403
  0
LINE
  5
12703
100
AcDbEntity
  8
0
100
AcDbLine
 10
3774.054949
 20
3536.118613
 30
0.0
 11
3747.054949
 21
3536.118613
 31
0.0
  0
ARC
  5
12704
100
AcDbEntity
  8
0
100
AcDbCircle
 10
3753.804949
 20
3509.700827
 30
0.0
 40
14.133787
100
AcDbArc
 50
61.472597
 51
118.527403
  0
LINE
  5
12705
100
AcDbEntity
  8
0
100
AcDbLine
 10
3776.884949
 20
3521.118613
 30
0.0
 11
3744.454949
 21
3521.118613
 31
0.0
  0
LINE
  5
12706
100
AcDbEntity
  8
0
100
AcDbLine
 10
3747.054949
 20
3522.120715
 30
0.0
 11
3740.554949
 21
3521.118563
 31
0.0
  0
LINE
  5
12707
100
AcDbEntity
  8
0
100
AcDbLine
 10
3747.054949
 20
3536.118613
 30
0.0
 11
3747.054949
 21
3522.120715
 31
0.0
  0
LINE
  5
12708
100
AcDbEntity
  8
0
100
AcDbLine
 10
3752.074949
 20
3518.118613
 30
0.0
 11
3740.554949
 21
3518.118613
 31
0.0
  0
LINE
  5
12709
100
AcDbEntity
  8
0
100
AcDbLine
 10
3780.554949
 20
3521.118563
 30
0.0
 11
3774.054949
 21
3522.120715
 31
0.0
  0
LINE
  5
1270A
100
AcDbEntity
  8
0
100
AcDbLine
 10
3774.054949
 20
3522.120715
 30
0.0
 11
3774.054949
 21
3536.118613
 31
0.0
  0
LINE
  5
1270B
100
AcDbEntity
  8
0
100
AcDbLine
 10
3760.554949
 20
3534.030613
 30
0.0
 11
3760.554949
 21
3522.118613
 31
0.0
  0
ARC
  5
1270C
100
AcDbEntity
  8
0
100
AcDbCircle
 10
3767.304949
 20
3521.612827
 30
0.0
 40
14.133787
100
AcDbArc
 50
61.472597
 51
118.527403
  0
ARC
  5
1270D
100
AcDbEntity
  8
0
100
AcDbCircle
 10
3767.304949
 20
3509.700827
 30
0.0
 40
14.133787
100
AcDbArc
 50
61.472597
 51
118.527403
  0
LINE
  5
1270E
100
AcDbEntity
  8
0
100
AcDbLine
 10
3780.554949
 20
3518.118613
 30
0.0
 11
3769.044949
 21
3518.118613
 31
0.0
  0
LINE
  5
1270F
100
AcDbEntity
  8
0
100
AcDbLine
 10
3766.554949
 20
3463.790124
 30
0.0
 11
3768.910856
 21
3400.988763
 31
0.0
  0
LINE
  5
12710
100
AcDbEntity
  8
0
100
AcDbLine
 10
3754.554949
 20
3463.520862
 30
0.0
 11
3752.255459
 21
3400.985085
 31
0.0
  0
ARC
  5
12711
100
AcDbEntity
  8
0
100
AcDbCircle
 10
3760.584949
 20
3425.118613
 30
0.0
 40
30.0
100
AcDbArc
 50
263.359403
 51
276.632519
  0
ARC
  5
12712
100
AcDbEntity
  8
0
100
AcDbCircle
 10
3757.751745
 20
3400.782982
 30
0.0
 40
5.5
100
AcDbArc
 50
177.894138
 51
263.359403
  0
ARC
  5
12713
100
AcDbEntity
  8
0
100
AcDbCircle
 10
3763.414722
 20
3400.782583
 30
0.0
 40
5.5
100
AcDbArc
 50
276.632519
 51
2.148365
  0
LINE
  5
12714
100
AcDbEntity
  8
0
100
AcDbLine
 10
3766.692756
 20
3460.116613
 30
0.0
 11
3754.429772
 21
3460.116613
 31
0.0
  0
LINE
  5
12715
100
AcDbEntity
  8
0
100
AcDbLine
 10
3747.054949
 20
3466.118613
 30
0.0
 11
3753.344949
 21
3466.118613
 31
0.0
  0
LINE
  5
12716
100
AcDbEntity
  8
0
100
AcDbLine
 10
3767.764949
 20
3466.118613
 30
0.0
 11
3774.054949
 21
3466.118613
 31
0.0
  0
LINE
  5
12717
100
AcDbEntity
  8
0
100
AcDbLine
 10
3754.554949
 20
3463.520862
 30
0.0
 11
3754.554949
 21
3519.146411
 31
0.0
  0
LINE
  5
12718
100
AcDbEntity
  8
0
100
AcDbLine
 10
3766.554949
 20
3463.790124
 30
0.0
 11
3766.554949
 21
3519.14636
 31
0.0
  0
LINE
  5
12719
100
AcDbEntity
  8
0
100
AcDbLine
 10
3747.054949
 20
3478.958613
 30
0.0
 11
3747.054949
 21
3466.118613
 31
0.0
  0
ARC
  5
1271A
100
AcDbEntity
  8
0
100
AcDbCircle
 10
3753.845182
 20
3478.138947
 30
0.0
 40
12.030738
100
AcDbArc
 50
235.638874
 51
273.382193
  0
LINE
  5
1271B
100
AcDbEntity
  8
0
100
AcDbLine
 10
3774.054949
 20
3466.118613
 30
0.0
 11
3774.054949
 21
3478.958613
 31
0.0
  0
ARC
  5
1271C
100
AcDbEntity
  8
0
100
AcDbCircle
 10
3767.493908
 20
3477.433481
 30
0.0
 40
11.320949
100
AcDbArc
 50
265.242428
 51
305.418808
  0
LINE
  5
1271D
100
AcDbEntity
  8
0
100
AcDbLine
 10
3557.354949
 20
3563.117613
 30
0.0
 11
3557.354949
 21
3602.117613
 31
0.0
  0
LINE
  5
1271E
100
AcDbEntity
  8
0
100
AcDbLine
 10
3563.244949
 20
3602.117613
 30
0.0
 11
3553.674949
 21
3602.117613
 31
0.0
  0
LINE
  5
1271F
100
AcDbEntity
  8
0
100
AcDbLine
 10
3514.084949
 20
3714.255613
 30
0.0
 11
3553.674949
 21
3737.117613
 31
0.0
  0
LINE
  5
12720
100
AcDbEntity
  8
0
100
AcDbLine
 10
3553.674949
 20
3752.117613
 30
0.0
 11
3563.244949
 21
3752.117613
 31
0.0
  0
LINE
  5
12721
100
AcDbEntity
  8
0
100
AcDbLine
 10
3818.814949
 20
3752.117613
 30
0.0
 11
3818.814949
 21
3602.117613
 31
0.0
  0
LINE
  5
12722
100
AcDbEntity
  8
0
100
AcDbLine
 10
3905.424949
 20
3752.117613
 30
0.0
 11
3905.424949
 21
3602.117613
 31
0.0
  0
LINE
  5
12723
100
AcDbEntity
  8
0
100
AcDbLine
 10
3815.724949
 20
3602.117613
 30
0.0
 11
3815.724949
 21
3752.117613
 31
0.0
  0
LINE
  5
12724
100
AcDbEntity
  8
0
100
AcDbLine
 10
3835.494949
 20
3503.117613
 30
0.0
 11
3835.494949
 21
3487.117613
 31
0.0
  0
LINE
  5
12725
100
AcDbEntity
  8
0
100
AcDbLine
 10
3963.754949
 20
3563.117613
 30
0.0
 11
3896.724949
 21
3563.117613
 31
0.0
  0
LINE
  5
12726
100
AcDbEntity
  8
0
100
AcDbLine
 10
3835.494949
 20
3602.117613
 30
0.0
 11
3815.724949
 21
3602.117613
 31
0.0
  0
LINE
  5
12727
100
AcDbEntity
  8
0
100
AcDbLine
 10
3905.424949
 20
3602.117613
 30
0.0
 11
3896.724949
 21
3602.117613
 31
0.0
  0
LINE
  5
12728
100
AcDbEntity
  8
0
100
AcDbLine
 10
3815.724949
 20
3752.117613
 30
0.0
 11
3905.424949
 21
3752.117613
 31
0.0
  0
LINE
  5
12729
100
AcDbEntity
  8
0
100
AcDbLine
 10
3883.784949
 20
3714.255613
 30
0.0
 11
3896.724949
 21
3737.117613
 31
0.0
  0
LINE
  5
1272A
100
AcDbEntity
  8
0
100
AcDbLine
 10
3835.494949
 20
3737.117613
 30
0.0
 11
3896.724949
 21
3737.117613
 31
0.0
  0
LINE
  5
1272B
100
AcDbEntity
  8
0
100
AcDbLine
 10
3835.494949
 20
3737.117613
 30
0.0
 11
3883.784949
 21
3714.255613
 31
0.0
  0
LINE
  5
1272C
100
AcDbEntity
  8
0
100
AcDbLine
 10
3868.704949
 20
4565.113613
 30
0.0
 11
3868.704949
 21
4487.113613
 31
0.0
  0
LINE
  5
1272D
100
AcDbEntity
  8
0
100
AcDbLine
 10
3652.404949
 20
4487.113613
 30
0.0
 11
3652.404949
 21
4565.113613
 31
0.0
  0
LINE
  5
1272E
100
AcDbEntity
  8
0
100
AcDbLine
 10
3980.554949
 20
4478.113613
 30
0.0
 11
3540.554949
 21
4478.113613
 31
0.0
  0
LINE
  5
1272F
100
AcDbEntity
  8
0
100
AcDbLine
 10
3540.554949
 20
4487.113613
 30
0.0
 11
3980.554949
 21
4487.113613
 31
0.0
  0
LINE
  5
12730
100
AcDbEntity
  8
0
100
AcDbLine
 10
3868.704949
 20
4487.113613
 30
0.0
 11
3652.404949
 21
4487.113613
 31
0.0
  0
LINE
  5
12731
100
AcDbEntity
  8
0
100
AcDbLine
 10
3557.354949
 20
4247.113613
 30
0.0
 11
3557.354949
 21
4478.113613
 31
0.0
  0
LINE
  5
12732
100
AcDbEntity
  8
0
100
AcDbLine
 10
3569.554949
 20
4187.113613
 30
0.0
 11
3510.554949
 21
4187.113613
 31
0.0
  0
LINE
  5
12733
100
AcDbEntity
  8
0
100
AcDbLine
 10
3510.554949
 20
4247.113613
 30
0.0
 11
3569.554949
 21
4247.113613
 31
0.0
  0
LINE
  5
12734
100
AcDbEntity
  8
0
100
AcDbLine
 10
3510.554949
 20
4187.113613
 30
0.0
 11
3510.554949
 21
4247.113613
 31
0.0
  0
LINE
  5
12735
100
AcDbEntity
  8
0
100
AcDbLine
 10
3569.554949
 20
4247.113613
 30
0.0
 11
3569.554949
 21
4187.113613
 31
0.0
  0
LINE
  5
12736
100
AcDbEntity
  8
0
100
AcDbLine
 10
3540.554949
 20
4478.113613
 30
0.0
 11
3540.554949
 21
4487.113613
 31
0.0
  0
ARC
  5
12737
100
AcDbEntity
  8
0
100
AcDbCircle
 10
4161.754949
 20
4387.113613
 30
0.0
 40
202.95
100
AcDbArc
 50
167.319617
 51
192.680383
  0
LINE
  5
12738
100
AcDbEntity
  8
0
100
AcDbLine
 10
4042.554949
 20
4431.663613
 30
0.0
 11
4042.554949
 21
4342.563613
 31
0.0
  0
LINE
  5
12739
100
AcDbEntity
  8
0
100
AcDbLine
 10
4060.554949
 20
4387.113613
 30
0.0
 11
4060.554949
 21
4479.613613
 31
0.0
  0
LINE
  5
1273A
100
AcDbEntity
  8
0
100
AcDbLine
 10
4042.554949
 20
4294.613613
 30
0.0
 11
4042.554949
 21
4479.613613
 31
0.0
  0
LINE
  5
1273B
100
AcDbEntity
  8
0
100
AcDbLine
 10
4042.554949
 20
4342.563613
 30
0.0
 11
3963.754949
 21
4342.563613
 31
0.0
  0
LINE
  5
1273C
100
AcDbEntity
  8
0
100
AcDbLine
 10
4060.554949
 20
4294.613613
 30
0.0
 11
4042.554949
 21
4294.613613
 31
0.0
  0
LINE
  5
1273D
100
AcDbEntity
  8
0
100
AcDbLine
 10
4060.554949
 20
4387.113613
 30
0.0
 11
4060.554949
 21
4294.613613
 31
0.0
  0
LINE
  5
1273E
100
AcDbEntity
  8
0
100
AcDbLine
 10
4042.554949
 20
4479.613613
 30
0.0
 11
4060.554949
 21
4479.613613
 31
0.0
  0
LINE
  5
1273F
100
AcDbEntity
  8
0
100
AcDbLine
 10
3980.554949
 20
4487.113613
 30
0.0
 11
3980.554949
 21
4478.113613
 31
0.0
  0
LINE
  5
12740
100
AcDbEntity
  8
0
100
AcDbLine
 10
3963.754949
 20
4431.663613
 30
0.0
 11
4042.554949
 21
4431.663613
 31
0.0
  0
LINE
  5
12741
100
AcDbEntity
  8
0
100
AcDbLine
 10
3963.754949
 20
4478.113613
 30
0.0
 11
3963.754949
 21
4431.663613
 31
0.0
  0
LINE
  5
12742
100
AcDbEntity
  8
0
100
AcDbLine
 10
3925.554949
 20
4565.113613
 30
0.0
 11
3595.554949
 21
4565.113613
 31
0.0
  0
LINE
  5
12743
100
AcDbEntity
  8
0
100
AcDbLine
 10
3595.554949
 20
4587.113613
 30
0.0
 11
3925.554949
 21
4587.113613
 31
0.0
  0
LINE
  5
12744
100
AcDbEntity
  8
0
100
AcDbLine
 10
3595.554949
 20
4565.113613
 30
0.0
 11
3595.554949
 21
4587.113613
 31
0.0
  0
LINE
  5
12745
100
AcDbEntity
  8
0
100
AcDbLine
 10
3925.554949
 20
4587.113613
 30
0.0
 11
3925.554949
 21
4565.113613
 31
0.0
  0
VIEWPORT
  5
41
100
AcDbEntity
 67
     1
  8
0
100
AcDbViewport
 10
117.358407
 20
73.5
 30
0.0
 40
234.716814
 41
147.0
 68
    -1
 69
     1
1001
ACAD
1000
MVIEW
1002
{
1070
    16
1010
0.0
1020
0.0
1030
0.0
1010
0.0
1020
0.0
1030
1.0
1040
0.0
1040
147.0
1040
117.358407
1040
73.5
1040
50.0
1040
0.0
1040
0.0
1070
     0
1070
   100
1070
     1
1070
     1
1070
     0
1070
     0
1070
     0
1070
     0
1040
0.0
1040
0.0
1040
0.0
1040
1.0
1040
1.0
1040
0.0
1040
0.0
1070
     0
1002
{
1002
}
1002
}
  0
ENDSEC
  0
SECTION
  2
OBJECTS
  0
DICTIONARY
  5
C
100
AcDbDictionary
  3
ACAD_GROUP
350
D
  3
ACAD_MLINESTYLE
350
E
  0
DICTIONARY
  5
D
102
{ACAD_REACTORS
330
C
102
}
100
AcDbDictionary
  0
DICTIONARY
  5
E
102
{ACAD_REACTORS
330
C
102
}
100
AcDbDictionary
  3
STANDARD
350
1B
  0
MLINESTYLE
  5
1B
102
{ACAD_REACTORS
330
E
102
}
100
AcDbMlineStyle
  2
STANDARD
 70
     0
  3

 62
     0
 51
90.0
 52
90.0
 71
     2
 49
0.5
 62
   256
  6
BYLAYER
 49
-0.5
 62
   256
  6
BYLAYER
  0
ENDSEC
  0
EOF
