  0
SECTION
  2
HEADER
  9
$ACADVER
  1
AC1012
  9
$DWGCODEPAGE
  3
dos932
  9
$INSBASE
 10
0.0
 20
0.0
 30
0.0
  9
$EXTMIN
 10
385.0
 20
175.0
 30
0.0
  9
$EXTMAX
 10
10010.0
 20
6685.0
 30
0.0
  9
$LIMMIN
 10
0.0
 20
0.0
  9
$LIMMAX
 10
10395.0
 20
7350.0
  9
$ORTHOMODE
 70
     1
  9
$REGENMODE
 70
     1
  9
$FILLMODE
 70
     1
  9
$QTEXTMODE
 70
     0
  9
$MIRRTEXT
 70
     1
  9
$DRAGMODE
 70
     2
  9
$LTSCALE
 40
140.0
  9
$OSMODE
 70
   163
  9
$ATTMODE
 70
     1
  9
$TEXTSIZE
 40
140.0
  9
$TRACEWID
 40
0.05
  9
$TEXTSTYLE
  7
STANDARD
  9
$CLAYER
  8
0
  9
$CELTYPE
  6
BYLAYER
  9
$CECOLOR
 62
   256
  9
$CELTSCALE
 40
1.0
  9
$DELOBJ
 70
     1
  9
$DISPSILH
 70
     0
  9
$DIMSCALE
 40
35.0
  9
$DIMASZ
 40
2.8
  9
$DIMEXO
 40
1.0
  9
$DIMDLI
 40
5.0
  9
$DIMRND
 40
0.1
  9
$DIMDLE
 40
0.0
  9
$DIMEXE
 40
1.0
  9
$DIMTP
 40
0.0
  9
$DIMTM
 40
0.0
  9
$DIMTXT
 40
2.5
  9
$DIMCEN
 40
0.0
  9
$DIMTSZ
 40
0.0
  9
$DIMTOL
 70
     0
  9
$DIMLIM
 70
     0
  9
$DIMTIH
 70
     0
  9
$DIMTOH
 70
     0
  9
$DIMSE1
 70
     0
  9
$DIMSE2
 70
     0
  9
$DIMTAD
 70
     3
  9
$DIMZIN
 70
     8
  9
$DIMBLK
  1

  9
$DIMASO
 70
     1
  9
$DIMSHO
 70
     1
  9
$DIMPOST
  1
 
  9
$DIMAPOST
  1

  9
$DIMALT
 70
     0
  9
$DIMALTD
 70
     2
  9
$DIMALTF
 40
1.0
  9
$DIMLFAC
 40
1.0
  9
$DIMTOFL
 70
     1
  9
$DIMTVP
 40
0.0
  9
$DIMTIX
 70
     0
  9
$DIMSOXD
 70
     0
  9
$DIMSAH
 70
     1
  9
$DIMBLK1
  1
_OPEN
  9
$DIMBLK2
  1
_OPEN
  9
$DIMSTYLE
  2
DIM1
  9
$DIMCLRD
 70
     2
  9
$DIMCLRE
 70
     2
  9
$DIMCLRT
 70
     2
  9
$DIMTFAC
 40
0.7
  9
$DIMGAP
 40
0.85
  9
$DIMJUST
 70
     0
  9
$DIMSD1
 70
     0
  9
$DIMSD2
 70
     0
  9
$DIMTOLJ
 70
     1
  9
$DIMTZIN
 70
     8
  9
$DIMALTZ
 70
     8
  9
$DIMALTTZ
 70
     8
  9
$DIMFIT
 70
     0
  9
$DIMUPT
 70
     0
  9
$DIMUNIT
 70
     2
  9
$DIMDEC
 70
     4
  9
$DIMTDEC
 70
     4
  9
$DIMALTU
 70
     2
  9
$DIMALTTD
 70
     2
  9
$DIMTXSTY
  7
STANDARD
  9
$DIMAUNIT
 70
     0
  9
$LUNITS
 70
     2
  9
$LUPREC
 70
     4
  9
$SKETCHINC
 40
0.1
  9
$FILLETRAD
 40
5.0
  9
$AUNITS
 70
     0
  9
$AUPREC
 70
     0
  9
$MENU
  1
C:\ACADR13\WIN\SUPPORT\ACAD.mnc
  9
$ELEVATION
 40
0.0
  9
$PELEVATION
 40
0.0
  9
$THICKNESS
 40
0.0
  9
$LIMCHECK
 70
     0
  9
$BLIPMODE
 70
     1
  9
$CHAMFERA
 40
0.0
  9
$CHAMFERB
 40
0.0
  9
$CHAMFERC
 40
0.0
  9
$CHAMFERD
 40
0.0
  9
$SKPOLY
 70
     0
  9
$TDCREATE
 40
2451592.409667916
  9
$TDUPDATE
 40
2451967.652256030
  9
$TDINDWG
 40
0.1967168056
  9
$TDUSRTIMER
 40
0.1967168056
  9
$USRTIMER
 70
     1
  9
$ANGBASE
 50
0.0
  9
$ANGDIR
 70
     0
  9
$PDMODE
 70
     0
  9
$PDSIZE
 40
0.0
  9
$PLINEWID
 40
0.0
  9
$COORDS
 70
     1
  9
$SPLFRAME
 70
     0
  9
$SPLINETYPE
 70
     6
  9
$SPLINESEGS
 70
     8
  9
$ATTDIA
 70
     0
  9
$ATTREQ
 70
     1
  9
$HANDLING
 70
     1
  9
$HANDSEED
  5
DA77
  9
$SURFTAB1
 70
     6
  9
$SURFTAB2
 70
     6
  9
$SURFTYPE
 70
     6
  9
$SURFU
 70
     6
  9
$SURFV
 70
     6
  9
$UCSNAME
  2

  9
$UCSORG
 10
0.0
 20
0.0
 30
0.0
  9
$UCSXDIR
 10
1.0
 20
0.0
 30
0.0
  9
$UCSYDIR
 10
0.0
 20
1.0
 30
0.0
  9
$PUCSNAME
  2

  9
$PUCSORG
 10
0.0
 20
0.0
 30
0.0
  9
$PUCSXDIR
 10
1.0
 20
0.0
 30
0.0
  9
$PUCSYDIR
 10
0.0
 20
1.0
 30
0.0
  9
$USERI1
 70
     0
  9
$USERI2
 70
     0
  9
$USERI3
 70
     0
  9
$USERI4
 70
     0
  9
$USERI5
 70
     0
  9
$USERR1
 40
0.0
  9
$USERR2
 40
0.0
  9
$USERR3
 40
0.0
  9
$USERR4
 40
0.0
  9
$USERR5
 40
0.0
  9
$WORLDVIEW
 70
     1
  9
$SHADEDGE
 70
     3
  9
$SHADEDIF
 70
    70
  9
$TILEMODE
 70
     1
  9
$MAXACTVP
 70
    16
  9
$PINSBASE
 10
0.0
 20
0.0
 30
0.0
  9
$PLIMCHECK
 70
     0
  9
$PEXTMIN
 10
1.000000E+20
 20
1.000000E+20
 30
1.000000E+20
  9
$PEXTMAX
 10
-1.000000E+20
 20
-1.000000E+20
 30
-1.000000E+20
  9
$PLIMMIN
 10
0.0
 20
0.0
  9
$PLIMMAX
 10
20.0
 20
147.0
  9
$UNITMODE
 70
     0
  9
$VISRETAIN
 70
     0
  9
$PLINEGEN
 70
     0
  9
$PSLTSCALE
 70
     1
  9
$TREEDEPTH
 70
  3020
  9
$PICKSTYLE
 70
     1
  9
$CMLSTYLE
  2
STANDARD
  9
$CMLJUST
 70
     0
  9
$CMLSCALE
 40
1.0
  9
$SAVEIMAGES
 70
     1
  0
ENDSEC
  0
SECTION
  2
CLASSES
  0
CLASS
  1
LWPOLYLINE
  2
AcDbPolyline
  3
"AutoCAD"
 90
    32768
280
     0
281
     1
  0
ENDSEC
  0
SECTION
  2
TABLES
  0
TABLE
  2
VPORT
  5
8
100
AcDbSymbolTable
 70
     2
  0
VPORT
  5
DA76
100
AcDbSymbolTableRecord
100
AcDbViewportTableRecord
  2
*ACTIVE
 70
     0
 10
0.0
 20
0.0
 11
1.0
 21
1.0
 12
6705.153322
 22
3805.285313
 13
0.0
 23
0.0
 14
1.0
 24
1.0
 15
0.0
 25
0.0
 16
0.0
 26
0.0
 36
1.0
 17
0.0
 27
0.0
 37
0.0
 40
7610.570626
 41
1.762063
 42
50.0
 43
0.0
 44
0.0
 50
0.0
 51
0.0
 71
     0
 72
   100
 73
     1
 74
     1
 75
     0
 76
     0
 77
     0
 78
     0
  0
ENDTAB
  0
TABLE
  2
LTYPE
  5
5
100
AcDbSymbolTable
 70
     5
  0
LTYPE
  5
12
100
AcDbSymbolTableRecord
100
AcDbLinetypeTableRecord
  2
BYBLOCK
 70
     0
  3

 72
    65
 73
     0
 40
0.0
  0
LTYPE
  5
13
100
AcDbSymbolTableRecord
100
AcDbLinetypeTableRecord
  2
BYLAYER
 70
     0
  3

 72
    65
 73
     0
 40
0.0
  0
LTYPE
  5
14
100
AcDbSymbolTableRecord
100
AcDbLinetypeTableRecord
  2
CONTINUOUS
 70
     0
  3
Solid line
 72
    65
 73
     0
 40
0.0
  0
ENDTAB
  0
TABLE
  2
LAYER
  5
2
100
AcDbSymbolTable
 70
     4
  0
LAYER
  5
F
100
AcDbSymbolTableRecord
100
AcDbLayerTableRecord
  2
0
 70
     0
 62
     7
  6
CONTINUOUS
  0
ENDTAB
  0
TABLE
  2
STYLE
  5
3
100
AcDbSymbolTable
 70
     3
  0
STYLE
  5
10
100
AcDbSymbolTableRecord
100
AcDbTextStyleTableRecord
  2
STANDARD
 70
     0
 40
0.0
 41
0.8
 50
0.0
 71
     0
 42
140.0
  3
simplex
  4
extfont
  0
STYLE
  5
237C
100
AcDbSymbolTableRecord
100
AcDbTextStyleTableRecord
  2
PTSH
 70
     0
 40
0.0
 41
0.9
 50
0.0
 71
     0
 42
4.0
  3
SIMPLEX
  4
EXTFONT
  0
ENDTAB
  0
TABLE
  2
VIEW
  5
6
100
AcDbSymbolTable
 70
     0
  0
ENDTAB
  0
TABLE
  2
UCS
  5
7
100
AcDbSymbolTable
 70
     0
  0
ENDTAB
  0
TABLE
  2
APPID
  5
9
100
AcDbSymbolTable
 70
     1
  0
APPID
  5
11
100
AcDbSymbolTableRecord
100
AcDbRegAppTableRecord
  2
ACAD
 70
     0
  0
ENDTAB
  0
TABLE
  2
DIMSTYLE
  5
A
100
AcDbSymbolTable
 70
     1
  0
DIMSTYLE
105
2237
100
AcDbSymbolTableRecord
100
AcDbDimStyleTableRecord
  2
DIM1
 70
     0
  3
 
  4

  5

  6
_OPEN
  7
_OPEN
 40
35.0
 41
2.8
 42
1.0
 43
5.0
 44
1.0
 45
0.1
 46
0.0
 47
0.0
 48
0.0
140
2.5
141
0.0
142
0.0
143
1.0
144
1.0
145
0.0
146
0.7
147
0.85
 71
     0
 72
     0
 73
     0
 74
     0
 75
     0
 76
     0
 77
     3
 78
     8
170
     0
171
     2
172
     1
173
     1
174
     0
175
     0
176
     2
177
     2
178
     2
270
     2
271
     4
272
     4
273
     2
274
     2
340
10
275
     0
280
     0
281
     0
282
     0
283
     1
284
     8
285
     8
286
     8
287
     0
288
     0
  0
ENDTAB
  0
TABLE
  2
BLOCK_RECORD
  5
1
100
AcDbSymbolTable
 70
     2
  0
BLOCK_RECORD
  5
18
100
AcDbSymbolTableRecord
100
AcDbBlockTableRecord
  2
*MODEL_SPACE
  0
BLOCK_RECORD
  5
15
100
AcDbSymbolTableRecord
100
AcDbBlockTableRecord
  2
*PAPER_SPACE
  0
BLOCK_RECORD
  5
2448
100
AcDbSymbolTableRecord
100
AcDbBlockTableRecord
  2
_OPEN
  0
BLOCK_RECORD
  5
9BAD
100
AcDbSymbolTableRecord
100
AcDbBlockTableRecord
  2
YA
  0
ENDTAB
  0
ENDSEC
  0
SECTION
  2
BLOCKS
  0
BLOCK
  5
3C
100
AcDbEntity
  8
0
100
AcDbBlockBegin
  2
*MODEL_SPACE
 70
     0
 10
0.0
 20
0.0
 30
0.0
  3
*MODEL_SPACE
  1

  0
ENDBLK
  5
3D
100
AcDbEntity
  8
0
100
AcDbBlockEnd
  0
BLOCK
  5
3A
100
AcDbEntity
 67
     1
  8
0
100
AcDbBlockBegin
  2
*PAPER_SPACE
 70
     0
 10
0.0
 20
0.0
 30
0.0
  3
*PAPER_SPACE
  1

  0
ENDBLK
  5
3B
100
AcDbEntity
 67
     1
  8
0
100
AcDbBlockEnd
  0
BLOCK
  5
2449
100
AcDbEntity
  8
0
 48
4.0
100
AcDbBlockBegin
  2
_OPEN
 70
     0
 10
0.0
 20
0.0
 30
0.0
  3
_OPEN
  1
H1111.DWG
  0
LINE
  5
244A
100
AcDbEntity
  8
0
  6
BYBLOCK
 62
     0
 48
4.0
100
AcDbLine
 10
-1.0
 20
0.166667
 30
0.0
 11
0.0
 21
0.0
 31
0.0
  0
LINE
  5
244B
100
AcDbEntity
  8
0
  6
BYBLOCK
 62
     0
 48
4.0
100
AcDbLine
 10
0.0
 20
0.0
 30
0.0
 11
-1.0
 21
-0.166667
 31
0.0
  0
LINE
  5
244C
100
AcDbEntity
  8
0
  6
BYBLOCK
 62
     0
 48
4.0
100
AcDbLine
 10
0.0
 20
0.0
 30
0.0
 11
-1.0
 21
0.0
 31
0.0
  0
ENDBLK
  5
244D
100
AcDbEntity
  8
0
 48
4.0
100
AcDbBlockEnd
  0
BLOCK
  5
9BB5
100
AcDbEntity
  8
0
100
AcDbBlockBegin
  2
YA
 70
     0
 10
0.0
 20
0.0
 30
0.0
  3
YA
  1

  0
LINE
  5
9BAE
100
AcDbEntity
  8
0
100
AcDbLine
 10
-16.8065
 20
2.801
 30
0.0
 11
-8.4035
 21
2.801
 31
0.0
  0
LINE
  5
9BAF
100
AcDbEntity
  8
0
100
AcDbLine
 10
-8.4035
 20
2.801
 30
0.0
 11
-7.0025
 21
1.4005
 31
0.0
  0
LINE
  5
9BB0
100
AcDbEntity
  8
0
100
AcDbLine
 10
-7.0025
 20
1.4005
 30
0.0
 11
-2.862
 21
1.4005
 31
0.0
  0
LINE
  5
9BB1
100
AcDbEntity
  8
0
100
AcDbLine
 10
-2.862
 20
1.4005
 30
0.0
 11
-2.862
 21
2.801
 31
0.0
  0
LINE
  5
9BB2
100
AcDbEntity
  8
0
100
AcDbLine
 10
-2.862
 20
2.801
 30
0.0
 11
0.0
 21
0.0
 31
0.0
  0
LINE
  5
9BB3
100
AcDbEntity
  8
0
100
AcDbLine
 10
0.0
 20
0.0
 30
0.0
 11
-14.0055
 21
0.0
 31
0.0
  0
LINE
  5
9BB4
100
AcDbEntity
  8
0
100
AcDbLine
 10
-14.0055
 20
0.0
 30
0.0
 11
-16.8065
 21
2.801
 31
0.0
  0
ENDBLK
  5
9BB6
100
AcDbEntity
  8
0
100
AcDbBlockEnd
  0
ENDSEC
  0
SECTION
  2
ENTITIES
  0
MTEXT
  5
ADA
100
AcDbEntity
  8
0
100
AcDbMText
 10
13304.874792
 20
1744.62089
 30
0.0
 40
7.0
 41
1652.92627
 71
     1
 72
     1
  1

  0
MTEXT
  5
ADB
100
AcDbEntity
  8
0
100
AcDbMText
 10
13616.747661
 20
2024.777781
 30
0.0
 40
7.0
 41
1590.551696
 71
     1
 72
     1
  1

  0
MTEXT
  5
ADC
100
AcDbEntity
  8
0
100
AcDbMText
 10
13429.62394
 20
-1679.518624
 30
0.0
 40
7.0
 41
1808.862704
 71
     1
 72
     1
  1

  0
TEXT
  5
2529
100
AcDbEntity
  8
0
  6
CONTINUOUS
100
AcDbText
 10
9487.857143
 20
247.5
 30
0.0
 40
100.0
  1
SR-8
 41
0.9
  7
PTSH
 72
     2
 11
9835.0
 21
297.5
 31
0.0
100
AcDbText
 73
     2
  0
POLYLINE
  5
2563
100
AcDbEntity
  8
0
100
AcDb2dPolyline
 66
     1
 10
0.0
 20
0.0
 30
0.0
 70
     1
  0
VERTEX
  5
DA71
100
AcDbEntity
  8
0
100
AcDbVertex
100
AcDb2dVertex
 10
385.0
 20
175.0
 30
0.0
  0
VERTEX
  5
DA72
100
AcDbEntity
  8
0
100
AcDbVertex
100
AcDb2dVertex
 10
10010.0
 20
175.0
 30
0.0
  0
VERTEX
  5
DA73
100
AcDbEntity
  8
0
100
AcDbVertex
100
AcDb2dVertex
 10
10010.0
 20
6685.0
 30
0.0
  0
VERTEX
  5
DA74
100
AcDbEntity
  8
0
100
AcDbVertex
100
AcDb2dVertex
 10
385.0
 20
6685.0
 30
0.0
  0
SEQEND
  5
DA75
100
AcDbEntity
  8
0
  0
TEXT
  5
B5D3
100
AcDbEntity
  8
0
100
AcDbText
 10
4354.0
 20
367.5
 30
0.0
 40
122.5
  1
TLV SR-8 (JIS10K)
 72
     4
 11
5197.5
 21
420.0
 31
0.0
100
AcDbText
  0
CIRCLE
  5
D5B1
100
AcDbEntity
  8
0
100
AcDbCircle
 10
5184.990378
 20
4160.601655
 30
0.0
 40
270.0
  0
LINE
  5
D5B2
100
AcDbEntity
  8
0
100
AcDbLine
 10
5453.392869
 20
4189.929164
 30
0.0
 11
5482.720378
 21
4160.601655
 31
0.0
  0
LINE
  5
D5B3
100
AcDbEntity
  8
0
100
AcDbLine
 10
5449.430378
 20
4215.101655
 30
0.0
 11
5481.990378
 21
4182.541655
 31
0.0
  0
CIRCLE
  5
D5B4
100
AcDbEntity
  8
0
100
AcDbCircle
 10
5184.990378
 20
4160.601655
 30
0.0
 40
26.35
  0
CIRCLE
  5
D5B5
100
AcDbEntity
  8
0
100
AcDbCircle
 10
5184.990378
 20
4160.601655
 30
0.0
 40
30.25
  0
CIRCLE
  5
D5B6
100
AcDbEntity
  8
0
100
AcDbCircle
 10
5184.990378
 20
4160.601655
 30
0.0
 40
102.35
  0
CIRCLE
  5
D5B7
100
AcDbEntity
  8
0
100
AcDbCircle
 10
5184.990378
 20
4160.601655
 30
0.0
 40
108.15
  0
LINE
  5
D5B8
100
AcDbEntity
  8
0
100
AcDbLine
 10
4834.990378
 20
4020.601655
 30
0.0
 11
4834.990378
 21
4300.601655
 31
0.0
  0
LINE
  5
D5B9
100
AcDbEntity
  8
0
100
AcDbLine
 10
4856.990378
 20
4300.601655
 30
0.0
 11
4856.990378
 21
4020.601655
 31
0.0
  0
LINE
  5
D5BA
100
AcDbEntity
  8
0
100
AcDbLine
 10
4856.990378
 20
4078.001655
 30
0.0
 11
4856.990378
 21
4243.201655
 31
0.0
  0
CIRCLE
  5
D5BB
100
AcDbEntity
  8
0
100
AcDbCircle
 10
5184.990378
 20
4160.601655
 30
0.0
 40
165.0
  0
INSERT
  5
D5BC
100
AcDbEntity
  8
0
100
AcDbBlockReference
  2
YA
 10
4703.900487
 20
4160.601655
 30
0.0
 41
14.280104
 42
14.280104
 43
14.280104
  0
TEXT
  5
D5BD
100
AcDbEntity
  8
0
100
AcDbText
 10
1781.743331
 20
4160.627211
 30
0.0
 40
122.5
  1
平面
100
AcDbText
  0
TEXT
  5
D5BE
100
AcDbEntity
  8
0
100
AcDbText
 10
1794.001119
 20
2650.803499
 30
0.0
 40
122.5
  1
正面
100
AcDbText
  0
LINE
  5
D5BF
100
AcDbEntity
  8
0
100
AcDbLine
 10
3410.262897
 20
1109.798499
 30
0.0
 11
3410.262897
 21
1779.013499
 31
0.0
  0
LINE
  5
D5C0
100
AcDbEntity
  8
0
100
AcDbLine
 10
3410.26326
 20
1109.798499
 30
0.0
 11
3410.26326
 21
1779.013499
 31
0.0
  0
LINE
  5
D5C1
100
AcDbEntity
  8
0
100
AcDbLine
 10
3360.67241
 20
1109.798499
 30
0.0
 11
3360.67241
 21
1800.803499
 31
0.0
  0
LINE
  5
D5C2
100
AcDbEntity
  8
0
100
AcDbLine
 10
6701.503457
 20
1109.798499
 30
0.0
 11
6701.503457
 21
1551.799499
 31
0.0
  0
LINE
  5
D5C3
100
AcDbEntity
  8
0
100
AcDbLine
 10
6669.675749
 20
1109.798499
 30
0.0
 11
6669.675749
 21
1551.799499
 31
0.0
  0
LINE
  5
D5C4
100
AcDbEntity
  8
0
100
AcDbLine
 10
6664.845998
 20
1109.798499
 30
0.0
 11
6664.845998
 21
1551.799499
 31
0.0
  0
LINE
  5
D5C5
100
AcDbEntity
  8
0
100
AcDbLine
 10
6651.91297
 20
1109.798499
 30
0.0
 11
6651.91297
 21
1706.498499
 31
0.0
  0
LINE
  5
D5C7
100
AcDbEntity
  8
0
100
AcDbLine
 10
3182.67326
 20
1466.798499
 30
0.0
 11
3182.67326
 21
1551.799499
 31
0.0
  0
LINE
  5
D5C8
100
AcDbEntity
  8
0
100
AcDbLine
 10
3122.17326
 20
1551.799499
 30
0.0
 11
3122.17326
 21
1466.798499
 31
0.0
  0
LINE
  5
D5C9
100
AcDbEntity
  8
0
100
AcDbLine
 10
3117.067921
 20
1551.799499
 30
0.0
 11
3117.067921
 21
1466.798499
 31
0.0
  0
LINE
  5
D5CA
100
AcDbEntity
  8
0
100
AcDbLine
 10
3187.778599
 20
1551.799499
 30
0.0
 11
3187.778599
 21
1466.798499
 31
0.0
  0
LINE
  5
D5CB
100
AcDbEntity
  8
0
100
AcDbLine
 10
2894.583622
 20
1109.798499
 30
0.0
 11
2894.583622
 21
1779.013662
 31
0.0
  0
LINE
  5
D5CC
100
AcDbEntity
  8
0
100
AcDbLine
 10
2965.42326
 20
1551.799499
 30
0.0
 11
2965.42326
 21
1510.807532
 31
0.0
  0
LINE
  5
D5CD
100
AcDbEntity
  8
0
100
AcDbLine
 10
2999.42326
 20
1551.799499
 30
0.0
 11
2999.42326
 21
1510.76729
 31
0.0
  0
LINE
  5
D5CE
100
AcDbEntity
  8
0
100
AcDbLine
 10
2944.174109
 20
1109.798499
 30
0.0
 11
2944.174109
 21
1800.803499
 31
0.0
  0
LINE
  5
D5CF
100
AcDbEntity
  8
0
100
AcDbLine
 10
7154.659218
 20
1455.091876
 30
0.0
 11
7154.659218
 21
1551.799499
 31
0.0
  0
LINE
  5
D5D0
100
AcDbEntity
  8
0
100
AcDbLine
 10
7149.829467
 20
1465.314011
 30
0.0
 11
7149.829467
 21
1551.799499
 31
0.0
  0
LINE
  5
D5D1
100
AcDbEntity
  8
0
100
AcDbLine
 10
7118.001759
 20
1481.974765
 30
0.0
 11
7118.001759
 21
1551.799499
 31
0.0
  0
LINE
  5
D5D2
100
AcDbEntity
  8
0
100
AcDbLine
 10
7167.592246
 20
1109.798499
 30
0.0
 11
7167.592246
 21
1779.013499
 31
0.0
  0
LINE
  5
D5D3
100
AcDbEntity
  8
0
100
AcDbLine
 10
6945.107947
 20
1800.803499
 30
0.0
 11
6945.107947
 21
1109.798499
 31
0.0
  0
LINE
  5
D5D4
100
AcDbEntity
  8
0
100
AcDbLine
 10
6874.397269
 20
1800.803499
 30
0.0
 11
6874.397269
 21
1109.798499
 31
0.0
  0
LINE
  5
D5D5
100
AcDbEntity
  8
0
100
AcDbLine
 10
7096.752608
 20
1551.799499
 30
0.0
 11
7096.752608
 21
1510.807532
 31
0.0
  0
LINE
  5
D5D6
100
AcDbEntity
  8
0
100
AcDbLine
 10
7062.752608
 20
1551.799499
 30
0.0
 11
7062.752608
 21
1510.76729
 31
0.0
  0
LINE
  5
D5D8
100
AcDbEntity
  8
0
100
AcDbLine
 10
5215.240378
 20
1466.798499
 30
0.0
 11
5215.240378
 21
1551.799499
 31
0.0
  0
LINE
  5
D5D9
100
AcDbEntity
  8
0
100
AcDbLine
 10
5154.740378
 20
1551.799499
 30
0.0
 11
5154.740378
 21
1466.798499
 31
0.0
  0
LINE
  5
D5DA
100
AcDbEntity
  8
0
100
AcDbLine
 10
5443.120378
 20
1800.803499
 30
0.0
 11
5443.120378
 21
1109.798499
 31
0.0
  0
LINE
  5
D5DB
100
AcDbEntity
  8
0
100
AcDbLine
 10
5482.720378
 20
1109.798499
 30
0.0
 11
5482.720378
 21
1779.013499
 31
0.0
  0
LINE
  5
D5DC
100
AcDbEntity
  8
0
100
AcDbLine
 10
5447.360378
 20
1800.803499
 30
0.0
 11
5447.360378
 21
1109.798499
 31
0.0
  0
LINE
  5
D5DD
100
AcDbEntity
  8
0
100
AcDbLine
 10
5084.420378
 20
1109.798499
 30
0.0
 11
5084.420378
 21
1800.803499
 31
0.0
  0
LINE
  5
D5DE
100
AcDbEntity
  8
0
100
AcDbLine
 10
5023.180378
 20
1800.803499
 30
0.0
 11
5023.180378
 21
1109.798499
 31
0.0
  0
LINE
  5
D5DF
100
AcDbEntity
  8
0
100
AcDbLine
 10
5036.120378
 20
1779.013499
 30
0.0
 11
5036.120378
 21
1109.798499
 31
0.0
  0
LINE
  5
D5E0
100
AcDbEntity
  8
0
100
AcDbLine
 10
3187.778599
 20
1450.798499
 30
0.0
 11
3187.778599
 21
1109.798499
 31
0.0
  0
LINE
  5
D5E1
100
AcDbEntity
  8
0
100
AcDbLine
 10
3117.067921
 20
1450.798499
 30
0.0
 11
3117.067921
 21
1109.798499
 31
0.0
  0
LINE
  5
D5E2
100
AcDbEntity
  8
0
100
AcDbLine
 10
3188.550315
 20
1109.798499
 30
0.0
 11
3127.310315
 21
1109.798499
 31
0.0
  0
LINE
  5
D5E3
100
AcDbEntity
  8
0
100
AcDbLine
 10
3097.926204
 20
1109.798499
 30
0.0
 11
3206.920315
 21
1109.798499
 31
0.0
  0
LINE
  5
D5E4
100
AcDbEntity
  8
0
100
AcDbLine
 10
3206.920315
 20
1100.798499
 30
0.0
 11
3097.926204
 21
1100.798499
 31
0.0
  0
LINE
  5
D5E5
100
AcDbEntity
  8
0
100
AcDbLine
 10
2876.20326
 20
1100.798499
 30
0.0
 11
2876.20326
 21
1109.798499
 31
0.0
  0
LINE
  5
D5E6
100
AcDbEntity
  8
0
100
AcDbLine
 10
2876.20326
 20
1109.798499
 30
0.0
 11
2876.20326
 21
1100.798499
 31
0.0
  0
LINE
  5
D5E7
100
AcDbEntity
  8
0
100
AcDbLine
 10
2950.65326
 20
1109.798499
 30
0.0
 11
2950.65326
 21
1100.798499
 31
0.0
  0
LINE
  5
D5E8
100
AcDbEntity
  8
0
100
AcDbLine
 10
2970.607895
 20
1109.798499
 30
0.0
 11
2970.607895
 21
1100.798499
 31
0.0
  0
LINE
  5
D5E9
100
AcDbEntity
  8
0
100
AcDbLine
 10
2876.20326
 20
1109.798499
 30
0.0
 11
2970.607895
 21
1109.798499
 31
0.0
  0
LINE
  5
D5EA
100
AcDbEntity
  8
0
100
AcDbLine
 10
2970.607895
 20
1100.798499
 30
0.0
 11
2876.20326
 21
1100.798499
 31
0.0
  0
LINE
  5
D5EB
100
AcDbEntity
  8
0
100
AcDbLine
 10
3097.926204
 20
1109.798499
 30
0.0
 11
3097.926204
 21
1100.798499
 31
0.0
  0
LINE
  5
D5EC
100
AcDbEntity
  8
0
100
AcDbLine
 10
3097.926204
 20
1109.798499
 30
0.0
 11
3097.926204
 21
1100.798499
 31
0.0
  0
LINE
  5
D5ED
100
AcDbEntity
  8
0
100
AcDbLine
 10
3206.920315
 20
1109.798499
 30
0.0
 11
3206.920315
 21
1100.798499
 31
0.0
  0
LINE
  5
D5EE
100
AcDbEntity
  8
0
100
AcDbLine
 10
3206.920315
 20
1109.798499
 30
0.0
 11
3206.920315
 21
1100.798499
 31
0.0
  0
LINE
  5
D5EF
100
AcDbEntity
  8
0
100
AcDbLine
 10
3334.238624
 20
1109.798499
 30
0.0
 11
3334.238624
 21
1100.798499
 31
0.0
  0
LINE
  5
D5F0
100
AcDbEntity
  8
0
100
AcDbLine
 10
3354.19326
 20
1109.798499
 30
0.0
 11
3354.19326
 21
1100.798499
 31
0.0
  0
LINE
  5
D5F1
100
AcDbEntity
  8
0
100
AcDbLine
 10
3428.64326
 20
1109.798499
 30
0.0
 11
3428.64326
 21
1100.798499
 31
0.0
  0
LINE
  5
D5F2
100
AcDbEntity
  8
0
100
AcDbLine
 10
3428.64326
 20
1100.798499
 30
0.0
 11
3428.64326
 21
1109.798499
 31
0.0
  0
LINE
  5
D5F3
100
AcDbEntity
  8
0
100
AcDbLine
 10
3334.238624
 20
1100.798499
 30
0.0
 11
3428.64326
 21
1100.798499
 31
0.0
  0
LINE
  5
D5F4
100
AcDbEntity
  8
0
100
AcDbLine
 10
3428.64326
 20
1109.798499
 30
0.0
 11
3334.238624
 21
1109.798499
 31
0.0
  0
LINE
  5
D5F5
100
AcDbEntity
  8
0
100
AcDbLine
 10
3074.92326
 20
1466.798499
 30
0.0
 11
3229.92326
 21
1466.798499
 31
0.0
  0
LINE
  5
D5F6
100
AcDbEntity
  8
0
100
AcDbLine
 10
3229.92326
 20
1450.798499
 30
0.0
 11
3074.92326
 21
1450.798499
 31
0.0
  0
LINE
  5
D5F7
100
AcDbEntity
  8
0
100
AcDbLine
 10
3007.92326
 20
1456.407532
 30
0.0
 11
3018.42326
 21
1461.307532
 31
0.0
  0
LINE
  5
D5F8
100
AcDbEntity
  8
0
100
AcDbLine
 10
3018.42326
 20
1470.307532
 30
0.0
 11
3010.92326
 21
1473.807532
 31
0.0
  0
LINE
  5
D5F9
100
AcDbEntity
  8
0
100
AcDbLine
 10
2945.42326
 20
1446.807532
 30
0.0
 11
2945.42326
 21
1484.807532
 31
0.0
  0
ARC
  5
D5FA
100
AcDbEntity
  8
0
100
AcDbCircle
 10
2941.88976
 20
1465.152032
 30
0.0
 40
23.717647
100
AcDbArc
 50
309.334959
 51
13.795143
  0
LINE
  5
D5FB
100
AcDbEntity
  8
0
100
AcDbLine
 10
2993.92326
 20
1438.307532
 30
0.0
 11
2993.92326
 21
1470.807532
 31
0.0
  0
LINE
  5
D5FC
100
AcDbEntity
  8
0
100
AcDbLine
 10
2970.92326
 20
1465.807532
 30
0.0
 11
2970.92326
 21
1438.307532
 31
0.0
  0
LINE
  5
D5FD
100
AcDbEntity
  8
0
100
AcDbLine
 10
3007.92326
 20
1439.423532
 30
0.0
 11
3007.92326
 21
1456.407532
 31
0.0
  0
ARC
  5
D5FE
100
AcDbEntity
  8
0
100
AcDbCircle
 10
2958.435395
 20
1439.432614
 30
0.0
 40
1.512163
100
AcDbArc
 50
180.344108
 51
252.999134
  0
LINE
  5
D5FF
100
AcDbEntity
  8
0
100
AcDbLine
 10
2958.75326
 20
1437.758532
 30
0.0
 11
2958.75326
 21
1423.978532
 31
0.0
  0
LINE
  5
D600
100
AcDbEntity
  8
0
100
AcDbLine
 10
2970.92326
 20
1438.307532
 30
0.0
 11
2958.10326
 21
1438.307532
 31
0.0
  0
LINE
  5
D601
100
AcDbEntity
  8
0
100
AcDbLine
 10
2970.58326
 20
1423.978532
 30
0.0
 11
2970.58326
 21
1437.758532
 31
0.0
  0
ARC
  5
D602
100
AcDbEntity
  8
0
100
AcDbCircle
 10
2964.616531
 20
1455.999452
 30
0.0
 40
19.192004
100
AcDbArc
 50
249.811747
 51
288.113271
  0
LINE
  5
D603
100
AcDbEntity
  8
0
100
AcDbLine
 10
2958.75326
 20
1423.978532
 30
0.0
 11
2961.92326
 21
1420.807532
 31
0.0
  0
ARC
  5
D604
100
AcDbEntity
  8
0
100
AcDbCircle
 10
2964.66826
 20
1427.909778
 30
0.0
 40
7.102247
100
AcDbArc
 50
236.372999
 51
326.391071
  0
LINE
  5
D605
100
AcDbEntity
  8
0
100
AcDbLine
 10
2994.26326
 20
1423.978532
 30
0.0
 11
2994.26326
 21
1437.758532
 31
0.0
  0
ARC
  5
D606
100
AcDbEntity
  8
0
100
AcDbCircle
 10
3000.17826
 20
1427.909778
 30
0.0
 40
7.102247
100
AcDbArc
 50
213.608929
 51
303.627001
  0
LINE
  5
D607
100
AcDbEntity
  8
0
100
AcDbLine
 10
2982.42326
 20
1420.807532
 30
0.0
 11
3002.92326
 21
1420.807532
 31
0.0
  0
LINE
  5
D608
100
AcDbEntity
  8
0
100
AcDbLine
 10
2982.42326
 20
1420.815565
 30
0.0
 11
2961.92326
 21
1420.807532
 31
0.0
  0
ARC
  5
D609
100
AcDbEntity
  8
0
100
AcDbCircle
 10
2982.42326
 20
1444.55751
 30
0.0
 40
23.741944
100
AcDbArc
 50
240.08627
 51
299.91373
  0
ARC
  5
D60A
100
AcDbEntity
  8
0
100
AcDbCircle
 10
2982.42326
 20
1510.987343
 30
0.0
 40
74.179811
100
AcDbArc
 50
260.815615
 51
279.184385
  0
LINE
  5
D60B
100
AcDbEntity
  8
0
100
AcDbLine
 10
2993.92326
 20
1439.381532
 30
0.0
 11
2970.92326
 21
1439.381532
 31
0.0
  0
ARC
  5
D60C
100
AcDbEntity
  8
0
100
AcDbCircle
 10
2952.925215
 20
1442.809487
 30
0.0
 40
3.998045
100
AcDbArc
 50
359.971978
 51
90.028022
  0
LINE
  5
D60D
100
AcDbEntity
  8
0
100
AcDbLine
 10
2945.42326
 20
1446.807532
 30
0.0
 11
2952.92326
 21
1446.807532
 31
0.0
  0
LINE
  5
D60E
100
AcDbEntity
  8
0
100
AcDbLine
 10
2944.174109
 20
1449.640299
 30
0.0
 11
2945.42326
 21
1448.807532
 31
0.0
  0
LINE
  5
D60F
100
AcDbEntity
  8
0
100
AcDbLine
 10
2956.92326
 20
1442.807532
 30
0.0
 11
2956.92326
 21
1439.423532
 31
0.0
  0
LINE
  5
D610
100
AcDbEntity
  8
0
100
AcDbLine
 10
3006.09326
 20
1423.978532
 30
0.0
 11
3006.09326
 21
1437.725015
 31
0.0
  0
ARC
  5
D611
100
AcDbEntity
  8
0
100
AcDbCircle
 10
3006.411124
 20
1439.432614
 30
0.0
 40
1.512163
100
AcDbArc
 50
287.000866
 51
359.655892
  0
ARC
  5
D612
100
AcDbEntity
  8
0
100
AcDbCircle
 10
3000.229988
 20
1455.999452
 30
0.0
 40
19.192004
100
AcDbArc
 50
251.886729
 51
290.188253
  0
LINE
  5
D613
100
AcDbEntity
  8
0
100
AcDbLine
 10
3006.63326
 20
1438.307532
 30
0.0
 11
2993.922225
 21
1438.307532
 31
0.0
  0
LINE
  5
D614
100
AcDbEntity
  8
0
100
AcDbLine
 10
3002.92326
 20
1420.807532
 30
0.0
 11
3006.09326
 21
1423.978532
 31
0.0
  0
ARC
  5
D615
100
AcDbEntity
  8
0
100
AcDbCircle
 10
2932.368382
 20
1465.64607
 30
0.0
 40
28.840498
100
AcDbArc
 50
10.309524
 51
41.635872
  0
LINE
  5
D616
100
AcDbEntity
  8
0
100
AcDbLine
 10
2960.74326
 20
1470.807532
 30
0.0
 11
2965.92326
 21
1470.807532
 31
0.0
  0
LINE
  5
D617
100
AcDbEntity
  8
0
100
AcDbLine
 10
2949.92326
 20
1484.807532
 30
0.0
 11
2945.42326
 21
1484.807532
 31
0.0
  0
LINE
  5
D618
100
AcDbEntity
  8
0
100
AcDbLine
 10
2944.174109
 20
1481.974765
 30
0.0
 11
2945.42326
 21
1482.807532
 31
0.0
  0
ARC
  5
D619
100
AcDbEntity
  8
0
100
AcDbCircle
 10
2965.887026
 20
1465.771299
 30
0.0
 40
5.036364
100
AcDbArc
 50
0.412211
 51
89.587789
  0
LINE
  5
D61A
100
AcDbEntity
  8
0
100
AcDbLine
 10
3010.92326
 20
1457.797532
 30
0.0
 11
3010.92326
 21
1457.807532
 31
0.0
  0
ARC
  5
D61B
100
AcDbEntity
  8
0
100
AcDbCircle
 10
3032.223103
 20
1465.808219
 30
0.0
 40
25.583068
100
AcDbArc
 50
168.731037
 51
198.224051
  0
LINE
  5
D61C
100
AcDbEntity
  8
0
100
AcDbLine
 10
2993.92326
 20
1470.807532
 30
0.0
 11
3010.22026
 21
1470.807532
 31
0.0
  0
LINE
  5
D61D
100
AcDbEntity
  8
0
100
AcDbLine
 10
2953.92326
 20
1493.30758
 30
0.0
 11
2953.92326
 21
1488.807532
 31
0.0
  0
ARC
  5
D61E
100
AcDbEntity
  8
0
100
AcDbCircle
 10
2963.718786
 20
1461.126251
 30
0.0
 40
33.639118
100
AcDbArc
 50
78.22539
 51
106.929482
  0
LINE
  5
D61F
100
AcDbEntity
  8
0
100
AcDbLine
 10
2961.92326
 20
1510.807532
 30
0.0
 11
2958.75326
 21
1507.636532
 31
0.0
  0
LINE
  5
D620
100
AcDbEntity
  8
0
100
AcDbLine
 10
2958.75326
 20
1507.636532
 30
0.0
 11
2958.75326
 21
1494.396866
 31
0.0
  0
LINE
  5
D621
100
AcDbEntity
  8
0
100
AcDbLine
 10
2970.58326
 20
1507.636532
 30
0.0
 11
2970.58326
 21
1494.057532
 31
0.0
  0
ARC
  5
D622
100
AcDbEntity
  8
0
100
AcDbCircle
 10
2964.66826
 20
1503.705287
 30
0.0
 40
7.102247
100
AcDbArc
 50
33.608929
 51
123.627001
  0
LINE
  5
D623
100
AcDbEntity
  8
0
100
AcDbLine
 10
2994.26326
 20
1507.636532
 30
0.0
 11
2994.26326
 21
1494.057532
 31
0.0
  0
LINE
  5
D624
100
AcDbEntity
  8
0
100
AcDbLine
 10
3002.92326
 20
1510.807532
 30
0.0
 11
2982.42326
 21
1510.807532
 31
0.0
  0
ARC
  5
D625
100
AcDbEntity
  8
0
100
AcDbCircle
 10
3000.17826
 20
1503.705287
 30
0.0
 40
7.102247
100
AcDbArc
 50
56.372999
 51
146.391071
  0
LINE
  5
D626
100
AcDbEntity
  8
0
100
AcDbLine
 10
2961.92326
 20
1510.807532
 30
0.0
 11
2982.42326
 21
1510.807532
 31
0.0
  0
ARC
  5
D627
100
AcDbEntity
  8
0
100
AcDbCircle
 10
2982.42326
 20
1420.828721
 30
0.0
 40
74.179811
100
AcDbArc
 50
80.815615
 51
99.184385
  0
ARC
  5
D628
100
AcDbEntity
  8
0
100
AcDbCircle
 10
2982.42326
 20
1487.057554
 30
0.0
 40
23.741944
100
AcDbArc
 50
60.08627
 51
119.91373
  0
ARC
  5
D629
100
AcDbEntity
  8
0
100
AcDbCircle
 10
3008.111755
 20
1495.786179
 30
0.0
 40
2.018556
100
AcDbArc
 50
180.44414
 51
260.634164
  0
LINE
  5
D62A
100
AcDbEntity
  8
0
100
AcDbLine
 10
3010.92326
 20
1493.30758
 30
0.0
 11
3007.78326
 21
1493.794532
 31
0.0
  0
LINE
  5
D62B
100
AcDbEntity
  8
0
100
AcDbLine
 10
3006.09326
 20
1495.770532
 30
0.0
 11
3006.09326
 21
1507.636532
 31
0.0
  0
LINE
  5
D62C
100
AcDbEntity
  8
0
100
AcDbLine
 10
2953.92326
 20
1489.307532
 30
0.0
 11
3010.92326
 21
1489.307532
 31
0.0
  0
LINE
  5
D62D
100
AcDbEntity
  8
0
100
AcDbLine
 10
2956.66326
 20
1493.307532
 30
0.0
 11
3008.18326
 21
1493.307532
 31
0.0
  0
ARC
  5
D62E
100
AcDbEntity
  8
0
100
AcDbCircle
 10
3000.501801
 20
1467.119464
 30
0.0
 40
27.65102
100
AcDbArc
 50
74.732006
 51
103.039164
  0
LINE
  5
D62F
100
AcDbEntity
  8
0
100
AcDbLine
 10
3006.09326
 20
1507.636532
 30
0.0
 11
3002.92326
 21
1510.807532
 31
0.0
  0
LINE
  5
D630
100
AcDbEntity
  8
0
100
AcDbLine
 10
3010.92326
 20
1493.30758
 30
0.0
 11
3010.92326
 21
1457.807532
 31
0.0
  0
ARC
  5
D631
100
AcDbEntity
  8
0
100
AcDbCircle
 10
2949.886559
 20
1488.844233
 30
0.0
 40
4.036867
100
AcDbArc
 50
270.520902
 51
359.479098
  0
LINE
  5
D632
100
AcDbEntity
  8
0
100
AcDbLine
 10
3018.42326
 20
1461.307532
 30
0.0
 11
3018.42326
 21
1470.307532
 31
0.0
  0
LINE
  5
D633
100
AcDbEntity
  8
0
100
AcDbLine
 10
3074.92326
 20
1450.798499
 30
0.0
 11
3074.92326
 21
1466.798499
 31
0.0
  0
LINE
  5
D634
100
AcDbEntity
  8
0
100
AcDbLine
 10
3229.92326
 20
1466.798499
 30
0.0
 11
3229.92326
 21
1450.798499
 31
0.0
  0
LINE
  5
D635
100
AcDbEntity
  8
0
100
AcDbLine
 10
5102.790378
 20
1100.798499
 30
0.0
 11
5102.790378
 21
1109.798499
 31
0.0
  0
LINE
  5
D636
100
AcDbEntity
  8
0
100
AcDbLine
 10
5025.520378
 20
1109.798499
 30
0.0
 11
5025.520378
 21
1100.798499
 31
0.0
  0
LINE
  5
D637
100
AcDbEntity
  8
0
100
AcDbLine
 10
5004.810378
 20
1109.798499
 30
0.0
 11
5004.810378
 21
1100.798499
 31
0.0
  0
LINE
  5
D638
100
AcDbEntity
  8
0
100
AcDbLine
 10
5102.790378
 20
1109.798499
 30
0.0
 11
5004.810378
 21
1109.798499
 31
0.0
  0
LINE
  5
D639
100
AcDbEntity
  8
0
100
AcDbLine
 10
5004.810378
 20
1100.798499
 30
0.0
 11
5102.790378
 21
1100.798499
 31
0.0
  0
LINE
  5
D63A
100
AcDbEntity
  8
0
100
AcDbLine
 10
5023.180378
 20
1109.798499
 30
0.0
 11
5084.420378
 21
1109.798499
 31
0.0
  0
LINE
  5
D63B
100
AcDbEntity
  8
0
100
AcDbLine
 10
5503.930378
 20
1109.798499
 30
0.0
 11
5390.790378
 21
1109.798499
 31
0.0
  0
LINE
  5
D63C
100
AcDbEntity
  8
0
100
AcDbLine
 10
5390.790378
 20
1100.798499
 30
0.0
 11
5503.930378
 21
1100.798499
 31
0.0
  0
LINE
  5
D63D
100
AcDbEntity
  8
0
100
AcDbLine
 10
5390.790378
 20
1109.798499
 30
0.0
 11
5390.790378
 21
1100.798499
 31
0.0
  0
LINE
  5
D63E
100
AcDbEntity
  8
0
100
AcDbLine
 10
5503.930378
 20
1100.798499
 30
0.0
 11
5503.930378
 21
1109.798499
 31
0.0
  0
LINE
  5
D63F
100
AcDbEntity
  8
0
100
AcDbLine
 10
5447.360378
 20
1100.798499
 30
0.0
 11
5447.360378
 21
1109.798499
 31
0.0
  0
LINE
  5
D640
100
AcDbEntity
  8
0
100
AcDbLine
 10
5443.120378
 20
1109.798499
 30
0.0
 11
5482.720378
 21
1109.798499
 31
0.0
  0
LINE
  5
D641
100
AcDbEntity
  8
0
100
AcDbLine
 10
5194.340378
 20
1342.166499
 30
0.0
 11
5192.090378
 21
1420.799499
 31
0.0
  0
LINE
  5
D642
100
AcDbEntity
  8
0
100
AcDbLine
 10
5177.890378
 20
1420.799499
 30
0.0
 11
5175.630378
 21
1342.166499
 31
0.0
  0
ARC
  5
D643
100
AcDbEntity
  8
0
100
AcDbCircle
 10
5181.631665
 20
1341.998213
 30
0.0
 40
6.003646
100
AcDbArc
 50
178.393757
 51
263.388037
  0
ARC
  5
D644
100
AcDbEntity
  8
0
100
AcDbCircle
 10
5188.343985
 20
1341.992847
 30
0.0
 40
5.998906
100
AcDbArc
 50
276.666299
 51
1.658787
  0
ARC
  5
D645
100
AcDbEntity
  8
0
100
AcDbCircle
 10
5184.990378
 20
1370.779578
 30
0.0
 40
34.980323
100
AcDbArc
 50
263.35142
 51
276.64858
  0
LINE
  5
D646
100
AcDbEntity
  8
0
100
AcDbLine
 10
5262.490378
 20
1466.798499
 30
0.0
 11
5107.490378
 21
1466.798499
 31
0.0
  0
LINE
  5
D647
100
AcDbEntity
  8
0
100
AcDbLine
 10
5107.490378
 20
1450.798499
 30
0.0
 11
5262.490378
 21
1450.798499
 31
0.0
  0
LINE
  5
D648
100
AcDbEntity
  8
0
100
AcDbLine
 10
5107.490378
 20
1466.798499
 30
0.0
 11
5107.490378
 21
1450.798499
 31
0.0
  0
LINE
  5
D649
100
AcDbEntity
  8
0
100
AcDbLine
 10
5262.490378
 20
1450.798499
 30
0.0
 11
5262.490378
 21
1466.798499
 31
0.0
  0
LINE
  5
D64A
100
AcDbEntity
  8
0
100
AcDbLine
 10
5212.270378
 20
1438.069499
 30
0.0
 11
5207.120378
 21
1437.105499
 31
0.0
  0
LINE
  5
D64B
100
AcDbEntity
  8
0
100
AcDbLine
 10
5207.120378
 20
1437.105499
 30
0.0
 11
5209.270378
 21
1437.507499
 31
0.0
  0
LINE
  5
D64C
100
AcDbEntity
  8
0
100
AcDbLine
 10
5184.990378
 20
1437.545034
 30
0.0
 11
5184.990378
 21
1450.798499
 31
0.0
  0
ARC
  5
D64D
100
AcDbEntity
  8
0
100
AcDbCircle
 10
5198.28484
 20
1549.575679
 30
0.0
 40
112.816702
100
AcDbArc
 50
263.232468
 51
274.49187
  0
ARC
  5
D64E
100
AcDbEntity
  8
0
100
AcDbCircle
 10
5207.489548
 20
1435.140709
 30
0.0
 40
1.999171
100
AcDbArc
 50
100.641411
 51
180.0347
  0
LINE
  5
D64F
100
AcDbEntity
  8
0
100
AcDbLine
 10
5210.490378
 20
1438.981499
 30
0.0
 11
5210.490378
 21
1450.798499
 31
0.0
  0
LINE
  5
D650
100
AcDbEntity
  8
0
100
AcDbLine
 10
5213.490378
 20
1439.544499
 30
0.0
 11
5213.490378
 21
1450.798499
 31
0.0
  0
ARC
  5
D651
100
AcDbEntity
  8
0
100
AcDbCircle
 10
5208.984316
 20
1438.986151
 30
0.0
 40
1.506069
100
AcDbArc
 50
280.949236
 51
359.823024
  0
ARC
  5
D652
100
AcDbEntity
  8
0
100
AcDbCircle
 10
5211.983326
 20
1439.548967
 30
0.0
 40
1.507058
100
AcDbArc
 50
280.980289
 51
359.830142
  0
LINE
  5
D653
100
AcDbEntity
  8
0
100
AcDbLine
 10
5159.490378
 20
1438.981499
 30
0.0
 11
5159.490378
 21
1450.798499
 31
0.0
  0
LINE
  5
D654
100
AcDbEntity
  8
0
100
AcDbLine
 10
5156.490378
 20
1450.798499
 30
0.0
 11
5156.490378
 21
1439.544499
 31
0.0
  0
LINE
  5
D655
100
AcDbEntity
  8
0
100
AcDbLine
 10
5162.860378
 20
1437.105499
 30
0.0
 11
5160.710378
 21
1437.507499
 31
0.0
  0
LINE
  5
D656
100
AcDbEntity
  8
0
100
AcDbLine
 10
5157.710378
 20
1438.069499
 30
0.0
 11
5162.860378
 21
1437.105499
 31
0.0
  0
ARC
  5
D657
100
AcDbEntity
  8
0
100
AcDbCircle
 10
5157.997429
 20
1439.548967
 30
0.0
 40
1.507058
100
AcDbArc
 50
180.169858
 51
259.019711
  0
ARC
  5
D658
100
AcDbEntity
  8
0
100
AcDbCircle
 10
5160.996439
 20
1438.986151
 30
0.0
 40
1.506069
100
AcDbArc
 50
180.176976
 51
259.050764
  0
ARC
  5
D659
100
AcDbEntity
  8
0
100
AcDbCircle
 10
5162.491207
 20
1435.140709
 30
0.0
 40
1.999171
100
AcDbArc
 50
359.9653
 51
79.358589
  0
ARC
  5
D65A
100
AcDbEntity
  8
0
100
AcDbCircle
 10
5171.695915
 20
1549.575679
 30
0.0
 40
112.816702
100
AcDbArc
 50
265.50813
 51
276.767532
  0
ARC
  5
D65B
100
AcDbEntity
  8
0
100
AcDbCircle
 10
5195.240378
 20
1438.959023
 30
0.0
 40
18.158148
100
AcDbArc
 50
235.633473
 51
304.366527
  0
ARC
  5
D65C
100
AcDbEntity
  8
0
100
AcDbCircle
 10
5174.740378
 20
1438.959023
 30
0.0
 40
18.158148
100
AcDbArc
 50
235.633473
 51
304.366527
  0
LINE
  5
D65D
100
AcDbEntity
  8
0
100
AcDbLine
 10
5164.490378
 20
1420.799499
 30
0.0
 11
5205.490378
 21
1420.799499
 31
0.0
  0
LINE
  5
D65E
100
AcDbEntity
  8
0
100
AcDbLine
 10
5164.490378
 20
1435.139499
 30
0.0
 11
5164.490378
 21
1420.799499
 31
0.0
  0
LINE
  5
D65F
100
AcDbEntity
  8
0
100
AcDbLine
 10
5184.990378
 20
1423.970499
 30
0.0
 11
5184.990378
 21
1437.545034
 31
0.0
  0
LINE
  5
D660
100
AcDbEntity
  8
0
100
AcDbLine
 10
5205.490378
 20
1420.799499
 30
0.0
 11
5205.490378
 21
1435.139499
 31
0.0
  0
LINE
  5
D662
100
AcDbEntity
  8
0
100
AcDbLine
 10
6633.532608
 20
1100.798499
 30
0.0
 11
6633.532608
 21
1109.798499
 31
0.0
  0
LINE
  5
D663
100
AcDbEntity
  8
0
100
AcDbLine
 10
6633.532608
 20
1109.798499
 30
0.0
 11
6633.532608
 21
1100.798499
 31
0.0
  0
LINE
  5
D664
100
AcDbEntity
  8
0
100
AcDbLine
 10
6653.488859
 20
1109.798499
 30
0.0
 11
6653.488859
 21
1100.798499
 31
0.0
  0
LINE
  5
D665
100
AcDbEntity
  8
0
100
AcDbLine
 10
6727.937244
 20
1109.798499
 30
0.0
 11
6727.937244
 21
1100.798499
 31
0.0
  0
LINE
  5
D666
100
AcDbEntity
  8
0
100
AcDbLine
 10
6694.342608
 20
1109.798499
 30
0.0
 11
6654.742608
 21
1109.798499
 31
0.0
  0
LINE
  5
D667
100
AcDbEntity
  8
0
100
AcDbLine
 10
6633.532608
 20
1109.798499
 30
0.0
 11
6727.937244
 21
1109.798499
 31
0.0
  0
LINE
  5
D668
100
AcDbEntity
  8
0
100
AcDbLine
 10
6727.937244
 20
1100.798499
 30
0.0
 11
6633.532608
 21
1100.798499
 31
0.0
  0
LINE
  5
D669
100
AcDbEntity
  8
0
100
AcDbLine
 10
7149.829467
 20
1109.798499
 30
0.0
 11
7149.829467
 21
1437.731858
 31
0.0
  0
LINE
  5
D66A
100
AcDbEntity
  8
0
100
AcDbLine
 10
7118.001759
 20
1109.798499
 30
0.0
 11
7118.001759
 21
1449.640299
 31
0.0
  0
LINE
  5
D66B
100
AcDbEntity
  8
0
100
AcDbLine
 10
7154.659218
 20
1109.798499
 30
0.0
 11
7154.659218
 21
1355.569894
 31
0.0
  0
LINE
  5
D66C
100
AcDbEntity
  8
0
100
AcDbLine
 10
6873.625553
 20
1109.798499
 30
0.0
 11
6934.865553
 21
1109.798499
 31
0.0
  0
LINE
  5
D66D
100
AcDbEntity
  8
0
100
AcDbLine
 10
6855.255553
 20
1100.798499
 30
0.0
 11
6964.249663
 21
1100.798499
 31
0.0
  0
LINE
  5
D66E
100
AcDbEntity
  8
0
100
AcDbLine
 10
6964.249663
 20
1109.798499
 30
0.0
 11
6855.255553
 21
1109.798499
 31
0.0
  0
LINE
  5
D66F
100
AcDbEntity
  8
0
100
AcDbLine
 10
6855.255553
 20
1109.798499
 30
0.0
 11
6855.255553
 21
1100.798499
 31
0.0
  0
LINE
  5
D670
100
AcDbEntity
  8
0
100
AcDbLine
 10
6855.255553
 20
1109.798499
 30
0.0
 11
6855.255553
 21
1100.798499
 31
0.0
  0
LINE
  5
D671
100
AcDbEntity
  8
0
100
AcDbLine
 10
6964.249663
 20
1109.798499
 30
0.0
 11
6964.249663
 21
1100.798499
 31
0.0
  0
LINE
  5
D672
100
AcDbEntity
  8
0
100
AcDbLine
 10
6964.249663
 20
1109.798499
 30
0.0
 11
6964.249663
 21
1100.798499
 31
0.0
  0
LINE
  5
D673
100
AcDbEntity
  8
0
100
AcDbLine
 10
6909.752608
 20
1109.798499
 30
0.0
 11
6909.752608
 21
1100.798499
 31
0.0
  0
LINE
  5
D674
100
AcDbEntity
  8
0
100
AcDbLine
 10
7125.162608
 20
1109.798499
 30
0.0
 11
7164.762608
 21
1109.798499
 31
0.0
  0
LINE
  5
D675
100
AcDbEntity
  8
0
100
AcDbLine
 10
7091.567972
 20
1100.798499
 30
0.0
 11
7185.972608
 21
1100.798499
 31
0.0
  0
LINE
  5
D676
100
AcDbEntity
  8
0
100
AcDbLine
 10
7185.972608
 20
1109.798499
 30
0.0
 11
7091.567972
 21
1109.798499
 31
0.0
  0
LINE
  5
D677
100
AcDbEntity
  8
0
100
AcDbLine
 10
7091.567972
 20
1109.798499
 30
0.0
 11
7091.567972
 21
1100.798499
 31
0.0
  0
LINE
  5
D678
100
AcDbEntity
  8
0
100
AcDbLine
 10
7166.016357
 20
1109.798499
 30
0.0
 11
7166.016357
 21
1100.798499
 31
0.0
  0
LINE
  5
D679
100
AcDbEntity
  8
0
100
AcDbLine
 10
7185.972608
 20
1109.798499
 30
0.0
 11
7185.972608
 21
1100.798499
 31
0.0
  0
LINE
  5
D67A
100
AcDbEntity
  8
0
100
AcDbLine
 10
7185.972608
 20
1100.798499
 30
0.0
 11
7185.972608
 21
1109.798499
 31
0.0
  0
LINE
  5
D67B
100
AcDbEntity
  8
0
100
AcDbLine
 10
6874.397269
 20
1466.798499
 30
0.0
 11
6832.252608
 21
1466.798499
 31
0.0
  0
LINE
  5
D67C
100
AcDbEntity
  8
0
100
AcDbLine
 10
6832.252608
 20
1466.798499
 30
0.0
 11
6832.252608
 21
1450.798499
 31
0.0
  0
LINE
  5
D67D
100
AcDbEntity
  8
0
100
AcDbLine
 10
6832.252608
 20
1450.798499
 30
0.0
 11
6874.397269
 21
1450.798499
 31
0.0
  0
LINE
  5
D67E
100
AcDbEntity
  8
0
100
AcDbLine
 10
6945.107947
 20
1450.798499
 30
0.0
 11
6987.252608
 21
1450.798499
 31
0.0
  0
LINE
  5
D67F
100
AcDbEntity
  8
0
100
AcDbLine
 10
6987.252608
 20
1450.798499
 30
0.0
 11
6987.252608
 21
1466.798499
 31
0.0
  0
LINE
  5
D680
100
AcDbEntity
  8
0
100
AcDbLine
 10
6987.252608
 20
1466.798499
 30
0.0
 11
6945.107947
 21
1466.798499
 31
0.0
  0
LINE
  5
D681
100
AcDbEntity
  8
0
100
AcDbLine
 10
7155.255648
 20
1335.808532
 30
0.0
 11
7152.252608
 21
1435.307532
 31
0.0
  0
LINE
  5
D682
100
AcDbEntity
  8
0
100
AcDbLine
 10
7161.752608
 20
1425.807532
 30
0.0
 11
7161.752608
 21
1335.808532
 31
0.0
  0
LINE
  5
D683
100
AcDbEntity
  8
0
100
AcDbLine
 10
7161.752608
 20
1335.808532
 30
0.0
 11
7155.255648
 21
1335.808532
 31
0.0
  0
LINE
  5
D684
100
AcDbEntity
  8
0
100
AcDbLine
 10
7139.252608
 20
1483.220532
 30
0.0
 11
7139.252608
 21
1448.395532
 31
0.0
  0
ARC
  5
D685
100
AcDbEntity
  8
0
100
AcDbCircle
 10
6881.040755
 20
1332.06475
 30
0.0
 40
300.004561
100
AcDbArc
 50
21.457053
 51
30.606221
  0
LINE
  5
D686
100
AcDbEntity
  8
0
100
AcDbLine
 10
7161.752608
 20
1425.807532
 30
0.0
 11
7140.754695
 21
1446.807532
 31
0.0
  0
LINE
  5
D687
100
AcDbEntity
  8
0
100
AcDbLine
 10
7160.252608
 20
1441.807532
 30
0.0
 11
7160.252608
 21
1427.307532
 31
0.0
  0
ARC
  5
D688
100
AcDbEntity
  8
0
100
AcDbCircle
 10
7103.740473
 20
1439.432614
 30
0.0
 40
1.512163
100
AcDbArc
 50
287.000866
 51
359.655892
  0
LINE
  5
D689
100
AcDbEntity
  8
0
100
AcDbLine
 10
7103.422608
 20
1437.758532
 30
0.0
 11
7103.422608
 21
1423.978532
 31
0.0
  0
LINE
  5
D68A
100
AcDbEntity
  8
0
100
AcDbLine
 10
7091.252608
 20
1438.307532
 30
0.0
 11
7104.072608
 21
1438.307532
 31
0.0
  0
LINE
  5
D68B
100
AcDbEntity
  8
0
100
AcDbLine
 10
7091.592608
 20
1423.978532
 30
0.0
 11
7091.592608
 21
1437.758532
 31
0.0
  0
ARC
  5
D68C
100
AcDbEntity
  8
0
100
AcDbCircle
 10
7097.559337
 20
1455.999452
 30
0.0
 40
19.192004
100
AcDbArc
 50
251.886729
 51
290.188253
  0
LINE
  5
D68D
100
AcDbEntity
  8
0
100
AcDbLine
 10
7103.422608
 20
1423.978532
 30
0.0
 11
7100.252608
 21
1420.807532
 31
0.0
  0
ARC
  5
D68E
100
AcDbEntity
  8
0
100
AcDbCircle
 10
7097.507608
 20
1427.909778
 30
0.0
 40
7.102247
100
AcDbArc
 50
213.608929
 51
303.627001
  0
LINE
  5
D68F
100
AcDbEntity
  8
0
100
AcDbLine
 10
7067.912608
 20
1423.978532
 30
0.0
 11
7067.912608
 21
1437.758532
 31
0.0
  0
ARC
  5
D690
100
AcDbEntity
  8
0
100
AcDbCircle
 10
7061.997608
 20
1427.909778
 30
0.0
 40
7.102247
100
AcDbArc
 50
236.372999
 51
326.391071
  0
LINE
  5
D691
100
AcDbEntity
  8
0
100
AcDbLine
 10
7079.752608
 20
1420.807532
 30
0.0
 11
7059.252608
 21
1420.807532
 31
0.0
  0
LINE
  5
D692
100
AcDbEntity
  8
0
100
AcDbLine
 10
7079.752608
 20
1420.815565
 30
0.0
 11
7100.252608
 21
1420.807532
 31
0.0
  0
ARC
  5
D693
100
AcDbEntity
  8
0
100
AcDbCircle
 10
7079.752608
 20
1444.55751
 30
0.0
 40
23.741944
100
AcDbArc
 50
240.08627
 51
299.91373
  0
ARC
  5
D694
100
AcDbEntity
  8
0
100
AcDbCircle
 10
7079.752608
 20
1510.987343
 30
0.0
 40
74.179811
100
AcDbArc
 50
260.815615
 51
279.184385
  0
LINE
  5
D695
100
AcDbEntity
  8
0
100
AcDbLine
 10
7068.252608
 20
1439.381532
 30
0.0
 11
7091.252608
 21
1439.381532
 31
0.0
  0
ARC
  5
D696
100
AcDbEntity
  8
0
100
AcDbCircle
 10
7109.250653
 20
1442.809487
 30
0.0
 40
3.998045
100
AcDbArc
 50
89.971978
 51
180.028022
  0
LINE
  5
D697
100
AcDbEntity
  8
0
100
AcDbLine
 10
7116.752608
 20
1446.807532
 30
0.0
 11
7109.252608
 21
1446.807532
 31
0.0
  0
LINE
  5
D698
100
AcDbEntity
  8
0
100
AcDbLine
 10
7118.252608
 20
1449.807532
 30
0.0
 11
7116.752608
 21
1448.807532
 31
0.0
  0
ARC
  5
D699
100
AcDbEntity
  8
0
100
AcDbCircle
 10
7129.807485
 20
1465.64607
 30
0.0
 40
28.840498
100
AcDbArc
 50
138.364128
 51
169.690476
  0
LINE
  5
D69A
100
AcDbEntity
  8
0
100
AcDbLine
 10
7101.432608
 20
1470.807532
 30
0.0
 11
7096.252608
 21
1470.807532
 31
0.0
  0
LINE
  5
D69B
100
AcDbEntity
  8
0
100
AcDbLine
 10
7112.252608
 20
1484.807532
 30
0.0
 11
7116.752608
 21
1484.807532
 31
0.0
  0
LINE
  5
D69C
100
AcDbEntity
  8
0
100
AcDbLine
 10
7118.252608
 20
1481.807532
 30
0.0
 11
7116.752608
 21
1482.807532
 31
0.0
  0
LINE
  5
D69D
100
AcDbEntity
  8
0
100
AcDbLine
 10
7118.252608
 20
1446.807532
 30
0.0
 11
7118.252608
 21
1484.807532
 31
0.0
  0
LINE
  5
D69E
100
AcDbEntity
  8
0
100
AcDbLine
 10
7116.752608
 20
1446.807532
 30
0.0
 11
7116.752608
 21
1484.807532
 31
0.0
  0
ARC
  5
D69F
100
AcDbEntity
  8
0
100
AcDbCircle
 10
7120.286108
 20
1465.152032
 30
0.0
 40
23.717647
100
AcDbArc
 50
166.204857
 51
230.665041
  0
ARC
  5
D6A0
100
AcDbEntity
  8
0
100
AcDbCircle
 10
7096.288842
 20
1465.771299
 30
0.0
 40
5.036364
100
AcDbArc
 50
90.412211
 51
179.587789
  0
LINE
  5
D6A1
100
AcDbEntity
  8
0
100
AcDbLine
 10
7068.252608
 20
1438.307532
 30
0.0
 11
7068.252608
 21
1470.807532
 31
0.0
  0
LINE
  5
D6A2
100
AcDbEntity
  8
0
100
AcDbLine
 10
7105.252608
 20
1442.807532
 30
0.0
 11
7105.252608
 21
1439.423532
 31
0.0
  0
LINE
  5
D6A3
100
AcDbEntity
  8
0
100
AcDbLine
 10
7091.252608
 20
1465.807532
 30
0.0
 11
7091.252608
 21
1438.307532
 31
0.0
  0
LINE
  5
D6A4
100
AcDbEntity
  8
0
100
AcDbLine
 10
7056.082608
 20
1423.978532
 30
0.0
 11
7056.082608
 21
1437.725015
 31
0.0
  0
ARC
  5
D6A5
100
AcDbEntity
  8
0
100
AcDbCircle
 10
7055.764743
 20
1439.432614
 30
0.0
 40
1.512163
100
AcDbArc
 50
180.344108
 51
252.999134
  0
LINE
  5
D6A6
100
AcDbEntity
  8
0
100
AcDbLine
 10
7054.252608
 20
1456.407532
 30
0.0
 11
7043.752608
 21
1461.307532
 31
0.0
  0
LINE
  5
D6A7
100
AcDbEntity
  8
0
100
AcDbLine
 10
7051.252608
 20
1457.797532
 30
0.0
 11
7051.252608
 21
1457.807532
 31
0.0
  0
LINE
  5
D6A8
100
AcDbEntity
  8
0
100
AcDbLine
 10
7043.752608
 20
1470.307532
 30
0.0
 11
7051.252608
 21
1473.807532
 31
0.0
  0
ARC
  5
D6A9
100
AcDbEntity
  8
0
100
AcDbCircle
 10
7029.952765
 20
1465.808219
 30
0.0
 40
25.583068
100
AcDbArc
 50
341.775949
 51
11.268963
  0
LINE
  5
D6AA
100
AcDbEntity
  8
0
100
AcDbLine
 10
7043.752608
 20
1461.307532
 30
0.0
 11
7043.752608
 21
1470.307532
 31
0.0
  0
LINE
  5
D6AB
100
AcDbEntity
  8
0
100
AcDbLine
 10
7054.252608
 20
1439.423532
 30
0.0
 11
7054.252608
 21
1456.407532
 31
0.0
  0
LINE
  5
D6AC
100
AcDbEntity
  8
0
100
AcDbLine
 10
7068.252608
 20
1470.807532
 30
0.0
 11
7051.955608
 21
1470.807532
 31
0.0
  0
ARC
  5
D6AD
100
AcDbEntity
  8
0
100
AcDbCircle
 10
7061.945879
 20
1455.999452
 30
0.0
 40
19.192004
100
AcDbArc
 50
249.811747
 51
288.113271
  0
LINE
  5
D6AE
100
AcDbEntity
  8
0
100
AcDbLine
 10
7055.542608
 20
1438.307532
 30
0.0
 11
7068.253643
 21
1438.307532
 31
0.0
  0
LINE
  5
D6AF
100
AcDbEntity
  8
0
100
AcDbLine
 10
7059.252608
 20
1420.807532
 30
0.0
 11
7056.082608
 21
1423.978532
 31
0.0
  0
LINE
  5
D6B0
100
AcDbEntity
  8
0
100
AcDbLine
 10
7118.252608
 20
1484.807532
 30
0.0
 11
7139.250708
 21
1484.807532
 31
0.0
  0
LINE
  5
D6B1
100
AcDbEntity
  8
0
100
AcDbLine
 10
7140.754695
 20
1446.807532
 30
0.0
 11
7118.252608
 21
1446.807532
 31
0.0
  0
LINE
  5
D6B2
100
AcDbEntity
  8
0
100
AcDbLine
 10
7108.252608
 20
1493.30758
 30
0.0
 11
7108.252608
 21
1488.807532
 31
0.0
  0
ARC
  5
D6B3
100
AcDbEntity
  8
0
100
AcDbCircle
 10
7098.457082
 20
1461.126251
 30
0.0
 40
33.639118
100
AcDbArc
 50
73.070518
 51
101.77461
  0
LINE
  5
D6B4
100
AcDbEntity
  8
0
100
AcDbLine
 10
7100.252608
 20
1510.807532
 30
0.0
 11
7103.422608
 21
1507.636532
 31
0.0
  0
LINE
  5
D6B5
100
AcDbEntity
  8
0
100
AcDbLine
 10
7103.422608
 20
1507.636532
 30
0.0
 11
7103.422608
 21
1494.396866
 31
0.0
  0
LINE
  5
D6B6
100
AcDbEntity
  8
0
100
AcDbLine
 10
7091.592608
 20
1507.636532
 30
0.0
 11
7091.592608
 21
1494.057532
 31
0.0
  0
ARC
  5
D6B7
100
AcDbEntity
  8
0
100
AcDbCircle
 10
7097.507608
 20
1503.705287
 30
0.0
 40
7.102247
100
AcDbArc
 50
56.372999
 51
146.391071
  0
LINE
  5
D6B8
100
AcDbEntity
  8
0
100
AcDbLine
 10
7067.912608
 20
1507.636532
 30
0.0
 11
7067.912608
 21
1494.057532
 31
0.0
  0
LINE
  5
D6B9
100
AcDbEntity
  8
0
100
AcDbLine
 10
7059.252608
 20
1510.807532
 30
0.0
 11
7079.752608
 21
1510.807532
 31
0.0
  0
ARC
  5
D6BA
100
AcDbEntity
  8
0
100
AcDbCircle
 10
7061.997608
 20
1503.705287
 30
0.0
 40
7.102247
100
AcDbArc
 50
33.608929
 51
123.627001
  0
LINE
  5
D6BB
100
AcDbEntity
  8
0
100
AcDbLine
 10
7100.252608
 20
1510.807532
 30
0.0
 11
7079.752608
 21
1510.807532
 31
0.0
  0
ARC
  5
D6BC
100
AcDbEntity
  8
0
100
AcDbCircle
 10
7079.752608
 20
1420.828721
 30
0.0
 40
74.179811
100
AcDbArc
 50
80.815615
 51
99.184385
  0
ARC
  5
D6BD
100
AcDbEntity
  8
0
100
AcDbCircle
 10
7079.752608
 20
1487.057554
 30
0.0
 40
23.741944
100
AcDbArc
 50
60.08627
 51
119.91373
  0
ARC
  5
D6BE
100
AcDbEntity
  8
0
100
AcDbCircle
 10
7054.064113
 20
1495.786179
 30
0.0
 40
2.018556
100
AcDbArc
 50
279.365836
 51
359.55586
  0
LINE
  5
D6BF
100
AcDbEntity
  8
0
100
AcDbLine
 10
7051.252608
 20
1493.30758
 30
0.0
 11
7054.392608
 21
1493.794532
 31
0.0
  0
LINE
  5
D6C0
100
AcDbEntity
  8
0
100
AcDbLine
 10
7056.082608
 20
1495.770532
 30
0.0
 11
7056.082608
 21
1507.636532
 31
0.0
  0
LINE
  5
D6C1
100
AcDbEntity
  8
0
100
AcDbLine
 10
7108.252608
 20
1489.307532
 30
0.0
 11
7051.252608
 21
1489.307532
 31
0.0
  0
LINE
  5
D6C2
100
AcDbEntity
  8
0
100
AcDbLine
 10
7105.512608
 20
1493.307532
 30
0.0
 11
7053.992608
 21
1493.307532
 31
0.0
  0
ARC
  5
D6C3
100
AcDbEntity
  8
0
100
AcDbCircle
 10
7061.674067
 20
1467.119464
 30
0.0
 40
27.65102
100
AcDbArc
 50
76.960836
 51
105.267994
  0
LINE
  5
D6C4
100
AcDbEntity
  8
0
100
AcDbLine
 10
7056.082608
 20
1507.636532
 30
0.0
 11
7059.252608
 21
1510.807532
 31
0.0
  0
LINE
  5
D6C5
100
AcDbEntity
  8
0
100
AcDbLine
 10
7051.252608
 20
1493.30758
 30
0.0
 11
7051.252608
 21
1457.807532
 31
0.0
  0
ARC
  5
D6C6
100
AcDbEntity
  8
0
100
AcDbCircle
 10
7112.289309
 20
1488.844233
 30
0.0
 40
4.036867
100
AcDbArc
 50
180.520902
 51
269.479098
  0
LINE
  5
D6C7
100
AcDbEntity
  8
0
100
AcDbLine
 10
4930.990378
 20
1551.799499
 30
0.0
 11
5023.180378
 21
1551.799499
 31
0.0
  0
LINE
  5
D6C8
100
AcDbEntity
  8
0
100
AcDbLine
 10
4914.990378
 20
2791.803499
 30
0.0
 11
5173.203711
 21
2791.803499
 31
0.0
  0
LINE
  5
D6C9
100
AcDbEntity
  8
0
100
AcDbLine
 10
5173.476438
 20
2800.803499
 30
0.0
 11
4914.990378
 21
2800.803499
 31
0.0
  0
LINE
  5
D6CA
100
AcDbEntity
  8
0
100
AcDbLine
 10
3260.57326
 20
2878.803499
 30
0.0
 11
3260.57326
 21
2800.803499
 31
0.0
  0
LINE
  5
D6CB
100
AcDbEntity
  8
0
100
AcDbLine
 10
3044.27326
 20
2800.803499
 30
0.0
 11
3044.27326
 21
2878.803499
 31
0.0
  0
LINE
  5
D6CD
100
AcDbEntity
  8
0
100
AcDbLine
 10
2898.42326
 20
1780.745847
 30
0.0
 11
2898.42326
 21
2791.803499
 31
0.0
  0
LINE
  5
D6CE
100
AcDbEntity
  8
0
100
AcDbLine
 10
3406.42326
 20
2791.803499
 30
0.0
 11
3406.42326
 21
1780.745847
 31
0.0
  0
LINE
  5
D6CF
100
AcDbEntity
  8
0
100
AcDbLine
 10
3410.262897
 20
1755.098499
 30
0.0
 11
3452.42326
 21
1755.098499
 31
0.0
  0
LINE
  5
D6D0
100
AcDbEntity
  8
0
100
AcDbLine
 10
3410.262897
 20
1706.498499
 30
0.0
 11
3452.42326
 21
1706.498499
 31
0.0
  0
LINE
  5
D6D1
100
AcDbEntity
  8
0
100
AcDbLine
 10
3360.67241
 20
1551.799499
 30
0.0
 11
2944.174109
 21
1551.799499
 31
0.0
  0
LINE
  5
D6D2
100
AcDbEntity
  8
0
100
AcDbLine
 10
2942.88394
 20
1109.798499
 30
0.0
 11
2942.88394
 21
1800.803499
 31
0.0
  0
LINE
  5
D6D3
100
AcDbEntity
  8
0
100
AcDbLine
 10
2957.83714
 20
1665.798499
 30
0.0
 11
2957.83714
 21
1815.803499
 31
0.0
  0
LINE
  5
D6D4
100
AcDbEntity
  8
0
100
AcDbLine
 10
2964.5169
 20
1665.798499
 30
0.0
 11
2964.5169
 21
1815.803499
 31
0.0
  0
LINE
  5
D6D5
100
AcDbEntity
  8
0
100
AcDbLine
 10
2964.5169
 20
1665.798499
 30
0.0
 11
2944.174109
 21
1665.798499
 31
0.0
  0
LINE
  5
D6D6
100
AcDbEntity
  8
0
100
AcDbLine
 10
2902.83714
 20
1782.737091
 30
0.0
 11
2902.83714
 21
1815.803499
 31
0.0
  0
LINE
  5
D6D7
100
AcDbEntity
  8
0
100
AcDbLine
 10
2894.583622
 20
1779.013662
 30
0.0
 11
2942.88394
 21
1800.803499
 31
0.0
  0
LINE
  5
D6D8
100
AcDbEntity
  8
0
100
AcDbLine
 10
2944.174109
 20
1800.803499
 30
0.0
 11
2942.88394
 21
1800.803499
 31
0.0
  0
LINE
  5
D6D9
100
AcDbEntity
  8
0
100
AcDbLine
 10
2964.5169
 20
1815.803499
 30
0.0
 11
2902.83714
 21
1815.803499
 31
0.0
  0
LINE
  5
D6DA
100
AcDbEntity
  8
0
100
AcDbLine
 10
3361.96258
 20
1109.798499
 30
0.0
 11
3361.96258
 21
1800.803499
 31
0.0
  0
LINE
  5
D6DB
100
AcDbEntity
  8
0
100
AcDbLine
 10
3347.009379
 20
1665.798499
 30
0.0
 11
3347.009379
 21
1815.803499
 31
0.0
  0
LINE
  5
D6DC
100
AcDbEntity
  8
0
100
AcDbLine
 10
3340.329619
 20
1665.798499
 30
0.0
 11
3340.329619
 21
1815.803499
 31
0.0
  0
LINE
  5
D6DD
100
AcDbEntity
  8
0
100
AcDbLine
 10
3340.329619
 20
1665.798499
 30
0.0
 11
3360.67241
 21
1665.798499
 31
0.0
  0
LINE
  5
D6DE
100
AcDbEntity
  8
0
100
AcDbLine
 10
3402.009379
 20
1782.737091
 30
0.0
 11
3402.009379
 21
1815.803499
 31
0.0
  0
LINE
  5
D6DF
100
AcDbEntity
  8
0
100
AcDbLine
 10
3410.26326
 20
1779.013499
 30
0.0
 11
3361.96258
 21
1800.803499
 31
0.0
  0
LINE
  5
D6E0
100
AcDbEntity
  8
0
100
AcDbLine
 10
3340.329619
 20
1815.803499
 30
0.0
 11
3402.009379
 21
1815.803499
 31
0.0
  0
LINE
  5
D6E1
100
AcDbEntity
  8
0
100
AcDbLine
 10
3360.67241
 20
1800.803499
 30
0.0
 11
3361.96258
 21
1800.803499
 31
0.0
  0
LINE
  5
D6E2
100
AcDbEntity
  8
0
100
AcDbLine
 10
3482.42326
 20
1772.798499
 30
0.0
 11
3482.42326
 21
1688.798499
 31
0.0
  0
LINE
  5
D6E3
100
AcDbEntity
  8
0
100
AcDbLine
 10
3477.42326
 20
1772.798499
 30
0.0
 11
3477.42326
 21
1688.798499
 31
0.0
  0
ARC
  5
D6E4
100
AcDbEntity
  8
0
100
AcDbCircle
 10
3474.092412
 20
1690.798499
 30
0.0
 40
2.0
100
AcDbArc
 50
190.304846
 51
270.0
  0
ARC
  5
D6E5
100
AcDbEntity
  8
0
100
AcDbCircle
 10
3503.42326
 20
1690.798499
 30
0.0
 40
2.0
100
AcDbArc
 50
270.0
 51
0.0
  0
LINE
  5
D6E6
100
AcDbEntity
  8
0
100
AcDbLine
 10
3522.42326
 20
1688.798499
 30
0.0
 11
3522.42326
 21
1689.798499
 31
0.0
  0
LINE
  5
D6E7
100
AcDbEntity
  8
0
100
AcDbLine
 10
3502.42326
 20
1688.798499
 30
0.0
 11
3506.42326
 21
1679.798499
 31
0.0
  0
LINE
  5
D6E8
100
AcDbEntity
  8
0
100
AcDbLine
 10
3518.42326
 20
1679.798499
 30
0.0
 11
3522.42326
 21
1688.798499
 31
0.0
  0
LINE
  5
D6E9
100
AcDbEntity
  8
0
100
AcDbLine
 10
3518.42326
 20
1679.798499
 30
0.0
 11
3506.42326
 21
1679.798499
 31
0.0
  0
LINE
  5
D6EA
100
AcDbEntity
  8
0
100
AcDbLine
 10
3522.42326
 20
1688.798499
 30
0.0
 11
3474.092412
 21
1688.798499
 31
0.0
  0
LINE
  5
D6EB
100
AcDbEntity
  8
0
100
AcDbLine
 10
3575.42326
 20
1849.798499
 30
0.0
 11
3695.42326
 21
1849.798499
 31
0.0
  0
LINE
  5
D6EC
100
AcDbEntity
  8
0
100
AcDbLine
 10
3568.956799
 20
1837.597424
 30
0.0
 11
3695.520556
 21
1841.704308
 31
0.0
  0
ARC
  5
D6ED
100
AcDbEntity
  8
0
100
AcDbCircle
 10
3478.540447
 20
1705.485999
 30
0.0
 40
11.367188
100
AcDbArc
 50
132.075022
 51
227.924978
  0
LINE
  5
D6EE
100
AcDbEntity
  8
0
100
AcDbLine
 10
3471.221847
 20
1695.40627
 30
0.0
 11
3472.124673
 21
1690.440728
 31
0.0
  0
LINE
  5
D6EF
100
AcDbEntity
  8
0
100
AcDbLine
 10
3456.17326
 20
1697.048499
 30
0.0
 11
3469.254107
 21
1697.048499
 31
0.0
  0
ARC
  5
D6F0
100
AcDbEntity
  8
0
100
AcDbCircle
 10
3469.254107
 20
1695.048499
 30
0.0
 40
2.0
100
AcDbArc
 50
10.304846
 51
90.0
  0
LINE
  5
D6F1
100
AcDbEntity
  8
0
100
AcDbLine
 10
3481.92326
 20
1772.798499
 30
0.0
 11
3474.092412
 21
1772.798499
 31
0.0
  0
LINE
  5
D6F2
100
AcDbEntity
  8
0
100
AcDbLine
 10
3481.42326
 20
1813.112905
 30
0.0
 11
3481.42326
 21
1784.798499
 31
0.0
  0
ARC
  5
D6F3
100
AcDbEntity
  8
0
100
AcDbCircle
 10
3481.92326
 20
1776.798499
 30
0.0
 40
4.0
100
AcDbArc
 50
270.0
 51
0.0
  0
LINE
  5
D6F4
100
AcDbEntity
  8
0
100
AcDbLine
 10
3485.92326
 20
1784.798499
 30
0.0
 11
3485.92326
 21
1776.798499
 31
0.0
  0
ARC
  5
D6F5
100
AcDbEntity
  8
0
100
AcDbCircle
 10
3484.42326
 20
1813.112905
 30
0.0
 40
3.0
100
AcDbArc
 50
121.234336
 51
180.0
  0
LINE
  5
D6F6
100
AcDbEntity
  8
0
100
AcDbLine
 10
3472.124673
 20
1771.15627
 30
0.0
 11
3471.221847
 21
1766.190728
 31
0.0
  0
LINE
  5
D6F7
100
AcDbEntity
  8
0
100
AcDbLine
 10
3456.17326
 20
1764.548499
 30
0.0
 11
3469.254107
 21
1764.548499
 31
0.0
  0
ARC
  5
D6F8
100
AcDbEntity
  8
0
100
AcDbCircle
 10
3469.254107
 20
1766.548499
 30
0.0
 40
2.0
100
AcDbArc
 50
270.0
 51
349.695154
  0
ARC
  5
D6F9
100
AcDbEntity
  8
0
100
AcDbCircle
 10
3474.092412
 20
1770.798499
 30
0.0
 40
2.0
100
AcDbArc
 50
90.0
 51
169.695154
  0
ARC
  5
D6FA
100
AcDbEntity
  8
0
100
AcDbCircle
 10
3507.01701
 20
1730.798499
 30
0.0
 40
39.84375
100
AcDbArc
 50
154.942385
 51
205.057615
  0
LINE
  5
D6FB
100
AcDbEntity
  8
0
100
AcDbLine
 10
3456.17326
 20
1713.923499
 30
0.0
 11
3470.92326
 21
1713.923499
 31
0.0
  0
LINE
  5
D6FC
100
AcDbEntity
  8
0
100
AcDbLine
 10
3456.17326
 20
1747.673499
 30
0.0
 11
3470.92326
 21
1747.673499
 31
0.0
  0
ARC
  5
D6FD
100
AcDbEntity
  8
0
100
AcDbCircle
 10
3478.540447
 20
1756.110999
 30
0.0
 40
11.367188
100
AcDbArc
 50
132.075022
 51
227.924978
  0
LINE
  5
D6FE
100
AcDbEntity
  8
0
100
AcDbLine
 10
3452.42326
 20
1730.798499
 30
0.0
 11
3452.42326
 21
1700.798499
 31
0.0
  0
ARC
  5
D6FF
100
AcDbEntity
  8
0
100
AcDbCircle
 10
3463.790447
 20
1705.485999
 30
0.0
 40
11.367188
100
AcDbArc
 50
132.075022
 51
227.924978
  0
LINE
  5
D700
100
AcDbEntity
  8
0
100
AcDbLine
 10
3452.42326
 20
1700.798499
 30
0.0
 11
3456.17326
 21
1697.048499
 31
0.0
  0
LINE
  5
D701
100
AcDbEntity
  8
0
100
AcDbLine
 10
3452.42326
 20
1760.798499
 30
0.0
 11
3456.17326
 21
1764.548499
 31
0.0
  0
ARC
  5
D702
100
AcDbEntity
  8
0
100
AcDbCircle
 10
3492.26701
 20
1730.798499
 30
0.0
 40
39.84375
100
AcDbArc
 50
154.942385
 51
205.057615
  0
LINE
  5
D703
100
AcDbEntity
  8
0
100
AcDbLine
 10
3452.42326
 20
1760.798499
 30
0.0
 11
3452.42326
 21
1730.798499
 31
0.0
  0
ARC
  5
D704
100
AcDbEntity
  8
0
100
AcDbCircle
 10
3463.790447
 20
1756.110999
 30
0.0
 40
11.367188
100
AcDbArc
 50
132.075022
 51
227.924978
  0
LINE
  5
D705
100
AcDbEntity
  8
0
100
AcDbLine
 10
3505.42326
 20
1707.798499
 30
0.0
 11
3505.42326
 21
1690.798499
 31
0.0
  0
LINE
  5
D706
100
AcDbEntity
  8
0
100
AcDbLine
 10
3572.42326
 20
1730.798499
 30
0.0
 11
3572.42326
 21
1700.798499
 31
0.0
  0
ARC
  5
D707
100
AcDbEntity
  8
0
100
AcDbCircle
 10
3544.806072
 20
1705.485999
 30
0.0
 40
11.367188
100
AcDbArc
 50
312.075022
 51
47.924978
  0
ARC
  5
D708
100
AcDbEntity
  8
0
100
AcDbCircle
 10
3561.056072
 20
1705.485999
 30
0.0
 40
11.367188
100
AcDbArc
 50
312.075022
 51
47.924978
  0
LINE
  5
D709
100
AcDbEntity
  8
0
100
AcDbLine
 10
3552.42326
 20
1714.798499
 30
0.0
 11
3552.42326
 21
1697.048499
 31
0.0
  0
LINE
  5
D70A
100
AcDbEntity
  8
0
100
AcDbLine
 10
3572.42326
 20
1700.798499
 30
0.0
 11
3568.67326
 21
1697.048499
 31
0.0
  0
ARC
  5
D70B
100
AcDbEntity
  8
0
100
AcDbCircle
 10
3525.92326
 20
1689.798499
 30
0.0
 40
3.5
100
AcDbArc
 50
90.0
 51
180.0
  0
LINE
  5
D70C
100
AcDbEntity
  8
0
100
AcDbLine
 10
3549.569194
 20
1693.298499
 30
0.0
 11
3525.92326
 21
1693.298499
 31
0.0
  0
ARC
  5
D70D
100
AcDbEntity
  8
0
100
AcDbCircle
 10
3549.569194
 20
1695.298499
 30
0.0
 40
2.0
100
AcDbArc
 50
270.0
 51
338.198591
  0
LINE
  5
D70E
100
AcDbEntity
  8
0
100
AcDbLine
 10
3552.42326
 20
1697.048499
 30
0.0
 11
3551.426147
 21
1694.555717
 31
0.0
  0
LINE
  5
D70F
100
AcDbEntity
  8
0
100
AcDbLine
 10
3568.67326
 20
1697.048499
 30
0.0
 11
3552.42326
 21
1697.048499
 31
0.0
  0
ARC
  5
D710
100
AcDbEntity
  8
0
100
AcDbCircle
 10
3513.020728
 20
1654.867185
 30
0.0
 40
35.638651
100
AcDbArc
 50
76.039586
 51
101.799681
  0
LINE
  5
D711
100
AcDbEntity
  8
0
100
AcDbLine
 10
3505.42326
 20
1761.505845
 30
0.0
 11
3505.42326
 21
1753.798499
 31
0.0
  0
ARC
  5
D712
100
AcDbEntity
  8
0
100
AcDbCircle
 10
3569.44328
 20
1822.605315
 30
0.0
 40
15.0
100
AcDbArc
 50
91.858546
 51
135.0
  0
LINE
  5
D713
100
AcDbEntity
  8
0
100
AcDbLine
 10
3575.42326
 20
1849.798499
 30
0.0
 11
3558.836678
 21
1833.211917
 31
0.0
  0
LINE
  5
D714
100
AcDbEntity
  8
0
100
AcDbLine
 10
3572.42326
 20
1760.798499
 30
0.0
 11
3568.67326
 21
1764.548499
 31
0.0
  0
ARC
  5
D715
100
AcDbEntity
  8
0
100
AcDbCircle
 10
3542.92326
 20
1772.298499
 30
0.0
 40
4.0
100
AcDbArc
 50
180.0
 51
270.0
  0
LINE
  5
D716
100
AcDbEntity
  8
0
100
AcDbLine
 10
3549.569194
 20
1768.298499
 30
0.0
 11
3542.92326
 21
1768.298499
 31
0.0
  0
ARC
  5
D717
100
AcDbEntity
  8
0
100
AcDbCircle
 10
3549.569194
 20
1766.298499
 30
0.0
 40
2.0
100
AcDbArc
 50
21.801409
 51
90.0
  0
LINE
  5
D718
100
AcDbEntity
  8
0
100
AcDbLine
 10
3568.67326
 20
1764.548499
 30
0.0
 11
3552.42326
 21
1764.548499
 31
0.0
  0
LINE
  5
D719
100
AcDbEntity
  8
0
100
AcDbLine
 10
3551.426147
 20
1767.04128
 30
0.0
 11
3552.42326
 21
1764.548499
 31
0.0
  0
LINE
  5
D71A
100
AcDbEntity
  8
0
100
AcDbLine
 10
3543.42326
 20
1813.706616
 30
0.0
 11
3543.42326
 21
1784.798499
 31
0.0
  0
LINE
  5
D71B
100
AcDbEntity
  8
0
100
AcDbLine
 10
3538.92326
 20
1784.798499
 30
0.0
 11
3538.92326
 21
1772.298499
 31
0.0
  0
LINE
  5
D71C
100
AcDbEntity
  8
0
100
AcDbLine
 10
3558.836678
 20
1833.211917
 30
0.0
 11
3544.254008
 21
1818.629247
 31
0.0
  0
ARC
  5
D71D
100
AcDbEntity
  8
0
100
AcDbCircle
 10
3558.42326
 20
1813.706616
 30
0.0
 40
15.0
100
AcDbArc
 50
160.841933
 51
180.0
  0
LINE
  5
D71E
100
AcDbEntity
  8
0
100
AcDbLine
 10
3551.42326
 20
1847.798499
 30
0.0
 11
3573.42326
 21
1847.798499
 31
0.0
  0
ARC
  5
D71F
100
AcDbEntity
  8
0
100
AcDbCircle
 10
3505.962052
 20
1805.677583
 30
0.0
 40
49.751487
100
AcDbArc
 50
269.379494
 51
311.563596
  0
ARC
  5
D720
100
AcDbEntity
  8
0
100
AcDbCircle
 10
3532.57951
 20
1730.798499
 30
0.0
 40
39.84375
100
AcDbArc
 50
334.942385
 51
25.057615
  0
LINE
  5
D721
100
AcDbEntity
  8
0
100
AcDbLine
 10
3552.42326
 20
1746.798499
 30
0.0
 11
3512.42326
 21
1746.798499
 31
0.0
  0
LINE
  5
D722
100
AcDbEntity
  8
0
100
AcDbLine
 10
3552.42326
 20
1714.798499
 30
0.0
 11
3512.42326
 21
1714.798499
 31
0.0
  0
LINE
  5
D723
100
AcDbEntity
  8
0
100
AcDbLine
 10
3550.92326
 20
1746.798499
 30
0.0
 11
3550.92326
 21
1714.798499
 31
0.0
  0
ARC
  5
D724
100
AcDbEntity
  8
0
100
AcDbCircle
 10
3516.32951
 20
1730.798499
 30
0.0
 40
39.84375
100
AcDbArc
 50
334.942385
 51
25.057615
  0
LINE
  5
D725
100
AcDbEntity
  8
0
100
AcDbLine
 10
3568.67326
 20
1713.923499
 30
0.0
 11
3552.42326
 21
1713.923499
 31
0.0
  0
LINE
  5
D726
100
AcDbEntity
  8
0
100
AcDbLine
 10
3568.67326
 20
1747.673499
 30
0.0
 11
3552.42326
 21
1747.673499
 31
0.0
  0
ARC
  5
D727
100
AcDbEntity
  8
0
100
AcDbCircle
 10
3512.42326
 20
1707.798499
 30
0.0
 40
7.0
100
AcDbArc
 50
90.0
 51
180.0
  0
ARC
  5
D728
100
AcDbEntity
  8
0
100
AcDbCircle
 10
3561.056072
 20
1756.110999
 30
0.0
 40
11.367188
100
AcDbArc
 50
312.075022
 51
47.924978
  0
LINE
  5
D729
100
AcDbEntity
  8
0
100
AcDbLine
 10
3572.42326
 20
1760.798499
 30
0.0
 11
3572.42326
 21
1730.798499
 31
0.0
  0
LINE
  5
D72A
100
AcDbEntity
  8
0
100
AcDbLine
 10
3552.42326
 20
1764.548499
 30
0.0
 11
3552.42326
 21
1746.798499
 31
0.0
  0
ARC
  5
D72B
100
AcDbEntity
  8
0
100
AcDbCircle
 10
3544.806072
 20
1756.110999
 30
0.0
 40
11.367188
100
AcDbArc
 50
312.075022
 51
47.924978
  0
ARC
  5
D72C
100
AcDbEntity
  8
0
100
AcDbCircle
 10
3512.42326
 20
1753.798499
 30
0.0
 40
7.0
100
AcDbArc
 50
180.0
 51
270.0
  0
ARC
  5
D72D
100
AcDbEntity
  8
0
100
AcDbCircle
 10
3522.773392
 20
1814.496401
 30
0.0
 40
55.758642
100
AcDbArc
 50
228.225397
 51
251.870553
  0
ARC
  5
D72E
100
AcDbEntity
  8
0
100
AcDbCircle
 10
3736.809343
 20
1362.902939
 30
0.0
 40
519.125903
100
AcDbArc
 50
110.922939
 51
119.286154
  0
LINE
  5
D72F
100
AcDbEntity
  8
0
100
AcDbLine
 10
3483.356443
 20
1814.798499
 30
0.0
 11
3543.42326
 21
1814.798499
 31
0.0
  0
LINE
  5
D730
100
AcDbEntity
  8
0
100
AcDbLine
 10
3481.42326
 20
1784.798499
 30
0.0
 11
3543.42326
 21
1784.798499
 31
0.0
  0
LINE
  5
D731
100
AcDbEntity
  8
0
100
AcDbLine
 10
3485.92326
 20
1784.798499
 30
0.0
 11
3538.92326
 21
1784.798499
 31
0.0
  0
ARC
  5
D732
100
AcDbEntity
  8
0
100
AcDbCircle
 10
3695.42326
 20
1846.798499
 30
0.0
 40
3.0
100
AcDbArc
 50
0.0
 51
90.0
  0
ARC
  5
D733
100
AcDbEntity
  8
0
100
AcDbCircle
 10
3695.42326
 20
1844.70273
 30
0.0
 40
3.0
100
AcDbArc
 50
271.858546
 51
0.0
  0
LINE
  5
D734
100
AcDbEntity
  8
0
100
AcDbLine
 10
3698.42326
 20
1846.798499
 30
0.0
 11
3698.42326
 21
1844.70273
 31
0.0
  0
LINE
  5
D735
100
AcDbEntity
  8
0
100
AcDbLine
 10
3406.42326
 20
2676.463499
 30
0.0
 11
3452.42326
 21
2676.463499
 31
0.0
  0
LINE
  5
D736
100
AcDbEntity
  8
0
100
AcDbLine
 10
3406.42326
 20
2725.063499
 30
0.0
 11
3452.42326
 21
2725.063499
 31
0.0
  0
CIRCLE
  5
D73F
100
AcDbEntity
  8
0
100
AcDbCircle
 10
3152.42326
 20
2650.803499
 30
0.0
 40
140.0
  0
LINE
  5
D740
100
AcDbEntity
  8
0
100
AcDbLine
 10
2882.42326
 20
2800.803499
 30
0.0
 11
3422.42326
 21
2800.803499
 31
0.0
  0
LINE
  5
D741
100
AcDbEntity
  8
0
100
AcDbLine
 10
3422.42326
 20
2791.803499
 30
0.0
 11
2882.42326
 21
2791.803499
 31
0.0
  0
CIRCLE
  5
D742
100
AcDbEntity
  8
0
100
AcDbCircle
 10
3106.501248
 20
2539.937955
 30
0.0
 40
11.5
  0
CIRCLE
  5
D743
100
AcDbEntity
  8
0
100
AcDbCircle
 10
3041.557716
 20
2604.881487
 30
0.0
 40
11.5
  0
LINE
  5
D744
100
AcDbEntity
  8
0
100
AcDbLine
 10
2882.42326
 20
2791.803499
 30
0.0
 11
2882.42326
 21
2800.803499
 31
0.0
  0
CIRCLE
  5
D745
100
AcDbEntity
  8
0
100
AcDbCircle
 10
3041.557716
 20
2696.725511
 30
0.0
 40
11.5
  0
CIRCLE
  5
D746
100
AcDbEntity
  8
0
100
AcDbCircle
 10
3106.501248
 20
2761.669043
 30
0.0
 40
11.5
  0
CIRCLE
  5
D747
100
AcDbEntity
  8
0
100
AcDbCircle
 10
3263.288804
 20
2604.881487
 30
0.0
 40
11.5
  0
CIRCLE
  5
D748
100
AcDbEntity
  8
0
100
AcDbCircle
 10
3198.345272
 20
2539.937955
 30
0.0
 40
11.5
  0
CIRCLE
  5
D749
100
AcDbEntity
  8
0
100
AcDbCircle
 10
3198.345272
 20
2761.669043
 30
0.0
 40
11.5
  0
CIRCLE
  5
D74A
100
AcDbEntity
  8
0
100
AcDbCircle
 10
3263.288804
 20
2696.725511
 30
0.0
 40
11.5
  0
LINE
  5
D74B
100
AcDbEntity
  8
0
100
AcDbLine
 10
3422.42326
 20
2800.803499
 30
0.0
 11
3422.42326
 21
2791.803499
 31
0.0
  0
LINE
  5
D74C
100
AcDbEntity
  8
0
100
AcDbLine
 10
3477.42326
 20
2742.763499
 30
0.0
 11
3477.42326
 21
2658.763499
 31
0.0
  0
LINE
  5
D74D
100
AcDbEntity
  8
0
100
AcDbLine
 10
3482.42326
 20
2742.763499
 30
0.0
 11
3482.42326
 21
2658.763499
 31
0.0
  0
ARC
  5
D74E
100
AcDbEntity
  8
0
100
AcDbCircle
 10
3463.790447
 20
2675.450999
 30
0.0
 40
11.367188
100
AcDbArc
 50
132.075022
 51
227.924978
  0
ARC
  5
D74F
100
AcDbEntity
  8
0
100
AcDbCircle
 10
3478.540447
 20
2675.450999
 30
0.0
 40
11.367188
100
AcDbArc
 50
132.075022
 51
227.924978
  0
LINE
  5
D750
100
AcDbEntity
  8
0
100
AcDbLine
 10
3452.42326
 20
2700.763499
 30
0.0
 11
3452.42326
 21
2670.763499
 31
0.0
  0
LINE
  5
D751
100
AcDbEntity
  8
0
100
AcDbLine
 10
3552.42326
 20
2684.763499
 30
0.0
 11
3552.42326
 21
2667.013499
 31
0.0
  0
ARC
  5
D752
100
AcDbEntity
  8
0
100
AcDbCircle
 10
3561.056072
 20
2675.450999
 30
0.0
 40
11.367188
100
AcDbArc
 50
312.075022
 51
47.924978
  0
ARC
  5
D753
100
AcDbEntity
  8
0
100
AcDbCircle
 10
3544.806072
 20
2675.450999
 30
0.0
 40
11.367188
100
AcDbArc
 50
312.075022
 51
47.924978
  0
LINE
  5
D754
100
AcDbEntity
  8
0
100
AcDbLine
 10
3572.42326
 20
2700.763499
 30
0.0
 11
3572.42326
 21
2670.763499
 31
0.0
  0
LINE
  5
D755
100
AcDbEntity
  8
0
100
AcDbLine
 10
3505.42326
 20
2677.763499
 30
0.0
 11
3505.42326
 21
2660.763499
 31
0.0
  0
ARC
  5
D756
100
AcDbEntity
  8
0
100
AcDbCircle
 10
3469.254107
 20
2665.013499
 30
0.0
 40
2.0
100
AcDbArc
 50
10.304846
 51
90.0
  0
LINE
  5
D757
100
AcDbEntity
  8
0
100
AcDbLine
 10
3456.17326
 20
2667.013499
 30
0.0
 11
3469.254107
 21
2667.013499
 31
0.0
  0
ARC
  5
D758
100
AcDbEntity
  8
0
100
AcDbCircle
 10
3474.092412
 20
2660.763499
 30
0.0
 40
2.0
100
AcDbArc
 50
190.304846
 51
270.0
  0
LINE
  5
D759
100
AcDbEntity
  8
0
100
AcDbLine
 10
3471.221847
 20
2665.37127
 30
0.0
 11
3472.124673
 21
2660.405728
 31
0.0
  0
LINE
  5
D75A
100
AcDbEntity
  8
0
100
AcDbLine
 10
3452.42326
 20
2670.763499
 30
0.0
 11
3456.17326
 21
2667.013499
 31
0.0
  0
LINE
  5
D75B
100
AcDbEntity
  8
0
100
AcDbLine
 10
3518.42326
 20
2649.763499
 30
0.0
 11
3506.42326
 21
2649.763499
 31
0.0
  0
ARC
  5
D75C
100
AcDbEntity
  8
0
100
AcDbCircle
 10
3513.020728
 20
2624.832185
 30
0.0
 40
35.638651
100
AcDbArc
 50
76.039586
 51
101.799681
  0
LINE
  5
D75D
100
AcDbEntity
  8
0
100
AcDbLine
 10
3518.42326
 20
2649.763499
 30
0.0
 11
3522.42326
 21
2658.763499
 31
0.0
  0
LINE
  5
D75E
100
AcDbEntity
  8
0
100
AcDbLine
 10
3522.42326
 20
2658.763499
 30
0.0
 11
3522.42326
 21
2659.763499
 31
0.0
  0
LINE
  5
D75F
100
AcDbEntity
  8
0
100
AcDbLine
 10
3568.67326
 20
2667.013499
 30
0.0
 11
3552.42326
 21
2667.013499
 31
0.0
  0
LINE
  5
D760
100
AcDbEntity
  8
0
100
AcDbLine
 10
3552.42326
 20
2667.013499
 30
0.0
 11
3551.426147
 21
2664.520717
 31
0.0
  0
ARC
  5
D761
100
AcDbEntity
  8
0
100
AcDbCircle
 10
3549.569194
 20
2665.263499
 30
0.0
 40
2.0
100
AcDbArc
 50
270.0
 51
338.198591
  0
LINE
  5
D762
100
AcDbEntity
  8
0
100
AcDbLine
 10
3549.569194
 20
2663.263499
 30
0.0
 11
3525.92326
 21
2663.263499
 31
0.0
  0
ARC
  5
D763
100
AcDbEntity
  8
0
100
AcDbCircle
 10
3525.92326
 20
2659.763499
 30
0.0
 40
3.5
100
AcDbArc
 50
90.0
 51
180.0
  0
LINE
  5
D764
100
AcDbEntity
  8
0
100
AcDbLine
 10
3572.42326
 20
2670.763499
 30
0.0
 11
3568.67326
 21
2667.013499
 31
0.0
  0
ARC
  5
D765
100
AcDbEntity
  8
0
100
AcDbCircle
 10
3503.42326
 20
2660.763499
 30
0.0
 40
2.0
100
AcDbArc
 50
270.0
 51
0.0
  0
LINE
  5
D766
100
AcDbEntity
  8
0
100
AcDbLine
 10
3502.42326
 20
2658.763499
 30
0.0
 11
3506.42326
 21
2649.763499
 31
0.0
  0
LINE
  5
D767
100
AcDbEntity
  8
0
100
AcDbLine
 10
3522.42326
 20
2658.763499
 30
0.0
 11
3474.092412
 21
2658.763499
 31
0.0
  0
LINE
  5
D768
100
AcDbEntity
  8
0
100
AcDbLine
 10
3568.956799
 20
2807.562424
 30
0.0
 11
3695.520556
 21
2811.669308
 31
0.0
  0
LINE
  5
D769
100
AcDbEntity
  8
0
100
AcDbLine
 10
3575.42326
 20
2819.763499
 30
0.0
 11
3695.42326
 21
2819.763499
 31
0.0
  0
ARC
  5
D76A
100
AcDbEntity
  8
0
100
AcDbCircle
 10
3478.540447
 20
2726.075999
 30
0.0
 40
11.367188
100
AcDbArc
 50
132.075022
 51
227.924978
  0
ARC
  5
D76B
100
AcDbEntity
  8
0
100
AcDbCircle
 10
3463.790447
 20
2726.075999
 30
0.0
 40
11.367188
100
AcDbArc
 50
132.075022
 51
227.924978
  0
LINE
  5
D76C
100
AcDbEntity
  8
0
100
AcDbLine
 10
3452.42326
 20
2730.763499
 30
0.0
 11
3452.42326
 21
2700.763499
 31
0.0
  0
LINE
  5
D76D
100
AcDbEntity
  8
0
100
AcDbLine
 10
3456.17326
 20
2717.638499
 30
0.0
 11
3470.92326
 21
2717.638499
 31
0.0
  0
LINE
  5
D76E
100
AcDbEntity
  8
0
100
AcDbLine
 10
3456.17326
 20
2683.888499
 30
0.0
 11
3470.92326
 21
2683.888499
 31
0.0
  0
ARC
  5
D76F
100
AcDbEntity
  8
0
100
AcDbCircle
 10
3492.26701
 20
2700.763499
 30
0.0
 40
39.84375
100
AcDbArc
 50
154.942385
 51
205.057615
  0
ARC
  5
D770
100
AcDbEntity
  8
0
100
AcDbCircle
 10
3507.01701
 20
2700.763499
 30
0.0
 40
39.84375
100
AcDbArc
 50
154.942385
 51
205.057615
  0
ARC
  5
D771
100
AcDbEntity
  8
0
100
AcDbCircle
 10
3474.092412
 20
2740.763499
 30
0.0
 40
2.0
100
AcDbArc
 50
90.0
 51
169.695154
  0
ARC
  5
D772
100
AcDbEntity
  8
0
100
AcDbCircle
 10
3469.254107
 20
2736.513499
 30
0.0
 40
2.0
100
AcDbArc
 50
270.0
 51
349.695154
  0
LINE
  5
D773
100
AcDbEntity
  8
0
100
AcDbLine
 10
3456.17326
 20
2734.513499
 30
0.0
 11
3469.254107
 21
2734.513499
 31
0.0
  0
LINE
  5
D774
100
AcDbEntity
  8
0
100
AcDbLine
 10
3452.42326
 20
2730.763499
 30
0.0
 11
3456.17326
 21
2734.513499
 31
0.0
  0
LINE
  5
D775
100
AcDbEntity
  8
0
100
AcDbLine
 10
3472.124673
 20
2741.12127
 30
0.0
 11
3471.221847
 21
2736.155728
 31
0.0
  0
ARC
  5
D776
100
AcDbEntity
  8
0
100
AcDbCircle
 10
3484.42326
 20
2783.077905
 30
0.0
 40
3.0
100
AcDbArc
 50
121.234336
 51
180.0
  0
LINE
  5
D777
100
AcDbEntity
  8
0
100
AcDbLine
 10
3485.92326
 20
2754.763499
 30
0.0
 11
3485.92326
 21
2746.763499
 31
0.0
  0
ARC
  5
D778
100
AcDbEntity
  8
0
100
AcDbCircle
 10
3481.92326
 20
2746.763499
 30
0.0
 40
4.0
100
AcDbArc
 50
270.0
 51
0.0
  0
LINE
  5
D779
100
AcDbEntity
  8
0
100
AcDbLine
 10
3481.42326
 20
2783.077905
 30
0.0
 11
3481.42326
 21
2754.763499
 31
0.0
  0
LINE
  5
D77A
100
AcDbEntity
  8
0
100
AcDbLine
 10
3481.92326
 20
2742.763499
 30
0.0
 11
3474.092412
 21
2742.763499
 31
0.0
  0
ARC
  5
D77B
100
AcDbEntity
  8
0
100
AcDbCircle
 10
3512.42326
 20
2723.763499
 30
0.0
 40
7.0
100
AcDbArc
 50
180.0
 51
270.0
  0
ARC
  5
D77C
100
AcDbEntity
  8
0
100
AcDbCircle
 10
3544.806072
 20
2726.075999
 30
0.0
 40
11.367188
100
AcDbArc
 50
312.075022
 51
47.924978
  0
LINE
  5
D77D
100
AcDbEntity
  8
0
100
AcDbLine
 10
3552.42326
 20
2734.513499
 30
0.0
 11
3552.42326
 21
2716.763499
 31
0.0
  0
LINE
  5
D77E
100
AcDbEntity
  8
0
100
AcDbLine
 10
3572.42326
 20
2730.763499
 30
0.0
 11
3572.42326
 21
2700.763499
 31
0.0
  0
ARC
  5
D77F
100
AcDbEntity
  8
0
100
AcDbCircle
 10
3561.056072
 20
2726.075999
 30
0.0
 40
11.367188
100
AcDbArc
 50
312.075022
 51
47.924978
  0
ARC
  5
D780
100
AcDbEntity
  8
0
100
AcDbCircle
 10
3512.42326
 20
2677.763499
 30
0.0
 40
7.0
100
AcDbArc
 50
90.0
 51
180.0
  0
LINE
  5
D781
100
AcDbEntity
  8
0
100
AcDbLine
 10
3568.67326
 20
2717.638499
 30
0.0
 11
3552.42326
 21
2717.638499
 31
0.0
  0
LINE
  5
D782
100
AcDbEntity
  8
0
100
AcDbLine
 10
3568.67326
 20
2683.888499
 30
0.0
 11
3552.42326
 21
2683.888499
 31
0.0
  0
ARC
  5
D783
100
AcDbEntity
  8
0
100
AcDbCircle
 10
3516.32951
 20
2700.763499
 30
0.0
 40
39.84375
100
AcDbArc
 50
334.942385
 51
25.057615
  0
LINE
  5
D784
100
AcDbEntity
  8
0
100
AcDbLine
 10
3550.92326
 20
2716.763499
 30
0.0
 11
3550.92326
 21
2684.763499
 31
0.0
  0
LINE
  5
D785
100
AcDbEntity
  8
0
100
AcDbLine
 10
3552.42326
 20
2684.763499
 30
0.0
 11
3512.42326
 21
2684.763499
 31
0.0
  0
LINE
  5
D786
100
AcDbEntity
  8
0
100
AcDbLine
 10
3552.42326
 20
2716.763499
 30
0.0
 11
3512.42326
 21
2716.763499
 31
0.0
  0
ARC
  5
D787
100
AcDbEntity
  8
0
100
AcDbCircle
 10
3532.57951
 20
2700.763499
 30
0.0
 40
39.84375
100
AcDbArc
 50
334.942385
 51
25.057615
  0
ARC
  5
D788
100
AcDbEntity
  8
0
100
AcDbCircle
 10
3505.962052
 20
2775.642583
 30
0.0
 40
49.751487
100
AcDbArc
 50
269.379494
 51
311.563596
  0
LINE
  5
D789
100
AcDbEntity
  8
0
100
AcDbLine
 10
3551.42326
 20
2817.763499
 30
0.0
 11
3573.42326
 21
2817.763499
 31
0.0
  0
ARC
  5
D78A
100
AcDbEntity
  8
0
100
AcDbCircle
 10
3558.42326
 20
2783.671616
 30
0.0
 40
15.0
100
AcDbArc
 50
160.841933
 51
180.0
  0
LINE
  5
D78B
100
AcDbEntity
  8
0
100
AcDbLine
 10
3558.836678
 20
2803.176917
 30
0.0
 11
3544.254008
 21
2788.594247
 31
0.0
  0
LINE
  5
D78C
100
AcDbEntity
  8
0
100
AcDbLine
 10
3538.92326
 20
2754.763499
 30
0.0
 11
3538.92326
 21
2742.263499
 31
0.0
  0
LINE
  5
D78D
100
AcDbEntity
  8
0
100
AcDbLine
 10
3543.42326
 20
2783.671616
 30
0.0
 11
3543.42326
 21
2754.763499
 31
0.0
  0
LINE
  5
D78E
100
AcDbEntity
  8
0
100
AcDbLine
 10
3551.426147
 20
2737.00628
 30
0.0
 11
3552.42326
 21
2734.513499
 31
0.0
  0
LINE
  5
D78F
100
AcDbEntity
  8
0
100
AcDbLine
 10
3568.67326
 20
2734.513499
 30
0.0
 11
3552.42326
 21
2734.513499
 31
0.0
  0
ARC
  5
D790
100
AcDbEntity
  8
0
100
AcDbCircle
 10
3549.569194
 20
2736.263499
 30
0.0
 40
2.0
100
AcDbArc
 50
21.801409
 51
90.0
  0
LINE
  5
D791
100
AcDbEntity
  8
0
100
AcDbLine
 10
3549.569194
 20
2738.263499
 30
0.0
 11
3542.92326
 21
2738.263499
 31
0.0
  0
ARC
  5
D792
100
AcDbEntity
  8
0
100
AcDbCircle
 10
3542.92326
 20
2742.263499
 30
0.0
 40
4.0
100
AcDbArc
 50
180.0
 51
270.0
  0
LINE
  5
D793
100
AcDbEntity
  8
0
100
AcDbLine
 10
3572.42326
 20
2730.763499
 30
0.0
 11
3568.67326
 21
2734.513499
 31
0.0
  0
LINE
  5
D794
100
AcDbEntity
  8
0
100
AcDbLine
 10
3575.42326
 20
2819.763499
 30
0.0
 11
3558.836678
 21
2803.176917
 31
0.0
  0
ARC
  5
D795
100
AcDbEntity
  8
0
100
AcDbCircle
 10
3569.44328
 20
2792.570315
 30
0.0
 40
15.0
100
AcDbArc
 50
91.858546
 51
135.0
  0
LINE
  5
D796
100
AcDbEntity
  8
0
100
AcDbLine
 10
3505.42326
 20
2731.470845
 30
0.0
 11
3505.42326
 21
2723.763499
 31
0.0
  0
LINE
  5
D797
100
AcDbEntity
  8
0
100
AcDbLine
 10
3485.92326
 20
2754.763499
 30
0.0
 11
3538.92326
 21
2754.763499
 31
0.0
  0
LINE
  5
D798
100
AcDbEntity
  8
0
100
AcDbLine
 10
3481.42326
 20
2754.763499
 30
0.0
 11
3543.42326
 21
2754.763499
 31
0.0
  0
LINE
  5
D799
100
AcDbEntity
  8
0
100
AcDbLine
 10
3483.356443
 20
2784.763499
 30
0.0
 11
3543.42326
 21
2784.763499
 31
0.0
  0
ARC
  5
D79A
100
AcDbEntity
  8
0
100
AcDbCircle
 10
3736.809343
 20
2332.867939
 30
0.0
 40
519.125903
100
AcDbArc
 50
110.922939
 51
119.286154
  0
ARC
  5
D79B
100
AcDbEntity
  8
0
100
AcDbCircle
 10
3522.773392
 20
2784.461401
 30
0.0
 40
55.758642
100
AcDbArc
 50
228.225397
 51
251.870553
  0
LINE
  5
D79C
100
AcDbEntity
  8
0
100
AcDbLine
 10
3698.42326
 20
2816.763499
 30
0.0
 11
3698.42326
 21
2814.66773
 31
0.0
  0
ARC
  5
D79D
100
AcDbEntity
  8
0
100
AcDbCircle
 10
3695.42326
 20
2814.66773
 30
0.0
 40
3.0
100
AcDbArc
 50
271.858546
 51
0.0
  0
ARC
  5
D79E
100
AcDbEntity
  8
0
100
AcDbCircle
 10
3695.42326
 20
2816.763499
 30
0.0
 40
3.0
100
AcDbArc
 50
0.0
 51
90.0
  0
LINE
  5
D79F
100
AcDbEntity
  8
0
100
AcDbLine
 10
4930.990378
 20
2568.203499
 30
0.0
 11
4930.990378
 21
1551.799499
 31
0.0
  0
LINE
  5
D7A1
100
AcDbEntity
  8
0
100
AcDbLine
 10
4834.990378
 20
2650.803499
 30
0.0
 11
4834.990378
 21
2790.803499
 31
0.0
  0
LINE
  5
D7A2
100
AcDbEntity
  8
0
100
AcDbLine
 10
4856.990378
 20
2510.803499
 30
0.0
 11
4856.990378
 21
2790.803499
 31
0.0
  0
ARC
  5
D7A3
100
AcDbEntity
  8
0
100
AcDbCircle
 10
4690.688928
 20
2650.803499
 30
0.0
 40
254.101449
100
AcDbArc
 50
341.030365
 51
18.969635
  0
LINE
  5
D7A4
100
AcDbEntity
  8
0
100
AcDbLine
 10
4834.990378
 20
2510.803499
 30
0.0
 11
4856.990378
 21
2510.803499
 31
0.0
  0
LINE
  5
D7A5
100
AcDbEntity
  8
0
100
AcDbLine
 10
4834.990378
 20
2650.803499
 30
0.0
 11
4834.990378
 21
2510.803499
 31
0.0
  0
LINE
  5
D7A6
100
AcDbEntity
  8
0
100
AcDbLine
 10
4930.990378
 20
2568.203499
 30
0.0
 11
4856.990378
 21
2568.203499
 31
0.0
  0
LINE
  5
D7A7
100
AcDbEntity
  8
0
100
AcDbLine
 10
4856.990378
 20
2790.803499
 30
0.0
 11
4834.990378
 21
2790.803499
 31
0.0
  0
LINE
  5
D7A8
100
AcDbEntity
  8
0
100
AcDbLine
 10
4914.990378
 20
2800.803499
 30
0.0
 11
4914.990378
 21
2791.803499
 31
0.0
  0
LINE
  5
D7A9
100
AcDbEntity
  8
0
100
AcDbLine
 10
4930.990378
 20
2791.803499
 30
0.0
 11
4930.990378
 21
2733.403499
 31
0.0
  0
LINE
  5
D7AA
100
AcDbEntity
  8
0
100
AcDbLine
 10
4856.990378
 20
2733.403499
 30
0.0
 11
4930.990378
 21
2733.403499
 31
0.0
  0
LINE
  5
D7AB
100
AcDbEntity
  8
0
100
AcDbLine
 10
3044.27326
 20
2878.803499
 30
0.0
 11
3260.57326
 21
2878.803499
 31
0.0
  0
LINE
  5
D7AC
100
AcDbEntity
  8
0
100
AcDbLine
 10
2987.42326
 20
2900.803499
 30
0.0
 11
3317.42326
 21
2900.803499
 31
0.0
  0
LINE
  5
D7AD
100
AcDbEntity
  8
0
100
AcDbLine
 10
3317.42326
 20
2878.803499
 30
0.0
 11
2987.42326
 21
2878.803499
 31
0.0
  0
LINE
  5
D7AE
100
AcDbEntity
  8
0
100
AcDbLine
 10
2987.42326
 20
2878.803499
 30
0.0
 11
2987.42326
 21
2900.803499
 31
0.0
  0
LINE
  5
D7AF
100
AcDbEntity
  8
0
100
AcDbLine
 10
3317.42326
 20
2900.803499
 30
0.0
 11
3317.42326
 21
2878.803499
 31
0.0
  0
LINE
  5
D7B0
100
AcDbEntity
  8
0
100
AcDbLine
 10
4856.990378
 20
4020.601655
 30
0.0
 11
4834.990378
 21
4020.601655
 31
0.0
  0
LINE
  5
D7B1
100
AcDbEntity
  8
0
100
AcDbLine
 10
4927.930378
 20
4078.001655
 30
0.0
 11
4856.990378
 21
4078.001655
 31
0.0
  0
LINE
  5
D7B3
100
AcDbEntity
  8
0
100
AcDbLine
 10
7017.902608
 20
2800.803499
 30
0.0
 11
7017.902608
 21
2878.803499
 31
0.0
  0
LINE
  5
D7B4
100
AcDbEntity
  8
0
100
AcDbLine
 10
6801.602608
 20
2878.803499
 30
0.0
 11
6801.602608
 21
2800.803499
 31
0.0
  0
LINE
  5
D7B5
100
AcDbEntity
  8
0
100
AcDbLine
 10
5293.140378
 20
2800.803499
 30
0.0
 11
5293.140378
 21
2878.803499
 31
0.0
  0
LINE
  5
D7B6
100
AcDbEntity
  8
0
100
AcDbLine
 10
5076.840378
 20
2878.803499
 30
0.0
 11
5076.840378
 21
2800.803499
 31
0.0
  0
LINE
  5
D7B7
100
AcDbEntity
  8
0
100
AcDbLine
 10
5438.990378
 20
1815.803499
 30
0.0
 11
5438.990378
 21
2300.803499
 31
0.0
  0
LINE
  5
D7B8
100
AcDbEntity
  8
0
100
AcDbLine
 10
5084.420378
 20
1551.799499
 30
0.0
 11
5438.990378
 21
1551.799499
 31
0.0
  0
LINE
  5
D7B9
100
AcDbEntity
  8
0
100
AcDbLine
 10
5009.137499
 20
1815.803499
 30
0.0
 11
5009.137499
 21
1665.798499
 31
0.0
  0
LINE
  5
D7BA
100
AcDbEntity
  8
0
100
AcDbLine
 10
5104.400294
 20
1815.803499
 30
0.0
 11
5104.400294
 21
1665.798499
 31
0.0
  0
LINE
  5
D7BB
100
AcDbEntity
  8
0
100
AcDbLine
 10
5108.63488
 20
1815.803499
 30
0.0
 11
5108.63488
 21
1665.798499
 31
0.0
  0
LINE
  5
D7BC
100
AcDbEntity
  8
0
100
AcDbLine
 10
5174.990378
 20
1692.084806
 30
0.0
 11
5174.990378
 21
1688.798499
 31
0.0
  0
LINE
  5
D7BD
100
AcDbEntity
  8
0
100
AcDbLine
 10
5194.990378
 20
1692.084806
 30
0.0
 11
5194.990378
 21
1688.798499
 31
0.0
  0
ARC
  5
D7BE
100
AcDbEntity
  8
0
100
AcDbCircle
 10
5184.990378
 20
1730.798499
 30
0.0
 40
42.0
100
AcDbArc
 50
129.120422
 51
256.225853
  0
ARC
  5
D7BF
100
AcDbEntity
  8
0
100
AcDbCircle
 10
5184.990378
 20
1730.798499
 30
0.0
 40
42.0
100
AcDbArc
 50
283.774147
 51
50.879578
  0
LINE
  5
D7C0
100
AcDbEntity
  8
0
100
AcDbLine
 10
5084.420378
 20
1665.798499
 30
0.0
 11
5108.63488
 21
1665.798499
 31
0.0
  0
LINE
  5
D7C1
100
AcDbEntity
  8
0
100
AcDbLine
 10
5009.137499
 20
1665.798499
 30
0.0
 11
5023.180378
 21
1665.798499
 31
0.0
  0
LINE
  5
D7C2
100
AcDbEntity
  8
0
100
AcDbLine
 10
5174.990378
 20
1688.798499
 30
0.0
 11
5194.990378
 21
1688.798499
 31
0.0
  0
LINE
  5
D7C3
100
AcDbEntity
  8
0
100
AcDbLine
 10
5190.990378
 20
1679.798499
 30
0.0
 11
5194.990378
 21
1688.798499
 31
0.0
  0
LINE
  5
D7C4
100
AcDbEntity
  8
0
100
AcDbLine
 10
5178.990378
 20
1679.798499
 30
0.0
 11
5174.990378
 21
1688.798499
 31
0.0
  0
LINE
  5
D7C5
100
AcDbEntity
  8
0
100
AcDbLine
 10
5178.990378
 20
1679.798499
 30
0.0
 11
5190.990378
 21
1679.798499
 31
0.0
  0
LINE
  5
D7C6
100
AcDbEntity
  8
0
100
AcDbLine
 10
5036.120378
 20
1779.013499
 30
0.0
 11
5023.180378
 21
1800.803499
 31
0.0
  0
LINE
  5
D7C7
100
AcDbEntity
  8
0
100
AcDbLine
 10
5108.63488
 20
1815.803499
 30
0.0
 11
5009.137499
 21
1815.803499
 31
0.0
  0
LINE
  5
D7C8
100
AcDbEntity
  8
0
100
AcDbLine
 10
5084.420378
 20
1800.803499
 30
0.0
 11
5036.120378
 21
1779.013499
 31
0.0
  0
LINE
  5
D7C9
100
AcDbEntity
  8
0
100
AcDbLine
 10
5084.420378
 20
1800.803499
 30
0.0
 11
5023.180378
 21
1800.803499
 31
0.0
  0
LINE
  5
D7CA
100
AcDbEntity
  8
0
100
AcDbLine
 10
5215.990378
 20
1814.798499
 30
0.0
 11
5215.990378
 21
1784.798499
 31
0.0
  0
LINE
  5
D7CB
100
AcDbEntity
  8
0
100
AcDbLine
 10
5220.756982
 20
1714.798499
 30
0.0
 11
5223.823353
 21
1714.798499
 31
0.0
  0
ARC
  5
D7CC
100
AcDbEntity
  8
0
100
AcDbCircle
 10
5220.756982
 20
1749.798499
 30
0.0
 40
3.0
100
AcDbArc
 50
207.978214
 51
270.0
  0
LINE
  5
D7CD
100
AcDbEntity
  8
0
100
AcDbLine
 10
5220.756982
 20
1746.798499
 30
0.0
 11
5223.823353
 21
1746.798499
 31
0.0
  0
LINE
  5
D7CE
100
AcDbEntity
  8
0
100
AcDbLine
 10
5214.990378
 20
1748.119007
 30
0.0
 11
5214.990378
 21
1713.477991
 31
0.0
  0
ARC
  5
D7CF
100
AcDbEntity
  8
0
100
AcDbCircle
 10
5220.756982
 20
1711.798499
 30
0.0
 40
3.0
100
AcDbArc
 50
90.0
 51
152.021786
  0
LINE
  5
D7D0
100
AcDbEntity
  8
0
100
AcDbLine
 10
5174.290378
 20
1841.798499
 30
0.0
 11
5195.690378
 21
1841.798499
 31
0.0
  0
ARC
  5
D7D1
100
AcDbEntity
  8
0
100
AcDbCircle
 10
5195.690378
 20
1844.598499
 30
0.0
 40
2.8
100
AcDbArc
 50
270.0
 51
0.0
  0
LINE
  5
D7D2
100
AcDbEntity
  8
0
100
AcDbLine
 10
5198.490378
 20
1846.998499
 30
0.0
 11
5198.490378
 21
1844.598499
 31
0.0
  0
LINE
  5
D7D3
100
AcDbEntity
  8
0
100
AcDbLine
 10
5174.290378
 20
1849.798499
 30
0.0
 11
5195.690378
 21
1849.798499
 31
0.0
  0
ARC
  5
D7D4
100
AcDbEntity
  8
0
100
AcDbCircle
 10
5195.690378
 20
1846.998499
 30
0.0
 40
2.8
100
AcDbArc
 50
0.0
 51
90.0
  0
LINE
  5
D7D5
100
AcDbEntity
  8
0
100
AcDbLine
 10
5171.490378
 20
1846.998499
 30
0.0
 11
5171.490378
 21
1844.598499
 31
0.0
  0
ARC
  5
D7D6
100
AcDbEntity
  8
0
100
AcDbCircle
 10
5174.290378
 20
1844.598499
 30
0.0
 40
2.8
100
AcDbArc
 50
180.0
 51
270.0
  0
ARC
  5
D7D7
100
AcDbEntity
  8
0
100
AcDbCircle
 10
5174.290378
 20
1846.998499
 30
0.0
 40
2.8
100
AcDbArc
 50
90.0
 51
180.0
  0
LINE
  5
D7D8
100
AcDbEntity
  8
0
100
AcDbLine
 10
5153.990378
 20
1814.798499
 30
0.0
 11
5153.990378
 21
1784.798499
 31
0.0
  0
LINE
  5
D7D9
100
AcDbEntity
  8
0
100
AcDbLine
 10
5193.991754
 20
1814.707631
 30
0.0
 11
5193.172313
 21
1841.749178
 31
0.0
  0
LINE
  5
D7DA
100
AcDbEntity
  8
0
100
AcDbLine
 10
5175.989001
 20
1814.707631
 30
0.0
 11
5176.808442
 21
1841.749178
 31
0.0
  0
LINE
  5
D7DB
100
AcDbEntity
  8
0
100
AcDbLine
 10
5172.990378
 20
1814.798499
 30
0.0
 11
5173.809818
 21
1841.840046
 31
0.0
  0
LINE
  5
D7DC
100
AcDbEntity
  8
0
100
AcDbLine
 10
5196.990378
 20
1814.798499
 30
0.0
 11
5196.170937
 21
1841.840046
 31
0.0
  0
ARC
  5
D7DD
100
AcDbEntity
  8
0
100
AcDbCircle
 10
5149.223773
 20
1749.798499
 30
0.0
 40
3.0
100
AcDbArc
 50
270.0
 51
332.021786
  0
LINE
  5
D7DE
100
AcDbEntity
  8
0
100
AcDbLine
 10
5146.157402
 20
1746.798499
 30
0.0
 11
5149.223773
 21
1746.798499
 31
0.0
  0
LINE
  5
D7DF
100
AcDbEntity
  8
0
100
AcDbLine
 10
5146.157402
 20
1714.798499
 30
0.0
 11
5149.223773
 21
1714.798499
 31
0.0
  0
LINE
  5
D7E0
100
AcDbEntity
  8
0
100
AcDbLine
 10
5154.990378
 20
1748.119007
 30
0.0
 11
5154.990378
 21
1713.477991
 31
0.0
  0
LINE
  5
D7E1
100
AcDbEntity
  8
0
100
AcDbLine
 10
5154.990378
 20
1748.119007
 30
0.0
 11
5184.990378
 21
1765.439515
 31
0.0
  0
ARC
  5
D7E2
100
AcDbEntity
  8
0
100
AcDbCircle
 10
5198.490378
 20
1692.084806
 30
0.0
 40
3.5
100
AcDbArc
 50
109.22437
 51
180.0
  0
ARC
  5
D7E3
100
AcDbEntity
  8
0
100
AcDbCircle
 10
5171.490378
 20
1692.084806
 30
0.0
 40
3.5
100
AcDbArc
 50
360.0
 51
70.77563
  0
LINE
  5
D7E4
100
AcDbEntity
  8
0
100
AcDbLine
 10
5154.990378
 20
1713.477991
 30
0.0
 11
5184.990378
 21
1696.157483
 31
0.0
  0
CIRCLE
  5
D7E5
100
AcDbEntity
  8
0
100
AcDbCircle
 10
5184.990378
 20
1730.798499
 30
0.0
 40
20.0
  0
ARC
  5
D7E6
100
AcDbEntity
  8
0
100
AcDbCircle
 10
5149.223773
 20
1711.798499
 30
0.0
 40
3.0
100
AcDbArc
 50
27.978214
 51
90.0
  0
LINE
  5
D7E7
100
AcDbEntity
  8
0
100
AcDbLine
 10
5158.490378
 20
1784.798499
 30
0.0
 11
5158.490378
 21
1757.331497
 31
0.0
  0
LINE
  5
D7E8
100
AcDbEntity
  8
0
100
AcDbLine
 10
5211.490378
 20
1784.798499
 30
0.0
 11
5211.490378
 21
1757.331497
 31
0.0
  0
ARC
  5
D7E9
100
AcDbEntity
  8
0
100
AcDbCircle
 10
5184.990378
 20
1730.798499
 30
0.0
 40
37.5
100
AcDbArc
 50
207.978214
 51
332.021786
  0
LINE
  5
D7EA
100
AcDbEntity
  8
0
100
AcDbLine
 10
5184.990378
 20
1696.157483
 30
0.0
 11
5214.990378
 21
1713.477991
 31
0.0
  0
CIRCLE
  5
D7EB
100
AcDbEntity
  8
0
100
AcDbCircle
 10
5184.990378
 20
1730.798499
 30
0.0
 40
30.0
  0
LINE
  5
D7EC
100
AcDbEntity
  8
0
100
AcDbLine
 10
5153.990378
 20
1814.798499
 30
0.0
 11
5215.990378
 21
1814.798499
 31
0.0
  0
LINE
  5
D7ED
100
AcDbEntity
  8
0
100
AcDbLine
 10
5153.990378
 20
1784.798499
 30
0.0
 11
5215.990378
 21
1784.798499
 31
0.0
  0
ARC
  5
D7EE
100
AcDbEntity
  8
0
100
AcDbCircle
 10
5184.990378
 20
1730.798499
 30
0.0
 40
37.5
100
AcDbArc
 50
27.978214
 51
152.021786
  0
LINE
  5
D7EF
100
AcDbEntity
  8
0
100
AcDbLine
 10
5184.990378
 20
1765.439515
 30
0.0
 11
5214.990378
 21
1748.119007
 31
0.0
  0
LINE
  5
D7F0
100
AcDbEntity
  8
0
100
AcDbLine
 10
5434.250378
 20
1815.803499
 30
0.0
 11
5434.250378
 21
1665.798499
 31
0.0
  0
LINE
  5
D7F1
100
AcDbEntity
  8
0
100
AcDbLine
 10
5443.120378
 20
1665.798499
 30
0.0
 11
5443.120378
 21
1815.803499
 31
0.0
  0
LINE
  5
D7F2
100
AcDbEntity
  8
0
100
AcDbLine
 10
5440.140378
 20
1815.803499
 30
0.0
 11
5440.140378
 21
1665.798499
 31
0.0
  0
LINE
  5
D7F3
100
AcDbEntity
  8
0
100
AcDbLine
 10
5434.250378
 20
1665.798499
 30
0.0
 11
5443.120378
 21
1665.798499
 31
0.0
  0
LINE
  5
D7F4
100
AcDbEntity
  8
0
100
AcDbLine
 10
5438.990378
 20
1551.799499
 30
0.0
 11
5438.990378
 21
1665.798499
 31
0.0
  0
LINE
  5
D7F5
100
AcDbEntity
  8
0
100
AcDbLine
 10
5447.360378
 20
1800.803499
 30
0.0
 11
5443.120378
 21
1800.803499
 31
0.0
  0
LINE
  5
D7F6
100
AcDbEntity
  8
0
100
AcDbLine
 10
5443.120378
 20
1815.803499
 30
0.0
 11
5434.250378
 21
1815.803499
 31
0.0
  0
LINE
  5
D7F7
100
AcDbEntity
  8
0
100
AcDbLine
 10
5482.720378
 20
1779.013499
 30
0.0
 11
5447.360378
 21
1800.803499
 31
0.0
  0
LINE
  5
D7F8
100
AcDbEntity
  8
0
100
AcDbLine
 10
5438.990378
 20
2370.803499
 30
0.0
 11
5438.990378
 21
2791.803499
 31
0.0
  0
LINE
  5
D7F9
100
AcDbEntity
  8
0
100
AcDbLine
 10
5432.510378
 20
2370.803499
 30
0.0
 11
5432.510378
 21
2300.803499
 31
0.0
  0
LINE
  5
D7FA
100
AcDbEntity
  8
0
100
AcDbLine
 10
5484.990378
 20
2300.803499
 30
0.0
 11
5484.990378
 21
2370.803499
 31
0.0
  0
LINE
  5
D7FB
100
AcDbEntity
  8
0
100
AcDbLine
 10
5484.990378
 20
2365.803499
 30
0.0
 11
5484.990378
 21
2305.803499
 31
0.0
  0
LINE
  5
D7FC
100
AcDbEntity
  8
0
100
AcDbLine
 10
5485.990378
 20
2305.803499
 30
0.0
 11
5485.990378
 21
2365.803499
 31
0.0
  0
LINE
  5
D7FD
100
AcDbEntity
  8
0
100
AcDbLine
 10
5484.990378
 20
2305.803499
 30
0.0
 11
5485.990378
 21
2305.803499
 31
0.0
  0
LINE
  5
D7FE
100
AcDbEntity
  8
0
100
AcDbLine
 10
5432.510378
 20
2300.803499
 30
0.0
 11
5484.990378
 21
2300.803499
 31
0.0
  0
LINE
  5
D7FF
100
AcDbEntity
  8
0
100
AcDbLine
 10
5485.990378
 20
2365.803499
 30
0.0
 11
5484.990378
 21
2365.803499
 31
0.0
  0
LINE
  5
D800
100
AcDbEntity
  8
0
100
AcDbLine
 10
5484.990378
 20
2370.803499
 30
0.0
 11
5432.510378
 21
2370.803499
 31
0.0
  0
LINE
  5
D801
100
AcDbEntity
  8
0
100
AcDbLine
 10
5196.777044
 20
2791.803499
 30
0.0
 11
5454.990378
 21
2791.803499
 31
0.0
  0
LINE
  5
D802
100
AcDbEntity
  8
0
100
AcDbLine
 10
5454.990378
 20
2800.803499
 30
0.0
 11
5196.504317
 21
2800.803499
 31
0.0
  0
LINE
  5
D803
100
AcDbEntity
  8
0
100
AcDbLine
 10
5154.990378
 20
2683.442991
 30
0.0
 11
5184.990378
 21
2666.122483
 31
0.0
  0
ARC
  5
D804
100
AcDbEntity
  8
0
100
AcDbCircle
 10
5184.990378
 20
2700.763499
 30
0.0
 40
42.0
100
AcDbArc
 50
129.120422
 51
256.225853
  0
CIRCLE
  5
D805
100
AcDbEntity
  8
0
100
AcDbCircle
 10
5184.990378
 20
2700.763499
 30
0.0
 40
30.0
  0
ARC
  5
D806
100
AcDbEntity
  8
0
100
AcDbCircle
 10
5184.990378
 20
2700.763499
 30
0.0
 40
37.5
100
AcDbArc
 50
207.978214
 51
332.021786
  0
ARC
  5
D807
100
AcDbEntity
  8
0
100
AcDbCircle
 10
5184.990378
 20
2700.763499
 30
0.0
 40
42.0
100
AcDbArc
 50
283.774147
 51
50.879578
  0
LINE
  5
D808
100
AcDbEntity
  8
0
100
AcDbLine
 10
5184.990378
 20
2666.122483
 30
0.0
 11
5214.990378
 21
2683.442991
 31
0.0
  0
LINE
  5
D809
100
AcDbEntity
  8
0
100
AcDbLine
 10
5178.990378
 20
2649.763499
 30
0.0
 11
5190.990378
 21
2649.763499
 31
0.0
  0
LINE
  5
D80A
100
AcDbEntity
  8
0
100
AcDbLine
 10
5178.990378
 20
2649.763499
 30
0.0
 11
5174.990378
 21
2658.763499
 31
0.0
  0
LINE
  5
D80B
100
AcDbEntity
  8
0
100
AcDbLine
 10
5190.990378
 20
2649.763499
 30
0.0
 11
5194.990378
 21
2658.763499
 31
0.0
  0
LINE
  5
D80C
100
AcDbEntity
  8
0
100
AcDbLine
 10
5194.990378
 20
2662.049806
 30
0.0
 11
5194.990378
 21
2658.763499
 31
0.0
  0
ARC
  5
D80D
100
AcDbEntity
  8
0
100
AcDbCircle
 10
5198.490378
 20
2662.049806
 30
0.0
 40
3.5
100
AcDbArc
 50
109.22437
 51
180.0
  0
LINE
  5
D80E
100
AcDbEntity
  8
0
100
AcDbLine
 10
5174.990378
 20
2662.049806
 30
0.0
 11
5174.990378
 21
2658.763499
 31
0.0
  0
LINE
  5
D80F
100
AcDbEntity
  8
0
100
AcDbLine
 10
5174.990378
 20
2658.763499
 30
0.0
 11
5194.990378
 21
2658.763499
 31
0.0
  0
ARC
  5
D810
100
AcDbEntity
  8
0
100
AcDbCircle
 10
5171.490378
 20
2662.049806
 30
0.0
 40
3.5
100
AcDbArc
 50
360.0
 51
70.77563
  0
ARC
  5
D811
100
AcDbEntity
  8
0
100
AcDbCircle
 10
5195.690378
 20
2816.963499
 30
0.0
 40
2.8
100
AcDbArc
 50
0.0
 51
90.0
  0
LINE
  5
D812
100
AcDbEntity
  8
0
100
AcDbLine
 10
5174.290378
 20
2819.763499
 30
0.0
 11
5195.690378
 21
2819.763499
 31
0.0
  0
LINE
  5
D813
100
AcDbEntity
  8
0
100
AcDbLine
 10
5198.490378
 20
2816.963499
 30
0.0
 11
5198.490378
 21
2814.563499
 31
0.0
  0
ARC
  5
D814
100
AcDbEntity
  8
0
100
AcDbCircle
 10
5195.690378
 20
2814.563499
 30
0.0
 40
2.8
100
AcDbArc
 50
270.0
 51
0.0
  0
LINE
  5
D815
100
AcDbEntity
  8
0
100
AcDbLine
 10
5174.290378
 20
2811.763499
 30
0.0
 11
5195.690378
 21
2811.763499
 31
0.0
  0
LINE
  5
D816
100
AcDbEntity
  8
0
100
AcDbLine
 10
5171.490378
 20
2816.963499
 30
0.0
 11
5171.490378
 21
2814.563499
 31
0.0
  0
ARC
  5
D817
100
AcDbEntity
  8
0
100
AcDbCircle
 10
5174.290378
 20
2816.963499
 30
0.0
 40
2.8
100
AcDbArc
 50
90.0
 51
180.0
  0
ARC
  5
D818
100
AcDbEntity
  8
0
100
AcDbCircle
 10
5174.290378
 20
2814.563499
 30
0.0
 40
2.8
100
AcDbArc
 50
180.0
 51
270.0
  0
LINE
  5
D819
100
AcDbEntity
  8
0
100
AcDbLine
 10
5215.990378
 20
2784.763499
 30
0.0
 11
5215.990378
 21
2754.763499
 31
0.0
  0
LINE
  5
D81A
100
AcDbEntity
  8
0
100
AcDbLine
 10
5220.756982
 20
2716.763499
 30
0.0
 11
5223.823353
 21
2716.763499
 31
0.0
  0
ARC
  5
D81B
100
AcDbEntity
  8
0
100
AcDbCircle
 10
5220.756982
 20
2719.763499
 30
0.0
 40
3.0
100
AcDbArc
 50
207.978214
 51
270.0
  0
LINE
  5
D81C
100
AcDbEntity
  8
0
100
AcDbLine
 10
5220.756982
 20
2684.763499
 30
0.0
 11
5223.823353
 21
2684.763499
 31
0.0
  0
ARC
  5
D81D
100
AcDbEntity
  8
0
100
AcDbCircle
 10
5220.756982
 20
2681.763499
 30
0.0
 40
3.0
100
AcDbArc
 50
90.0
 51
152.021786
  0
LINE
  5
D81E
100
AcDbEntity
  8
0
100
AcDbLine
 10
5214.990378
 20
2718.084007
 30
0.0
 11
5214.990378
 21
2683.442991
 31
0.0
  0
LINE
  5
D81F
100
AcDbEntity
  8
0
100
AcDbLine
 10
5153.990378
 20
2784.763499
 30
0.0
 11
5153.990378
 21
2754.763499
 31
0.0
  0
LINE
  5
D820
100
AcDbEntity
  8
0
100
AcDbLine
 10
5146.157402
 20
2716.763499
 30
0.0
 11
5149.223773
 21
2716.763499
 31
0.0
  0
ARC
  5
D821
100
AcDbEntity
  8
0
100
AcDbCircle
 10
5149.223773
 20
2719.763499
 30
0.0
 40
3.0
100
AcDbArc
 50
270.0
 51
332.021786
  0
LINE
  5
D822
100
AcDbEntity
  8
0
100
AcDbLine
 10
5154.990378
 20
2718.084007
 30
0.0
 11
5184.990378
 21
2735.404515
 31
0.0
  0
LINE
  5
D823
100
AcDbEntity
  8
0
100
AcDbLine
 10
5158.490378
 20
2754.763499
 30
0.0
 11
5158.490378
 21
2727.296497
 31
0.0
  0
LINE
  5
D824
100
AcDbEntity
  8
0
100
AcDbLine
 10
5211.490378
 20
2754.763499
 30
0.0
 11
5211.490378
 21
2727.296497
 31
0.0
  0
LINE
  5
D825
100
AcDbEntity
  8
0
100
AcDbLine
 10
5146.157402
 20
2684.763499
 30
0.0
 11
5149.223773
 21
2684.763499
 31
0.0
  0
ARC
  5
D826
100
AcDbEntity
  8
0
100
AcDbCircle
 10
5149.223773
 20
2681.763499
 30
0.0
 40
3.0
100
AcDbArc
 50
27.978214
 51
90.0
  0
CIRCLE
  5
D827
100
AcDbEntity
  8
0
100
AcDbCircle
 10
5184.990378
 20
2700.763499
 30
0.0
 40
20.0
  0
LINE
  5
D828
100
AcDbEntity
  8
0
100
AcDbLine
 10
5154.990378
 20
2718.084007
 30
0.0
 11
5154.990378
 21
2683.442991
 31
0.0
  0
ARC
  5
D829
100
AcDbEntity
  8
0
100
AcDbCircle
 10
5184.990378
 20
2700.763499
 30
0.0
 40
37.5
100
AcDbArc
 50
27.978214
 51
152.021786
  0
LINE
  5
D82A
100
AcDbEntity
  8
0
100
AcDbLine
 10
5153.990378
 20
2754.763499
 30
0.0
 11
5215.990378
 21
2754.763499
 31
0.0
  0
LINE
  5
D82B
100
AcDbEntity
  8
0
100
AcDbLine
 10
5153.990378
 20
2784.763499
 30
0.0
 11
5215.990378
 21
2784.763499
 31
0.0
  0
LINE
  5
D82C
100
AcDbEntity
  8
0
100
AcDbLine
 10
5184.990378
 20
2735.404515
 30
0.0
 11
5214.990378
 21
2718.084007
 31
0.0
  0
LINE
  5
D82D
100
AcDbEntity
  8
0
100
AcDbLine
 10
5196.990378
 20
2784.763499
 30
0.0
 11
5196.170937
 21
2811.805046
 31
0.0
  0
LINE
  5
D82E
100
AcDbEntity
  8
0
100
AcDbLine
 10
5172.990378
 20
2784.763499
 30
0.0
 11
5173.809818
 21
2811.805046
 31
0.0
  0
LINE
  5
D82F
100
AcDbEntity
  8
0
100
AcDbLine
 10
5175.989001
 20
2784.672631
 30
0.0
 11
5176.808442
 21
2811.714178
 31
0.0
  0
LINE
  5
D830
100
AcDbEntity
  8
0
100
AcDbLine
 10
5193.991754
 20
2784.672631
 30
0.0
 11
5193.172313
 21
2811.714178
 31
0.0
  0
LINE
  5
D831
100
AcDbEntity
  8
0
100
AcDbLine
 10
5454.990378
 20
2791.803499
 30
0.0
 11
5454.990378
 21
2800.803499
 31
0.0
  0
LINE
  5
D832
100
AcDbEntity
  8
0
100
AcDbLine
 10
7163.752608
 20
1551.799499
 30
0.0
 11
7163.752608
 21
2791.803499
 31
0.0
  0
LINE
  5
D833
100
AcDbEntity
  8
0
100
AcDbLine
 10
6655.752608
 20
2791.803499
 30
0.0
 11
6655.752608
 21
1551.799499
 31
0.0
  0
LINE
  5
D834
100
AcDbEntity
  8
0
100
AcDbLine
 10
6655.752608
 20
1551.799499
 30
0.0
 11
6874.397269
 21
1551.799499
 31
0.0
  0
LINE
  5
D835
100
AcDbEntity
  8
0
100
AcDbLine
 10
6493.219069
 20
1837.597424
 30
0.0
 11
6366.655312
 21
1841.704308
 31
0.0
  0
LINE
  5
D836
100
AcDbEntity
  8
0
100
AcDbLine
 10
6486.752608
 20
1849.798499
 30
0.0
 11
6366.752608
 21
1849.798499
 31
0.0
  0
LINE
  5
D837
100
AcDbEntity
  8
0
100
AcDbLine
 10
6363.752608
 20
1846.798499
 30
0.0
 11
6363.752608
 21
1844.70273
 31
0.0
  0
ARC
  5
D838
100
AcDbEntity
  8
0
100
AcDbCircle
 10
6366.752608
 20
1844.70273
 30
0.0
 40
3.0
100
AcDbArc
 50
180.0
 51
268.141454
  0
ARC
  5
D839
100
AcDbEntity
  8
0
100
AcDbCircle
 10
6366.752608
 20
1846.798499
 30
0.0
 40
3.0
100
AcDbArc
 50
90.0
 51
180.0
  0
ARC
  5
D83A
100
AcDbEntity
  8
0
100
AcDbCircle
 10
6588.083455
 20
1690.798499
 30
0.0
 40
2.0
100
AcDbArc
 50
270.0
 51
349.695154
  0
LINE
  5
D83B
100
AcDbEntity
  8
0
100
AcDbLine
 10
6584.752608
 20
1772.798499
 30
0.0
 11
6584.752608
 21
1688.798499
 31
0.0
  0
LINE
  5
D83C
100
AcDbEntity
  8
0
100
AcDbLine
 10
6579.752608
 20
1772.798499
 30
0.0
 11
6579.752608
 21
1688.798499
 31
0.0
  0
LINE
  5
D83D
100
AcDbEntity
  8
0
100
AcDbLine
 10
6539.752608
 20
1688.798499
 30
0.0
 11
6539.752608
 21
1689.798499
 31
0.0
  0
ARC
  5
D83E
100
AcDbEntity
  8
0
100
AcDbCircle
 10
6558.752608
 20
1690.798499
 30
0.0
 40
2.0
100
AcDbArc
 50
180.0
 51
270.0
  0
LINE
  5
D83F
100
AcDbEntity
  8
0
100
AcDbLine
 10
6539.752608
 20
1688.798499
 30
0.0
 11
6588.083455
 21
1688.798499
 31
0.0
  0
LINE
  5
D840
100
AcDbEntity
  8
0
100
AcDbLine
 10
6543.752608
 20
1679.798499
 30
0.0
 11
6555.752608
 21
1679.798499
 31
0.0
  0
LINE
  5
D841
100
AcDbEntity
  8
0
100
AcDbLine
 10
6543.752608
 20
1679.798499
 30
0.0
 11
6539.752608
 21
1688.798499
 31
0.0
  0
LINE
  5
D842
100
AcDbEntity
  8
0
100
AcDbLine
 10
6559.752608
 20
1688.798499
 30
0.0
 11
6555.752608
 21
1679.798499
 31
0.0
  0
LINE
  5
D843
100
AcDbEntity
  8
0
100
AcDbLine
 10
6580.252608
 20
1772.798499
 30
0.0
 11
6588.083455
 21
1772.798499
 31
0.0
  0
ARC
  5
D844
100
AcDbEntity
  8
0
100
AcDbCircle
 10
6577.752608
 20
1813.112905
 30
0.0
 40
3.0
100
AcDbArc
 50
0.0
 51
58.765664
  0
LINE
  5
D845
100
AcDbEntity
  8
0
100
AcDbLine
 10
6576.252608
 20
1784.798499
 30
0.0
 11
6576.252608
 21
1776.798499
 31
0.0
  0
ARC
  5
D846
100
AcDbEntity
  8
0
100
AcDbCircle
 10
6580.252608
 20
1776.798499
 30
0.0
 40
4.0
100
AcDbArc
 50
180.0
 51
270.0
  0
LINE
  5
D847
100
AcDbEntity
  8
0
100
AcDbLine
 10
6580.752608
 20
1813.112905
 30
0.0
 11
6580.752608
 21
1784.798499
 31
0.0
  0
ARC
  5
D848
100
AcDbEntity
  8
0
100
AcDbCircle
 10
6549.752608
 20
1753.798499
 30
0.0
 40
7.0
100
AcDbArc
 50
270.0
 51
0.0
  0
ARC
  5
D849
100
AcDbEntity
  8
0
100
AcDbCircle
 10
6517.369796
 20
1756.110999
 30
0.0
 40
11.367188
100
AcDbArc
 50
132.075022
 51
227.924978
  0
LINE
  5
D84A
100
AcDbEntity
  8
0
100
AcDbLine
 10
6509.752608
 20
1764.548499
 30
0.0
 11
6509.752608
 21
1746.798499
 31
0.0
  0
LINE
  5
D84B
100
AcDbEntity
  8
0
100
AcDbLine
 10
6489.752608
 20
1760.798499
 30
0.0
 11
6489.752608
 21
1730.798499
 31
0.0
  0
ARC
  5
D84C
100
AcDbEntity
  8
0
100
AcDbCircle
 10
6501.119796
 20
1756.110999
 30
0.0
 40
11.367188
100
AcDbArc
 50
132.075022
 51
227.924978
  0
ARC
  5
D84D
100
AcDbEntity
  8
0
100
AcDbCircle
 10
6549.752608
 20
1707.798499
 30
0.0
 40
7.0
100
AcDbArc
 50
0.0
 51
90.0
  0
LINE
  5
D84E
100
AcDbEntity
  8
0
100
AcDbLine
 10
6493.502608
 20
1747.673499
 30
0.0
 11
6509.752608
 21
1747.673499
 31
0.0
  0
LINE
  5
D84F
100
AcDbEntity
  8
0
100
AcDbLine
 10
6493.502608
 20
1713.923499
 30
0.0
 11
6509.752608
 21
1713.923499
 31
0.0
  0
ARC
  5
D850
100
AcDbEntity
  8
0
100
AcDbCircle
 10
6545.846358
 20
1730.798499
 30
0.0
 40
39.84375
100
AcDbArc
 50
154.942385
 51
205.057615
  0
LINE
  5
D851
100
AcDbEntity
  8
0
100
AcDbLine
 10
6511.252608
 20
1746.798499
 30
0.0
 11
6511.252608
 21
1714.798499
 31
0.0
  0
LINE
  5
D852
100
AcDbEntity
  8
0
100
AcDbLine
 10
6509.752608
 20
1714.798499
 30
0.0
 11
6549.752608
 21
1714.798499
 31
0.0
  0
LINE
  5
D853
100
AcDbEntity
  8
0
100
AcDbLine
 10
6509.752608
 20
1746.798499
 30
0.0
 11
6549.752608
 21
1746.798499
 31
0.0
  0
ARC
  5
D854
100
AcDbEntity
  8
0
100
AcDbCircle
 10
6529.596358
 20
1730.798499
 30
0.0
 40
39.84375
100
AcDbArc
 50
154.942385
 51
205.057615
  0
ARC
  5
D855
100
AcDbEntity
  8
0
100
AcDbCircle
 10
6556.213816
 20
1805.677583
 30
0.0
 40
49.751487
100
AcDbArc
 50
228.436404
 51
270.620506
  0
LINE
  5
D856
100
AcDbEntity
  8
0
100
AcDbLine
 10
6510.752608
 20
1847.798499
 30
0.0
 11
6488.752608
 21
1847.798499
 31
0.0
  0
ARC
  5
D857
100
AcDbEntity
  8
0
100
AcDbCircle
 10
6503.752608
 20
1813.706616
 30
0.0
 40
15.0
100
AcDbArc
 50
0.0
 51
19.158067
  0
LINE
  5
D858
100
AcDbEntity
  8
0
100
AcDbLine
 10
6503.33919
 20
1833.211917
 30
0.0
 11
6517.92186
 21
1818.629247
 31
0.0
  0
LINE
  5
D859
100
AcDbEntity
  8
0
100
AcDbLine
 10
6523.252608
 20
1784.798499
 30
0.0
 11
6523.252608
 21
1772.298499
 31
0.0
  0
LINE
  5
D85A
100
AcDbEntity
  8
0
100
AcDbLine
 10
6518.752608
 20
1813.706616
 30
0.0
 11
6518.752608
 21
1784.798499
 31
0.0
  0
LINE
  5
D85B
100
AcDbEntity
  8
0
100
AcDbLine
 10
6510.749721
 20
1767.04128
 30
0.0
 11
6509.752608
 21
1764.548499
 31
0.0
  0
LINE
  5
D85C
100
AcDbEntity
  8
0
100
AcDbLine
 10
6493.502608
 20
1764.548499
 30
0.0
 11
6509.752608
 21
1764.548499
 31
0.0
  0
ARC
  5
D85D
100
AcDbEntity
  8
0
100
AcDbCircle
 10
6512.606674
 20
1766.298499
 30
0.0
 40
2.0
100
AcDbArc
 50
90.0
 51
158.198591
  0
LINE
  5
D85E
100
AcDbEntity
  8
0
100
AcDbLine
 10
6512.606674
 20
1768.298499
 30
0.0
 11
6519.252608
 21
1768.298499
 31
0.0
  0
ARC
  5
D85F
100
AcDbEntity
  8
0
100
AcDbCircle
 10
6519.252608
 20
1772.298499
 30
0.0
 40
4.0
100
AcDbArc
 50
270.0
 51
0.0
  0
LINE
  5
D860
100
AcDbEntity
  8
0
100
AcDbLine
 10
6489.752608
 20
1760.798499
 30
0.0
 11
6493.502608
 21
1764.548499
 31
0.0
  0
LINE
  5
D861
100
AcDbEntity
  8
0
100
AcDbLine
 10
6486.752608
 20
1849.798499
 30
0.0
 11
6503.33919
 21
1833.211917
 31
0.0
  0
ARC
  5
D862
100
AcDbEntity
  8
0
100
AcDbCircle
 10
6492.732588
 20
1822.605315
 30
0.0
 40
15.0
100
AcDbArc
 50
45.0
 51
88.141454
  0
LINE
  5
D863
100
AcDbEntity
  8
0
100
AcDbLine
 10
6556.752608
 20
1761.505845
 30
0.0
 11
6556.752608
 21
1753.798499
 31
0.0
  0
ARC
  5
D864
100
AcDbEntity
  8
0
100
AcDbCircle
 10
6549.15514
 20
1654.867185
 30
0.0
 40
35.638651
100
AcDbArc
 50
78.200319
 51
103.960414
  0
LINE
  5
D865
100
AcDbEntity
  8
0
100
AcDbLine
 10
6493.502608
 20
1697.048499
 30
0.0
 11
6509.752608
 21
1697.048499
 31
0.0
  0
LINE
  5
D866
100
AcDbEntity
  8
0
100
AcDbLine
 10
6509.752608
 20
1697.048499
 30
0.0
 11
6510.749721
 21
1694.555717
 31
0.0
  0
ARC
  5
D867
100
AcDbEntity
  8
0
100
AcDbCircle
 10
6512.606674
 20
1695.298499
 30
0.0
 40
2.0
100
AcDbArc
 50
201.801409
 51
270.0
  0
LINE
  5
D868
100
AcDbEntity
  8
0
100
AcDbLine
 10
6512.606674
 20
1693.298499
 30
0.0
 11
6536.252608
 21
1693.298499
 31
0.0
  0
ARC
  5
D869
100
AcDbEntity
  8
0
100
AcDbCircle
 10
6536.252608
 20
1689.798499
 30
0.0
 40
3.5
100
AcDbArc
 50
0.0
 51
90.0
  0
LINE
  5
D86A
100
AcDbEntity
  8
0
100
AcDbLine
 10
6489.752608
 20
1700.798499
 30
0.0
 11
6493.502608
 21
1697.048499
 31
0.0
  0
LINE
  5
D86B
100
AcDbEntity
  8
0
100
AcDbLine
 10
6509.752608
 20
1714.798499
 30
0.0
 11
6509.752608
 21
1697.048499
 31
0.0
  0
ARC
  5
D86C
100
AcDbEntity
  8
0
100
AcDbCircle
 10
6501.119796
 20
1705.485999
 30
0.0
 40
11.367188
100
AcDbArc
 50
132.075022
 51
227.924978
  0
ARC
  5
D86D
100
AcDbEntity
  8
0
100
AcDbCircle
 10
6517.369796
 20
1705.485999
 30
0.0
 40
11.367188
100
AcDbArc
 50
132.075022
 51
227.924978
  0
LINE
  5
D86E
100
AcDbEntity
  8
0
100
AcDbLine
 10
6489.752608
 20
1730.798499
 30
0.0
 11
6489.752608
 21
1700.798499
 31
0.0
  0
LINE
  5
D86F
100
AcDbEntity
  8
0
100
AcDbLine
 10
6556.752608
 20
1707.798499
 30
0.0
 11
6556.752608
 21
1690.798499
 31
0.0
  0
LINE
  5
D870
100
AcDbEntity
  8
0
100
AcDbLine
 10
6576.252608
 20
1784.798499
 30
0.0
 11
6523.252608
 21
1784.798499
 31
0.0
  0
LINE
  5
D871
100
AcDbEntity
  8
0
100
AcDbLine
 10
6580.752608
 20
1784.798499
 30
0.0
 11
6518.752608
 21
1784.798499
 31
0.0
  0
LINE
  5
D872
100
AcDbEntity
  8
0
100
AcDbLine
 10
6578.819425
 20
1814.798499
 30
0.0
 11
6518.752608
 21
1814.798499
 31
0.0
  0
ARC
  5
D873
100
AcDbEntity
  8
0
100
AcDbCircle
 10
6325.366525
 20
1362.902939
 30
0.0
 40
519.125903
100
AcDbArc
 50
60.713846
 51
69.077061
  0
ARC
  5
D874
100
AcDbEntity
  8
0
100
AcDbCircle
 10
6539.402476
 20
1814.496401
 30
0.0
 40
55.758642
100
AcDbArc
 50
288.129447
 51
311.774603
  0
LINE
  5
D875
100
AcDbEntity
  8
0
100
AcDbLine
 10
6651.91297
 20
1755.098499
 30
0.0
 11
6651.91297
 21
1779.013499
 31
0.0
  0
LINE
  5
D876
100
AcDbEntity
  8
0
100
AcDbLine
 10
6651.91297
 20
1779.013499
 30
0.0
 11
6655.752608
 21
1780.775977
 31
0.0
  0
ARC
  5
D877
100
AcDbEntity
  8
0
100
AcDbCircle
 10
6598.385421
 20
1756.110999
 30
0.0
 40
11.367188
100
AcDbArc
 50
312.075022
 51
47.924978
  0
LINE
  5
D878
100
AcDbEntity
  8
0
100
AcDbLine
 10
6609.752608
 20
1760.798499
 30
0.0
 11
6609.752608
 21
1730.798499
 31
0.0
  0
ARC
  5
D879
100
AcDbEntity
  8
0
100
AcDbCircle
 10
6569.908858
 20
1730.798499
 30
0.0
 40
39.84375
100
AcDbArc
 50
334.942385
 51
25.057615
  0
LINE
  5
D87A
100
AcDbEntity
  8
0
100
AcDbLine
 10
6609.752608
 20
1760.798499
 30
0.0
 11
6606.002608
 21
1764.548499
 31
0.0
  0
LINE
  5
D87B
100
AcDbEntity
  8
0
100
AcDbLine
 10
6655.752608
 20
1706.498499
 30
0.0
 11
6609.752608
 21
1706.498499
 31
0.0
  0
LINE
  5
D87C
100
AcDbEntity
  8
0
100
AcDbLine
 10
6655.752608
 20
1755.098499
 30
0.0
 11
6609.752608
 21
1755.098499
 31
0.0
  0
LINE
  5
D87D
100
AcDbEntity
  8
0
100
AcDbLine
 10
6609.752608
 20
1700.798499
 30
0.0
 11
6606.002608
 21
1697.048499
 31
0.0
  0
ARC
  5
D87E
100
AcDbEntity
  8
0
100
AcDbCircle
 10
6598.385421
 20
1705.485999
 30
0.0
 40
11.367188
100
AcDbArc
 50
312.075022
 51
47.924978
  0
LINE
  5
D87F
100
AcDbEntity
  8
0
100
AcDbLine
 10
6609.752608
 20
1730.798499
 30
0.0
 11
6609.752608
 21
1700.798499
 31
0.0
  0
ARC
  5
D880
100
AcDbEntity
  8
0
100
AcDbCircle
 10
6583.635421
 20
1756.110999
 30
0.0
 40
11.367188
100
AcDbArc
 50
312.075022
 51
47.924978
  0
LINE
  5
D881
100
AcDbEntity
  8
0
100
AcDbLine
 10
6606.002608
 20
1747.673499
 30
0.0
 11
6591.252608
 21
1747.673499
 31
0.0
  0
LINE
  5
D882
100
AcDbEntity
  8
0
100
AcDbLine
 10
6606.002608
 20
1713.923499
 30
0.0
 11
6591.252608
 21
1713.923499
 31
0.0
  0
ARC
  5
D883
100
AcDbEntity
  8
0
100
AcDbCircle
 10
6555.158858
 20
1730.798499
 30
0.0
 40
39.84375
100
AcDbArc
 50
334.942385
 51
25.057615
  0
ARC
  5
D884
100
AcDbEntity
  8
0
100
AcDbCircle
 10
6588.083455
 20
1770.798499
 30
0.0
 40
2.0
100
AcDbArc
 50
10.304846
 51
90.0
  0
ARC
  5
D885
100
AcDbEntity
  8
0
100
AcDbCircle
 10
6592.921761
 20
1766.548499
 30
0.0
 40
2.0
100
AcDbArc
 50
190.304846
 51
270.0
  0
LINE
  5
D886
100
AcDbEntity
  8
0
100
AcDbLine
 10
6606.002608
 20
1764.548499
 30
0.0
 11
6592.921761
 21
1764.548499
 31
0.0
  0
LINE
  5
D887
100
AcDbEntity
  8
0
100
AcDbLine
 10
6590.051195
 20
1771.15627
 30
0.0
 11
6590.954021
 21
1766.190728
 31
0.0
  0
ARC
  5
D888
100
AcDbEntity
  8
0
100
AcDbCircle
 10
6592.921761
 20
1695.048499
 30
0.0
 40
2.0
100
AcDbArc
 50
90.0
 51
169.695154
  0
LINE
  5
D889
100
AcDbEntity
  8
0
100
AcDbLine
 10
6606.002608
 20
1697.048499
 30
0.0
 11
6592.921761
 21
1697.048499
 31
0.0
  0
LINE
  5
D88A
100
AcDbEntity
  8
0
100
AcDbLine
 10
6590.954021
 20
1695.40627
 30
0.0
 11
6590.051195
 21
1690.440728
 31
0.0
  0
ARC
  5
D88B
100
AcDbEntity
  8
0
100
AcDbCircle
 10
6583.635421
 20
1705.485999
 30
0.0
 40
11.367188
100
AcDbArc
 50
312.075022
 51
47.924978
  0
LINE
  5
D88C
100
AcDbEntity
  8
0
100
AcDbLine
 10
6945.107947
 20
1551.799499
 30
0.0
 11
7163.752608
 21
1551.799499
 31
0.0
  0
LINE
  5
D88D
100
AcDbEntity
  8
0
100
AcDbLine
 10
6954.752608
 20
1815.803499
 30
0.0
 11
6954.752608
 21
1665.798499
 31
0.0
  0
LINE
  5
D88E
100
AcDbEntity
  8
0
100
AcDbLine
 10
6864.752608
 20
1815.803499
 30
0.0
 11
6864.752608
 21
1665.798499
 31
0.0
  0
LINE
  5
D88F
100
AcDbEntity
  8
0
100
AcDbLine
 10
6864.752608
 20
1665.798499
 30
0.0
 11
6874.397269
 21
1665.798499
 31
0.0
  0
LINE
  5
D890
100
AcDbEntity
  8
0
100
AcDbLine
 10
6945.107947
 20
1665.798499
 30
0.0
 11
6954.752608
 21
1665.798499
 31
0.0
  0
LINE
  5
D891
100
AcDbEntity
  8
0
100
AcDbLine
 10
6874.397269
 20
1800.803499
 30
0.0
 11
6945.107947
 21
1800.803499
 31
0.0
  0
LINE
  5
D892
100
AcDbEntity
  8
0
100
AcDbLine
 10
6874.397269
 20
1800.803499
 30
0.0
 11
6909.752608
 21
1779.013499
 31
0.0
  0
LINE
  5
D893
100
AcDbEntity
  8
0
100
AcDbLine
 10
6954.752608
 20
1815.803499
 30
0.0
 11
6864.752608
 21
1815.803499
 31
0.0
  0
LINE
  5
D894
100
AcDbEntity
  8
0
100
AcDbLine
 10
6909.752608
 20
1779.013499
 30
0.0
 11
6945.107947
 21
1800.803499
 31
0.0
  0
LINE
  5
D895
100
AcDbEntity
  8
0
100
AcDbLine
 10
7167.592246
 20
1779.013499
 30
0.0
 11
7163.752608
 21
1780.775977
 31
0.0
  0
LINE
  5
D896
100
AcDbEntity
  8
0
100
AcDbLine
 10
7179.752608
 20
2800.803499
 30
0.0
 11
6639.752608
 21
2800.803499
 31
0.0
  0
LINE
  5
D897
100
AcDbEntity
  8
0
100
AcDbLine
 10
6639.752608
 20
2791.803499
 30
0.0
 11
7179.752608
 21
2791.803499
 31
0.0
  0
LINE
  5
D898
100
AcDbEntity
  8
0
100
AcDbLine
 10
6493.219069
 20
2807.562424
 30
0.0
 11
6366.655312
 21
2811.669308
 31
0.0
  0
LINE
  5
D899
100
AcDbEntity
  8
0
100
AcDbLine
 10
6486.752608
 20
2819.763499
 30
0.0
 11
6366.752608
 21
2819.763499
 31
0.0
  0
LINE
  5
D89A
100
AcDbEntity
  8
0
100
AcDbLine
 10
6363.752608
 20
2816.763499
 30
0.0
 11
6363.752608
 21
2814.66773
 31
0.0
  0
ARC
  5
D89B
100
AcDbEntity
  8
0
100
AcDbCircle
 10
6366.752608
 20
2814.66773
 30
0.0
 40
3.0
100
AcDbArc
 50
180.0
 51
268.141454
  0
ARC
  5
D89C
100
AcDbEntity
  8
0
100
AcDbCircle
 10
6366.752608
 20
2816.763499
 30
0.0
 40
3.0
100
AcDbArc
 50
90.0
 51
180.0
  0
LINE
  5
D89D
100
AcDbEntity
  8
0
100
AcDbLine
 10
6584.752608
 20
2742.763499
 30
0.0
 11
6584.752608
 21
2658.763499
 31
0.0
  0
ARC
  5
D89E
100
AcDbEntity
  8
0
100
AcDbCircle
 10
6598.385421
 20
2675.450999
 30
0.0
 40
11.367188
100
AcDbArc
 50
312.075022
 51
47.924978
  0
ARC
  5
D89F
100
AcDbEntity
  8
0
100
AcDbCircle
 10
6583.635421
 20
2675.450999
 30
0.0
 40
11.367188
100
AcDbArc
 50
312.075022
 51
47.924978
  0
LINE
  5
D8A0
100
AcDbEntity
  8
0
100
AcDbLine
 10
6609.752608
 20
2700.763499
 30
0.0
 11
6609.752608
 21
2670.763499
 31
0.0
  0
LINE
  5
D8A1
100
AcDbEntity
  8
0
100
AcDbLine
 10
6579.752608
 20
2742.763499
 30
0.0
 11
6579.752608
 21
2658.763499
 31
0.0
  0
LINE
  5
D8A2
100
AcDbEntity
  8
0
100
AcDbLine
 10
6556.752608
 20
2677.763499
 30
0.0
 11
6556.752608
 21
2660.763499
 31
0.0
  0
LINE
  5
D8A3
100
AcDbEntity
  8
0
100
AcDbLine
 10
6509.752608
 20
2684.763499
 30
0.0
 11
6509.752608
 21
2667.013499
 31
0.0
  0
ARC
  5
D8A4
100
AcDbEntity
  8
0
100
AcDbCircle
 10
6501.119796
 20
2675.450999
 30
0.0
 40
11.367188
100
AcDbArc
 50
132.075022
 51
227.924978
  0
ARC
  5
D8A5
100
AcDbEntity
  8
0
100
AcDbCircle
 10
6517.369796
 20
2675.450999
 30
0.0
 40
11.367188
100
AcDbArc
 50
132.075022
 51
227.924978
  0
LINE
  5
D8A6
100
AcDbEntity
  8
0
100
AcDbLine
 10
6489.752608
 20
2700.763499
 30
0.0
 11
6489.752608
 21
2670.763499
 31
0.0
  0
LINE
  5
D8A7
100
AcDbEntity
  8
0
100
AcDbLine
 10
6539.752608
 20
2658.763499
 30
0.0
 11
6588.083455
 21
2658.763499
 31
0.0
  0
ARC
  5
D8A8
100
AcDbEntity
  8
0
100
AcDbCircle
 10
6558.752608
 20
2660.763499
 30
0.0
 40
2.0
100
AcDbArc
 50
180.0
 51
270.0
  0
LINE
  5
D8A9
100
AcDbEntity
  8
0
100
AcDbLine
 10
6559.752608
 20
2658.763499
 30
0.0
 11
6555.752608
 21
2649.763499
 31
0.0
  0
LINE
  5
D8AA
100
AcDbEntity
  8
0
100
AcDbLine
 10
6543.752608
 20
2649.763499
 30
0.0
 11
6539.752608
 21
2658.763499
 31
0.0
  0
LINE
  5
D8AB
100
AcDbEntity
  8
0
100
AcDbLine
 10
6543.752608
 20
2649.763499
 30
0.0
 11
6555.752608
 21
2649.763499
 31
0.0
  0
LINE
  5
D8AC
100
AcDbEntity
  8
0
100
AcDbLine
 10
6539.752608
 20
2658.763499
 30
0.0
 11
6539.752608
 21
2659.763499
 31
0.0
  0
ARC
  5
D8AD
100
AcDbEntity
  8
0
100
AcDbCircle
 10
6549.15514
 20
2624.832185
 30
0.0
 40
35.638651
100
AcDbArc
 50
78.200319
 51
103.960414
  0
LINE
  5
D8AE
100
AcDbEntity
  8
0
100
AcDbLine
 10
6493.502608
 20
2667.013499
 30
0.0
 11
6509.752608
 21
2667.013499
 31
0.0
  0
LINE
  5
D8AF
100
AcDbEntity
  8
0
100
AcDbLine
 10
6509.752608
 20
2667.013499
 30
0.0
 11
6510.749721
 21
2664.520717
 31
0.0
  0
ARC
  5
D8B0
100
AcDbEntity
  8
0
100
AcDbCircle
 10
6512.606674
 20
2665.263499
 30
0.0
 40
2.0
100
AcDbArc
 50
201.801409
 51
270.0
  0
LINE
  5
D8B1
100
AcDbEntity
  8
0
100
AcDbLine
 10
6512.606674
 20
2663.263499
 30
0.0
 11
6536.252608
 21
2663.263499
 31
0.0
  0
ARC
  5
D8B2
100
AcDbEntity
  8
0
100
AcDbCircle
 10
6536.252608
 20
2659.763499
 30
0.0
 40
3.5
100
AcDbArc
 50
0.0
 51
90.0
  0
LINE
  5
D8B3
100
AcDbEntity
  8
0
100
AcDbLine
 10
6489.752608
 20
2670.763499
 30
0.0
 11
6493.502608
 21
2667.013499
 31
0.0
  0
ARC
  5
D8B4
100
AcDbEntity
  8
0
100
AcDbCircle
 10
6592.921761
 20
2665.013499
 30
0.0
 40
2.0
100
AcDbArc
 50
90.0
 51
169.695154
  0
LINE
  5
D8B5
100
AcDbEntity
  8
0
100
AcDbLine
 10
6606.002608
 20
2667.013499
 30
0.0
 11
6592.921761
 21
2667.013499
 31
0.0
  0
ARC
  5
D8B6
100
AcDbEntity
  8
0
100
AcDbCircle
 10
6588.083455
 20
2660.763499
 30
0.0
 40
2.0
100
AcDbArc
 50
270.0
 51
349.695154
  0
LINE
  5
D8B7
100
AcDbEntity
  8
0
100
AcDbLine
 10
6590.954021
 20
2665.37127
 30
0.0
 11
6590.051195
 21
2660.405728
 31
0.0
  0
LINE
  5
D8B8
100
AcDbEntity
  8
0
100
AcDbLine
 10
6609.752608
 20
2670.763499
 30
0.0
 11
6606.002608
 21
2667.013499
 31
0.0
  0
LINE
  5
D8B9
100
AcDbEntity
  8
0
100
AcDbLine
 10
6580.252608
 20
2742.763499
 30
0.0
 11
6588.083455
 21
2742.763499
 31
0.0
  0
LINE
  5
D8BA
100
AcDbEntity
  8
0
100
AcDbLine
 10
6510.752608
 20
2817.763499
 30
0.0
 11
6488.752608
 21
2817.763499
 31
0.0
  0
ARC
  5
D8BB
100
AcDbEntity
  8
0
100
AcDbCircle
 10
6577.752608
 20
2783.077905
 30
0.0
 40
3.0
100
AcDbArc
 50
0.0
 51
58.765664
  0
LINE
  5
D8BC
100
AcDbEntity
  8
0
100
AcDbLine
 10
6576.252608
 20
2754.763499
 30
0.0
 11
6576.252608
 21
2746.763499
 31
0.0
  0
ARC
  5
D8BD
100
AcDbEntity
  8
0
100
AcDbCircle
 10
6580.252608
 20
2746.763499
 30
0.0
 40
4.0
100
AcDbArc
 50
180.0
 51
270.0
  0
LINE
  5
D8BE
100
AcDbEntity
  8
0
100
AcDbLine
 10
6580.752608
 20
2783.077905
 30
0.0
 11
6580.752608
 21
2754.763499
 31
0.0
  0
ARC
  5
D8BF
100
AcDbEntity
  8
0
100
AcDbCircle
 10
6503.752608
 20
2783.671616
 30
0.0
 40
15.0
100
AcDbArc
 50
0.0
 51
19.158067
  0
LINE
  5
D8C0
100
AcDbEntity
  8
0
100
AcDbLine
 10
6503.33919
 20
2803.176917
 30
0.0
 11
6517.92186
 21
2788.594247
 31
0.0
  0
LINE
  5
D8C1
100
AcDbEntity
  8
0
100
AcDbLine
 10
6523.252608
 20
2754.763499
 30
0.0
 11
6523.252608
 21
2742.263499
 31
0.0
  0
LINE
  5
D8C2
100
AcDbEntity
  8
0
100
AcDbLine
 10
6518.752608
 20
2783.671616
 30
0.0
 11
6518.752608
 21
2754.763499
 31
0.0
  0
LINE
  5
D8C3
100
AcDbEntity
  8
0
100
AcDbLine
 10
6576.252608
 20
2754.763499
 30
0.0
 11
6523.252608
 21
2754.763499
 31
0.0
  0
LINE
  5
D8C4
100
AcDbEntity
  8
0
100
AcDbLine
 10
6580.752608
 20
2754.763499
 30
0.0
 11
6518.752608
 21
2754.763499
 31
0.0
  0
LINE
  5
D8C5
100
AcDbEntity
  8
0
100
AcDbLine
 10
6578.819425
 20
2784.763499
 30
0.0
 11
6518.752608
 21
2784.763499
 31
0.0
  0
LINE
  5
D8C6
100
AcDbEntity
  8
0
100
AcDbLine
 10
6556.752608
 20
2731.470845
 30
0.0
 11
6556.752608
 21
2723.763499
 31
0.0
  0
ARC
  5
D8C7
100
AcDbEntity
  8
0
100
AcDbCircle
 10
6549.752608
 20
2723.763499
 30
0.0
 40
7.0
100
AcDbArc
 50
270.0
 51
0.0
  0
ARC
  5
D8C8
100
AcDbEntity
  8
0
100
AcDbCircle
 10
6549.752608
 20
2677.763499
 30
0.0
 40
7.0
100
AcDbArc
 50
0.0
 51
90.0
  0
LINE
  5
D8C9
100
AcDbEntity
  8
0
100
AcDbLine
 10
6510.749721
 20
2737.00628
 30
0.0
 11
6509.752608
 21
2734.513499
 31
0.0
  0
LINE
  5
D8CA
100
AcDbEntity
  8
0
100
AcDbLine
 10
6493.502608
 20
2734.513499
 30
0.0
 11
6509.752608
 21
2734.513499
 31
0.0
  0
LINE
  5
D8CB
100
AcDbEntity
  8
0
100
AcDbLine
 10
6493.502608
 20
2717.638499
 30
0.0
 11
6509.752608
 21
2717.638499
 31
0.0
  0
ARC
  5
D8CC
100
AcDbEntity
  8
0
100
AcDbCircle
 10
6517.369796
 20
2726.075999
 30
0.0
 40
11.367188
100
AcDbArc
 50
132.075022
 51
227.924978
  0
LINE
  5
D8CD
100
AcDbEntity
  8
0
100
AcDbLine
 10
6509.752608
 20
2734.513499
 30
0.0
 11
6509.752608
 21
2716.763499
 31
0.0
  0
ARC
  5
D8CE
100
AcDbEntity
  8
0
100
AcDbCircle
 10
6512.606674
 20
2736.263499
 30
0.0
 40
2.0
100
AcDbArc
 50
90.0
 51
158.198591
  0
LINE
  5
D8CF
100
AcDbEntity
  8
0
100
AcDbLine
 10
6512.606674
 20
2738.263499
 30
0.0
 11
6519.252608
 21
2738.263499
 31
0.0
  0
LINE
  5
D8D0
100
AcDbEntity
  8
0
100
AcDbLine
 10
6493.502608
 20
2683.888499
 30
0.0
 11
6509.752608
 21
2683.888499
 31
0.0
  0
ARC
  5
D8D1
100
AcDbEntity
  8
0
100
AcDbCircle
 10
6545.846358
 20
2700.763499
 30
0.0
 40
39.84375
100
AcDbArc
 50
154.942385
 51
205.057615
  0
LINE
  5
D8D2
100
AcDbEntity
  8
0
100
AcDbLine
 10
6511.252608
 20
2716.763499
 30
0.0
 11
6511.252608
 21
2684.763499
 31
0.0
  0
ARC
  5
D8D3
100
AcDbEntity
  8
0
100
AcDbCircle
 10
6556.213816
 20
2775.642583
 30
0.0
 40
49.751487
100
AcDbArc
 50
228.436404
 51
270.620506
  0
LINE
  5
D8D4
100
AcDbEntity
  8
0
100
AcDbLine
 10
6509.752608
 20
2684.763499
 30
0.0
 11
6549.752608
 21
2684.763499
 31
0.0
  0
LINE
  5
D8D5
100
AcDbEntity
  8
0
100
AcDbLine
 10
6509.752608
 20
2716.763499
 30
0.0
 11
6549.752608
 21
2716.763499
 31
0.0
  0
ARC
  5
D8D6
100
AcDbEntity
  8
0
100
AcDbCircle
 10
6539.402476
 20
2784.461401
 30
0.0
 40
55.758642
100
AcDbArc
 50
288.129447
 51
311.774603
  0
ARC
  5
D8D7
100
AcDbEntity
  8
0
100
AcDbCircle
 10
6519.252608
 20
2742.263499
 30
0.0
 40
4.0
100
AcDbArc
 50
270.0
 51
0.0
  0
LINE
  5
D8D8
100
AcDbEntity
  8
0
100
AcDbLine
 10
6489.752608
 20
2730.763499
 30
0.0
 11
6489.752608
 21
2700.763499
 31
0.0
  0
ARC
  5
D8D9
100
AcDbEntity
  8
0
100
AcDbCircle
 10
6529.596358
 20
2700.763499
 30
0.0
 40
39.84375
100
AcDbArc
 50
154.942385
 51
205.057615
  0
LINE
  5
D8DA
100
AcDbEntity
  8
0
100
AcDbLine
 10
6489.752608
 20
2730.763499
 30
0.0
 11
6493.502608
 21
2734.513499
 31
0.0
  0
ARC
  5
D8DB
100
AcDbEntity
  8
0
100
AcDbCircle
 10
6501.119796
 20
2726.075999
 30
0.0
 40
11.367188
100
AcDbArc
 50
132.075022
 51
227.924978
  0
ARC
  5
D8DC
100
AcDbEntity
  8
0
100
AcDbCircle
 10
6325.366525
 20
2332.867939
 30
0.0
 40
519.125903
100
AcDbArc
 50
60.713846
 51
69.077061
  0
LINE
  5
D8DD
100
AcDbEntity
  8
0
100
AcDbLine
 10
6486.752608
 20
2819.763499
 30
0.0
 11
6503.33919
 21
2803.176917
 31
0.0
  0
ARC
  5
D8DE
100
AcDbEntity
  8
0
100
AcDbCircle
 10
6492.732588
 20
2792.570315
 30
0.0
 40
15.0
100
AcDbArc
 50
45.0
 51
88.141454
  0
LINE
  5
D8DF
100
AcDbEntity
  8
0
100
AcDbLine
 10
6655.752608
 20
2676.463499
 30
0.0
 11
6609.752608
 21
2676.463499
 31
0.0
  0
LINE
  5
D8E0
100
AcDbEntity
  8
0
100
AcDbLine
 10
6655.752608
 20
2725.063499
 30
0.0
 11
6609.752608
 21
2725.063499
 31
0.0
  0
ARC
  5
D8E1
100
AcDbEntity
  8
0
100
AcDbCircle
 10
6588.083455
 20
2740.763499
 30
0.0
 40
2.0
100
AcDbArc
 50
10.304846
 51
90.0
  0
ARC
  5
D8E2
100
AcDbEntity
  8
0
100
AcDbCircle
 10
6592.921761
 20
2736.513499
 30
0.0
 40
2.0
100
AcDbArc
 50
190.304846
 51
270.0
  0
LINE
  5
D8E3
100
AcDbEntity
  8
0
100
AcDbLine
 10
6606.002608
 20
2734.513499
 30
0.0
 11
6592.921761
 21
2734.513499
 31
0.0
  0
LINE
  5
D8E4
100
AcDbEntity
  8
0
100
AcDbLine
 10
6606.002608
 20
2717.638499
 30
0.0
 11
6591.252608
 21
2717.638499
 31
0.0
  0
ARC
  5
D8E5
100
AcDbEntity
  8
0
100
AcDbCircle
 10
6583.635421
 20
2726.075999
 30
0.0
 40
11.367188
100
AcDbArc
 50
312.075022
 51
47.924978
  0
LINE
  5
D8E6
100
AcDbEntity
  8
0
100
AcDbLine
 10
6609.752608
 20
2730.763499
 30
0.0
 11
6606.002608
 21
2734.513499
 31
0.0
  0
ARC
  5
D8E7
100
AcDbEntity
  8
0
100
AcDbCircle
 10
6598.385421
 20
2726.075999
 30
0.0
 40
11.367188
100
AcDbArc
 50
312.075022
 51
47.924978
  0
LINE
  5
D8E8
100
AcDbEntity
  8
0
100
AcDbLine
 10
6606.002608
 20
2683.888499
 30
0.0
 11
6591.252608
 21
2683.888499
 31
0.0
  0
ARC
  5
D8E9
100
AcDbEntity
  8
0
100
AcDbCircle
 10
6569.908858
 20
2700.763499
 30
0.0
 40
39.84375
100
AcDbArc
 50
334.942385
 51
25.057615
  0
ARC
  5
D8EA
100
AcDbEntity
  8
0
100
AcDbCircle
 10
6555.158858
 20
2700.763499
 30
0.0
 40
39.84375
100
AcDbArc
 50
334.942385
 51
25.057615
  0
LINE
  5
D8EB
100
AcDbEntity
  8
0
100
AcDbLine
 10
6609.752608
 20
2730.763499
 30
0.0
 11
6609.752608
 21
2700.763499
 31
0.0
  0
LINE
  5
D8EC
100
AcDbEntity
  8
0
100
AcDbLine
 10
6590.051195
 20
2741.12127
 30
0.0
 11
6590.954021
 21
2736.155728
 31
0.0
  0
LINE
  5
D8ED
100
AcDbEntity
  8
0
100
AcDbLine
 10
6639.752608
 20
2800.803499
 30
0.0
 11
6639.752608
 21
2791.803499
 31
0.0
  0
LINE
  5
D8EE
100
AcDbEntity
  8
0
100
AcDbLine
 10
6961.752608
 20
2365.803499
 30
0.0
 11
6961.752608
 21
2305.803499
 31
0.0
  0
LINE
  5
D8EF
100
AcDbEntity
  8
0
100
AcDbLine
 10
6857.752608
 20
2365.803499
 30
0.0
 11
6857.752608
 21
2305.803499
 31
0.0
  0
LINE
  5
D8F0
100
AcDbEntity
  8
0
100
AcDbLine
 10
6966.752608
 20
2370.803499
 30
0.0
 11
6966.752608
 21
2300.803499
 31
0.0
  0
LINE
  5
D8F1
100
AcDbEntity
  8
0
100
AcDbLine
 10
6852.752608
 20
2370.803499
 30
0.0
 11
6852.752608
 21
2300.803499
 31
0.0
  0
LINE
  5
D8F2
100
AcDbEntity
  8
0
100
AcDbLine
 10
6857.752608
 20
2305.803499
 30
0.0
 11
6961.752608
 21
2305.803499
 31
0.0
  0
LINE
  5
D8F3
100
AcDbEntity
  8
0
100
AcDbLine
 10
6852.752608
 20
2300.803499
 30
0.0
 11
6966.752608
 21
2300.803499
 31
0.0
  0
LINE
  5
D8F4
100
AcDbEntity
  8
0
100
AcDbLine
 10
6961.752608
 20
2365.803499
 30
0.0
 11
6857.752608
 21
2365.803499
 31
0.0
  0
LINE
  5
D8F5
100
AcDbEntity
  8
0
100
AcDbLine
 10
6966.752608
 20
2370.803499
 30
0.0
 11
6852.752608
 21
2370.803499
 31
0.0
  0
LINE
  5
D8F6
100
AcDbEntity
  8
0
100
AcDbLine
 10
7179.752608
 20
2791.803499
 30
0.0
 11
7179.752608
 21
2800.803499
 31
0.0
  0
LINE
  5
D8F7
100
AcDbEntity
  8
0
100
AcDbLine
 10
5293.140378
 20
2878.803499
 30
0.0
 11
5076.840378
 21
2878.803499
 31
0.0
  0
LINE
  5
D8F8
100
AcDbEntity
  8
0
100
AcDbLine
 10
5349.990378
 20
2900.803499
 30
0.0
 11
5019.990378
 21
2900.803499
 31
0.0
  0
LINE
  5
D8F9
100
AcDbEntity
  8
0
100
AcDbLine
 10
5019.990378
 20
2878.803499
 30
0.0
 11
5349.990378
 21
2878.803499
 31
0.0
  0
LINE
  5
D8FA
100
AcDbEntity
  8
0
100
AcDbLine
 10
5019.990378
 20
2900.803499
 30
0.0
 11
5019.990378
 21
2878.803499
 31
0.0
  0
LINE
  5
D8FB
100
AcDbEntity
  8
0
100
AcDbLine
 10
5349.990378
 20
2878.803499
 30
0.0
 11
5349.990378
 21
2900.803499
 31
0.0
  0
LINE
  5
D8FC
100
AcDbEntity
  8
0
100
AcDbLine
 10
5224.890378
 20
3837.231655
 30
0.0
 11
5224.890378
 21
3763.885655
 31
0.0
  0
LINE
  5
D8FD
100
AcDbEntity
  8
0
100
AcDbLine
 10
5145.090378
 20
3763.885655
 30
0.0
 11
5145.090378
 21
3837.231655
 31
0.0
  0
LINE
  5
D8FE
100
AcDbEntity
  8
0
100
AcDbLine
 10
5171.890378
 20
3624.518655
 30
0.0
 11
5175.050378
 21
3740.643655
 31
0.0
  0
LINE
  5
D8FF
100
AcDbEntity
  8
0
100
AcDbLine
 10
5194.930378
 20
3740.643655
 30
0.0
 11
5198.090378
 21
3624.518655
 31
0.0
  0
ARC
  5
D900
100
AcDbEntity
  8
0
100
AcDbCircle
 10
5184.985378
 20
3664.619818
 30
0.0
 40
49.0148
100
AcDbArc
 50
263.351306
 51
276.648694
  0
ARC
  5
D901
100
AcDbEntity
  8
0
100
AcDbCircle
 10
5180.284825
 20
3624.275886
 30
0.0
 40
8.397957
100
AcDbArc
 50
178.343456
 51
263.336741
  0
ARC
  5
D902
100
AcDbEntity
  8
0
100
AcDbCircle
 10
5189.690783
 20
3624.281471
 30
0.0
 40
8.402942
100
AcDbArc
 50
276.625974
 51
1.617467
  0
LINE
  5
D903
100
AcDbEntity
  8
0
100
AcDbLine
 10
5213.690378
 20
3807.641655
 30
0.0
 11
5210.650378
 21
3807.641655
 31
0.0
  0
ARC
  5
D904
100
AcDbEntity
  8
0
100
AcDbCircle
 10
5213.69124
 20
3800.642517
 30
0.0
 40
6.999138
100
AcDbArc
 50
0.009316
 51
90.007057
  0
LINE
  5
D905
100
AcDbEntity
  8
0
100
AcDbLine
 10
5213.690378
 20
3757.719655
 30
0.0
 11
5213.690378
 21
3740.643655
 31
0.0
  0
ARC
  5
D906
100
AcDbEntity
  8
0
100
AcDbCircle
 10
5222.773433
 20
3763.899162
 30
0.0
 40
2.116988
100
AcDbArc
 50
281.082853
 51
359.634441
  0
ARC
  5
D907
100
AcDbEntity
  8
0
100
AcDbCircle
 10
5218.573433
 20
3763.112162
 30
0.0
 40
2.116988
100
AcDbArc
 50
281.082853
 51
359.634441
  0
LINE
  5
D908
100
AcDbEntity
  8
0
100
AcDbLine
 10
5223.180378
 20
3761.821655
 30
0.0
 11
5215.970378
 21
3760.471655
 31
0.0
  0
LINE
  5
D909
100
AcDbEntity
  8
0
100
AcDbLine
 10
5215.970378
 20
3760.471655
 30
0.0
 11
5218.980378
 21
3761.034655
 31
0.0
  0
ARC
  5
D90A
100
AcDbEntity
  8
0
100
AcDbCircle
 10
5216.489359
 20
3757.721209
 30
0.0
 40
2.798982
100
AcDbArc
 50
100.6855
 51
180.031793
  0
LINE
  5
D90B
100
AcDbEntity
  8
0
100
AcDbLine
 10
5220.690378
 20
3763.098655
 30
0.0
 11
5220.690378
 21
3800.643655
 31
0.0
  0
ARC
  5
D90C
100
AcDbEntity
  8
0
100
AcDbCircle
 10
5173.792762
 20
3823.220269
 30
0.0
 40
1.397616
100
AcDbArc
 50
0.056835
 51
116.443736
  0
ARC
  5
D90D
100
AcDbEntity
  8
0
100
AcDbCircle
 10
5196.187993
 20
3823.220269
 30
0.0
 40
1.397616
100
AcDbArc
 50
63.556264
 51
179.943165
  0
LINE
  5
D90E
100
AcDbEntity
  8
0
100
AcDbLine
 10
5156.290378
 20
3807.641655
 30
0.0
 11
5159.330378
 21
3807.641655
 31
0.0
  0
ARC
  5
D90F
100
AcDbEntity
  8
0
100
AcDbCircle
 10
5156.289515
 20
3800.642517
 30
0.0
 40
6.999138
100
AcDbArc
 50
89.992943
 51
179.990684
  0
LINE
  5
D910
100
AcDbEntity
  8
0
100
AcDbLine
 10
5175.890378
 20
3767.043655
 30
0.0
 11
5194.090378
 21
3767.043655
 31
0.0
  0
ARC
  5
D911
100
AcDbEntity
  8
0
100
AcDbCircle
 10
5192.659723
 20
3746.709874
 30
0.0
 40
2.066839
100
AcDbArc
 50
271.404347
 51
0.936514
  0
ARC
  5
D912
100
AcDbEntity
  8
0
100
AcDbCircle
 10
5177.311032
 20
3746.709874
 30
0.0
 40
2.066839
100
AcDbArc
 50
179.063486
 51
268.595653
  0
LINE
  5
D913
100
AcDbEntity
  8
0
100
AcDbLine
 10
5177.260378
 20
3744.643655
 30
0.0
 11
5192.710378
 21
3744.643655
 31
0.0
  0
ARC
  5
D914
100
AcDbEntity
  8
0
100
AcDbCircle
 10
5192.464718
 20
3748.936711
 30
0.0
 40
2.19353
100
AcDbArc
 50
271.192717
 51
358.901437
  0
ARC
  5
D915
100
AcDbEntity
  8
0
100
AcDbCircle
 10
5177.506037
 20
3748.936711
 30
0.0
 40
2.19353
100
AcDbArc
 50
181.098563
 51
268.807283
  0
LINE
  5
D916
100
AcDbEntity
  8
0
100
AcDbLine
 10
5192.510378
 20
3746.743655
 30
0.0
 11
5177.460378
 21
3746.743655
 31
0.0
  0
LINE
  5
D917
100
AcDbEntity
  8
0
100
AcDbLine
 10
5175.890378
 20
3767.043655
 30
0.0
 11
5175.050378
 21
3740.643655
 31
0.0
  0
LINE
  5
D918
100
AcDbEntity
  8
0
100
AcDbLine
 10
5194.930378
 20
3740.643655
 30
0.0
 11
5194.090378
 21
3767.043655
 31
0.0
  0
LINE
  5
D919
100
AcDbEntity
  8
0
100
AcDbLine
 10
5175.190378
 20
3775.914655
 30
0.0
 11
5175.890378
 21
3767.043655
 31
0.0
  0
LINE
  5
D91A
100
AcDbEntity
  8
0
100
AcDbLine
 10
5194.790378
 20
3775.914655
 30
0.0
 11
5194.090378
 21
3767.043655
 31
0.0
  0
ARC
  5
D91B
100
AcDbEntity
  8
0
100
AcDbCircle
 10
5147.207323
 20
3763.899162
 30
0.0
 40
2.116988
100
AcDbArc
 50
180.365559
 51
258.917147
  0
ARC
  5
D91C
100
AcDbEntity
  8
0
100
AcDbCircle
 10
5151.407323
 20
3763.112162
 30
0.0
 40
2.116988
100
AcDbArc
 50
180.365559
 51
258.917147
  0
ARC
  5
D91D
100
AcDbEntity
  8
0
100
AcDbCircle
 10
5153.491396
 20
3757.721209
 30
0.0
 40
2.798982
100
AcDbArc
 50
359.968207
 51
79.3145
  0
LINE
  5
D91E
100
AcDbEntity
  8
0
100
AcDbLine
 10
5154.010378
 20
3760.471655
 30
0.0
 11
5151.000378
 21
3761.034655
 31
0.0
  0
LINE
  5
D91F
100
AcDbEntity
  8
0
100
AcDbLine
 10
5156.290378
 20
3740.643655
 30
0.0
 11
5156.290378
 21
3757.719655
 31
0.0
  0
LINE
  5
D920
100
AcDbEntity
  8
0
100
AcDbLine
 10
5146.800378
 20
3761.821655
 30
0.0
 11
5154.010378
 21
3760.471655
 31
0.0
  0
ARC
  5
D921
100
AcDbEntity
  8
0
100
AcDbCircle
 10
5170.642074
 20
3766.058609
 30
0.0
 40
25.414953
100
AcDbArc
 50
235.618888
 51
280.011545
  0
LINE
  5
D922
100
AcDbEntity
  8
0
100
AcDbLine
 10
5175.050378
 20
3740.643655
 30
0.0
 11
5156.290378
 21
3740.643655
 31
0.0
  0
ARC
  5
D923
100
AcDbEntity
  8
0
100
AcDbCircle
 10
5166.364676
 20
3917.052327
 30
0.0
 40
157.067295
100
AcDbArc
 50
265.488678
 51
273.398101
  0
ARC
  5
D924
100
AcDbEntity
  8
0
100
AcDbCircle
 10
5184.990183
 20
3800.642623
 30
0.0
 40
26.599033
100
AcDbArc
 50
89.99958
 51
248.381354
  0
LINE
  5
D925
100
AcDbEntity
  8
0
100
AcDbLine
 10
5149.290378
 20
3763.098655
 30
0.0
 11
5149.290378
 21
3800.643655
 31
0.0
  0
LINE
  5
D926
100
AcDbEntity
  8
0
100
AcDbLine
 10
5175.190378
 20
3823.221655
 30
0.0
 11
5175.190378
 21
3775.914655
 31
0.0
  0
LINE
  5
D927
100
AcDbEntity
  8
0
100
AcDbLine
 10
5194.790378
 20
3823.221655
 30
0.0
 11
5194.790378
 21
3775.914655
 31
0.0
  0
CIRCLE
  5
D928
100
AcDbEntity
  8
0
100
AcDbCircle
 10
5184.990378
 20
3800.643655
 30
0.0
 40
7.00003
  0
LINE
  5
D929
100
AcDbEntity
  8
0
100
AcDbLine
 10
5145.090378
 20
3833.541655
 30
0.0
 11
5224.890378
 21
3833.541655
 31
0.0
  0
ARC
  5
D92A
100
AcDbEntity
  8
0
100
AcDbCircle
 10
5184.990572
 20
3800.642623
 30
0.0
 40
26.599033
100
AcDbArc
 50
291.618646
 51
90.00042
  0
ARC
  5
D92B
100
AcDbEntity
  8
0
100
AcDbCircle
 10
5199.338681
 20
3766.058609
 30
0.0
 40
25.414953
100
AcDbArc
 50
259.988455
 51
304.381112
  0
LINE
  5
D92C
100
AcDbEntity
  8
0
100
AcDbLine
 10
5213.690378
 20
3740.643655
 30
0.0
 11
5194.930378
 21
3740.643655
 31
0.0
  0
ARC
  5
D92D
100
AcDbEntity
  8
0
100
AcDbCircle
 10
5203.616079
 20
3917.052327
 30
0.0
 40
157.067295
100
AcDbArc
 50
266.601899
 51
274.511322
  0
CIRCLE
  5
D92E
100
AcDbEntity
  8
0
100
AcDbCircle
 10
5287.520378
 20
4058.071655
 30
0.0
 40
11.5
  0
LINE
  5
D92F
100
AcDbEntity
  8
0
100
AcDbLine
 10
5036.120378
 20
3902.761655
 30
0.0
 11
5025.390378
 21
3942.821655
 31
0.0
  0
LINE
  5
D930
100
AcDbEntity
  8
0
100
AcDbLine
 10
5025.520378
 20
3884.391655
 30
0.0
 11
5005.570378
 21
3958.841655
 31
0.0
  0
LINE
  5
D931
100
AcDbEntity
  8
0
100
AcDbLine
 10
5076.180378
 20
3913.501655
 30
0.0
 11
5036.120378
 21
3902.761655
 31
0.0
  0
LINE
  5
D932
100
AcDbEntity
  8
0
100
AcDbLine
 10
5099.970378
 20
3904.341655
 30
0.0
 11
5025.520378
 21
3884.391655
 31
0.0
  0
LINE
  5
D933
100
AcDbEntity
  8
0
100
AcDbLine
 10
5209.290378
 20
3891.701655
 30
0.0
 11
5209.290378
 21
3860.601655
 31
0.0
  0
LINE
  5
D934
100
AcDbEntity
  8
0
100
AcDbLine
 10
5160.690378
 20
3860.601655
 30
0.0
 11
5160.690378
 21
3891.701655
 31
0.0
  0
ARC
  5
D935
100
AcDbEntity
  8
0
100
AcDbCircle
 10
5170.640378
 20
3835.256377
 30
0.0
 40
25.356521
100
AcDbArc
 50
55.533147
 51
124.466853
  0
LINE
  5
D936
100
AcDbEntity
  8
0
100
AcDbLine
 10
5156.290378
 20
3860.601655
 30
0.0
 11
5184.990378
 21
3860.601655
 31
0.0
  0
LINE
  5
D937
100
AcDbEntity
  8
0
100
AcDbLine
 10
5209.290378
 20
3860.601655
 30
0.0
 11
5160.690378
 21
3860.601655
 31
0.0
  0
ARC
  5
D938
100
AcDbEntity
  8
0
100
AcDbCircle
 10
5199.340378
 20
3835.256377
 30
0.0
 40
25.356521
100
AcDbArc
 50
55.533147
 51
124.466853
  0
LINE
  5
D939
100
AcDbEntity
  8
0
100
AcDbLine
 10
5184.990378
 20
3860.601655
 30
0.0
 11
5213.690378
 21
3860.601655
 31
0.0
  0
ARC
  5
D93A
100
AcDbEntity
  8
0
100
AcDbCircle
 10
5222.790555
 20
3837.23043
 30
0.0
 40
2.099823
100
AcDbArc
 50
0.033442
 51
84.813414
  0
LINE
  5
D93B
100
AcDbEntity
  8
0
100
AcDbLine
 10
5216.230378
 20
3839.951655
 30
0.0
 11
5222.980378
 21
3839.321655
 31
0.0
  0
ARC
  5
D93C
100
AcDbEntity
  8
0
100
AcDbCircle
 10
5216.522114
 20
3842.768451
 30
0.0
 40
2.831863
100
AcDbArc
 50
180.542151
 51
264.086946
  0
ARC
  5
D93D
100
AcDbEntity
  8
0
100
AcDbCircle
 10
5147.202756
 20
3837.219947
 30
0.0
 40
2.112411
100
AcDbArc
 50
95.770186
 51
179.682436
  0
ARC
  5
D93E
100
AcDbEntity
  8
0
100
AcDbCircle
 10
5153.458641
 20
3842.768451
 30
0.0
 40
2.831863
100
AcDbArc
 50
275.913054
 51
359.457849
  0
LINE
  5
D93F
100
AcDbEntity
  8
0
100
AcDbLine
 10
5146.990378
 20
3839.321655
 30
0.0
 11
5153.750378
 21
3839.951655
 31
0.0
  0
ARC
  5
D940
100
AcDbEntity
  8
0
100
AcDbCircle
 10
5170.168315
 20
3736.2068
 30
0.0
 40
105.035916
100
AcDbArc
 50
81.887673
 51
98.992655
  0
LINE
  5
D941
100
AcDbEntity
  8
0
100
AcDbLine
 10
5149.380378
 20
3839.141655
 30
0.0
 11
5220.600378
 21
3839.141655
 31
0.0
  0
ARC
  5
D942
100
AcDbEntity
  8
0
100
AcDbCircle
 10
5199.81244
 20
3736.2068
 30
0.0
 40
105.035916
100
AcDbArc
 50
81.007345
 51
98.112327
  0
LINE
  5
D943
100
AcDbEntity
  8
0
100
AcDbLine
 10
5156.290378
 20
3842.741655
 30
0.0
 11
5156.290378
 21
3860.601655
 31
0.0
  0
LINE
  5
D944
100
AcDbEntity
  8
0
100
AcDbLine
 10
5184.990378
 20
3856.161655
 30
0.0
 11
5184.990378
 21
3840.191655
 31
0.0
  0
LINE
  5
D945
100
AcDbEntity
  8
0
100
AcDbLine
 10
5213.690378
 20
3860.601655
 30
0.0
 11
5213.690378
 21
3842.741655
 31
0.0
  0
CIRCLE
  5
D946
100
AcDbEntity
  8
0
100
AcDbCircle
 10
5082.460378
 20
4058.071655
 30
0.0
 40
11.5
  0
CIRCLE
  5
D947
100
AcDbEntity
  8
0
100
AcDbCircle
 10
5044.930378
 20
4123.071655
 30
0.0
 40
11.5
  0
CIRCLE
  5
D948
100
AcDbEntity
  8
0
100
AcDbCircle
 10
5222.520378
 20
4020.541655
 30
0.0
 40
11.5
  0
CIRCLE
  5
D949
100
AcDbEntity
  8
0
100
AcDbCircle
 10
5147.460378
 20
4020.541655
 30
0.0
 40
11.5
  0
CIRCLE
  5
D94A
100
AcDbEntity
  8
0
100
AcDbCircle
 10
5325.050378
 20
4123.071655
 30
0.0
 40
11.5
  0
LINE
  5
D94B
100
AcDbEntity
  8
0
100
AcDbLine
 10
5482.720378
 20
4160.601655
 30
0.0
 11
5453.394095
 21
4131.285372
 31
0.0
  0
LINE
  5
D94C
100
AcDbEntity
  8
0
100
AcDbLine
 10
5503.930378
 20
4160.601655
 30
0.0
 11
5484.990378
 21
4141.661655
 31
0.0
  0
LINE
  5
D94D
100
AcDbEntity
  8
0
100
AcDbLine
 10
6744.752608
 20
2878.803499
 30
0.0
 11
7074.752608
 21
2878.803499
 31
0.0
  0
LINE
  5
D94E
100
AcDbEntity
  8
0
100
AcDbLine
 10
7074.752608
 20
2900.803499
 30
0.0
 11
6744.752608
 21
2900.803499
 31
0.0
  0
LINE
  5
D94F
100
AcDbEntity
  8
0
100
AcDbLine
 10
7017.902608
 20
2878.803499
 30
0.0
 11
6801.602608
 21
2878.803499
 31
0.0
  0
LINE
  5
D950
100
AcDbEntity
  8
0
100
AcDbLine
 10
6744.752608
 20
2900.803499
 30
0.0
 11
6744.752608
 21
2878.803499
 31
0.0
  0
LINE
  5
D951
100
AcDbEntity
  8
0
100
AcDbLine
 10
7074.752608
 20
2878.803499
 30
0.0
 11
7074.752608
 21
2900.803499
 31
0.0
  0
TEXT
  5
D952
100
AcDbEntity
  8
0
100
AcDbText
 10
1860.277602
 20
6218.519869
 30
0.0
 40
122.5
  1
背面
100
AcDbText
  0
LINE
  5
D953
100
AcDbEntity
  8
0
100
AcDbLine
 10
4930.990378
 20
5940.75065
 30
0.0
 11
4930.990378
 21
6361.75065
 31
0.0
  0
LINE
  5
D954
100
AcDbEntity
  8
0
100
AcDbLine
 10
5512.990378
 20
6080.75065
 30
0.0
 11
5512.990378
 21
6360.75065
 31
0.0
  0
LINE
  5
D955
100
AcDbEntity
  8
0
100
AcDbLine
 10
5534.990378
 20
6220.75065
 30
0.0
 11
5534.990378
 21
6360.75065
 31
0.0
  0
LINE
  5
D956
100
AcDbEntity
  8
0
100
AcDbLine
 10
5438.990378
 20
6361.75065
 30
0.0
 11
5438.990378
 21
6303.35065
 31
0.0
  0
LINE
  5
D957
100
AcDbEntity
  8
0
100
AcDbLine
 10
5285.560378
 20
5121.74665
 30
0.0
 11
4930.990378
 21
5121.74665
 31
0.0
  0
LINE
  5
D958
100
AcDbEntity
  8
0
100
AcDbLine
 10
4926.860378
 20
5370.75065
 30
0.0
 11
4926.860378
 21
4679.74565
 31
0.0
  0
LINE
  5
D959
100
AcDbEntity
  8
0
100
AcDbLine
 10
4887.260378
 20
4679.74565
 30
0.0
 11
4887.260378
 21
5348.96065
 31
0.0
  0
LINE
  5
D95A
100
AcDbEntity
  8
0
100
AcDbLine
 10
4922.620378
 20
5370.75065
 30
0.0
 11
4922.620378
 21
4679.74565
 31
0.0
  0
LINE
  5
D95B
100
AcDbEntity
  8
0
100
AcDbLine
 10
4834.990378
 20
4300.601655
 30
0.0
 11
4856.990378
 21
4300.601655
 31
0.0
  0
LINE
  5
D95C
100
AcDbEntity
  8
0
100
AcDbLine
 10
4856.990378
 20
4243.201655
 30
0.0
 11
4927.930378
 21
4243.201655
 31
0.0
  0
LINE
  5
D95D
100
AcDbEntity
  8
0
100
AcDbLine
 10
4979.190378
 20
4679.74565
 30
0.0
 11
4979.190378
 21
4670.74565
 31
0.0
  0
LINE
  5
D95E
100
AcDbEntity
  8
0
100
AcDbLine
 10
4926.860378
 20
4679.74565
 30
0.0
 11
4887.260378
 21
4679.74565
 31
0.0
  0
LINE
  5
D95F
100
AcDbEntity
  8
0
100
AcDbLine
 10
4866.050378
 20
4670.74565
 30
0.0
 11
4866.050378
 21
4679.74565
 31
0.0
  0
LINE
  5
D960
100
AcDbEntity
  8
0
100
AcDbLine
 10
4922.620378
 20
4670.74565
 30
0.0
 11
4922.620378
 21
4679.74565
 31
0.0
  0
LINE
  5
D961
100
AcDbEntity
  8
0
100
AcDbLine
 10
4866.050378
 20
4679.74565
 30
0.0
 11
4979.190378
 21
4679.74565
 31
0.0
  0
LINE
  5
D962
100
AcDbEntity
  8
0
100
AcDbLine
 10
4979.190378
 20
4670.74565
 30
0.0
 11
4866.050378
 21
4670.74565
 31
0.0
  0
LINE
  5
D963
100
AcDbEntity
  8
0
100
AcDbLine
 10
4930.990378
 20
5385.75065
 30
0.0
 11
4930.990378
 21
5870.75065
 31
0.0
  0
LINE
  5
D964
100
AcDbEntity
  8
0
100
AcDbLine
 10
4935.730378
 20
5385.75065
 30
0.0
 11
4935.730378
 21
5235.74565
 31
0.0
  0
LINE
  5
D965
100
AcDbEntity
  8
0
100
AcDbLine
 10
4926.860378
 20
5235.74565
 30
0.0
 11
4926.860378
 21
5385.75065
 31
0.0
  0
LINE
  5
D966
100
AcDbEntity
  8
0
100
AcDbLine
 10
4929.840378
 20
5385.75065
 30
0.0
 11
4929.840378
 21
5235.74565
 31
0.0
  0
LINE
  5
D967
100
AcDbEntity
  8
0
100
AcDbLine
 10
4930.990378
 20
5121.74665
 30
0.0
 11
4930.990378
 21
5235.74565
 31
0.0
  0
LINE
  5
D968
100
AcDbEntity
  8
0
100
AcDbLine
 10
4935.730378
 20
5235.74565
 30
0.0
 11
4926.860378
 21
5235.74565
 31
0.0
  0
LINE
  5
D969
100
AcDbEntity
  8
0
100
AcDbLine
 10
4887.260378
 20
5348.96065
 30
0.0
 11
4922.620378
 21
5370.75065
 31
0.0
  0
LINE
  5
D96A
100
AcDbEntity
  8
0
100
AcDbLine
 10
4922.620378
 20
5370.75065
 30
0.0
 11
4926.860378
 21
5370.75065
 31
0.0
  0
LINE
  5
D96B
100
AcDbEntity
  8
0
100
AcDbLine
 10
4926.860378
 20
5385.75065
 30
0.0
 11
4935.730378
 21
5385.75065
 31
0.0
  0
LINE
  5
D96C
100
AcDbEntity
  8
0
100
AcDbLine
 10
4937.470378
 20
5940.75065
 30
0.0
 11
4937.470378
 21
5870.75065
 31
0.0
  0
LINE
  5
D96D
100
AcDbEntity
  8
0
100
AcDbLine
 10
4884.990378
 20
5870.75065
 30
0.0
 11
4884.990378
 21
5940.75065
 31
0.0
  0
LINE
  5
D96E
100
AcDbEntity
  8
0
100
AcDbLine
 10
4884.990378
 20
5935.75065
 30
0.0
 11
4884.990378
 21
5875.75065
 31
0.0
  0
LINE
  5
D96F
100
AcDbEntity
  8
0
100
AcDbLine
 10
4883.990378
 20
5875.75065
 30
0.0
 11
4883.990378
 21
5935.75065
 31
0.0
  0
LINE
  5
D970
100
AcDbEntity
  8
0
100
AcDbLine
 10
4937.470378
 20
5870.75065
 30
0.0
 11
4884.990378
 21
5870.75065
 31
0.0
  0
LINE
  5
D971
100
AcDbEntity
  8
0
100
AcDbLine
 10
4884.990378
 20
5875.75065
 30
0.0
 11
4883.990378
 21
5875.75065
 31
0.0
  0
LINE
  5
D972
100
AcDbEntity
  8
0
100
AcDbLine
 10
4884.990378
 20
5940.75065
 30
0.0
 11
4937.470378
 21
5940.75065
 31
0.0
  0
LINE
  5
D973
100
AcDbEntity
  8
0
100
AcDbLine
 10
4883.990378
 20
5935.75065
 30
0.0
 11
4884.990378
 21
5935.75065
 31
0.0
  0
LINE
  5
D974
100
AcDbEntity
  8
0
100
AcDbLine
 10
5285.560378
 20
4679.74565
 30
0.0
 11
5285.560378
 21
5370.75065
 31
0.0
  0
LINE
  5
D975
100
AcDbEntity
  8
0
100
AcDbLine
 10
5346.800378
 20
5370.75065
 30
0.0
 11
5346.800378
 21
4679.74565
 31
0.0
  0
LINE
  5
D976
100
AcDbEntity
  8
0
100
AcDbLine
 10
5333.860378
 20
5348.96065
 30
0.0
 11
5333.860378
 21
4679.74565
 31
0.0
  0
LINE
  5
D977
100
AcDbEntity
  8
0
100
AcDbLine
 10
5156.490378
 20
5009.49165
 30
0.0
 11
5156.490378
 21
5061.88065
 31
0.0
  0
LINE
  5
D978
100
AcDbEntity
  8
0
100
AcDbLine
 10
5159.490378
 20
5008.92865
 30
0.0
 11
5159.490378
 21
5035.74665
 31
0.0
  0
LINE
  5
D979
100
AcDbEntity
  8
0
100
AcDbLine
 10
5213.490378
 20
5061.88065
 30
0.0
 11
5213.490378
 21
5009.49165
 31
0.0
  0
LINE
  5
D97A
100
AcDbEntity
  8
0
100
AcDbLine
 10
5177.990378
 20
5018.08265
 30
0.0
 11
5178.490378
 21
5011.74665
 31
0.0
  0
LINE
  5
D97B
100
AcDbEntity
  8
0
100
AcDbLine
 10
5191.990378
 20
5018.08265
 30
0.0
 11
5191.490378
 21
5011.74665
 31
0.0
  0
LINE
  5
D97C
100
AcDbEntity
  8
0
100
AcDbLine
 10
5210.490378
 20
5008.92865
 30
0.0
 11
5210.490378
 21
5035.74665
 31
0.0
  0
CIRCLE
  5
D97D
100
AcDbEntity
  8
0
100
AcDbCircle
 10
5287.520378
 20
4263.131655
 30
0.0
 40
11.5
  0
CIRCLE
  5
D97E
100
AcDbEntity
  8
0
100
AcDbCircle
 10
5082.460378
 20
4263.131655
 30
0.0
 40
11.5
  0
CIRCLE
  5
D97F
100
AcDbEntity
  8
0
100
AcDbCircle
 10
5044.930378
 20
4198.131655
 30
0.0
 40
11.5
  0
CIRCLE
  5
D980
100
AcDbEntity
  8
0
100
AcDbCircle
 10
5222.520378
 20
4300.661655
 30
0.0
 40
11.5
  0
CIRCLE
  5
D981
100
AcDbEntity
  8
0
100
AcDbCircle
 10
5147.460378
 20
4300.661655
 30
0.0
 40
11.5
  0
LINE
  5
D982
100
AcDbEntity
  8
0
100
AcDbLine
 10
5025.390378
 20
4378.381655
 30
0.0
 11
5036.120378
 21
4418.441655
 31
0.0
  0
LINE
  5
D983
100
AcDbEntity
  8
0
100
AcDbLine
 10
5005.570378
 20
4362.371655
 30
0.0
 11
5025.520378
 21
4436.821655
 31
0.0
  0
LINE
  5
D984
100
AcDbEntity
  8
0
100
AcDbLine
 10
5025.520378
 20
4436.821655
 30
0.0
 11
5099.970378
 21
4416.871655
 31
0.0
  0
LINE
  5
D985
100
AcDbEntity
  8
0
100
AcDbLine
 10
5036.120378
 20
4418.441655
 30
0.0
 11
5076.190378
 21
4407.711655
 31
0.0
  0
CIRCLE
  5
D986
100
AcDbEntity
  8
0
100
AcDbCircle
 10
5325.050378
 20
4198.131655
 30
0.0
 40
11.5
  0
LINE
  5
D987
100
AcDbEntity
  8
0
100
AcDbLine
 10
5267.190378
 20
4679.74565
 30
0.0
 11
5365.170378
 21
4679.74565
 31
0.0
  0
LINE
  5
D988
100
AcDbEntity
  8
0
100
AcDbLine
 10
5365.170378
 20
4670.74565
 30
0.0
 11
5267.190378
 21
4670.74565
 31
0.0
  0
LINE
  5
D989
100
AcDbEntity
  8
0
100
AcDbLine
 10
5267.190378
 20
4670.74565
 30
0.0
 11
5267.190378
 21
4679.74565
 31
0.0
  0
LINE
  5
D98A
100
AcDbEntity
  8
0
100
AcDbLine
 10
5346.800378
 20
4679.74565
 30
0.0
 11
5285.560378
 21
4679.74565
 31
0.0
  0
LINE
  5
D98B
100
AcDbEntity
  8
0
100
AcDbLine
 10
5344.460378
 20
4679.74565
 30
0.0
 11
5344.460378
 21
4670.74565
 31
0.0
  0
LINE
  5
D98C
100
AcDbEntity
  8
0
100
AcDbLine
 10
5365.170378
 20
4679.74565
 30
0.0
 11
5365.170378
 21
4670.74565
 31
0.0
  0
LINE
  5
D98D
100
AcDbEntity
  8
0
100
AcDbLine
 10
5205.490378
 20
5005.08665
 30
0.0
 11
5205.490378
 21
4990.74665
 31
0.0
  0
LINE
  5
D98E
100
AcDbEntity
  8
0
100
AcDbLine
 10
5178.490378
 20
5011.74665
 30
0.0
 11
5177.890378
 21
4990.74665
 31
0.0
  0
LINE
  5
D98F
100
AcDbEntity
  8
0
100
AcDbLine
 10
5192.090378
 20
4990.74665
 30
0.0
 11
5191.490378
 21
5011.74665
 31
0.0
  0
LINE
  5
D990
100
AcDbEntity
  8
0
100
AcDbLine
 10
5164.490378
 20
4990.74665
 30
0.0
 11
5164.490378
 21
5005.08665
 31
0.0
  0
LINE
  5
D991
100
AcDbEntity
  8
0
100
AcDbLine
 10
5177.890378
 20
4990.74665
 30
0.0
 11
5164.490378
 21
4990.74665
 31
0.0
  0
ARC
  5
D992
100
AcDbEntity
  8
0
100
AcDbCircle
 10
5174.746834
 20
5008.921186
 30
0.0
 40
18.174184
100
AcDbArc
 50
235.643387
 51
279.985614
  0
LINE
  5
D993
100
AcDbEntity
  8
0
100
AcDbLine
 10
5175.640378
 20
4912.11365
 30
0.0
 11
5177.890378
 21
4990.74665
 31
0.0
  0
LINE
  5
D994
100
AcDbEntity
  8
0
100
AcDbLine
 10
5192.090378
 20
4990.74665
 30
0.0
 11
5194.350378
 21
4912.11365
 31
0.0
  0
ARC
  5
D995
100
AcDbEntity
  8
0
100
AcDbCircle
 10
5188.34909
 20
4911.945364
 30
0.0
 40
6.003646
100
AcDbArc
 50
276.611963
 51
1.606243
  0
ARC
  5
D996
100
AcDbEntity
  8
0
100
AcDbCircle
 10
5181.63677
 20
4911.939998
 30
0.0
 40
5.998906
100
AcDbArc
 50
178.341213
 51
263.333701
  0
ARC
  5
D997
100
AcDbEntity
  8
0
100
AcDbCircle
 10
5184.990378
 20
4940.726729
 30
0.0
 40
34.980323
100
AcDbArc
 50
263.35142
 51
276.64858
  0
LINE
  5
D998
100
AcDbEntity
  8
0
100
AcDbLine
 10
5205.490378
 20
4990.74665
 30
0.0
 11
5192.090378
 21
4990.74665
 31
0.0
  0
ARC
  5
D999
100
AcDbEntity
  8
0
100
AcDbCircle
 10
5195.233921
 20
5008.921186
 30
0.0
 40
18.174184
100
AcDbArc
 50
260.014386
 51
304.356613
  0
ARC
  5
D99A
100
AcDbEntity
  8
0
100
AcDbCircle
 10
5171.695915
 20
5119.522831
 30
0.0
 40
112.816702
100
AcDbArc
 50
265.50813
 51
273.382353
  0
ARC
  5
D99B
100
AcDbEntity
  8
0
100
AcDbCircle
 10
5162.491207
 20
5005.087861
 30
0.0
 40
1.999171
100
AcDbArc
 50
359.9653
 51
79.358589
  0
ARC
  5
D99C
100
AcDbEntity
  8
0
100
AcDbCircle
 10
5160.996439
 20
5008.933302
 30
0.0
 40
1.506069
100
AcDbArc
 50
180.176976
 51
259.050764
  0
ARC
  5
D99D
100
AcDbEntity
  8
0
100
AcDbCircle
 10
5157.997429
 20
5009.496118
 30
0.0
 40
1.507058
100
AcDbArc
 50
180.169858
 51
259.019711
  0
LINE
  5
D99E
100
AcDbEntity
  8
0
100
AcDbLine
 10
5157.710378
 20
5008.01665
 30
0.0
 11
5162.860378
 21
5007.05265
 31
0.0
  0
LINE
  5
D99F
100
AcDbEntity
  8
0
100
AcDbLine
 10
5162.860378
 20
5007.05265
 30
0.0
 11
5160.710378
 21
5007.45465
 31
0.0
  0
LINE
  5
D9A0
100
AcDbEntity
  8
0
100
AcDbLine
 10
5207.120378
 20
5007.05265
 30
0.0
 11
5209.270378
 21
5007.45465
 31
0.0
  0
LINE
  5
D9A1
100
AcDbEntity
  8
0
100
AcDbLine
 10
5212.270378
 20
5008.01665
 30
0.0
 11
5207.120378
 21
5007.05265
 31
0.0
  0
ARC
  5
D9A2
100
AcDbEntity
  8
0
100
AcDbCircle
 10
5207.489548
 20
5005.087861
 30
0.0
 40
1.999171
100
AcDbArc
 50
100.641411
 51
180.0347
  0
LINE
  5
D9A3
100
AcDbEntity
  8
0
100
AcDbLine
 10
5179.470378
 20
4995.74665
 30
0.0
 11
5190.510378
 21
4995.74665
 31
0.0
  0
LINE
  5
D9A4
100
AcDbEntity
  8
0
100
AcDbLine
 10
5190.360378
 20
4997.24665
 30
0.0
 11
5179.610378
 21
4997.24665
 31
0.0
  0
LINE
  5
D9A5
100
AcDbEntity
  8
0
100
AcDbLine
 10
5178.490378
 20
5011.74665
 30
0.0
 11
5191.490378
 21
5011.74665
 31
0.0
  0
ARC
  5
D9A6
100
AcDbEntity
  8
0
100
AcDbCircle
 10
5190.366556
 20
4998.741243
 30
0.0
 40
1.494606
100
AcDbArc
 50
269.763148
 51
1.856014
  0
ARC
  5
D9A7
100
AcDbEntity
  8
0
100
AcDbCircle
 10
5190.499684
 20
4997.183116
 30
0.0
 40
1.436506
100
AcDbArc
 50
270.426537
 51
349.850673
  0
ARC
  5
D9A8
100
AcDbEntity
  8
0
100
AcDbCircle
 10
5179.471071
 20
4997.183116
 30
0.0
 40
1.436506
100
AcDbArc
 50
190.149327
 51
269.573463
  0
ARC
  5
D9A9
100
AcDbEntity
  8
0
100
AcDbCircle
 10
5179.604199
 20
4998.741243
 30
0.0
 40
1.494606
100
AcDbArc
 50
178.143986
 51
270.236852
  0
ARC
  5
D9AA
100
AcDbEntity
  8
0
100
AcDbCircle
 10
5198.28484
 20
5119.522831
 30
0.0
 40
112.816702
100
AcDbArc
 50
266.617647
 51
274.49187
  0
ARC
  5
D9AB
100
AcDbEntity
  8
0
100
AcDbCircle
 10
5211.983326
 20
5009.496118
 30
0.0
 40
1.507058
100
AcDbArc
 50
280.980289
 51
359.830142
  0
ARC
  5
D9AC
100
AcDbEntity
  8
0
100
AcDbCircle
 10
5208.984316
 20
5008.933302
 30
0.0
 40
1.506069
100
AcDbArc
 50
280.949236
 51
359.823024
  0
LINE
  5
D9AD
100
AcDbEntity
  8
0
100
AcDbLine
 10
5438.990378
 20
6138.15065
 30
0.0
 11
5438.990378
 21
5121.74665
 31
0.0
  0
LINE
  5
D9AE
100
AcDbEntity
  8
0
100
AcDbLine
 10
5266.210378
 20
5235.74565
 30
0.0
 11
5266.210378
 21
5385.75065
 31
0.0
  0
LINE
  5
D9AF
100
AcDbEntity
  8
0
100
AcDbLine
 10
5269.260378
 20
5385.75065
 30
0.0
 11
5269.260378
 21
5235.74565
 31
0.0
  0
LINE
  5
D9B0
100
AcDbEntity
  8
0
100
AcDbLine
 10
5355.870378
 20
5385.75065
 30
0.0
 11
5355.870378
 21
5235.74565
 31
0.0
  0
LINE
  5
D9B1
100
AcDbEntity
  8
0
100
AcDbLine
 10
5285.560378
 20
5235.74565
 30
0.0
 11
5266.210378
 21
5235.74565
 31
0.0
  0
LINE
  5
D9B2
100
AcDbEntity
  8
0
100
AcDbLine
 10
5107.490378
 20
5036.74565
 30
0.0
 11
5156.490378
 21
5036.74565
 31
0.0
  0
LINE
  5
D9B3
100
AcDbEntity
  8
0
100
AcDbLine
 10
5156.490378
 20
5020.74565
 30
0.0
 11
5107.490378
 21
5020.74565
 31
0.0
  0
LINE
  5
D9B4
100
AcDbEntity
  8
0
100
AcDbLine
 10
5107.490378
 20
5020.74565
 30
0.0
 11
5107.490378
 21
5036.74565
 31
0.0
  0
LINE
  5
D9B5
100
AcDbEntity
  8
0
100
AcDbLine
 10
5262.490378
 20
5036.74565
 30
0.0
 11
5262.490378
 21
5020.74565
 31
0.0
  0
LINE
  5
D9B6
100
AcDbEntity
  8
0
100
AcDbLine
 10
5167.990378
 20
5080.74665
 30
0.0
 11
5167.990378
 21
5121.74665
 31
0.0
  0
LINE
  5
D9B7
100
AcDbEntity
  8
0
100
AcDbLine
 10
5201.990378
 20
5121.74665
 30
0.0
 11
5201.990378
 21
5080.74665
 31
0.0
  0
LINE
  5
D9B8
100
AcDbEntity
  8
0
100
AcDbLine
 10
5215.240378
 20
5121.74665
 30
0.0
 11
5215.240378
 21
5036.74565
 31
0.0
  0
LINE
  5
D9B9
100
AcDbEntity
  8
0
100
AcDbLine
 10
5154.740378
 20
5036.74565
 30
0.0
 11
5154.740378
 21
5121.74665
 31
0.0
  0
LINE
  5
D9BA
100
AcDbEntity
  8
0
100
AcDbLine
 10
5164.490378
 20
5080.74665
 30
0.0
 11
5184.990378
 21
5080.74665
 31
0.0
  0
ARC
  5
D9BB
100
AcDbEntity
  8
0
100
AcDbCircle
 10
5174.740378
 20
5062.599726
 30
0.0
 40
18.146924
100
AcDbArc
 50
55.609233
 51
124.390767
  0
ARC
  5
D9BC
100
AcDbEntity
  8
0
100
AcDbCircle
 10
5174.406174
 20
4989.625871
 30
0.0
 40
75.121567
100
AcDbArc
 50
81.892695
 51
98.980073
  0
LINE
  5
D9BD
100
AcDbEntity
  8
0
100
AcDbLine
 10
5156.490378
 20
5059.24665
 30
0.0
 11
5213.490378
 21
5059.24665
 31
0.0
  0
LINE
  5
D9BE
100
AcDbEntity
  8
0
100
AcDbLine
 10
5159.560378
 20
5063.24665
 30
0.0
 11
5210.430378
 21
5063.24665
 31
0.0
  0
ARC
  5
D9BF
100
AcDbEntity
  8
0
100
AcDbCircle
 10
5184.990393
 20
5035.746416
 30
0.0
 40
19.000233
100
AcDbArc
 50
90.000047
 51
248.381956
  0
LINE
  5
D9C0
100
AcDbEntity
  8
0
100
AcDbLine
 10
5164.490378
 20
5040.74665
 30
0.0
 11
5166.660378
 21
5040.74665
 31
0.0
  0
ARC
  5
D9C1
100
AcDbEntity
  8
0
100
AcDbCircle
 10
5164.52594
 20
5035.711087
 30
0.0
 40
5.035688
100
AcDbArc
 50
90.404633
 51
179.595367
  0
LINE
  5
D9C2
100
AcDbEntity
  8
0
100
AcDbLine
 10
5164.490378
 20
5065.81765
 30
0.0
 11
5164.490378
 21
5080.74665
 31
0.0
  0
ARC
  5
D9C3
100
AcDbEntity
  8
0
100
AcDbCircle
 10
5162.505876
 20
5065.813508
 30
0.0
 40
1.994506
100
AcDbArc
 50
275.019296
 51
0.118994
  0
ARC
  5
D9C4
100
AcDbEntity
  8
0
100
AcDbCircle
 10
5158.003182
 20
5061.877643
 30
0.0
 40
1.502807
100
AcDbArc
 50
95.452749
 51
179.885369
  0
LINE
  5
D9C5
100
AcDbEntity
  8
0
100
AcDbLine
 10
5157.850378
 20
5063.37365
 30
0.0
 11
5162.680378
 21
5063.82665
 31
0.0
  0
ARC
  5
D9C6
100
AcDbEntity
  8
0
100
AcDbCircle
 10
5184.990362
 20
5035.746416
 30
0.0
 40
19.000233
100
AcDbArc
 50
291.618044
 51
89.999953
  0
ARC
  5
D9C7
100
AcDbEntity
  8
0
100
AcDbCircle
 10
5176.992571
 20
5051.872175
 30
0.0
 40
0.997808
100
AcDbArc
 50
359.912433
 51
116.305983
  0
ARC
  5
D9C8
100
AcDbEntity
  8
0
100
AcDbCircle
 10
5192.993143
 20
5051.86914
 30
0.0
 40
1.002767
100
AcDbArc
 50
63.512669
 51
179.913743
  0
ARC
  5
D9C9
100
AcDbEntity
  8
0
100
AcDbCircle
 10
5205.454815
 20
5035.711087
 30
0.0
 40
5.035688
100
AcDbArc
 50
0.404633
 51
89.595367
  0
LINE
  5
D9CA
100
AcDbEntity
  8
0
100
AcDbLine
 10
5205.490378
 20
5040.74665
 30
0.0
 11
5203.320378
 21
5040.74665
 31
0.0
  0
CIRCLE
  5
D9CB
100
AcDbEntity
  8
0
100
AcDbCircle
 10
5184.990378
 20
5035.74665
 30
0.0
 40
4.99999
  0
LINE
  5
D9CC
100
AcDbEntity
  8
0
100
AcDbLine
 10
5177.990378
 20
5051.87065
 30
0.0
 11
5177.990378
 21
5018.08265
 31
0.0
  0
LINE
  5
D9CD
100
AcDbEntity
  8
0
100
AcDbLine
 10
5191.990378
 20
5051.87065
 30
0.0
 11
5191.990378
 21
5018.08265
 31
0.0
  0
LINE
  5
D9CE
100
AcDbEntity
  8
0
100
AcDbLine
 10
5207.310378
 20
5063.82665
 30
0.0
 11
5212.130378
 21
5063.37365
 31
0.0
  0
LINE
  5
D9CF
100
AcDbEntity
  8
0
100
AcDbLine
 10
5205.490378
 20
5080.74665
 30
0.0
 11
5205.490378
 21
5065.81765
 31
0.0
  0
ARC
  5
D9D0
100
AcDbEntity
  8
0
100
AcDbCircle
 10
5207.484879
 20
5065.813508
 30
0.0
 40
1.994506
100
AcDbArc
 50
179.881006
 51
264.980704
  0
LINE
  5
D9D1
100
AcDbEntity
  8
0
100
AcDbLine
 10
5201.990378
 20
5080.74665
 30
0.0
 11
5167.990378
 21
5080.74665
 31
0.0
  0
LINE
  5
D9D2
100
AcDbEntity
  8
0
100
AcDbLine
 10
5184.990378
 20
5077.57465
 30
0.0
 11
5184.990378
 21
5063.99665
 31
0.0
  0
LINE
  5
D9D3
100
AcDbEntity
  8
0
100
AcDbLine
 10
5184.990378
 20
5080.74665
 30
0.0
 11
5205.490378
 21
5080.74665
 31
0.0
  0
ARC
  5
D9D4
100
AcDbEntity
  8
0
100
AcDbCircle
 10
5195.240378
 20
5062.599726
 30
0.0
 40
18.146924
100
AcDbArc
 50
55.609233
 51
124.390767
  0
ARC
  5
D9D5
100
AcDbEntity
  8
0
100
AcDbCircle
 10
5195.584581
 20
4989.625871
 30
0.0
 40
75.121567
100
AcDbArc
 50
81.019927
 51
98.107305
  0
ARC
  5
D9D6
100
AcDbEntity
  8
0
100
AcDbCircle
 10
5211.987574
 20
5061.877643
 30
0.0
 40
1.502807
100
AcDbArc
 50
0.114631
 51
84.547251
  0
LINE
  5
D9D7
100
AcDbEntity
  8
0
100
AcDbLine
 10
5262.490378
 20
5020.74565
 30
0.0
 11
5213.490378
 21
5020.74565
 31
0.0
  0
LINE
  5
D9D8
100
AcDbEntity
  8
0
100
AcDbLine
 10
5213.490378
 20
5036.74565
 30
0.0
 11
5262.490378
 21
5036.74565
 31
0.0
  0
LINE
  5
D9D9
100
AcDbEntity
  8
0
100
AcDbLine
 10
5438.990378
 20
5121.74665
 30
0.0
 11
5346.800378
 21
5121.74665
 31
0.0
  0
LINE
  5
D9DA
100
AcDbEntity
  8
0
100
AcDbLine
 10
5355.870378
 20
5235.74565
 30
0.0
 11
5346.800378
 21
5235.74565
 31
0.0
  0
LINE
  5
D9DB
100
AcDbEntity
  8
0
100
AcDbLine
 10
5266.210378
 20
5385.75065
 30
0.0
 11
5355.870378
 21
5385.75065
 31
0.0
  0
LINE
  5
D9DC
100
AcDbEntity
  8
0
100
AcDbLine
 10
5285.560378
 20
5370.75065
 30
0.0
 11
5333.860378
 21
5348.96065
 31
0.0
  0
LINE
  5
D9DD
100
AcDbEntity
  8
0
100
AcDbLine
 10
5285.560378
 20
5370.75065
 30
0.0
 11
5346.800378
 21
5370.75065
 31
0.0
  0
LINE
  5
D9DE
100
AcDbEntity
  8
0
100
AcDbLine
 10
5333.860378
 20
5348.96065
 30
0.0
 11
5346.800378
 21
5370.75065
 31
0.0
  0
LINE
  5
D9DF
100
AcDbEntity
  8
0
100
AcDbLine
 10
5534.990378
 20
6220.75065
 30
0.0
 11
5534.990378
 21
6080.75065
 31
0.0
  0
ARC
  5
D9E0
100
AcDbEntity
  8
0
100
AcDbCircle
 10
5679.291827
 20
6220.75065
 30
0.0
 40
254.101449
100
AcDbArc
 50
161.030365
 51
198.969635
  0
LINE
  5
D9E1
100
AcDbEntity
  8
0
100
AcDbLine
 10
5438.990378
 20
6138.15065
 30
0.0
 11
5512.990378
 21
6138.15065
 31
0.0
  0
LINE
  5
D9E2
100
AcDbEntity
  8
0
100
AcDbLine
 10
5534.990378
 20
6080.75065
 30
0.0
 11
5512.990378
 21
6080.75065
 31
0.0
  0
LINE
  5
D9E3
100
AcDbEntity
  8
0
100
AcDbLine
 10
5512.990378
 20
6303.35065
 30
0.0
 11
5438.990378
 21
6303.35065
 31
0.0
  0
LINE
  5
D9E4
100
AcDbEntity
  8
0
100
AcDbLine
 10
4914.990378
 20
6370.75065
 30
0.0
 11
5454.990378
 21
6370.75065
 31
0.0
  0
LINE
  5
D9E5
100
AcDbEntity
  8
0
100
AcDbLine
 10
5454.990378
 20
6361.75065
 30
0.0
 11
4914.990378
 21
6361.75065
 31
0.0
  0
LINE
  5
D9E6
100
AcDbEntity
  8
0
100
AcDbLine
 10
4914.990378
 20
6361.75065
 30
0.0
 11
4914.990378
 21
6370.75065
 31
0.0
  0
LINE
  5
D9E7
100
AcDbEntity
  8
0
100
AcDbLine
 10
5076.840378
 20
6448.75065
 30
0.0
 11
5293.140378
 21
6448.75065
 31
0.0
  0
LINE
  5
D9E8
100
AcDbEntity
  8
0
100
AcDbLine
 10
5019.990378
 20
6470.75065
 30
0.0
 11
5349.990378
 21
6470.75065
 31
0.0
  0
LINE
  5
D9E9
100
AcDbEntity
  8
0
100
AcDbLine
 10
5349.990378
 20
6448.75065
 30
0.0
 11
5019.990378
 21
6448.75065
 31
0.0
  0
LINE
  5
D9EA
100
AcDbEntity
  8
0
100
AcDbLine
 10
5076.840378
 20
6370.75065
 30
0.0
 11
5076.840378
 21
6448.75065
 31
0.0
  0
LINE
  5
D9EB
100
AcDbEntity
  8
0
100
AcDbLine
 10
5019.990378
 20
6448.75065
 30
0.0
 11
5019.990378
 21
6470.75065
 31
0.0
  0
LINE
  5
D9EC
100
AcDbEntity
  8
0
100
AcDbLine
 10
5293.140378
 20
6448.75065
 30
0.0
 11
5293.140378
 21
6370.75065
 31
0.0
  0
LINE
  5
D9ED
100
AcDbEntity
  8
0
100
AcDbLine
 10
5349.990378
 20
6470.75065
 30
0.0
 11
5349.990378
 21
6448.75065
 31
0.0
  0
LINE
  5
D9EE
100
AcDbEntity
  8
0
100
AcDbLine
 10
5454.990378
 20
6370.75065
 30
0.0
 11
5454.990378
 21
6361.75065
 31
0.0
  0
LINE
  5
D9EF
100
AcDbEntity
  8
0
100
AcDbLine
 10
5512.990378
 20
6360.75065
 30
0.0
 11
5534.990378
 21
6360.75065
 31
0.0
  0
INSERT
  5
DA08
100
AcDbEntity
  8
0
100
AcDbBlockReference
  2
YA
 10
4703.900487
 20
2650.803499
 30
0.0
 41
14.280104
 42
14.280104
 43
14.280104
  0
INSERT
  5
DA09
100
AcDbEntity
  8
0
100
AcDbBlockReference
  2
YA
 10
6078.155508
 20
2700.763499
 30
0.0
 41
-14.280104
 42
14.280104
 43
14.280104
  0
INSERT
  5
DA0A
100
AcDbEntity
  8
0
100
AcDbBlockReference
  2
YA
 10
6278.155508
 20
1730.798499
 30
0.0
 41
14.280104
 42
14.280104
 43
14.280104
  0
INSERT
  5
DA0B
100
AcDbEntity
  8
0
100
AcDbBlockReference
  2
YA
 10
5184.990378
 20
3248.925991
 30
0.0
 41
14.280104
 42
14.280104
 43
14.280104
 50
90.0
  0
INSERT
  5
DA0E
100
AcDbEntity
  8
0
100
AcDbBlockReference
  2
YA
 10
3984.020359
 20
2700.763499
 30
0.0
 41
14.280104
 42
14.280104
 43
14.280104
  0
INSERT
  5
DA0F
100
AcDbEntity
  8
0
100
AcDbBlockReference
  2
YA
 10
3784.020359
 20
1730.798499
 30
0.0
 41
-14.280104
 42
14.280104
 43
14.280104
  0
INSERT
  5
DA10
100
AcDbEntity
  8
0
100
AcDbBlockReference
  2
YA
 10
3152.42326
 20
761.749724
 30
0.0
 41
-14.280104
 42
14.280104
 43
14.280104
 50
90.0
  0
INSERT
  5
DA13
100
AcDbEntity
  8
0
100
AcDbBlockReference
  2
YA
 10
2982.42326
 20
761.749724
 30
0.0
 41
-14.280104
 42
14.280104
 43
14.280104
 50
90.0
  0
INSERT
  5
DA14
100
AcDbEntity
  8
0
100
AcDbBlockReference
  2
YA
 10
5184.990378
 20
761.749724
 30
0.0
 41
-14.280104
 42
14.280104
 43
14.280104
 50
90.0
  0
LINE
  5
DA27
100
AcDbEntity
  8
0
100
AcDbLine
 10
6909.752608
 20
1779.013499
 30
0.0
 11
6909.752608
 21
1109.798499
 31
0.0
  0
LINE
  5
DA29
100
AcDbEntity
  8
0
100
AcDbLine
 10
3152.42326
 20
1100.798499
 30
0.0
 11
3152.42326
 21
1109.798499
 31
0.0
  0
LINE
  5
DA2A
100
AcDbEntity
  8
0
100
AcDbLine
 10
3152.42326
 20
1109.798499
 30
0.0
 11
3152.42326
 21
1450.798499
 31
0.0
  0
LINE
  5
DA49
100
AcDbEntity
  8
0
100
AcDbLine
 10
5481.990378
 20
4111.594203
 30
0.0
 11
5481.990378
 21
4209.609108
 31
0.0
  0
LINE
  5
DA51
100
AcDbEntity
  8
0
100
AcDbLine
 10
5484.990378
 20
4111.594203
 30
0.0
 11
5484.990378
 21
4209.609108
 31
0.0
  0
LINE
  5
DA52
100
AcDbEntity
  8
0
100
AcDbLine
 10
5448.903527
 20
4217.609108
 30
0.0
 11
5476.990378
 21
4217.609108
 31
0.0
  0
LINE
  5
DA53
100
AcDbEntity
  8
0
100
AcDbLine
 10
5448.903527
 20
4103.594203
 30
0.0
 11
5476.990378
 21
4103.594203
 31
0.0
  0
ARC
  5
DA54
100
AcDbEntity
  8
0
100
AcDbCircle
 10
5476.990378
 20
4209.609108
 30
0.0
 40
8.0
100
AcDbArc
 50
0.0
 51
90.0
  0
ARC
  5
DA55
100
AcDbEntity
  8
0
100
AcDbCircle
 10
5476.990378
 20
4111.594203
 30
0.0
 40
8.0
100
AcDbArc
 50
270.0
 51
0.0
  0
LINE
  5
DA56
100
AcDbEntity
  8
0
100
AcDbLine
 10
5449.533748
 20
4106.594203
 30
0.0
 11
5476.990378
 21
4106.594203
 31
0.0
  0
LINE
  5
DA57
100
AcDbEntity
  8
0
100
AcDbLine
 10
5449.533748
 20
4214.609108
 30
0.0
 11
5476.990378
 21
4214.609108
 31
0.0
  0
ARC
  5
DA58
100
AcDbEntity
  8
0
100
AcDbCircle
 10
5476.990378
 20
4209.609108
 30
0.0
 40
5.0
100
AcDbArc
 50
0.0
 51
90.0
  0
ARC
  5
DA59
100
AcDbEntity
  8
0
100
AcDbCircle
 10
5476.990378
 20
4111.594203
 30
0.0
 40
5.0
100
AcDbArc
 50
270.0
 51
0.0
  0
LINE
  5
DA5A
100
AcDbEntity
  8
0
100
AcDbLine
 10
5484.990378
 20
4179.541655
 30
0.0
 11
5503.930378
 21
4160.601655
 31
0.0
  0
LINE
  5
DA5B
100
AcDbEntity
  8
0
100
AcDbLine
 10
5481.990378
 20
4138.661655
 30
0.0
 11
5449.430378
 21
4106.101655
 31
0.0
  0
VIEWPORT
  5
41
100
AcDbEntity
 67
     1
  8
0
100
AcDbViewport
 10
117.358407
 20
73.5
 30
0.0
 40
234.716814
 41
147.0
 68
    -1
 69
     1
1001
ACAD
1000
MVIEW
1002
{
1070
    16
1010
0.0
1020
0.0
1030
0.0
1010
0.0
1020
0.0
1030
1.0
1040
0.0
1040
147.0
1040
117.358407
1040
73.5
1040
50.0
1040
0.0
1040
0.0
1070
     0
1070
   100
1070
     1
1070
     1
1070
     0
1070
     0
1070
     0
1070
     0
1040
0.0
1040
0.0
1040
0.0
1040
1.0
1040
1.0
1040
0.0
1040
0.0
1070
     0
1002
{
1002
}
1002
}
  0
ENDSEC
  0
SECTION
  2
OBJECTS
  0
DICTIONARY
  5
C
100
AcDbDictionary
  3
ACAD_GROUP
350
D
  3
ACAD_MLINESTYLE
350
E
  0
DICTIONARY
  5
D
102
{ACAD_REACTORS
330
C
102
}
100
AcDbDictionary
  0
DICTIONARY
  5
E
102
{ACAD_REACTORS
330
C
102
}
100
AcDbDictionary
  3
STANDARD
350
1B
  0
MLINESTYLE
  5
1B
102
{ACAD_REACTORS
330
E
102
}
100
AcDbMlineStyle
  2
STANDARD
 70
     0
  3

 62
     0
 51
90.0
 52
90.0
 71
     2
 49
0.5
 62
   256
  6
BYLAYER
 49
-0.5
 62
   256
  6
BYLAYER
  0
ENDSEC
  0
EOF
