  0
SECTION
  2
HEADER
  9
$ACADVER
  1
AC1012
  9
$DWGCODEPAGE
  3
dos932
  9
$INSBASE
 10
0.0
 20
0.0
 30
0.0
  9
$EXTMIN
 10
88.0
 20
40.0
 30
0.0
  9
$EXTMAX
 10
2288.0
 20
1528.0
 30
0.0
  9
$LIMMIN
 10
0.0
 20
0.0
  9
$LIMMAX
 10
2376.0
 20
1680.0
  9
$ORTHOMODE
 70
     0
  9
$REGENMODE
 70
     1
  9
$FILLMODE
 70
     1
  9
$QTEXTMODE
 70
     0
  9
$MIRRTEXT
 70
     1
  9
$DRAGMODE
 70
     2
  9
$LTSCALE
 40
32.0
  9
$OSMODE
 70
   163
  9
$ATTMODE
 70
     1
  9
$TEXTSIZE
 40
32.0
  9
$TRACEWID
 40
0.05
  9
$TEXTSTYLE
  7
STANDARD
  9
$CLAYER
  8
0
  9
$CELTYPE
  6
BYLAYER
  9
$CECOLOR
 62
   256
  9
$CELTSCALE
 40
1.0
  9
$DELOBJ
 70
     1
  9
$DISPSILH
 70
     0
  9
$DIMSCALE
 40
8.0
  9
$DIMASZ
 40
2.8
  9
$DIMEXO
 40
1.0
  9
$DIMDLI
 40
5.0
  9
$DIMRND
 40
0.1
  9
$DIMDLE
 40
0.0
  9
$DIMEXE
 40
1.0
  9
$DIMTP
 40
0.0
  9
$DIMTM
 40
0.0
  9
$DIMTXT
 40
2.5
  9
$DIMCEN
 40
0.0
  9
$DIMTSZ
 40
0.0
  9
$DIMTOL
 70
     0
  9
$DIMLIM
 70
     0
  9
$DIMTIH
 70
     0
  9
$DIMTOH
 70
     0
  9
$DIMSE1
 70
     0
  9
$DIMSE2
 70
     0
  9
$DIMTAD
 70
     3
  9
$DIMZIN
 70
     8
  9
$DIMBLK
  1

  9
$DIMASO
 70
     1
  9
$DIMSHO
 70
     1
  9
$DIMPOST
  1
 
  9
$DIMAPOST
  1

  9
$DIMALT
 70
     0
  9
$DIMALTD
 70
     2
  9
$DIMALTF
 40
1.0
  9
$DIMLFAC
 40
1.0
  9
$DIMTOFL
 70
     1
  9
$DIMTVP
 40
0.0
  9
$DIMTIX
 70
     0
  9
$DIMSOXD
 70
     0
  9
$DIMSAH
 70
     1
  9
$DIMBLK1
  1
_OPEN
  9
$DIMBLK2
  1
_OPEN
  9
$DIMSTYLE
  2
DIM1
  9
$DIMCLRD
 70
     2
  9
$DIMCLRE
 70
     2
  9
$DIMCLRT
 70
     2
  9
$DIMTFAC
 40
0.7
  9
$DIMGAP
 40
0.85
  9
$DIMJUST
 70
     0
  9
$DIMSD1
 70
     0
  9
$DIMSD2
 70
     0
  9
$DIMTOLJ
 70
     1
  9
$DIMTZIN
 70
     8
  9
$DIMALTZ
 70
     8
  9
$DIMALTTZ
 70
     8
  9
$DIMFIT
 70
     0
  9
$DIMUPT
 70
     0
  9
$DIMUNIT
 70
     2
  9
$DIMDEC
 70
     2
  9
$DIMTDEC
 70
     3
  9
$DIMALTU
 70
     2
  9
$DIMALTTD
 70
     3
  9
$DIMTXSTY
  7
DIM
  9
$DIMAUNIT
 70
     0
  9
$LUNITS
 70
     2
  9
$LUPREC
 70
     4
  9
$SKETCHINC
 40
0.1
  9
$FILLETRAD
 40
0.0
  9
$AUNITS
 70
     0
  9
$AUPREC
 70
     0
  9
$MENU
  1
C:\ACADR13\WIN\SUPPORT\ACAD.mnc
  9
$ELEVATION
 40
0.0
  9
$PELEVATION
 40
0.0
  9
$THICKNESS
 40
0.0
  9
$LIMCHECK
 70
     0
  9
$BLIPMODE
 70
     1
  9
$CHAMFERA
 40
0.0
  9
$CHAMFERB
 40
0.0
  9
$CHAMFERC
 40
0.0
  9
$CHAMFERD
 40
0.0
  9
$SKPOLY
 70
     0
  9
$TDCREATE
 40
2451597.539041238
  9
$TDUPDATE
 40
2451967.665669120
  9
$TDINDWG
 40
0.0725904282
  9
$TDUSRTIMER
 40
0.0725904282
  9
$USRTIMER
 70
     1
  9
$ANGBASE
 50
0.0
  9
$ANGDIR
 70
     0
  9
$PDMODE
 70
     0
  9
$PDSIZE
 40
0.0
  9
$PLINEWID
 40
0.0
  9
$COORDS
 70
     1
  9
$SPLFRAME
 70
     0
  9
$SPLINETYPE
 70
     6
  9
$SPLINESEGS
 70
     8
  9
$ATTDIA
 70
     0
  9
$ATTREQ
 70
     1
  9
$HANDLING
 70
     1
  9
$HANDSEED
  5
41C5
  9
$SURFTAB1
 70
     6
  9
$SURFTAB2
 70
     6
  9
$SURFTYPE
 70
     6
  9
$SURFU
 70
     6
  9
$SURFV
 70
     6
  9
$UCSNAME
  2

  9
$UCSORG
 10
0.0
 20
0.0
 30
0.0
  9
$UCSXDIR
 10
1.0
 20
0.0
 30
0.0
  9
$UCSYDIR
 10
0.0
 20
1.0
 30
0.0
  9
$PUCSNAME
  2

  9
$PUCSORG
 10
0.0
 20
0.0
 30
0.0
  9
$PUCSXDIR
 10
1.0
 20
0.0
 30
0.0
  9
$PUCSYDIR
 10
0.0
 20
1.0
 30
0.0
  9
$USERI1
 70
     0
  9
$USERI2
 70
     0
  9
$USERI3
 70
     0
  9
$USERI4
 70
     0
  9
$USERI5
 70
     0
  9
$USERR1
 40
0.0
  9
$USERR2
 40
0.0
  9
$USERR3
 40
0.0
  9
$USERR4
 40
0.0
  9
$USERR5
 40
0.0
  9
$WORLDVIEW
 70
     1
  9
$SHADEDGE
 70
     3
  9
$SHADEDIF
 70
    70
  9
$TILEMODE
 70
     1
  9
$MAXACTVP
 70
    16
  9
$PINSBASE
 10
0.0
 20
0.0
 30
0.0
  9
$PLIMCHECK
 70
     0
  9
$PEXTMIN
 10
1.000000E+20
 20
1.000000E+20
 30
1.000000E+20
  9
$PEXTMAX
 10
-1.000000E+20
 20
-1.000000E+20
 30
-1.000000E+20
  9
$PLIMMIN
 10
0.0
 20
0.0
  9
$PLIMMAX
 10
20.0
 20
147.0
  9
$UNITMODE
 70
     0
  9
$VISRETAIN
 70
     0
  9
$PLINEGEN
 70
     0
  9
$PSLTSCALE
 70
     1
  9
$TREEDEPTH
 70
  3020
  9
$PICKSTYLE
 70
     1
  9
$CMLSTYLE
  2
STANDARD
  9
$CMLJUST
 70
     0
  9
$CMLSCALE
 40
1.0
  9
$SAVEIMAGES
 70
     1
  0
ENDSEC
  0
SECTION
  2
CLASSES
  0
CLASS
  1
LWPOLYLINE
  2
AcDbPolyline
  3
"AutoCAD"
 90
    32768
280
     0
281
     1
  0
ENDSEC
  0
SECTION
  2
TABLES
  0
TABLE
  2
VPORT
  5
8
100
AcDbSymbolTable
 70
     2
  0
VPORT
  5
41C4
100
AcDbSymbolTableRecord
100
AcDbViewportTableRecord
  2
*ACTIVE
 70
     0
 10
0.0
 20
0.0
 11
1.0
 21
1.0
 12
2189.747231
 22
1242.717739
 13
0.0
 23
0.0
 14
1.0
 24
1.0
 15
0.0
 25
0.0
 16
0.0
 26
0.0
 36
1.0
 17
0.0
 27
0.0
 37
0.0
 40
2485.435478
 41
1.762063
 42
50.0
 43
0.0
 44
0.0
 50
0.0
 51
0.0
 71
     0
 72
   100
 73
     1
 74
     1
 75
     0
 76
     0
 77
     0
 78
     0
  0
ENDTAB
  0
TABLE
  2
LTYPE
  5
5
100
AcDbSymbolTable
 70
     5
  0
LTYPE
  5
12
100
AcDbSymbolTableRecord
100
AcDbLinetypeTableRecord
  2
BYBLOCK
 70
     0
  3

 72
    65
 73
     0
 40
0.0
  0
LTYPE
  5
13
100
AcDbSymbolTableRecord
100
AcDbLinetypeTableRecord
  2
BYLAYER
 70
     0
  3

 72
    65
 73
     0
 40
0.0
  0
LTYPE
  5
14
100
AcDbSymbolTableRecord
100
AcDbLinetypeTableRecord
  2
CONTINUOUS
 70
     0
  3
Solid line
 72
    65
 73
     0
 40
0.0
  0
ENDTAB
  0
TABLE
  2
LAYER
  5
2
100
AcDbSymbolTable
 70
     3
  0
LAYER
  5
F
100
AcDbSymbolTableRecord
100
AcDbLayerTableRecord
  2
0
 70
     0
 62
     7
  6
CONTINUOUS
  0
ENDTAB
  0
TABLE
  2
STYLE
  5
3
100
AcDbSymbolTable
 70
     3
  0
STYLE
  5
10
100
AcDbSymbolTableRecord
100
AcDbTextStyleTableRecord
  2
STANDARD
 70
     0
 40
0.0
 41
0.8
 50
0.0
 71
     0
 42
32.0
  3
simplex
  4
extfont
  0
STYLE
  5
237C
100
AcDbSymbolTableRecord
100
AcDbTextStyleTableRecord
  2
PTSH
 70
     0
 40
0.0
 41
0.9
 50
0.0
 71
     0
 42
4.0
  3
SIMPLEX
  4
EXTFONT
  0
STYLE
  5
2592
100
AcDbSymbolTableRecord
100
AcDbTextStyleTableRecord
  2
DIM
 70
     0
 40
0.0
 41
0.8
 50
0.0
 71
     0
 42
4.0
  3
simplex
  4
extfont
  0
ENDTAB
  0
TABLE
  2
VIEW
  5
6
100
AcDbSymbolTable
 70
     0
  0
ENDTAB
  0
TABLE
  2
UCS
  5
7
100
AcDbSymbolTable
 70
     0
  0
ENDTAB
  0
TABLE
  2
APPID
  5
9
100
AcDbSymbolTable
 70
     1
  0
APPID
  5
11
100
AcDbSymbolTableRecord
100
AcDbRegAppTableRecord
  2
ACAD
 70
     0
  0
ENDTAB
  0
TABLE
  2
DIMSTYLE
  5
A
100
AcDbSymbolTable
 70
     1
  0
DIMSTYLE
105
2237
100
AcDbSymbolTableRecord
100
AcDbDimStyleTableRecord
  2
DIM1
 70
     0
  3
 
  4

  5

  6
_OPEN
  7
_OPEN
 40
8.0
 41
2.8
 42
1.0
 43
5.0
 44
1.0
 45
0.1
 46
0.0
 47
0.0
 48
0.0
140
2.5
141
0.0
142
0.0
143
1.0
144
1.0
145
0.0
146
0.7
147
0.85
 71
     0
 72
     0
 73
     0
 74
     0
 75
     0
 76
     0
 77
     3
 78
     8
170
     0
171
     2
172
     1
173
     1
174
     0
175
     0
176
     2
177
     2
178
     2
270
     2
271
     2
272
     3
273
     2
274
     3
340
2592
275
     0
280
     0
281
     0
282
     0
283
     1
284
     8
285
     8
286
     8
287
     0
288
     0
  0
ENDTAB
  0
TABLE
  2
BLOCK_RECORD
  5
1
100
AcDbSymbolTable
 70
     1
  0
BLOCK_RECORD
  5
18
100
AcDbSymbolTableRecord
100
AcDbBlockTableRecord
  2
*MODEL_SPACE
  0
BLOCK_RECORD
  5
15
100
AcDbSymbolTableRecord
100
AcDbBlockTableRecord
  2
*PAPER_SPACE
  0
BLOCK_RECORD
  5
2448
100
AcDbSymbolTableRecord
100
AcDbBlockTableRecord
  2
_OPEN
  0
ENDTAB
  0
ENDSEC
  0
SECTION
  2
BLOCKS
  0
BLOCK
  5
3C
100
AcDbEntity
  8
0
100
AcDbBlockBegin
  2
*MODEL_SPACE
 70
     0
 10
0.0
 20
0.0
 30
0.0
  3
*MODEL_SPACE
  1

  0
ENDBLK
  5
3D
100
AcDbEntity
  8
0
100
AcDbBlockEnd
  0
BLOCK
  5
3A
100
AcDbEntity
 67
     1
  8
0
100
AcDbBlockBegin
  2
*PAPER_SPACE
 70
     0
 10
0.0
 20
0.0
 30
0.0
  3
*PAPER_SPACE
  1

  0
ENDBLK
  5
3B
100
AcDbEntity
 67
     1
  8
0
100
AcDbBlockEnd
  0
BLOCK
  5
2449
100
AcDbEntity
  8
0
 48
4.0
100
AcDbBlockBegin
  2
_OPEN
 70
     0
 10
0.0
 20
0.0
 30
0.0
  3
_OPEN
  1
H1111.DWG
  0
LINE
  5
244A
100
AcDbEntity
  8
0
  6
BYBLOCK
 62
     0
 48
4.0
100
AcDbLine
 10
-1.0
 20
0.166667
 30
0.0
 11
0.0
 21
0.0
 31
0.0
  0
LINE
  5
244B
100
AcDbEntity
  8
0
  6
BYBLOCK
 62
     0
 48
4.0
100
AcDbLine
 10
0.0
 20
0.0
 30
0.0
 11
-1.0
 21
-0.166667
 31
0.0
  0
LINE
  5
244C
100
AcDbEntity
  8
0
  6
BYBLOCK
 62
     0
 48
4.0
100
AcDbLine
 10
0.0
 20
0.0
 30
0.0
 11
-1.0
 21
0.0
 31
0.0
  0
ENDBLK
  5
244D
100
AcDbEntity
  8
0
 48
4.0
100
AcDbBlockEnd
  0
ENDSEC
  0
SECTION
  2
ENTITIES
  0
MTEXT
  5
ADA
100
AcDbEntity
  8
0
100
AcDbMText
 10
3041.114238
 20
398.770489
 30
0.0
 40
1.6
 41
377.811719
 71
     1
 72
     1
  1

  0
MTEXT
  5
ADB
100
AcDbEntity
  8
0
100
AcDbMText
 10
3112.399465
 20
462.80635
 30
0.0
 40
1.6
 41
363.554673
 71
     1
 72
     1
  1

  0
MTEXT
  5
ADC
100
AcDbEntity
  8
0
100
AcDbMText
 10
3069.628329
 20
-383.889971
 30
0.0
 40
1.6
 41
413.454332
 71
     1
 72
     1
  1

  0
TEXT
  5
2529
100
AcDbEntity
  8
0
  6
CONTINUOUS
100
AcDbText
 10
2198.47763
 20
57.384311
 30
0.0
 40
20.0
  1
BB1N
 41
0.9
  7
PTSH
 72
     1
 11
2229.334773
 21
67.384311
 31
0.0
100
AcDbText
 73
     2
  0
POLYLINE
  5
2563
100
AcDbEntity
  8
0
100
AcDb2dPolyline
 66
     1
 10
0.0
 20
0.0
 30
0.0
 70
     1
  0
VERTEX
  5
415D
100
AcDbEntity
  8
0
100
AcDbVertex
100
AcDb2dVertex
 10
88.0
 20
40.0
 30
0.0
  0
VERTEX
  5
415E
100
AcDbEntity
  8
0
100
AcDbVertex
100
AcDb2dVertex
 10
2288.0
 20
40.0
 30
0.0
  0
VERTEX
  5
415F
100
AcDbEntity
  8
0
100
AcDbVertex
100
AcDb2dVertex
 10
2288.0
 20
1528.0
 30
0.0
  0
VERTEX
  5
4160
100
AcDbEntity
  8
0
100
AcDbVertex
100
AcDb2dVertex
 10
88.0
 20
1528.0
 30
0.0
  0
SEQEND
  5
4161
100
AcDbEntity
  8
0
  0
ARC
  5
2DE9
100
AcDbEntity
  8
0
100
AcDbCircle
 10
433.861413
 20
1059.122203
 30
0.0
 40
12.701706
100
AcDbArc
 50
330.0
 51
30.0
  0
LINE
  5
2DEA
100
AcDbEntity
  8
0
100
AcDbLine
 10
446.563119
 20
1070.122203
 30
0.0
 11
446.563119
 21
1059.122203
 31
0.0
  0
LINE
  5
2DEB
100
AcDbEntity
  8
0
100
AcDbLine
 10
432.563119
 20
1064.122203
 30
0.0
 11
432.563119
 21
1054.122203
 31
0.0
  0
ARC
  5
2DEC
100
AcDbEntity
  8
0
100
AcDbCircle
 10
414.896452
 20
1059.122203
 30
0.0
 40
20.666667
100
AcDbArc
 50
342.103449
 51
17.896551
  0
ARC
  5
2DED
100
AcDbEntity
  8
0
100
AcDbCircle
 10
413.229786
 20
1059.122203
 30
0.0
 40
20.666667
100
AcDbArc
 50
162.103449
 51
197.896551
  0
LINE
  5
2DEE
100
AcDbEntity
  8
0
100
AcDbLine
 10
397.063119
 20
1075.622203
 30
0.0
 11
397.063119
 21
1042.622203
 31
0.0
  0
LINE
  5
2DEF
100
AcDbEntity
  8
0
100
AcDbLine
 10
394.063119
 20
1075.622203
 30
0.0
 11
394.063119
 21
1042.622203
 31
0.0
  0
ARC
  5
2DF0
100
AcDbEntity
  8
0
100
AcDbCircle
 10
394.264825
 20
1059.122203
 30
0.0
 40
12.701706
100
AcDbArc
 50
150.0
 51
210.0
  0
LINE
  5
2DF1
100
AcDbEntity
  8
0
100
AcDbLine
 10
381.563119
 20
1070.122203
 30
0.0
 11
381.563119
 21
1059.122203
 31
0.0
  0
CIRCLE
  5
2DF2
100
AcDbEntity
  8
0
100
AcDbCircle
 10
297.454735
 20
1059.122203
 30
0.0
 40
11.0
  0
CIRCLE
  5
2DF3
100
AcDbEntity
  8
0
100
AcDbCircle
 10
297.454735
 20
1059.122203
 30
0.0
 40
16.5
  0
CIRCLE
  5
2DF4
100
AcDbEntity
  8
0
100
AcDbCircle
 10
577.556105
 20
1059.122203
 30
0.0
 40
11.0
  0
POLYLINE
  5
2DF5
100
AcDbEntity
  8
0
100
AcDb2dPolyline
 66
     1
 10
0.0
 20
0.0
 30
0.0
 70
     1
  0
VERTEX
  5
4162
100
AcDbEntity
  8
0
100
AcDbVertex
100
AcDb2dVertex
 10
588.556105
 20
1052.77135
 30
0.0
  0
VERTEX
  5
4163
100
AcDbEntity
  8
0
100
AcDbVertex
100
AcDb2dVertex
 10
577.556105
 20
1046.420497
 30
0.0
  0
VERTEX
  5
4164
100
AcDbEntity
  8
0
100
AcDbVertex
100
AcDb2dVertex
 10
566.556105
 20
1052.77135
 30
0.0
  0
VERTEX
  5
4165
100
AcDbEntity
  8
0
100
AcDbVertex
100
AcDb2dVertex
 10
566.556105
 20
1065.473056
 30
0.0
  0
VERTEX
  5
4166
100
AcDbEntity
  8
0
100
AcDbVertex
100
AcDb2dVertex
 10
577.556105
 20
1071.823909
 30
0.0
  0
VERTEX
  5
4167
100
AcDbEntity
  8
0
100
AcDbVertex
100
AcDb2dVertex
 10
588.556105
 20
1065.473056
 30
0.0
  0
SEQEND
  5
4168
100
AcDbEntity
  8
0
  0
ARC
  5
2DF6
100
AcDbEntity
  8
0
100
AcDbCircle
 10
577.556105
 20
1059.122203
 30
0.0
 40
16.5
100
AcDbArc
 50
291.323686
 51
18.819063
  0
ARC
  5
2DF7
100
AcDbEntity
  8
0
100
AcDbCircle
 10
577.556105
 20
1059.122203
 30
0.0
 40
16.5
100
AcDbArc
 50
161.180937
 51
248.676314
  0
POLYLINE
  5
2DF8
100
AcDbEntity
  8
0
100
AcDb2dPolyline
 66
     1
 10
0.0
 20
0.0
 30
0.0
 70
     1
  0
VERTEX
  5
4169
100
AcDbEntity
  8
0
100
AcDbVertex
100
AcDb2dVertex
 10
286.454735
 20
1052.77135
 30
0.0
  0
VERTEX
  5
416A
100
AcDbEntity
  8
0
100
AcDbVertex
100
AcDb2dVertex
 10
297.454735
 20
1046.420497
 30
0.0
  0
VERTEX
  5
416B
100
AcDbEntity
  8
0
100
AcDbVertex
100
AcDb2dVertex
 10
308.454735
 20
1052.77135
 30
0.0
  0
VERTEX
  5
416C
100
AcDbEntity
  8
0
100
AcDbVertex
100
AcDb2dVertex
 10
308.454735
 20
1065.473056
 30
0.0
  0
VERTEX
  5
416D
100
AcDbEntity
  8
0
100
AcDbVertex
100
AcDb2dVertex
 10
297.454735
 20
1071.823909
 30
0.0
  0
VERTEX
  5
416E
100
AcDbEntity
  8
0
100
AcDbVertex
100
AcDb2dVertex
 10
286.454735
 20
1065.473056
 30
0.0
  0
SEQEND
  5
416F
100
AcDbEntity
  8
0
  0
TEXT
  5
2DF9
100
AcDbEntity
  8
0
100
AcDbText
 10
142.562666
 20
1057.122203
 30
0.0
 40
25.0
  1
正面
100
AcDbText
  0
TEXT
  5
2DFB
100
AcDbEntity
  8
0
100
AcDbText
 10
394.562542
 20
976.586472
 30
0.0
 40
20.0
  1
10A
 41
0.8
 72
     4
 11
414.372066
 21
986.586472
 31
0.0
100
AcDbText
  0
LINE
  5
2DFC
100
AcDbEntity
  8
0
100
AcDbLine
 10
291.454735
 20
1041.622203
 30
0.0
 11
291.454735
 21
1043.751776
 31
0.0
  0
LINE
  5
2DFD
100
AcDbEntity
  8
0
100
AcDbLine
 10
291.454735
 20
1041.622203
 30
0.0
 11
293.954735
 21
1037.122203
 31
0.0
  0
LINE
  5
2DFE
100
AcDbEntity
  8
0
100
AcDbLine
 10
303.454735
 20
1041.622203
 30
0.0
 11
303.454735
 21
1043.751776
 31
0.0
  0
LINE
  5
2DFF
100
AcDbEntity
  8
0
100
AcDbLine
 10
303.454735
 20
1041.622203
 30
0.0
 11
300.954735
 21
1037.122203
 31
0.0
  0
LINE
  5
2E00
100
AcDbEntity
  8
0
100
AcDbLine
 10
303.454735
 20
1041.622203
 30
0.0
 11
291.454735
 21
1041.622203
 31
0.0
  0
LINE
  5
2E01
100
AcDbEntity
  8
0
100
AcDbLine
 10
300.954735
 20
1037.122203
 30
0.0
 11
293.954735
 21
1037.122203
 31
0.0
  0
LINE
  5
2E02
100
AcDbEntity
  8
0
100
AcDbLine
 10
432.563119
 20
1053.122203
 30
0.0
 11
413.063119
 21
1053.122203
 31
0.0
  0
ARC
  5
2E03
100
AcDbEntity
  8
0
100
AcDbCircle
 10
423.063119
 20
1042.122203
 30
0.0
 40
3.0
100
AcDbArc
 50
90.0
 51
180.0
  0
ARC
  5
2E04
100
AcDbEntity
  8
0
100
AcDbCircle
 10
413.063119
 20
1051.122203
 30
0.0
 40
2.0
100
AcDbArc
 50
90.0
 51
180.0
  0
LINE
  5
2E05
100
AcDbEntity
  8
0
100
AcDbLine
 10
420.063119
 20
1041.622203
 30
0.0
 11
420.063119
 21
1042.122203
 31
0.0
  0
LINE
  5
2E06
100
AcDbEntity
  8
0
100
AcDbLine
 10
420.063119
 20
1041.622203
 30
0.0
 11
417.563119
 21
1037.122203
 31
0.0
  0
LINE
  5
2E07
100
AcDbEntity
  8
0
100
AcDbLine
 10
408.063119
 20
1041.622203
 30
0.0
 11
408.063119
 21
1042.622203
 31
0.0
  0
ARC
  5
2E08
100
AcDbEntity
  8
0
100
AcDbCircle
 10
409.063119
 20
1044.622203
 30
0.0
 40
2.0
100
AcDbArc
 50
270.0
 51
0.0
  0
LINE
  5
2E09
100
AcDbEntity
  8
0
100
AcDbLine
 10
393.563119
 20
1046.420497
 30
0.0
 11
394.063119
 21
1042.622203
 31
0.0
  0
LINE
  5
2E0A
100
AcDbEntity
  8
0
100
AcDbLine
 10
409.063119
 20
1042.622203
 30
0.0
 11
394.063119
 21
1042.622203
 31
0.0
  0
LINE
  5
2E0B
100
AcDbEntity
  8
0
100
AcDbLine
 10
408.063119
 20
1041.622203
 30
0.0
 11
410.563119
 21
1037.122203
 31
0.0
  0
LINE
  5
2E0C
100
AcDbEntity
  8
0
100
AcDbLine
 10
417.563119
 20
1037.122203
 30
0.0
 11
410.563119
 21
1037.122203
 31
0.0
  0
LINE
  5
2E0D
100
AcDbEntity
  8
0
100
AcDbLine
 10
420.063119
 20
1041.622203
 30
0.0
 11
408.063119
 21
1041.622203
 31
0.0
  0
ARC
  5
2E0E
100
AcDbEntity
  8
0
100
AcDbCircle
 10
414.252546
 20
1028.840276
 30
0.0
 40
16.738012
100
AcDbArc
 50
72.069018
 51
100.984878
  0
ARC
  5
2E0F
100
AcDbEntity
  8
0
100
AcDbCircle
 10
398.104786
 20
1049.595923
 30
0.0
 40
5.541667
100
AcDbArc
 50
145.03966
 51
214.96034
  0
LINE
  5
2E10
100
AcDbEntity
  8
0
100
AcDbLine
 10
411.063119
 20
1051.122203
 30
0.0
 11
411.063119
 21
1044.622203
 31
0.0
  0
LINE
  5
2E11
100
AcDbEntity
  8
0
100
AcDbLine
 10
381.563119
 20
1048.122203
 30
0.0
 11
383.264825
 21
1046.420497
 31
0.0
  0
ARC
  5
2E12
100
AcDbEntity
  8
0
100
AcDbCircle
 10
385.376685
 20
1049.595923
 30
0.0
 40
3.813566
100
AcDbArc
 50
123.626429
 51
213.626429
  0
LINE
  5
2E13
100
AcDbEntity
  8
0
100
AcDbLine
 10
381.563119
 20
1059.122203
 30
0.0
 11
381.563119
 21
1048.122203
 31
0.0
  0
LINE
  5
2E14
100
AcDbEntity
  8
0
100
AcDbLine
 10
383.264825
 20
1046.420497
 30
0.0
 11
393.563119
 21
1046.420497
 31
0.0
  0
LINE
  5
2E15
100
AcDbEntity
  8
0
100
AcDbLine
 10
383.264825
 20
1052.77135
 30
0.0
 11
393.563119
 21
1052.77135
 31
0.0
  0
LINE
  5
2E16
100
AcDbEntity
  8
0
100
AcDbLine
 10
417.563119
 20
1037.122203
 30
0.0
 11
410.563119
 21
1037.122203
 31
0.0
  0
LINE
  5
2E17
100
AcDbEntity
  8
0
100
AcDbLine
 10
420.063119
 20
1041.622203
 30
0.0
 11
417.563119
 21
1037.122203
 31
0.0
  0
LINE
  5
2E18
100
AcDbEntity
  8
0
100
AcDbLine
 10
408.063119
 20
1041.622203
 30
0.0
 11
410.563119
 21
1037.122203
 31
0.0
  0
ARC
  5
2E19
100
AcDbEntity
  8
0
100
AcDbCircle
 10
432.563119
 20
1052.122203
 30
0.0
 40
1.0
100
AcDbArc
 50
0.0
 51
90.0
  0
ARC
  5
2E1A
100
AcDbEntity
  8
0
100
AcDbCircle
 10
431.563119
 20
1054.122203
 30
0.0
 40
1.0
100
AcDbArc
 50
270.0
 51
0.0
  0
LINE
  5
2E1B
100
AcDbEntity
  8
0
100
AcDbLine
 10
444.861413
 20
1052.77135
 30
0.0
 11
434.563119
 21
1052.77135
 31
0.0
  0
LINE
  5
2E1C
100
AcDbEntity
  8
0
100
AcDbLine
 10
446.563119
 20
1048.122203
 30
0.0
 11
444.861413
 21
1046.420497
 31
0.0
  0
LINE
  5
2E1D
100
AcDbEntity
  8
0
100
AcDbLine
 10
434.563119
 20
1046.420497
 30
0.0
 11
433.563119
 21
1045.122203
 31
0.0
  0
LINE
  5
2E1E
100
AcDbEntity
  8
0
100
AcDbLine
 10
433.563119
 20
1045.122203
 30
0.0
 11
423.063119
 21
1045.122203
 31
0.0
  0
LINE
  5
2E1F
100
AcDbEntity
  8
0
100
AcDbLine
 10
444.861413
 20
1046.420497
 30
0.0
 11
434.563119
 21
1046.420497
 31
0.0
  0
ARC
  5
2E20
100
AcDbEntity
  8
0
100
AcDbCircle
 10
442.749553
 20
1049.595923
 30
0.0
 40
3.813566
100
AcDbArc
 50
326.373571
 51
56.373571
  0
LINE
  5
2E21
100
AcDbEntity
  8
0
100
AcDbLine
 10
446.563119
 20
1059.122203
 30
0.0
 11
446.563119
 21
1048.122203
 31
0.0
  0
ARC
  5
2E22
100
AcDbEntity
  8
0
100
AcDbCircle
 10
430.021452
 20
1049.595923
 30
0.0
 40
5.541667
100
AcDbArc
 50
325.03966
 51
34.96034
  0
LINE
  5
2E23
100
AcDbEntity
  8
0
100
AcDbLine
 10
433.563119
 20
1052.122203
 30
0.0
 11
433.563119
 21
1045.122203
 31
0.0
  0
LINE
  5
2E24
100
AcDbEntity
  8
0
100
AcDbLine
 10
571.556105
 20
1041.622203
 30
0.0
 11
574.056105
 21
1037.122203
 31
0.0
  0
LINE
  5
2E25
100
AcDbEntity
  8
0
100
AcDbLine
 10
571.556105
 20
1041.622203
 30
0.0
 11
583.556105
 21
1041.622203
 31
0.0
  0
ARC
  5
2E26
100
AcDbEntity
  8
0
100
AcDbCircle
 10
577.556105
 20
1059.122203
 30
0.0
 40
14.0
100
AcDbArc
 50
210.0
 51
330.0
  0
ARC
  5
2E27
100
AcDbEntity
  8
0
100
AcDbCircle
 10
562.884705
 20
1054.122203
 30
0.0
 40
1.0
100
AcDbArc
 50
198.819063
 51
270.0
  0
ARC
  5
2E28
100
AcDbEntity
  8
0
100
AcDbCircle
 10
563.699699
 20
1051.122203
 30
0.0
 40
2.0
100
AcDbArc
 50
30.0
 51
90.0
  0
LINE
  5
2E29
100
AcDbEntity
  8
0
100
AcDbLine
 10
563.699699
 20
1053.122203
 30
0.0
 11
562.884705
 21
1053.122203
 31
0.0
  0
LINE
  5
2E2A
100
AcDbEntity
  8
0
100
AcDbLine
 10
571.556105
 20
1041.622203
 30
0.0
 11
571.556105
 21
1044.699997
 31
0.0
  0
ARC
  5
2E2B
100
AcDbEntity
  8
0
100
AcDbCircle
 10
568.556105
 20
1044.699997
 30
0.0
 40
3.0
100
AcDbArc
 50
0.0
 51
58.034281
  0
ARC
  5
2E2C
100
AcDbEntity
  8
0
100
AcDbCircle
 10
591.412512
 20
1051.122203
 30
0.0
 40
2.0
100
AcDbArc
 50
90.0
 51
150.0
  0
LINE
  5
2E2D
100
AcDbEntity
  8
0
100
AcDbLine
 10
591.412512
 20
1053.122203
 30
0.0
 11
592.227506
 21
1053.122203
 31
0.0
  0
ARC
  5
2E2E
100
AcDbEntity
  8
0
100
AcDbCircle
 10
592.227506
 20
1054.122203
 30
0.0
 40
1.0
100
AcDbArc
 50
270.0
 51
341.180937
  0
LINE
  5
2E2F
100
AcDbEntity
  8
0
100
AcDbLine
 10
574.056105
 20
1037.122203
 30
0.0
 11
581.056105
 21
1037.122203
 31
0.0
  0
LINE
  5
2E30
100
AcDbEntity
  8
0
100
AcDbLine
 10
583.556105
 20
1041.622203
 30
0.0
 11
581.056105
 21
1037.122203
 31
0.0
  0
LINE
  5
2E31
100
AcDbEntity
  8
0
100
AcDbLine
 10
583.556105
 20
1041.622203
 30
0.0
 11
583.556105
 21
1044.699997
 31
0.0
  0
ARC
  5
2E32
100
AcDbEntity
  8
0
100
AcDbCircle
 10
586.556105
 20
1044.699997
 30
0.0
 40
3.0
100
AcDbArc
 50
121.965719
 51
180.0
  0
LINE
  5
2E33
100
AcDbEntity
  8
0
100
AcDbLine
 10
441.563119
 20
1116.622203
 30
0.0
 11
520.066119
 21
1119.119176
 31
0.0
  0
LINE
  5
2E34
100
AcDbEntity
  8
0
100
AcDbLine
 10
520.066119
 20
1125.122203
 30
0.0
 11
450.063119
 21
1125.122203
 31
0.0
  0
LINE
  5
2E35
100
AcDbEntity
  8
0
100
AcDbLine
 10
448.563119
 20
1252.386471
 30
0.0
 11
514.203119
 21
1254.726471
 31
0.0
  0
LINE
  5
2E36
100
AcDbEntity
  8
0
100
AcDbLine
 10
514.203119
 20
1238.056471
 30
0.0
 11
448.563119
 21
1240.386471
 31
0.0
  0
TEXT
  5
2E37
100
AcDbEntity
  8
0
100
AcDbText
 10
142.562666
 20
1244.577527
 30
0.0
 40
25.0
  1
平面
100
AcDbText
  0
ELLIPSE
  5
2E38
100
AcDbEntity
  8
0
100
AcDbEllipse
 10
297.454735
 20
1114.215128
 30
0.0
 11
-4.75
 21
0.0
 31
0.0
210
0.0
220
0.0
230
1.0
 40
0.440295
 41
0.0
 42
6.283185307179586
  0
LINE
  5
2E39
100
AcDbEntity
  8
0
100
AcDbLine
 10
303.454735
 20
1116.622203
 30
0.0
 11
305.794735
 21
1116.622203
 31
0.0
  0
LINE
  5
2E3A
100
AcDbEntity
  8
0
100
AcDbLine
 10
303.454735
 20
1123.622203
 30
0.0
 11
291.454735
 21
1123.622203
 31
0.0
  0
LINE
  5
2E3B
100
AcDbEntity
  8
0
100
AcDbLine
 10
278.454735
 20
1104.622203
 30
0.0
 11
316.454735
 21
1104.622203
 31
0.0
  0
LINE
  5
2E3C
100
AcDbEntity
  8
0
100
AcDbLine
 10
289.124735
 20
1125.122203
 30
0.0
 11
305.794735
 21
1125.122203
 31
0.0
  0
LINE
  5
2E3D
100
AcDbEntity
  8
0
100
AcDbLine
 10
289.124735
 20
1125.122203
 30
0.0
 11
289.124735
 21
1116.622203
 31
0.0
  0
LINE
  5
2E3E
100
AcDbEntity
  8
0
100
AcDbLine
 10
289.124735
 20
1116.622203
 30
0.0
 11
291.454735
 21
1116.622203
 31
0.0
  0
LINE
  5
2E3F
100
AcDbEntity
  8
0
100
AcDbLine
 10
305.794735
 20
1125.122203
 30
0.0
 11
305.794735
 21
1116.622203
 31
0.0
  0
LINE
  5
2E40
100
AcDbEntity
  8
0
100
AcDbLine
 10
291.454735
 20
1104.622203
 30
0.0
 11
291.454735
 21
1123.622203
 31
0.0
  0
LINE
  5
2E41
100
AcDbEntity
  8
0
100
AcDbLine
 10
303.454735
 20
1104.622203
 30
0.0
 11
303.454735
 21
1123.622203
 31
0.0
  0
LINE
  5
2E42
100
AcDbEntity
  8
0
100
AcDbLine
 10
316.454735
 20
1083.122203
 30
0.0
 11
278.454735
 21
1083.122203
 31
0.0
  0
LINE
  5
2E43
100
AcDbEntity
  8
0
100
AcDbLine
 10
278.454735
 20
1104.622203
 30
0.0
 11
278.454735
 21
1083.122203
 31
0.0
  0
LINE
  5
2E44
100
AcDbEntity
  8
0
100
AcDbLine
 10
316.454735
 20
1083.122203
 30
0.0
 11
316.454735
 21
1104.622203
 31
0.0
  0
LINE
  5
2E45
100
AcDbEntity
  8
0
100
AcDbLine
 10
281.454735
 20
1083.122203
 30
0.0
 11
281.454735
 21
1063.153331
 31
0.0
  0
LINE
  5
2E46
100
AcDbEntity
  8
0
100
AcDbLine
 10
313.454735
 20
1083.122203
 30
0.0
 11
313.454735
 21
1063.153331
 31
0.0
  0
LINE
  5
2E47
100
AcDbEntity
  8
0
100
AcDbLine
 10
397.150119
 20
1104.622203
 30
0.0
 11
433.063119
 21
1104.622203
 31
0.0
  0
ARC
  5
2E48
100
AcDbEntity
  8
0
100
AcDbCircle
 10
517.178317
 20
886.459062
 30
0.0
 40
250.011139
100
AcDbArc
 50
108.448171
 51
119.238035
  0
LINE
  5
2E49
100
AcDbEntity
  8
0
100
AcDbLine
 10
433.063119
 20
1083.122203
 30
0.0
 11
395.063119
 21
1083.122203
 31
0.0
  0
ARC
  5
2E4A
100
AcDbEntity
  8
0
100
AcDbCircle
 10
414.073241
 20
1093.403547
 30
0.0
 40
25.82652
100
AcDbArc
 50
263.306873
 51
308.252361
  0
LINE
  5
2E4B
100
AcDbEntity
  8
0
100
AcDbLine
 10
432.563119
 20
1065.122203
 30
0.0
 11
413.063119
 21
1065.122203
 31
0.0
  0
LINE
  5
2E4C
100
AcDbEntity
  8
0
100
AcDbLine
 10
398.063119
 20
1075.622203
 30
0.0
 11
394.063119
 21
1075.622203
 31
0.0
  0
LINE
  5
2E4D
100
AcDbEntity
  8
0
100
AcDbLine
 10
398.063119
 20
1083.122203
 30
0.0
 11
398.063119
 21
1075.622203
 31
0.0
  0
ARC
  5
2E4E
100
AcDbEntity
  8
0
100
AcDbCircle
 10
413.063119
 20
1067.122203
 30
0.0
 40
2.0
100
AcDbArc
 50
180.0
 51
270.0
  0
LINE
  5
2E4F
100
AcDbEntity
  8
0
100
AcDbLine
 10
411.063119
 20
1071.580505
 30
0.0
 11
411.063119
 21
1067.122203
 31
0.0
  0
ARC
  5
2E50
100
AcDbEntity
  8
0
100
AcDbCircle
 10
398.104786
 20
1068.648482
 30
0.0
 40
5.541667
100
AcDbArc
 50
145.03966
 51
214.96034
  0
LINE
  5
2E51
100
AcDbEntity
  8
0
100
AcDbLine
 10
394.063119
 20
1075.622203
 30
0.0
 11
393.563119
 21
1071.823909
 31
0.0
  0
ARC
  5
2E52
100
AcDbEntity
  8
0
100
AcDbCircle
 10
412.057807
 20
1097.707793
 30
0.0
 40
26.146215
100
AcDbArc
 50
237.639324
 51
267.819754
  0
LINE
  5
2E53
100
AcDbEntity
  8
0
100
AcDbLine
 10
381.563119
 20
1070.122203
 30
0.0
 11
383.264825
 21
1071.823909
 31
0.0
  0
ARC
  5
2E54
100
AcDbEntity
  8
0
100
AcDbCircle
 10
385.376685
 20
1068.648482
 30
0.0
 40
3.813566
100
AcDbArc
 50
146.373571
 51
236.373571
  0
LINE
  5
2E55
100
AcDbEntity
  8
0
100
AcDbLine
 10
383.264825
 20
1071.823909
 30
0.0
 11
393.563119
 21
1071.823909
 31
0.0
  0
LINE
  5
2E56
100
AcDbEntity
  8
0
100
AcDbLine
 10
383.264825
 20
1065.473056
 30
0.0
 11
393.563119
 21
1065.473056
 31
0.0
  0
LINE
  5
2E57
100
AcDbEntity
  8
0
100
AcDbLine
 10
395.063119
 20
1104.618289
 30
0.0
 11
395.063119
 21
1083.122203
 31
0.0
  0
LINE
  5
2E58
100
AcDbEntity
  8
0
100
AcDbLine
 10
448.563119
 20
1123.622203
 30
0.0
 11
438.063119
 21
1123.622203
 31
0.0
  0
LINE
  5
2E59
100
AcDbEntity
  8
0
100
AcDbLine
 10
450.063119
 20
1125.122203
 30
0.0
 11
433.063119
 21
1108.124311
 31
0.0
  0
LINE
  5
2E5A
100
AcDbEntity
  8
0
100
AcDbLine
 10
446.563119
 20
1070.122203
 30
0.0
 11
444.861413
 21
1071.823909
 31
0.0
  0
ARC
  5
2E5B
100
AcDbEntity
  8
0
100
AcDbCircle
 10
442.749553
 20
1068.648482
 30
0.0
 40
3.813566
100
AcDbArc
 50
303.626429
 51
33.626429
  0
LINE
  5
2E5C
100
AcDbEntity
  8
0
100
AcDbLine
 10
433.563119
 20
1073.122203
 30
0.0
 11
430.063119
 21
1073.122203
 31
0.0
  0
LINE
  5
2E5D
100
AcDbEntity
  8
0
100
AcDbLine
 10
433.563119
 20
1073.122203
 30
0.0
 11
434.563119
 21
1071.823909
 31
0.0
  0
ARC
  5
2E5E
100
AcDbEntity
  8
0
100
AcDbCircle
 10
432.563119
 20
1066.122203
 30
0.0
 40
1.0
100
AcDbArc
 50
270.0
 51
0.0
  0
ARC
  5
2E5F
100
AcDbEntity
  8
0
100
AcDbCircle
 10
431.563119
 20
1064.122203
 30
0.0
 40
1.0
100
AcDbArc
 50
0.0
 51
90.0
  0
ARC
  5
2E60
100
AcDbEntity
  8
0
100
AcDbCircle
 10
430.021452
 20
1068.648482
 30
0.0
 40
5.541667
100
AcDbArc
 50
325.03966
 51
34.96034
  0
LINE
  5
2E61
100
AcDbEntity
  8
0
100
AcDbLine
 10
433.563119
 20
1073.122203
 30
0.0
 11
433.563119
 21
1066.122203
 31
0.0
  0
LINE
  5
2E62
100
AcDbEntity
  8
0
100
AcDbLine
 10
430.063119
 20
1083.122203
 30
0.0
 11
430.063119
 21
1073.122203
 31
0.0
  0
LINE
  5
2E63
100
AcDbEntity
  8
0
100
AcDbLine
 10
444.861413
 20
1071.823909
 30
0.0
 11
434.563119
 21
1071.823909
 31
0.0
  0
LINE
  5
2E64
100
AcDbEntity
  8
0
100
AcDbLine
 10
444.861413
 20
1065.473056
 30
0.0
 11
434.563119
 21
1065.473056
 31
0.0
  0
LINE
  5
2E65
100
AcDbEntity
  8
0
100
AcDbLine
 10
433.063119
 20
1083.122203
 30
0.0
 11
433.063119
 21
1108.124311
 31
0.0
  0
LINE
  5
2E66
100
AcDbEntity
  8
0
100
AcDbLine
 10
436.232119
 20
1257.386471
 30
0.0
 11
432.728119
 21
1262.886471
 31
0.0
  0
LINE
  5
2E67
100
AcDbEntity
  8
0
100
AcDbLine
 10
436.232119
 20
1257.386471
 30
0.0
 11
433.183119
 21
1260.386471
 31
0.0
  0
ARC
  5
2E68
100
AcDbEntity
  8
0
100
AcDbCircle
 10
423.985322
 20
1251.457059
 30
0.0
 40
12.270047
100
AcDbArc
 50
4.344106
 51
38.685966
  0
LINE
  5
2E69
100
AcDbEntity
  8
0
100
AcDbLine
 10
393.56433
 20
1257.386471
 30
0.0
 11
394.563014
 21
1262.886471
 31
0.0
  0
LINE
  5
2E6A
100
AcDbEntity
  8
0
100
AcDbLine
 10
397.063119
 20
1254.876471
 30
0.0
 11
397.063119
 21
1262.886471
 31
0.0
  0
ARC
  5
2E6B
100
AcDbEntity
  8
0
100
AcDbCircle
 10
414.063119
 20
1246.386471
 30
0.0
 40
19.000231
100
AcDbArc
 50
18.408248
 51
341.591752
  0
LINE
  5
2E6C
100
AcDbEntity
  8
0
100
AcDbLine
 10
394.563119
 20
1260.146471
 30
0.0
 11
394.563119
 21
1232.626471
 31
0.0
  0
LINE
  5
2E6D
100
AcDbEntity
  8
0
100
AcDbLine
 10
396.035119
 20
1252.386471
 30
0.0
 11
448.563119
 21
1252.386471
 31
0.0
  0
LINE
  5
2E6E
100
AcDbEntity
  8
0
100
AcDbLine
 10
396.035119
 20
1240.386471
 30
0.0
 11
448.563119
 21
1240.386471
 31
0.0
  0
ARC
  5
2E6F
100
AcDbEntity
  8
0
100
AcDbCircle
 10
401.816248
 20
1251.886471
 30
0.0
 40
9.917869
100
AcDbArc
 50
146.319958
 51
213.680042
  0
CIRCLE
  5
2E70
100
AcDbEntity
  8
0
100
AcDbCircle
 10
414.063119
 20
1246.386471
 30
0.0
 40
4.74998
  0
LINE
  5
2E71
100
AcDbEntity
  8
0
100
AcDbLine
 10
404.642119
 20
1229.886471
 30
0.0
 11
394.563014
 21
1229.886471
 31
0.0
  0
LINE
  5
2E72
100
AcDbEntity
  8
0
100
AcDbLine
 10
397.063119
 20
1229.886471
 30
0.0
 11
397.063119
 21
1237.906471
 31
0.0
  0
LINE
  5
2E73
100
AcDbEntity
  8
0
100
AcDbLine
 10
394.563014
 20
1229.886471
 30
0.0
 11
393.56433
 21
1235.386471
 31
0.0
  0
ARC
  5
2E74
100
AcDbEntity
  8
0
100
AcDbCircle
 10
401.816248
 20
1240.886471
 30
0.0
 40
9.917869
100
AcDbArc
 50
146.319958
 51
213.680042
  0
LINE
  5
2E75
100
AcDbEntity
  8
0
100
AcDbLine
 10
381.563119
 20
1246.386471
 30
0.0
 11
381.563119
 21
1257.386471
 31
0.0
  0
ARC
  5
2E76
100
AcDbEntity
  8
0
100
AcDbCircle
 10
391.300723
 20
1251.886471
 30
0.0
 40
9.737604
100
AcDbArc
 50
145.610161
 51
214.389839
  0
ARC
  5
2E77
100
AcDbEntity
  8
0
100
AcDbCircle
 10
391.300723
 20
1240.886471
 30
0.0
 40
9.737604
100
AcDbArc
 50
145.610161
 51
214.389839
  0
LINE
  5
2E78
100
AcDbEntity
  8
0
100
AcDbLine
 10
381.563119
 20
1235.386471
 30
0.0
 11
381.563119
 21
1246.386471
 31
0.0
  0
LINE
  5
2E79
100
AcDbEntity
  8
0
100
AcDbLine
 10
381.563119
 20
1257.386471
 30
0.0
 11
393.56433
 21
1257.386471
 31
0.0
  0
LINE
  5
2E7A
100
AcDbEntity
  8
0
100
AcDbLine
 10
393.563119
 20
1235.386471
 30
0.0
 11
381.563119
 21
1235.386471
 31
0.0
  0
LINE
  5
2E7B
100
AcDbEntity
  8
0
100
AcDbLine
 10
383.265119
 20
1246.386471
 30
0.0
 11
392.541119
 21
1246.386471
 31
0.0
  0
LINE
  5
2E7C
100
AcDbEntity
  8
0
100
AcDbLine
 10
446.563119
 20
1257.386471
 30
0.0
 11
446.563119
 21
1252.386471
 31
0.0
  0
ARC
  5
2E7D
100
AcDbEntity
  8
0
100
AcDbCircle
 10
436.602264
 20
1251.785476
 30
0.0
 40
9.97897
100
AcDbArc
 50
3.452793
 51
34.144356
  0
LINE
  5
2E7E
100
AcDbEntity
  8
0
100
AcDbLine
 10
436.232119
 20
1257.386471
 30
0.0
 11
446.563119
 21
1257.386471
 31
0.0
  0
LINE
  5
2E7F
100
AcDbEntity
  8
0
100
AcDbLine
 10
446.563119
 20
1240.386471
 30
0.0
 11
446.563119
 21
1235.386471
 31
0.0
  0
ARC
  5
2E80
100
AcDbEntity
  8
0
100
AcDbCircle
 10
436.602264
 20
1240.987465
 30
0.0
 40
9.97897
100
AcDbArc
 50
325.855644
 51
356.547207
  0
LINE
  5
2E81
100
AcDbEntity
  8
0
100
AcDbLine
 10
436.232119
 20
1235.386471
 30
0.0
 11
433.183119
 21
1232.386471
 31
0.0
  0
ARC
  5
2E82
100
AcDbEntity
  8
0
100
AcDbCircle
 10
423.985322
 20
1241.315882
 30
0.0
 40
12.270047
100
AcDbArc
 50
321.314034
 51
355.655894
  0
LINE
  5
2E83
100
AcDbEntity
  8
0
100
AcDbLine
 10
426.908119
 20
1232.386471
 30
0.0
 11
433.183119
 21
1232.386471
 31
0.0
  0
LINE
  5
2E84
100
AcDbEntity
  8
0
100
AcDbLine
 10
432.728119
 20
1229.886471
 30
0.0
 11
423.484119
 21
1229.886471
 31
0.0
  0
LINE
  5
2E85
100
AcDbEntity
  8
0
100
AcDbLine
 10
436.232119
 20
1235.386471
 30
0.0
 11
432.728119
 21
1229.886471
 31
0.0
  0
LINE
  5
2E86
100
AcDbEntity
  8
0
100
AcDbLine
 10
446.563119
 20
1235.386471
 30
0.0
 11
436.232119
 21
1235.386471
 31
0.0
  0
LINE
  5
2E87
100
AcDbEntity
  8
0
100
AcDbLine
 10
450.063119
 20
1252.439944
 30
0.0
 11
450.063119
 21
1240.333226
 31
0.0
  0
LINE
  5
2E88
100
AcDbEntity
  8
0
100
AcDbLine
 10
394.563014
 20
1262.886471
 30
0.0
 11
404.642119
 21
1262.886471
 31
0.0
  0
LINE
  5
2E89
100
AcDbEntity
  8
0
100
AcDbLine
 10
426.908119
 20
1260.386471
 30
0.0
 11
433.183119
 21
1260.386471
 31
0.0
  0
LINE
  5
2E8A
100
AcDbEntity
  8
0
100
AcDbLine
 10
423.484119
 20
1262.886471
 30
0.0
 11
432.728119
 21
1262.886471
 31
0.0
  0
TEXT
  5
2E8B
100
AcDbEntity
  8
0
100
AcDbText
 10
142.562666
 20
1408.220191
 30
0.0
 40
25.0
  1
背面
100
AcDbText
  0
LINE
  5
2E8C
100
AcDbEntity
  8
0
100
AcDbLine
 10
395.063119
 20
1434.220191
 30
0.0
 11
395.063119
 21
1459.2223
 31
0.0
  0
LINE
  5
2E8D
100
AcDbEntity
  8
0
100
AcDbLine
 10
433.063119
 20
1455.716277
 30
0.0
 11
433.063119
 21
1434.220191
 31
0.0
  0
LINE
  5
2E8E
100
AcDbEntity
  8
0
100
AcDbLine
 10
420.063119
 20
1392.720191
 30
0.0
 11
417.563119
 21
1388.220191
 31
0.0
  0
LINE
  5
2E8F
100
AcDbEntity
  8
0
100
AcDbLine
 10
408.063119
 20
1392.720191
 30
0.0
 11
410.563119
 21
1388.220191
 31
0.0
  0
LINE
  5
2E90
100
AcDbEntity
  8
0
100
AcDbLine
 10
410.563119
 20
1388.220191
 30
0.0
 11
417.563119
 21
1388.220191
 31
0.0
  0
LINE
  5
2E91
100
AcDbEntity
  8
0
100
AcDbLine
 10
395.063119
 20
1434.220191
 30
0.0
 11
433.063119
 21
1434.220191
 31
0.0
  0
ARC
  5
2E92
100
AcDbEntity
  8
0
100
AcDbCircle
 10
416.068431
 20
1448.805781
 30
0.0
 40
26.146215
100
AcDbArc
 50
272.180246
 51
302.360676
  0
LINE
  5
2E93
100
AcDbEntity
  8
0
100
AcDbLine
 10
419.063119
 20
1393.720191
 30
0.0
 11
434.063119
 21
1393.720191
 31
0.0
  0
ARC
  5
2E94
100
AcDbEntity
  8
0
100
AcDbCircle
 10
415.063119
 20
1418.220191
 30
0.0
 40
2.0
100
AcDbArc
 50
270.0
 51
360.0
  0
LINE
  5
2E95
100
AcDbEntity
  8
0
100
AcDbLine
 10
417.063119
 20
1422.678493
 30
0.0
 11
417.063119
 21
1418.220191
 31
0.0
  0
ARC
  5
2E96
100
AcDbEntity
  8
0
100
AcDbCircle
 10
415.063119
 20
1402.220191
 30
0.0
 40
2.0
100
AcDbArc
 50
0.0
 51
90.0
  0
LINE
  5
2E97
100
AcDbEntity
  8
0
100
AcDbLine
 10
394.563119
 20
1424.220191
 30
0.0
 11
393.563119
 21
1422.921897
 31
0.0
  0
LINE
  5
2E98
100
AcDbEntity
  8
0
100
AcDbLine
 10
394.563119
 20
1424.220191
 30
0.0
 11
398.063119
 21
1424.220191
 31
0.0
  0
ARC
  5
2E99
100
AcDbEntity
  8
0
100
AcDbCircle
 10
396.563119
 20
1415.220191
 30
0.0
 40
1.0
100
AcDbArc
 50
90.0
 51
180.0
  0
ARC
  5
2E9A
100
AcDbEntity
  8
0
100
AcDbCircle
 10
395.563119
 20
1417.220191
 30
0.0
 40
1.0
100
AcDbArc
 50
180.0
 51
270.0
  0
LINE
  5
2E9B
100
AcDbEntity
  8
0
100
AcDbLine
 10
394.563119
 20
1424.220191
 30
0.0
 11
394.563119
 21
1417.220191
 31
0.0
  0
ARC
  5
2E9C
100
AcDbEntity
  8
0
100
AcDbCircle
 10
398.104786
 20
1419.74647
 30
0.0
 40
5.541667
100
AcDbArc
 50
145.03966
 51
214.96034
  0
ARC
  5
2E9D
100
AcDbEntity
  8
0
100
AcDbCircle
 10
396.563119
 20
1405.220191
 30
0.0
 40
1.0
100
AcDbArc
 50
180.0
 51
270.0
  0
ARC
  5
2E9E
100
AcDbEntity
  8
0
100
AcDbCircle
 10
395.563119
 20
1403.220191
 30
0.0
 40
1.0
100
AcDbArc
 50
90.0
 51
180.0
  0
ARC
  5
2E9F
100
AcDbEntity
  8
0
100
AcDbCircle
 10
413.229786
 20
1410.220191
 30
0.0
 40
20.666667
100
AcDbArc
 50
162.103449
 51
197.896551
  0
LINE
  5
2EA0
100
AcDbEntity
  8
0
100
AcDbLine
 10
395.563119
 20
1415.220191
 30
0.0
 11
395.563119
 21
1405.220191
 31
0.0
  0
LINE
  5
2EA1
100
AcDbEntity
  8
0
100
AcDbLine
 10
395.563119
 20
1416.220191
 30
0.0
 11
415.063119
 21
1416.220191
 31
0.0
  0
LINE
  5
2EA2
100
AcDbEntity
  8
0
100
AcDbLine
 10
395.563119
 20
1404.220191
 30
0.0
 11
415.063119
 21
1404.220191
 31
0.0
  0
ARC
  5
2EA3
100
AcDbEntity
  8
0
100
AcDbCircle
 10
414.052997
 20
1444.501535
 30
0.0
 40
25.82652
100
AcDbArc
 50
231.747639
 51
276.693127
  0
LINE
  5
2EA4
100
AcDbEntity
  8
0
100
AcDbLine
 10
398.063119
 20
1434.220191
 30
0.0
 11
398.063119
 21
1424.220191
 31
0.0
  0
LINE
  5
2EA5
100
AcDbEntity
  8
0
100
AcDbLine
 10
381.563119
 20
1421.220191
 30
0.0
 11
383.264825
 21
1422.921897
 31
0.0
  0
ARC
  5
2EA6
100
AcDbEntity
  8
0
100
AcDbCircle
 10
385.376685
 20
1419.74647
 30
0.0
 40
3.813566
100
AcDbArc
 50
146.373571
 51
236.373571
  0
LINE
  5
2EA7
100
AcDbEntity
  8
0
100
AcDbLine
 10
381.563119
 20
1421.220191
 30
0.0
 11
381.563119
 21
1410.220191
 31
0.0
  0
ARC
  5
2EA8
100
AcDbEntity
  8
0
100
AcDbCircle
 10
394.264825
 20
1410.220191
 30
0.0
 40
12.701706
100
AcDbArc
 50
150.0
 51
210.0
  0
LINE
  5
2EA9
100
AcDbEntity
  8
0
100
AcDbLine
 10
383.264825
 20
1403.869338
 30
0.0
 11
393.563119
 21
1403.869338
 31
0.0
  0
LINE
  5
2EAA
100
AcDbEntity
  8
0
100
AcDbLine
 10
383.264825
 20
1416.571044
 30
0.0
 11
393.563119
 21
1416.571044
 31
0.0
  0
LINE
  5
2EAB
100
AcDbEntity
  8
0
100
AcDbLine
 10
383.264825
 20
1422.921897
 30
0.0
 11
393.563119
 21
1422.921897
 31
0.0
  0
LINE
  5
2EAC
100
AcDbEntity
  8
0
100
AcDbLine
 10
420.063119
 20
1392.720191
 30
0.0
 11
420.063119
 21
1393.720191
 31
0.0
  0
ARC
  5
2EAD
100
AcDbEntity
  8
0
100
AcDbCircle
 10
419.063119
 20
1395.720191
 30
0.0
 40
2.0
100
AcDbArc
 50
180.0
 51
270.0
  0
LINE
  5
2EAE
100
AcDbEntity
  8
0
100
AcDbLine
 10
408.063119
 20
1392.720191
 30
0.0
 11
408.063119
 21
1393.220191
 31
0.0
  0
ARC
  5
2EAF
100
AcDbEntity
  8
0
100
AcDbCircle
 10
405.063119
 20
1393.220191
 30
0.0
 40
3.0
100
AcDbArc
 50
0.0
 51
90.0
  0
LINE
  5
2EB0
100
AcDbEntity
  8
0
100
AcDbLine
 10
393.563119
 20
1397.518485
 30
0.0
 11
394.563119
 21
1396.220191
 31
0.0
  0
LINE
  5
2EB1
100
AcDbEntity
  8
0
100
AcDbLine
 10
394.563119
 20
1396.220191
 30
0.0
 11
405.063119
 21
1396.220191
 31
0.0
  0
ARC
  5
2EB2
100
AcDbEntity
  8
0
100
AcDbCircle
 10
413.873692
 20
1379.938264
 30
0.0
 40
16.738012
100
AcDbArc
 50
79.015122
 51
107.930982
  0
LINE
  5
2EB3
100
AcDbEntity
  8
0
100
AcDbLine
 10
408.063119
 20
1392.720191
 30
0.0
 11
420.063119
 21
1392.720191
 31
0.0
  0
LINE
  5
2EB4
100
AcDbEntity
  8
0
100
AcDbLine
 10
381.563119
 20
1399.220191
 30
0.0
 11
383.264825
 21
1397.518485
 31
0.0
  0
LINE
  5
2EB5
100
AcDbEntity
  8
0
100
AcDbLine
 10
383.264825
 20
1397.518485
 30
0.0
 11
393.563119
 21
1397.518485
 31
0.0
  0
LINE
  5
2EB6
100
AcDbEntity
  8
0
100
AcDbLine
 10
394.563119
 20
1403.220191
 30
0.0
 11
394.563119
 21
1396.220191
 31
0.0
  0
ARC
  5
2EB7
100
AcDbEntity
  8
0
100
AcDbCircle
 10
398.104786
 20
1400.693912
 30
0.0
 40
5.541667
100
AcDbArc
 50
145.03966
 51
214.96034
  0
LINE
  5
2EB8
100
AcDbEntity
  8
0
100
AcDbLine
 10
417.063119
 20
1402.220191
 30
0.0
 11
417.063119
 21
1395.720191
 31
0.0
  0
LINE
  5
2EB9
100
AcDbEntity
  8
0
100
AcDbLine
 10
381.563119
 20
1410.220191
 30
0.0
 11
381.563119
 21
1399.220191
 31
0.0
  0
ARC
  5
2EBA
100
AcDbEntity
  8
0
100
AcDbCircle
 10
385.376685
 20
1400.693912
 30
0.0
 40
3.813566
100
AcDbArc
 50
123.626429
 51
213.626429
  0
LINE
  5
2EBB
100
AcDbEntity
  8
0
100
AcDbLine
 10
446.563119
 20
1421.220191
 30
0.0
 11
444.861413
 21
1422.921897
 31
0.0
  0
ARC
  5
2EBC
100
AcDbEntity
  8
0
100
AcDbCircle
 10
442.749553
 20
1419.74647
 30
0.0
 40
3.813566
100
AcDbArc
 50
303.626429
 51
33.626429
  0
LINE
  5
2EBD
100
AcDbEntity
  8
0
100
AcDbLine
 10
446.563119
 20
1421.220191
 30
0.0
 11
446.563119
 21
1410.220191
 31
0.0
  0
ARC
  5
2EBE
100
AcDbEntity
  8
0
100
AcDbCircle
 10
433.861413
 20
1410.220191
 30
0.0
 40
12.701706
100
AcDbArc
 50
330.0
 51
30.0
  0
LINE
  5
2EBF
100
AcDbEntity
  8
0
100
AcDbLine
 10
446.563119
 20
1399.220191
 30
0.0
 11
444.861413
 21
1397.518485
 31
0.0
  0
LINE
  5
2EC0
100
AcDbEntity
  8
0
100
AcDbLine
 10
446.563119
 20
1410.220191
 30
0.0
 11
446.563119
 21
1399.220191
 31
0.0
  0
ARC
  5
2EC1
100
AcDbEntity
  8
0
100
AcDbCircle
 10
442.749553
 20
1400.693912
 30
0.0
 40
3.813566
100
AcDbArc
 50
326.373571
 51
56.373571
  0
LINE
  5
2EC2
100
AcDbEntity
  8
0
100
AcDbLine
 10
430.063119
 20
1426.720191
 30
0.0
 11
434.063119
 21
1426.720191
 31
0.0
  0
LINE
  5
2EC3
100
AcDbEntity
  8
0
100
AcDbLine
 10
430.063119
 20
1434.220191
 30
0.0
 11
430.063119
 21
1426.720191
 31
0.0
  0
ARC
  5
2EC4
100
AcDbEntity
  8
0
100
AcDbCircle
 10
430.021452
 20
1419.74647
 30
0.0
 40
5.541667
100
AcDbArc
 50
325.03966
 51
34.96034
  0
ARC
  5
2EC5
100
AcDbEntity
  8
0
100
AcDbCircle
 10
414.896452
 20
1410.220191
 30
0.0
 40
20.666667
100
AcDbArc
 50
342.103449
 51
17.896551
  0
LINE
  5
2EC6
100
AcDbEntity
  8
0
100
AcDbLine
 10
434.063119
 20
1426.720191
 30
0.0
 11
434.563119
 21
1422.921897
 31
0.0
  0
LINE
  5
2EC7
100
AcDbEntity
  8
0
100
AcDbLine
 10
434.563119
 20
1397.518485
 30
0.0
 11
434.063119
 21
1393.720191
 31
0.0
  0
LINE
  5
2EC8
100
AcDbEntity
  8
0
100
AcDbLine
 10
434.063119
 20
1426.720191
 30
0.0
 11
434.063119
 21
1393.720191
 31
0.0
  0
LINE
  5
2EC9
100
AcDbEntity
  8
0
100
AcDbLine
 10
431.063119
 20
1426.720191
 30
0.0
 11
431.063119
 21
1393.720191
 31
0.0
  0
ARC
  5
2ECA
100
AcDbEntity
  8
0
100
AcDbCircle
 10
430.021452
 20
1400.693912
 30
0.0
 40
5.541667
100
AcDbArc
 50
325.03966
 51
34.96034
  0
LINE
  5
2ECB
100
AcDbEntity
  8
0
100
AcDbLine
 10
444.861413
 20
1403.869338
 30
0.0
 11
434.563119
 21
1403.869338
 31
0.0
  0
LINE
  5
2ECC
100
AcDbEntity
  8
0
100
AcDbLine
 10
444.861413
 20
1416.571044
 30
0.0
 11
434.563119
 21
1416.571044
 31
0.0
  0
LINE
  5
2ECD
100
AcDbEntity
  8
0
100
AcDbLine
 10
444.861413
 20
1422.921897
 30
0.0
 11
434.563119
 21
1422.921897
 31
0.0
  0
LINE
  5
2ECE
100
AcDbEntity
  8
0
100
AcDbLine
 10
444.861413
 20
1397.518485
 30
0.0
 11
434.563119
 21
1397.518485
 31
0.0
  0
LINE
  5
2ECF
100
AcDbEntity
  8
0
100
AcDbLine
 10
308.060119
 20
1476.220191
 30
0.0
 11
378.063119
 21
1476.220191
 31
0.0
  0
LINE
  5
2ED0
100
AcDbEntity
  8
0
100
AcDbLine
 10
386.563119
 20
1467.720191
 30
0.0
 11
308.060119
 21
1470.217165
 31
0.0
  0
LINE
  5
2ED1
100
AcDbEntity
  8
0
100
AcDbLine
 10
308.060119
 20
1470.217165
 30
0.0
 11
308.060119
 21
1476.220191
 31
0.0
  0
LINE
  5
2ED2
100
AcDbEntity
  8
0
100
AcDbLine
 10
430.976119
 20
1455.720191
 30
0.0
 11
395.063119
 21
1455.720191
 31
0.0
  0
ARC
  5
2ED3
100
AcDbEntity
  8
0
100
AcDbCircle
 10
310.947921
 20
1237.55705
 30
0.0
 40
250.011139
100
AcDbArc
 50
60.761965
 51
71.551829
  0
LINE
  5
2ED4
100
AcDbEntity
  8
0
100
AcDbLine
 10
378.063119
 20
1476.220191
 30
0.0
 11
395.063119
 21
1459.2223
 31
0.0
  0
LINE
  5
2ED5
100
AcDbEntity
  8
0
100
AcDbLine
 10
379.563119
 20
1474.720191
 30
0.0
 11
390.063119
 21
1474.720191
 31
0.0
  0
LINE
  5
2ED6
100
AcDbEntity
  8
0
100
AcDbLine
 10
569.226105
 20
1116.622203
 30
0.0
 11
585.896105
 21
1116.622203
 31
0.0
  0
LINE
  5
2ED7
100
AcDbEntity
  8
0
100
AcDbLine
 10
558.556105
 20
1104.622203
 30
0.0
 11
596.556105
 21
1104.622203
 31
0.0
  0
LINE
  5
2ED8
100
AcDbEntity
  8
0
100
AcDbLine
 10
572.3272
 20
1108.124311
 30
0.0
 11
582.785011
 21
1108.124311
 31
0.0
  0
LINE
  5
2ED9
100
AcDbEntity
  8
0
100
AcDbLine
 10
596.556105
 20
1083.122203
 30
0.0
 11
558.556105
 21
1083.122203
 31
0.0
  0
LINE
  5
2EDA
100
AcDbEntity
  8
0
100
AcDbLine
 10
569.226105
 20
1125.122203
 30
0.0
 11
585.896105
 21
1125.122203
 31
0.0
  0
ARC
  5
2EDB
100
AcDbEntity
  8
0
100
AcDbCircle
 10
577.556105
 20
1059.122203
 30
0.0
 40
14.0
100
AcDbArc
 50
30.0
 51
150.0
  0
LINE
  5
2EDC
100
AcDbEntity
  8
0
100
AcDbLine
 10
520.066119
 20
1119.119176
 30
0.0
 11
520.066119
 21
1125.122203
 31
0.0
  0
LINE
  5
2EDD
100
AcDbEntity
  8
0
100
AcDbLine
 10
571.556105
 20
1104.622203
 30
0.0
 11
571.556105
 21
1116.622203
 31
0.0
  0
LINE
  5
2EDE
100
AcDbEntity
  8
0
100
AcDbLine
 10
569.226105
 20
1125.122203
 30
0.0
 11
569.226105
 21
1116.622203
 31
0.0
  0
LINE
  5
2EDF
100
AcDbEntity
  8
0
100
AcDbLine
 10
558.556105
 20
1104.622203
 30
0.0
 11
558.556105
 21
1083.122203
 31
0.0
  0
ARC
  5
2EE0
100
AcDbEntity
  8
0
100
AcDbCircle
 10
562.884705
 20
1064.122203
 30
0.0
 40
1.0
100
AcDbArc
 50
90.0
 51
161.180937
  0
LINE
  5
2EE1
100
AcDbEntity
  8
0
100
AcDbLine
 10
561.556105
 20
1083.122203
 30
0.0
 11
561.556105
 21
1063.111845
 31
0.0
  0
ARC
  5
2EE2
100
AcDbEntity
  8
0
100
AcDbCircle
 10
563.699699
 20
1067.122203
 30
0.0
 40
2.0
100
AcDbArc
 50
270.0
 51
330.0
  0
LINE
  5
2EE3
100
AcDbEntity
  8
0
100
AcDbLine
 10
563.699699
 20
1065.122203
 30
0.0
 11
562.884705
 21
1065.122203
 31
0.0
  0
LINE
  5
2EE4
100
AcDbEntity
  8
0
100
AcDbLine
 10
583.556105
 20
1104.622203
 30
0.0
 11
583.556105
 21
1116.622203
 31
0.0
  0
LINE
  5
2EE5
100
AcDbEntity
  8
0
100
AcDbLine
 10
585.896105
 20
1125.122203
 30
0.0
 11
585.896105
 21
1116.622203
 31
0.0
  0
LINE
  5
2EE6
100
AcDbEntity
  8
0
100
AcDbLine
 10
596.556105
 20
1083.122203
 30
0.0
 11
596.556105
 21
1104.622203
 31
0.0
  0
ARC
  5
2EE7
100
AcDbEntity
  8
0
100
AcDbCircle
 10
591.412512
 20
1067.122203
 30
0.0
 40
2.0
100
AcDbArc
 50
210.0
 51
270.0
  0
LINE
  5
2EE8
100
AcDbEntity
  8
0
100
AcDbLine
 10
591.412512
 20
1065.122203
 30
0.0
 11
592.227506
 21
1065.122203
 31
0.0
  0
ARC
  5
2EE9
100
AcDbEntity
  8
0
100
AcDbCircle
 10
592.227506
 20
1064.122203
 30
0.0
 40
1.0
100
AcDbArc
 50
18.819063
 51
90.0
  0
LINE
  5
2EEA
100
AcDbEntity
  8
0
100
AcDbLine
 10
593.556105
 20
1083.122203
 30
0.0
 11
593.556105
 21
1063.111845
 31
0.0
  0
ARC
  5
2EEB
100
AcDbEntity
  8
0
100
AcDbCircle
 10
490.073186
 20
1246.391471
 30
0.0
 40
29.991928
100
AcDbArc
 50
353.346509
 51
6.653491
  0
ARC
  5
2EEC
100
AcDbEntity
  8
0
100
AcDbCircle
 10
514.399035
 20
1249.228792
 30
0.0
 40
5.501168
100
AcDbArc
 50
6.656514
 51
92.040933
  0
ARC
  5
2EED
100
AcDbEntity
  8
0
100
AcDbCircle
 10
514.399044
 20
1243.554138
 30
0.0
 40
5.501158
100
AcDbArc
 50
267.958967
 51
353.343586
  0
ARC
  5
2EEE
100
AcDbEntity
  8
0
100
AcDbCircle
 10
2133.434688
 20
1059.122203
 30
0.0
 40
28.5
100
AcDbArc
 50
286.302092
 51
44.952536
  0
CIRCLE
  5
2EEF
100
AcDbEntity
  8
0
100
AcDbCircle
 10
2133.434688
 20
1059.122203
 30
0.0
 40
20.5
  0
POLYLINE
  5
2EF0
100
AcDbEntity
  8
0
100
AcDb2dPolyline
 66
     1
 10
0.0
 20
0.0
 30
0.0
 70
     1
  0
VERTEX
  5
4170
100
AcDbEntity
  8
0
100
AcDbVertex
100
AcDb2dVertex
 10
2112.934688
 20
1047.286522
 30
0.0
  0
VERTEX
  5
4171
100
AcDbEntity
  8
0
100
AcDbVertex
100
AcDb2dVertex
 10
2133.434688
 20
1035.450842
 30
0.0
  0
VERTEX
  5
4172
100
AcDbEntity
  8
0
100
AcDbVertex
100
AcDb2dVertex
 10
2153.934688
 20
1047.286522
 30
0.0
  0
VERTEX
  5
4173
100
AcDbEntity
  8
0
100
AcDbVertex
100
AcDb2dVertex
 10
2153.934688
 20
1070.957883
 30
0.0
  0
VERTEX
  5
4174
100
AcDbEntity
  8
0
100
AcDbVertex
100
AcDb2dVertex
 10
2133.434688
 20
1082.793564
 30
0.0
  0
VERTEX
  5
4175
100
AcDbEntity
  8
0
100
AcDbVertex
100
AcDb2dVertex
 10
2112.934688
 20
1070.957883
 30
0.0
  0
SEQEND
  5
4176
100
AcDbEntity
  8
0
  0
ARC
  5
2EF1
100
AcDbEntity
  8
0
100
AcDbCircle
 10
2133.434688
 20
1059.122203
 30
0.0
 40
28.5
100
AcDbArc
 50
135.047464
 51
253.697908
  0
POLYLINE
  5
2EF2
100
AcDbEntity
  8
0
100
AcDb2dPolyline
 66
     1
 10
0.0
 20
0.0
 30
0.0
 70
     1
  0
VERTEX
  5
4177
100
AcDbEntity
  8
0
100
AcDbVertex
100
AcDb2dVertex
 10
1843.833318
 20
1047.286522
 30
0.0
  0
VERTEX
  5
4178
100
AcDbEntity
  8
0
100
AcDbVertex
100
AcDb2dVertex
 10
1823.333318
 20
1035.450842
 30
0.0
  0
VERTEX
  5
4179
100
AcDbEntity
  8
0
100
AcDbVertex
100
AcDb2dVertex
 10
1802.833318
 20
1047.286522
 30
0.0
  0
VERTEX
  5
417A
100
AcDbEntity
  8
0
100
AcDbVertex
100
AcDb2dVertex
 10
1802.833318
 20
1070.957883
 30
0.0
  0
VERTEX
  5
417B
100
AcDbEntity
  8
0
100
AcDbVertex
100
AcDb2dVertex
 10
1823.333318
 20
1082.793564
 30
0.0
  0
VERTEX
  5
417C
100
AcDbEntity
  8
0
100
AcDbVertex
100
AcDb2dVertex
 10
1843.833318
 20
1070.957883
 30
0.0
  0
SEQEND
  5
417D
100
AcDbEntity
  8
0
  0
CIRCLE
  5
2EF3
100
AcDbEntity
  8
0
100
AcDbCircle
 10
1823.333318
 20
1059.122203
 30
0.0
 40
20.5
  0
CIRCLE
  5
2EF4
100
AcDbEntity
  8
0
100
AcDbCircle
 10
1823.333318
 20
1059.122203
 30
0.0
 40
28.5
  0
LINE
  5
2EF5
100
AcDbEntity
  8
0
100
AcDbLine
 10
1907.441702
 20
1079.622203
 30
0.0
 11
1907.441702
 21
1059.122203
 31
0.0
  0
LINE
  5
2EF6
100
AcDbEntity
  8
0
100
AcDbLine
 10
1997.433668
 20
1059.122203
 30
0.0
 11
1997.441702
 21
1079.622203
 31
0.0
  0
ARC
  5
2EF7
100
AcDbEntity
  8
0
100
AcDbCircle
 10
1973.691724
 20
1059.122203
 30
0.0
 40
23.741944
100
AcDbArc
 50
330.08627
 51
29.91373
  0
ARC
  5
2EF8
100
AcDbEntity
  8
0
100
AcDbCircle
 10
1907.26189
 20
1059.122203
 30
0.0
 40
74.179811
100
AcDbArc
 50
350.815615
 51
9.184385
  0
LINE
  5
2EF9
100
AcDbEntity
  8
0
100
AcDbLine
 10
1978.867702
 20
1047.622203
 30
0.0
 11
1978.867702
 21
1070.622203
 31
0.0
  0
ARC
  5
2EFA
100
AcDbEntity
  8
0
100
AcDbCircle
 10
1997.420513
 20
1059.122203
 30
0.0
 40
74.179811
100
AcDbArc
 50
170.815615
 51
189.184385
  0
ARC
  5
2EFB
100
AcDbEntity
  8
0
100
AcDbCircle
 10
1931.191679
 20
1059.122203
 30
0.0
 40
23.741944
100
AcDbArc
 50
150.08627
 51
209.91373
  0
LINE
  5
2EFC
100
AcDbEntity
  8
0
100
AcDbLine
 10
1928.941702
 20
1087.622203
 30
0.0
 11
1928.941702
 21
1030.622203
 31
0.0
  0
LINE
  5
2EFD
100
AcDbEntity
  8
0
100
AcDbLine
 10
1924.941702
 20
1084.882203
 30
0.0
 11
1924.941702
 21
1033.362203
 31
0.0
  0
CIRCLE
  5
2EFE
100
AcDbEntity
  8
0
100
AcDbCircle
 10
1275.909339
 20
1059.122203
 30
0.0
 40
16.0
  0
POLYLINE
  5
2EFF
100
AcDbEntity
  8
0
100
AcDb2dPolyline
 66
     1
 10
0.0
 20
0.0
 30
0.0
 70
     1
  0
VERTEX
  5
417E
100
AcDbEntity
  8
0
100
AcDbVertex
100
AcDb2dVertex
 10
1291.909339
 20
1049.884598
 30
0.0
  0
VERTEX
  5
417F
100
AcDbEntity
  8
0
100
AcDbVertex
100
AcDb2dVertex
 10
1275.909339
 20
1040.646994
 30
0.0
  0
VERTEX
  5
4180
100
AcDbEntity
  8
0
100
AcDbVertex
100
AcDb2dVertex
 10
1259.909339
 20
1049.884598
 30
0.0
  0
VERTEX
  5
4181
100
AcDbEntity
  8
0
100
AcDbVertex
100
AcDb2dVertex
 10
1259.909339
 20
1068.359807
 30
0.0
  0
VERTEX
  5
4182
100
AcDbEntity
  8
0
100
AcDbVertex
100
AcDb2dVertex
 10
1275.909339
 20
1077.597411
 30
0.0
  0
VERTEX
  5
4183
100
AcDbEntity
  8
0
100
AcDbVertex
100
AcDb2dVertex
 10
1291.909339
 20
1068.359807
 30
0.0
  0
SEQEND
  5
4184
100
AcDbEntity
  8
0
  0
CIRCLE
  5
2F00
100
AcDbEntity
  8
0
100
AcDbCircle
 10
1275.909339
 20
1059.122203
 30
0.0
 40
23.0
  0
CIRCLE
  5
2F01
100
AcDbEntity
  8
0
100
AcDbCircle
 10
1586.010709
 20
1059.122203
 30
0.0
 40
16.0
  0
POLYLINE
  5
2F02
100
AcDbEntity
  8
0
100
AcDb2dPolyline
 66
     1
 10
0.0
 20
0.0
 30
0.0
 70
     1
  0
VERTEX
  5
4185
100
AcDbEntity
  8
0
100
AcDbVertex
100
AcDb2dVertex
 10
1570.010709
 20
1049.884598
 30
0.0
  0
VERTEX
  5
4186
100
AcDbEntity
  8
0
100
AcDbVertex
100
AcDb2dVertex
 10
1586.010709
 20
1040.646994
 30
0.0
  0
VERTEX
  5
4187
100
AcDbEntity
  8
0
100
AcDbVertex
100
AcDb2dVertex
 10
1602.010709
 20
1049.884598
 30
0.0
  0
VERTEX
  5
4188
100
AcDbEntity
  8
0
100
AcDbVertex
100
AcDb2dVertex
 10
1602.010709
 20
1068.359807
 30
0.0
  0
VERTEX
  5
4189
100
AcDbEntity
  8
0
100
AcDbVertex
100
AcDb2dVertex
 10
1586.010709
 20
1077.597411
 30
0.0
  0
VERTEX
  5
418A
100
AcDbEntity
  8
0
100
AcDbVertex
100
AcDb2dVertex
 10
1570.010709
 20
1068.359807
 30
0.0
  0
SEQEND
  5
418B
100
AcDbEntity
  8
0
  0
ARC
  5
2F03
100
AcDbEntity
  8
0
100
AcDbCircle
 10
1586.010709
 20
1059.122203
 30
0.0
 40
23.0
100
AcDbArc
 50
134.07921
 51
249.645594
  0
ARC
  5
2F04
100
AcDbEntity
  8
0
100
AcDbCircle
 10
1586.010709
 20
1059.122203
 30
0.0
 40
23.0
100
AcDbArc
 50
290.354406
 51
45.92079
  0
LINE
  5
2F05
100
AcDbEntity
  8
0
100
AcDbLine
 10
1440.017723
 20
1075.313259
 30
0.0
 11
1440.017723
 21
1059.313259
 31
0.0
  0
ARC
  5
2F06
100
AcDbEntity
  8
0
100
AcDbCircle
 10
1416.638259
 20
1059.313259
 30
0.0
 40
23.379464
100
AcDbArc
 50
337.690681
 51
22.309319
  0
LINE
  5
2F07
100
AcDbEntity
  8
0
100
AcDbLine
 10
1424.017723
 20
1068.313259
 30
0.0
 11
1424.017723
 21
1050.313259
 31
0.0
  0
ARC
  5
2F08
100
AcDbEntity
  8
0
100
AcDbCircle
 10
1403.888259
 20
1059.313259
 30
0.0
 40
23.379464
100
AcDbArc
 50
337.690681
 51
22.309319
  0
LINE
  5
2F09
100
AcDbEntity
  8
0
100
AcDbLine
 10
1360.017723
 20
1075.313259
 30
0.0
 11
1360.017723
 21
1059.313259
 31
0.0
  0
LINE
  5
2F0A
100
AcDbEntity
  8
0
100
AcDbLine
 10
1376.017723
 20
1078.522274
 30
0.0
 11
1376.017723
 21
1040.104245
 31
0.0
  0
LINE
  5
2F0B
100
AcDbEntity
  8
0
100
AcDbLine
 10
1379.517723
 20
1079.813259
 30
0.0
 11
1379.517723
 21
1038.813259
 31
0.0
  0
ARC
  5
2F0C
100
AcDbEntity
  8
0
100
AcDbCircle
 10
1396.147187
 20
1059.313259
 30
0.0
 40
23.379464
100
AcDbArc
 50
157.690681
 51
202.309319
  0
ARC
  5
2F0D
100
AcDbEntity
  8
0
100
AcDbCircle
 10
1383.397187
 20
1059.313259
 30
0.0
 40
23.379464
100
AcDbArc
 50
157.690681
 51
202.309319
  0
CIRCLE
  5
2F0E
100
AcDbEntity
  8
0
100
AcDbCircle
 10
778.368228
 20
1059.313259
 30
0.0
 40
13.5
  0
POLYLINE
  5
2F0F
100
AcDbEntity
  8
0
100
AcDb2dPolyline
 66
     1
 10
0.0
 20
0.0
 30
0.0
 70
     1
  0
VERTEX
  5
418C
100
AcDbEntity
  8
0
100
AcDbVertex
100
AcDb2dVertex
 10
764.868228
 20
1051.519031
 30
0.0
  0
VERTEX
  5
418D
100
AcDbEntity
  8
0
100
AcDbVertex
100
AcDb2dVertex
 10
778.368228
 20
1043.724802
 30
0.0
  0
VERTEX
  5
418E
100
AcDbEntity
  8
0
100
AcDbVertex
100
AcDb2dVertex
 10
791.868228
 20
1051.519031
 30
0.0
  0
VERTEX
  5
418F
100
AcDbEntity
  8
0
100
AcDbVertex
100
AcDb2dVertex
 10
791.868228
 20
1067.107488
 30
0.0
  0
VERTEX
  5
4190
100
AcDbEntity
  8
0
100
AcDbVertex
100
AcDb2dVertex
 10
778.368228
 20
1074.901717
 30
0.0
  0
VERTEX
  5
4191
100
AcDbEntity
  8
0
100
AcDbVertex
100
AcDb2dVertex
 10
764.868228
 20
1067.107488
 30
0.0
  0
SEQEND
  5
4192
100
AcDbEntity
  8
0
  0
CIRCLE
  5
2F10
100
AcDbEntity
  8
0
100
AcDbCircle
 10
778.368228
 20
1059.313259
 30
0.0
 40
20.0
  0
ARC
  5
2F11
100
AcDbEntity
  8
0
100
AcDbCircle
 10
1058.469599
 20
1059.313259
 30
0.0
 40
20.0
100
AcDbArc
 50
339.99481
 51
36.869898
  0
ARC
  5
2F12
100
AcDbEntity
  8
0
100
AcDbCircle
 10
1058.469599
 20
1059.313259
 30
0.0
 40
20.0
100
AcDbArc
 50
143.130102
 51
200.00519
  0
POLYLINE
  5
2F13
100
AcDbEntity
  8
0
100
AcDb2dPolyline
 66
     1
 10
0.0
 20
0.0
 30
0.0
 70
     1
  0
VERTEX
  5
4193
100
AcDbEntity
  8
0
100
AcDbVertex
100
AcDb2dVertex
 10
1071.969599
 20
1051.519031
 30
0.0
  0
VERTEX
  5
4194
100
AcDbEntity
  8
0
100
AcDbVertex
100
AcDb2dVertex
 10
1058.469599
 20
1043.724802
 30
0.0
  0
VERTEX
  5
4195
100
AcDbEntity
  8
0
100
AcDbVertex
100
AcDb2dVertex
 10
1044.969599
 20
1051.519031
 30
0.0
  0
VERTEX
  5
4196
100
AcDbEntity
  8
0
100
AcDbVertex
100
AcDb2dVertex
 10
1044.969599
 20
1067.107488
 30
0.0
  0
VERTEX
  5
4197
100
AcDbEntity
  8
0
100
AcDbVertex
100
AcDb2dVertex
 10
1058.469599
 20
1074.901717
 30
0.0
  0
VERTEX
  5
4198
100
AcDbEntity
  8
0
100
AcDbVertex
100
AcDb2dVertex
 10
1071.969599
 20
1067.107488
 30
0.0
  0
SEQEND
  5
4199
100
AcDbEntity
  8
0
  0
CIRCLE
  5
2F14
100
AcDbEntity
  8
0
100
AcDbCircle
 10
1058.469599
 20
1059.313259
 30
0.0
 40
13.5
  0
ARC
  5
2F15
100
AcDbEntity
  8
0
100
AcDbCircle
 10
912.976612
 20
1059.313259
 30
0.0
 40
19.5
100
AcDbArc
 50
337.380135
 51
22.619865
  0
ARC
  5
2F16
100
AcDbEntity
  8
0
100
AcDbCircle
 10
900.476612
 20
1059.313259
 30
0.0
 40
19.5
100
AcDbArc
 50
337.380135
 51
22.619865
  0
LINE
  5
2F17
100
AcDbEntity
  8
0
100
AcDbLine
 10
916.476612
 20
1066.813259
 30
0.0
 11
916.476612
 21
1051.813259
 31
0.0
  0
LINE
  5
2F18
100
AcDbEntity
  8
0
100
AcDbLine
 10
932.476612
 20
1059.313259
 30
0.0
 11
932.476612
 21
1072.813259
 31
0.0
  0
ARC
  5
2F19
100
AcDbEntity
  8
0
100
AcDbCircle
 10
894.476612
 20
1059.313259
 30
0.0
 40
19.5
100
AcDbArc
 50
157.380135
 51
202.619865
  0
LINE
  5
2F1A
100
AcDbEntity
  8
0
100
AcDbLine
 10
880.476612
 20
1039.313259
 30
0.0
 11
880.476612
 21
1079.313259
 31
0.0
  0
LINE
  5
2F1B
100
AcDbEntity
  8
0
100
AcDbLine
 10
877.476612
 20
1039.313259
 30
0.0
 11
877.476612
 21
1079.313259
 31
0.0
  0
LINE
  5
2F1C
100
AcDbEntity
  8
0
100
AcDbLine
 10
862.476612
 20
1059.313259
 30
0.0
 11
862.476612
 21
1072.813259
 31
0.0
  0
ARC
  5
2F1D
100
AcDbEntity
  8
0
100
AcDbCircle
 10
881.976612
 20
1059.313259
 30
0.0
 40
19.5
100
AcDbArc
 50
157.380135
 51
202.619865
  0
TEXT
  5
2F20
100
AcDbEntity
  8
0
100
AcDbText
 10
878.247314
 20
976.777529
 30
0.0
 40
20.0
  1
15A
 41
0.8
 72
     4
 11
898.056838
 21
986.777529
 31
0.0
100
AcDbText
  0
LINE
  5
2F21
100
AcDbEntity
  8
0
100
AcDbLine
 10
784.368228
 20
1037.813259
 30
0.0
 11
772.368228
 21
1037.813259
 31
0.0
  0
LINE
  5
2F22
100
AcDbEntity
  8
0
100
AcDbLine
 10
782.368228
 20
1032.313259
 30
0.0
 11
774.368228
 21
1032.313259
 31
0.0
  0
LINE
  5
2F23
100
AcDbEntity
  8
0
100
AcDbLine
 10
784.368228
 20
1037.813259
 30
0.0
 11
782.368228
 21
1032.313259
 31
0.0
  0
LINE
  5
2F24
100
AcDbEntity
  8
0
100
AcDbLine
 10
772.368228
 20
1037.813259
 30
0.0
 11
774.368228
 21
1032.313259
 31
0.0
  0
LINE
  5
2F25
100
AcDbEntity
  8
0
100
AcDbLine
 10
772.368228
 20
1037.813259
 30
0.0
 11
772.368228
 21
1040.234475
 31
0.0
  0
LINE
  5
2F26
100
AcDbEntity
  8
0
100
AcDbLine
 10
784.368228
 20
1037.813259
 30
0.0
 11
784.368228
 21
1040.234475
 31
0.0
  0
LINE
  5
2F27
100
AcDbEntity
  8
0
100
AcDbLine
 10
917.476612
 20
1051.813259
 30
0.0
 11
898.476612
 21
1051.813259
 31
0.0
  0
LINE
  5
2F28
100
AcDbEntity
  8
0
100
AcDbLine
 10
918.476612
 20
1042.313259
 30
0.0
 11
906.476612
 21
1042.313259
 31
0.0
  0
LINE
  5
2F29
100
AcDbEntity
  8
0
100
AcDbLine
 10
903.476612
 20
1037.813259
 30
0.0
 11
901.476612
 21
1032.313259
 31
0.0
  0
LINE
  5
2F2A
100
AcDbEntity
  8
0
100
AcDbLine
 10
891.476612
 20
1037.813259
 30
0.0
 11
893.476612
 21
1032.313259
 31
0.0
  0
LINE
  5
2F2B
100
AcDbEntity
  8
0
100
AcDbLine
 10
901.476612
 20
1032.313259
 30
0.0
 11
893.476612
 21
1032.313259
 31
0.0
  0
LINE
  5
2F2C
100
AcDbEntity
  8
0
100
AcDbLine
 10
903.476612
 20
1037.813259
 30
0.0
 11
891.476612
 21
1037.813259
 31
0.0
  0
LINE
  5
2F2D
100
AcDbEntity
  8
0
100
AcDbLine
 10
895.476612
 20
1042.313259
 30
0.0
 11
895.476612
 21
1048.813259
 31
0.0
  0
LINE
  5
2F2E
100
AcDbEntity
  8
0
100
AcDbLine
 10
891.476612
 20
1037.813259
 30
0.0
 11
891.476612
 21
1039.313259
 31
0.0
  0
ARC
  5
2F2F
100
AcDbEntity
  8
0
100
AcDbCircle
 10
892.476612
 20
1042.313259
 30
0.0
 40
3.0
100
AcDbArc
 50
270.0
 51
0.0
  0
ARC
  5
2F30
100
AcDbEntity
  8
0
100
AcDbCircle
 10
898.476612
 20
1048.813259
 30
0.0
 40
3.0
100
AcDbArc
 50
90.0
 51
180.0
  0
LINE
  5
2F31
100
AcDbEntity
  8
0
100
AcDbLine
 10
903.476612
 20
1037.813259
 30
0.0
 11
903.476612
 21
1039.313259
 31
0.0
  0
ARC
  5
2F32
100
AcDbEntity
  8
0
100
AcDbCircle
 10
906.476612
 20
1039.313259
 30
0.0
 40
3.0
100
AcDbArc
 50
90.0
 51
180.0
  0
LINE
  5
2F33
100
AcDbEntity
  8
0
100
AcDbLine
 10
863.976612
 20
1051.813259
 30
0.0
 11
876.476612
 21
1051.813259
 31
0.0
  0
LINE
  5
2F34
100
AcDbEntity
  8
0
100
AcDbLine
 10
863.976612
 20
1044.313259
 30
0.0
 11
874.476612
 21
1044.313259
 31
0.0
  0
ARC
  5
2F35
100
AcDbEntity
  8
0
100
AcDbCircle
 10
880.414112
 20
1048.063259
 30
0.0
 40
5.4375
100
AcDbArc
 50
136.397181
 51
223.602819
  0
ARC
  5
2F36
100
AcDbEntity
  8
0
100
AcDbCircle
 10
874.476612
 20
1042.313259
 30
0.0
 40
2.0
100
AcDbArc
 50
0.0
 51
90.0
  0
LINE
  5
2F37
100
AcDbEntity
  8
0
100
AcDbLine
 10
876.476612
 20
1042.313259
 30
0.0
 11
877.476612
 21
1039.313259
 31
0.0
  0
LINE
  5
2F38
100
AcDbEntity
  8
0
100
AcDbLine
 10
892.476612
 20
1039.313259
 30
0.0
 11
877.476612
 21
1039.313259
 31
0.0
  0
LINE
  5
2F39
100
AcDbEntity
  8
0
100
AcDbLine
 10
862.476612
 20
1045.813259
 30
0.0
 11
862.476612
 21
1059.313259
 31
0.0
  0
ARC
  5
2F3A
100
AcDbEntity
  8
0
100
AcDbCircle
 10
867.914112
 20
1048.063259
 30
0.0
 40
5.4375
100
AcDbArc
 50
136.397181
 51
223.602819
  0
LINE
  5
2F3B
100
AcDbEntity
  8
0
100
AcDbLine
 10
863.976612
 20
1044.313259
 30
0.0
 11
862.476612
 21
1045.813259
 31
0.0
  0
LINE
  5
2F3C
100
AcDbEntity
  8
0
100
AcDbLine
 10
932.476612
 20
1045.813259
 30
0.0
 11
932.476612
 21
1059.313259
 31
0.0
  0
LINE
  5
2F3D
100
AcDbEntity
  8
0
100
AcDbLine
 10
930.976612
 20
1051.813259
 30
0.0
 11
918.476612
 21
1051.813259
 31
0.0
  0
LINE
  5
2F3E
100
AcDbEntity
  8
0
100
AcDbLine
 10
930.976612
 20
1044.313259
 30
0.0
 11
920.476612
 21
1044.313259
 31
0.0
  0
ARC
  5
2F3F
100
AcDbEntity
  8
0
100
AcDbCircle
 10
914.539112
 20
1048.063259
 30
0.0
 40
5.4375
100
AcDbArc
 50
316.397181
 51
43.602819
  0
ARC
  5
2F40
100
AcDbEntity
  8
0
100
AcDbCircle
 10
920.476612
 20
1042.313259
 30
0.0
 40
2.0
100
AcDbArc
 50
90.0
 51
180.0
  0
LINE
  5
2F41
100
AcDbEntity
  8
0
100
AcDbLine
 10
918.476612
 20
1050.813259
 30
0.0
 11
918.476612
 21
1042.313259
 31
0.0
  0
ARC
  5
2F42
100
AcDbEntity
  8
0
100
AcDbCircle
 10
917.476612
 20
1050.813259
 30
0.0
 40
1.0
100
AcDbArc
 50
0.0
 51
90.0
  0
LINE
  5
2F43
100
AcDbEntity
  8
0
100
AcDbLine
 10
930.976612
 20
1044.313259
 30
0.0
 11
932.476612
 21
1045.813259
 31
0.0
  0
ARC
  5
2F44
100
AcDbEntity
  8
0
100
AcDbCircle
 10
927.039112
 20
1048.063259
 30
0.0
 40
5.4375
100
AcDbArc
 50
316.397181
 51
43.602819
  0
ARC
  5
2F45
100
AcDbEntity
  8
0
100
AcDbCircle
 10
1067.469599
 20
1041.452688
 30
0.0
 40
3.0
100
AcDbArc
 50
116.743684
 51
180.0
  0
ARC
  5
2F46
100
AcDbEntity
  8
0
100
AcDbCircle
 10
1058.469599
 20
1059.313259
 30
0.0
 40
17.0
100
AcDbArc
 50
210.0
 51
330.0
  0
ARC
  5
2F47
100
AcDbEntity
  8
0
100
AcDbCircle
 10
1042.015116
 20
1049.813259
 30
0.0
 40
2.0
100
AcDbArc
 50
30.0
 51
90.0
  0
ARC
  5
2F48
100
AcDbEntity
  8
0
100
AcDbCircle
 10
1040.616027
 20
1052.813259
 30
0.0
 40
1.0
100
AcDbArc
 50
200.00519
 51
270.0
  0
LINE
  5
2F49
100
AcDbEntity
  8
0
100
AcDbLine
 10
1042.015116
 20
1051.813259
 30
0.0
 11
1040.616027
 21
1051.813259
 31
0.0
  0
ARC
  5
2F4A
100
AcDbEntity
  8
0
100
AcDbCircle
 10
1049.469599
 20
1041.452688
 30
0.0
 40
3.0
100
AcDbArc
 50
0.0
 51
63.256316
  0
LINE
  5
2F4B
100
AcDbEntity
  8
0
100
AcDbLine
 10
1052.469599
 20
1037.813259
 30
0.0
 11
1064.469599
 21
1037.813259
 31
0.0
  0
LINE
  5
2F4C
100
AcDbEntity
  8
0
100
AcDbLine
 10
1054.469599
 20
1032.313259
 30
0.0
 11
1062.469599
 21
1032.313259
 31
0.0
  0
LINE
  5
2F4D
100
AcDbEntity
  8
0
100
AcDbLine
 10
1064.469599
 20
1037.813259
 30
0.0
 11
1062.469599
 21
1032.313259
 31
0.0
  0
LINE
  5
2F4E
100
AcDbEntity
  8
0
100
AcDbLine
 10
1052.469599
 20
1037.813259
 30
0.0
 11
1054.469599
 21
1032.313259
 31
0.0
  0
LINE
  5
2F4F
100
AcDbEntity
  8
0
100
AcDbLine
 10
1052.469599
 20
1037.813259
 30
0.0
 11
1052.469599
 21
1041.452688
 31
0.0
  0
LINE
  5
2F50
100
AcDbEntity
  8
0
100
AcDbLine
 10
1064.469599
 20
1037.813259
 30
0.0
 11
1064.469599
 21
1041.452688
 31
0.0
  0
ARC
  5
2F51
100
AcDbEntity
  8
0
100
AcDbCircle
 10
1074.924081
 20
1049.813259
 30
0.0
 40
2.0
100
AcDbArc
 50
90.0
 51
150.0
  0
ARC
  5
2F52
100
AcDbEntity
  8
0
100
AcDbCircle
 10
1076.32317
 20
1052.813259
 30
0.0
 40
1.0
100
AcDbArc
 50
270.0
 51
339.99481
  0
LINE
  5
2F53
100
AcDbEntity
  8
0
100
AcDbLine
 10
1074.924081
 20
1051.813259
 30
0.0
 11
1076.32317
 21
1051.813259
 31
0.0
  0
TEXT
  5
2F54
100
AcDbEntity
  8
0
100
AcDbText
 10
1382.578428
 20
976.968586
 30
0.0
 40
20.0
  1
20A
 41
0.8
 72
     4
 11
1403.911761
 21
986.968586
 31
0.0
100
AcDbText
  0
LINE
  5
2F55
100
AcDbEntity
  8
0
100
AcDbLine
 10
1361.767723
 20
1050.438259
 30
0.0
 11
1374.517723
 21
1050.438259
 31
0.0
  0
LINE
  5
2F56
100
AcDbEntity
  8
0
100
AcDbLine
 10
1361.767723
 20
1041.563259
 30
0.0
 11
1373.330457
 21
1041.563259
 31
0.0
  0
LINE
  5
2F57
100
AcDbEntity
  8
0
100
AcDbLine
 10
1271.409339
 20
1029.122203
 30
0.0
 11
1280.409339
 21
1029.122203
 31
0.0
  0
LINE
  5
2F58
100
AcDbEntity
  8
0
100
AcDbLine
 10
1267.909339
 20
1036.122203
 30
0.0
 11
1283.909339
 21
1036.122203
 31
0.0
  0
LINE
  5
2F59
100
AcDbEntity
  8
0
100
AcDbLine
 10
1267.909339
 20
1037.558344
 30
0.0
 11
1267.909339
 21
1036.122203
 31
0.0
  0
LINE
  5
2F5A
100
AcDbEntity
  8
0
100
AcDbLine
 10
1267.909339
 20
1036.122203
 30
0.0
 11
1271.409339
 21
1029.122203
 31
0.0
  0
LINE
  5
2F5B
100
AcDbEntity
  8
0
100
AcDbLine
 10
1283.909339
 20
1037.558344
 30
0.0
 11
1283.909339
 21
1036.122203
 31
0.0
  0
LINE
  5
2F5C
100
AcDbEntity
  8
0
100
AcDbLine
 10
1283.909339
 20
1036.122203
 30
0.0
 11
1280.409339
 21
1029.122203
 31
0.0
  0
LINE
  5
2F5D
100
AcDbEntity
  8
0
100
AcDbLine
 10
1360.017723
 20
1043.313259
 30
0.0
 11
1361.767723
 21
1041.563259
 31
0.0
  0
ARC
  5
2F5E
100
AcDbEntity
  8
0
100
AcDbCircle
 10
1366.518839
 20
1046.000759
 30
0.0
 40
6.501116
100
AcDbArc
 50
136.9548
 51
223.0452
  0
LINE
  5
2F5F
100
AcDbEntity
  8
0
100
AcDbLine
 10
1360.017723
 20
1059.313259
 30
0.0
 11
1360.017723
 21
1043.313259
 31
0.0
  0
LINE
  5
2F60
100
AcDbEntity
  8
0
100
AcDbLine
 10
1424.017723
 20
1050.313259
 30
0.0
 11
1401.049405
 21
1050.313259
 31
0.0
  0
LINE
  5
2F61
100
AcDbEntity
  8
0
100
AcDbLine
 10
1423.600557
 20
1038.813259
 30
0.0
 11
1376.908173
 21
1038.813259
 31
0.0
  0
LINE
  5
2F62
100
AcDbEntity
  8
0
100
AcDbLine
 10
1397.049405
 20
1046.313259
 30
0.0
 11
1397.049405
 21
1038.813259
 31
0.0
  0
ARC
  5
2F63
100
AcDbEntity
  8
0
100
AcDbCircle
 10
1401.049405
 20
1046.313259
 30
0.0
 40
4.0
100
AcDbArc
 50
90.0
 51
180.0
  0
LINE
  5
2F64
100
AcDbEntity
  8
0
100
AcDbLine
 10
1392.017723
 20
1036.313259
 30
0.0
 11
1395.517723
 21
1029.313259
 31
0.0
  0
LINE
  5
2F65
100
AcDbEntity
  8
0
100
AcDbLine
 10
1408.017723
 20
1036.313259
 30
0.0
 11
1404.517723
 21
1029.313259
 31
0.0
  0
LINE
  5
2F66
100
AcDbEntity
  8
0
100
AcDbLine
 10
1404.517723
 20
1029.313259
 30
0.0
 11
1395.517723
 21
1029.313259
 31
0.0
  0
LINE
  5
2F67
100
AcDbEntity
  8
0
100
AcDbLine
 10
1408.017723
 20
1036.313259
 30
0.0
 11
1392.017723
 21
1036.313259
 31
0.0
  0
ARC
  5
2F68
100
AcDbEntity
  8
0
100
AcDbCircle
 10
1411.017723
 20
1036.313259
 30
0.0
 40
3.0
100
AcDbArc
 50
123.55731
 51
180.0
  0
LINE
  5
2F69
100
AcDbEntity
  8
0
100
AcDbLine
 10
1392.017723
 20
1038.813259
 30
0.0
 11
1392.017723
 21
1036.313259
 31
0.0
  0
ARC
  5
2F6A
100
AcDbEntity
  8
0
100
AcDbCircle
 10
1373.330457
 20
1039.563259
 30
0.0
 40
2.0
100
AcDbArc
 50
28.61046
 51
90.0
  0
LINE
  5
2F6B
100
AcDbEntity
  8
0
100
AcDbLine
 10
1374.517723
 20
1041.563259
 30
0.0
 11
1375.591329
 21
1039.594981
 31
0.0
  0
ARC
  5
2F6C
100
AcDbEntity
  8
0
100
AcDbCircle
 10
1376.908173
 20
1040.313259
 30
0.0
 40
1.5
100
AcDbArc
 50
208.61046
 51
270.0
  0
ARC
  5
2F6D
100
AcDbEntity
  8
0
100
AcDbCircle
 10
1379.268839
 20
1046.000759
 30
0.0
 40
6.501116
100
AcDbArc
 50
136.9548
 51
223.0452
  0
LINE
  5
2F6E
100
AcDbEntity
  8
0
100
AcDbLine
 10
1440.017723
 20
1043.313259
 30
0.0
 11
1438.267723
 21
1041.563259
 31
0.0
  0
ARC
  5
2F6F
100
AcDbEntity
  8
0
100
AcDbCircle
 10
1433.516607
 20
1046.000759
 30
0.0
 40
6.501116
100
AcDbArc
 50
316.9548
 51
43.0452
  0
LINE
  5
2F70
100
AcDbEntity
  8
0
100
AcDbLine
 10
1440.017723
 20
1059.313259
 30
0.0
 11
1440.017723
 21
1043.313259
 31
0.0
  0
ARC
  5
2F71
100
AcDbEntity
  8
0
100
AcDbCircle
 10
1424.017723
 20
1048.813259
 30
0.0
 40
1.5
100
AcDbArc
 50
0.0
 51
90.0
  0
ARC
  5
2F72
100
AcDbEntity
  8
0
100
AcDbCircle
 10
1423.600557
 20
1040.313259
 30
0.0
 40
1.5
100
AcDbArc
 50
270.0
 51
344.054604
  0
LINE
  5
2F73
100
AcDbEntity
  8
0
100
AcDbLine
 10
1425.517723
 20
1041.563259
 30
0.0
 11
1425.042842
 21
1039.901178
 31
0.0
  0
ARC
  5
2F74
100
AcDbEntity
  8
0
100
AcDbCircle
 10
1420.766607
 20
1046.000759
 30
0.0
 40
6.501116
100
AcDbArc
 50
316.9548
 51
43.0452
  0
LINE
  5
2F75
100
AcDbEntity
  8
0
100
AcDbLine
 10
1425.517723
 20
1048.813259
 30
0.0
 11
1425.517723
 21
1041.563259
 31
0.0
  0
LINE
  5
2F76
100
AcDbEntity
  8
0
100
AcDbLine
 10
1438.267723
 20
1050.438259
 30
0.0
 11
1425.517723
 21
1050.438259
 31
0.0
  0
LINE
  5
2F77
100
AcDbEntity
  8
0
100
AcDbLine
 10
1438.267723
 20
1041.563259
 30
0.0
 11
1425.517723
 21
1041.563259
 31
0.0
  0
LINE
  5
2F78
100
AcDbEntity
  8
0
100
AcDbLine
 10
1831.333318
 20
1030.622203
 30
0.0
 11
1815.333318
 21
1030.622203
 31
0.0
  0
LINE
  5
2F79
100
AcDbEntity
  8
0
100
AcDbLine
 10
1827.833318
 20
1023.122203
 30
0.0
 11
1818.833318
 21
1023.122203
 31
0.0
  0
ARC
  5
2F7A
100
AcDbEntity
  8
0
100
AcDbCircle
 10
1586.010709
 20
1059.122203
 30
0.0
 40
20.5
100
AcDbArc
 50
209.267578
 51
242.089932
  0
ARC
  5
2F7B
100
AcDbEntity
  8
0
100
AcDbCircle
 10
1566.382923
 20
1048.122203
 30
0.0
 40
2.0
100
AcDbArc
 50
29.267578
 51
90.0
  0
ARC
  5
2F7C
100
AcDbEntity
  8
0
100
AcDbCircle
 10
1565.516808
 20
1051.122203
 30
0.0
 40
1.0
100
AcDbArc
 50
201.323686
 51
270.0
  0
LINE
  5
2F7D
100
AcDbEntity
  8
0
100
AcDbLine
 10
1565.516808
 20
1050.122203
 30
0.0
 11
1566.382923
 21
1050.122203
 31
0.0
  0
ARC
  5
2F7E
100
AcDbEntity
  8
0
100
AcDbCircle
 10
1586.010709
 20
1059.122203
 30
0.0
 40
20.5
100
AcDbArc
 50
297.910068
 51
330.732422
  0
ARC
  5
2F7F
100
AcDbEntity
  8
0
100
AcDbCircle
 10
1605.638496
 20
1048.122203
 30
0.0
 40
2.0
100
AcDbArc
 50
90.0
 51
150.732422
  0
ARC
  5
2F80
100
AcDbEntity
  8
0
100
AcDbCircle
 10
1606.504611
 20
1051.122203
 30
0.0
 40
1.0
100
AcDbArc
 50
270.0
 51
338.676314
  0
LINE
  5
2F81
100
AcDbEntity
  8
0
100
AcDbLine
 10
1606.504611
 20
1050.122203
 30
0.0
 11
1605.638496
 21
1050.122203
 31
0.0
  0
LINE
  5
2F82
100
AcDbEntity
  8
0
100
AcDbLine
 10
1594.010709
 20
1038.355643
 30
0.0
 11
1594.010709
 21
1036.122203
 31
0.0
  0
LINE
  5
2F83
100
AcDbEntity
  8
0
100
AcDbLine
 10
1578.010709
 20
1038.355643
 30
0.0
 11
1578.010709
 21
1036.122203
 31
0.0
  0
LINE
  5
2F84
100
AcDbEntity
  8
0
100
AcDbLine
 10
1578.010709
 20
1036.122203
 30
0.0
 11
1581.510709
 21
1029.122203
 31
0.0
  0
LINE
  5
2F85
100
AcDbEntity
  8
0
100
AcDbLine
 10
1590.510709
 20
1029.122203
 30
0.0
 11
1581.510709
 21
1029.122203
 31
0.0
  0
LINE
  5
2F86
100
AcDbEntity
  8
0
100
AcDbLine
 10
1594.010709
 20
1036.122203
 30
0.0
 11
1590.510709
 21
1029.122203
 31
0.0
  0
LINE
  5
2F87
100
AcDbEntity
  8
0
100
AcDbLine
 10
1594.010709
 20
1036.122203
 30
0.0
 11
1578.010709
 21
1036.122203
 31
0.0
  0
ARC
  5
2F88
100
AcDbEntity
  8
0
100
AcDbCircle
 10
1575.010709
 20
1038.355643
 30
0.0
 40
3.0
100
AcDbArc
 50
0.0
 51
62.089932
  0
ARC
  5
2F89
100
AcDbEntity
  8
0
100
AcDbCircle
 10
1597.010709
 20
1038.355643
 30
0.0
 40
3.0
100
AcDbArc
 50
117.910068
 51
180.0
  0
LINE
  5
2F8A
100
AcDbEntity
  8
0
100
AcDbLine
 10
1815.333318
 20
1031.768044
 30
0.0
 11
1815.333318
 21
1030.622203
 31
0.0
  0
LINE
  5
2F8B
100
AcDbEntity
  8
0
100
AcDbLine
 10
1815.333318
 20
1030.622203
 30
0.0
 11
1818.833318
 21
1023.122203
 31
0.0
  0
TEXT
  5
2F8C
100
AcDbEntity
  8
0
100
AcDbText
 10
1935.54494
 20
977.159643
 30
0.0
 40
20.0
  1
25A
 41
0.8
 72
     4
 11
1956.878273
 21
987.159643
 31
0.0
100
AcDbText
  0
LINE
  5
2F8E
100
AcDbEntity
  8
0
100
AcDbLine
 10
1924.941653
 20
1030.622203
 30
0.0
 11
1960.441702
 21
1030.622203
 31
0.0
  0
LINE
  5
2F8F
100
AcDbEntity
  8
0
100
AcDbLine
 10
1831.333318
 20
1031.768044
 30
0.0
 11
1831.333318
 21
1030.622203
 31
0.0
  0
LINE
  5
2F90
100
AcDbEntity
  8
0
100
AcDbLine
 10
1827.833318
 20
1023.122203
 30
0.0
 11
1831.333318
 21
1030.622203
 31
0.0
  0
ARC
  5
2F91
100
AcDbEntity
  8
0
100
AcDbCircle
 10
1951.129769
 20
1041.043662
 30
0.0
 40
27.65102
100
AcDbArc
 50
166.960836
 51
195.267994
  0
ARC
  5
2F92
100
AcDbEntity
  8
0
100
AcDbCircle
 10
1922.463055
 20
1033.433708
 30
0.0
 40
2.018556
100
AcDbArc
 50
9.365836
 51
89.55586
  0
LINE
  5
2F93
100
AcDbEntity
  8
0
100
AcDbLine
 10
1924.941653
 20
1030.622203
 30
0.0
 11
1924.454702
 21
1033.762203
 31
0.0
  0
ARC
  5
2F94
100
AcDbEntity
  8
0
100
AcDbCircle
 10
1914.543947
 20
1041.367203
 30
0.0
 40
7.102247
100
AcDbArc
 50
123.608929
 51
213.627001
  0
LINE
  5
2F95
100
AcDbEntity
  8
0
100
AcDbLine
 10
1910.612702
 20
1035.452203
 30
0.0
 11
1907.441702
 21
1038.622203
 31
0.0
  0
LINE
  5
2F96
100
AcDbEntity
  8
0
100
AcDbLine
 10
1922.478702
 20
1035.452203
 30
0.0
 11
1910.612702
 21
1035.452203
 31
0.0
  0
LINE
  5
2F97
100
AcDbEntity
  8
0
100
AcDbLine
 10
1910.612702
 20
1047.282203
 30
0.0
 11
1924.191702
 21
1047.282203
 31
0.0
  0
LINE
  5
2F98
100
AcDbEntity
  8
0
100
AcDbLine
 10
1907.441702
 20
1038.622203
 30
0.0
 11
1907.441702
 21
1059.122203
 31
0.0
  0
LINE
  5
2F99
100
AcDbEntity
  8
0
100
AcDbLine
 10
1978.825702
 20
1033.622203
 30
0.0
 11
1961.841702
 21
1033.622203
 31
0.0
  0
LINE
  5
2F9A
100
AcDbEntity
  8
0
100
AcDbLine
 10
1979.941702
 20
1047.622203
 30
0.0
 11
1947.441702
 21
1047.622203
 31
0.0
  0
LINE
  5
2F9B
100
AcDbEntity
  8
0
100
AcDbLine
 10
1961.841702
 20
1033.622203
 30
0.0
 11
1956.941702
 21
1023.122203
 31
0.0
  0
LINE
  5
2F9C
100
AcDbEntity
  8
0
100
AcDbLine
 10
1960.451702
 20
1030.622203
 30
0.0
 11
1960.441702
 21
1030.622203
 31
0.0
  0
LINE
  5
2F9D
100
AcDbEntity
  8
0
100
AcDbLine
 10
1947.441702
 20
1047.622203
 30
0.0
 11
1947.441702
 21
1031.325203
 31
0.0
  0
LINE
  5
2F9E
100
AcDbEntity
  8
0
100
AcDbLine
 10
1947.941702
 20
1023.122203
 30
0.0
 11
1944.441702
 21
1030.622203
 31
0.0
  0
ARC
  5
2F9F
100
AcDbEntity
  8
0
100
AcDbCircle
 10
1952.441015
 20
1009.322359
 30
0.0
 40
25.583068
100
AcDbArc
 50
71.775949
 51
101.268963
  0
LINE
  5
2FA0
100
AcDbEntity
  8
0
100
AcDbLine
 10
1956.941702
 20
1023.122203
 30
0.0
 11
1947.941702
 21
1023.122203
 31
0.0
  0
ARC
  5
2FA1
100
AcDbEntity
  8
0
100
AcDbCircle
 10
1962.249781
 20
1041.315474
 30
0.0
 40
19.192004
100
AcDbArc
 50
339.811747
 51
18.113271
  0
LINE
  5
2FA2
100
AcDbEntity
  8
0
100
AcDbLine
 10
1979.941702
 20
1034.912203
 30
0.0
 11
1979.941702
 21
1047.623238
 31
0.0
  0
LINE
  5
2FA3
100
AcDbEntity
  8
0
100
AcDbLine
 10
1994.270702
 20
1035.452203
 30
0.0
 11
1980.524219
 21
1035.452203
 31
0.0
  0
ARC
  5
2FA4
100
AcDbEntity
  8
0
100
AcDbCircle
 10
1978.81662
 20
1035.134338
 30
0.0
 40
1.512163
100
AcDbArc
 50
270.344108
 51
342.999134
  0
LINE
  5
2FA5
100
AcDbEntity
  8
0
100
AcDbLine
 10
1994.270702
 20
1047.282203
 30
0.0
 11
1980.490702
 21
1047.282203
 31
0.0
  0
ARC
  5
2FA6
100
AcDbEntity
  8
0
100
AcDbCircle
 10
1990.339456
 20
1041.367203
 30
0.0
 40
7.102247
100
AcDbArc
 50
326.372999
 51
56.391071
  0
LINE
  5
2FA7
100
AcDbEntity
  8
0
100
AcDbLine
 10
1997.441702
 20
1038.622203
 30
0.0
 11
1994.270702
 21
1035.452203
 31
0.0
  0
LINE
  5
2FA8
100
AcDbEntity
  8
0
100
AcDbLine
 10
1997.441702
 20
1059.122203
 30
0.0
 11
1997.441702
 21
1038.622203
 31
0.0
  0
LINE
  5
2FA9
100
AcDbEntity
  8
0
100
AcDbLine
 10
2125.434688
 20
1030.622203
 30
0.0
 11
2141.434688
 21
1030.622203
 31
0.0
  0
LINE
  5
2FAA
100
AcDbEntity
  8
0
100
AcDbLine
 10
2128.934688
 20
1023.122203
 30
0.0
 11
2137.934688
 21
1023.122203
 31
0.0
  0
ARC
  5
2FAB
100
AcDbEntity
  8
0
100
AcDbCircle
 10
2133.434688
 20
1059.122203
 30
0.0
 40
25.5
100
AcDbArc
 50
210.582063
 51
329.417937
  0
ARC
  5
2FAC
100
AcDbEntity
  8
0
100
AcDbCircle
 10
2108.899
 20
1044.622203
 30
0.0
 40
3.0
100
AcDbArc
 50
30.582063
 51
90.0
  0
LINE
  5
2FAD
100
AcDbEntity
  8
0
100
AcDbLine
 10
2108.018158
 20
1047.622203
 30
0.0
 11
2108.899
 21
1047.622203
 31
0.0
  0
ARC
  5
2FAE
100
AcDbEntity
  8
0
100
AcDbCircle
 10
2108.018158
 20
1048.622203
 30
0.0
 40
1.0
100
AcDbArc
 50
202.446351
 51
270.0
  0
LINE
  5
2FAF
100
AcDbEntity
  8
0
100
AcDbLine
 10
2128.934688
 20
1023.122203
 30
0.0
 11
2125.434688
 21
1030.622203
 31
0.0
  0
ARC
  5
2FB0
100
AcDbEntity
  8
0
100
AcDbCircle
 10
2122.434688
 20
1032.830569
 30
0.0
 40
3.0
100
AcDbArc
 50
0.0
 51
67.296344
  0
LINE
  5
2FB1
100
AcDbEntity
  8
0
100
AcDbLine
 10
2125.434688
 20
1032.830569
 30
0.0
 11
2125.434688
 21
1030.622203
 31
0.0
  0
ARC
  5
2FB2
100
AcDbEntity
  8
0
100
AcDbCircle
 10
2158.851218
 20
1048.622203
 30
0.0
 40
1.0
100
AcDbArc
 50
270.0
 51
337.553649
  0
ARC
  5
2FB3
100
AcDbEntity
  8
0
100
AcDbCircle
 10
2157.970376
 20
1044.622203
 30
0.0
 40
3.0
100
AcDbArc
 50
90.0
 51
149.417937
  0
LINE
  5
2FB4
100
AcDbEntity
  8
0
100
AcDbLine
 10
2158.851218
 20
1047.622203
 30
0.0
 11
2157.970376
 21
1047.622203
 31
0.0
  0
ARC
  5
2FB5
100
AcDbEntity
  8
0
100
AcDbCircle
 10
2144.434688
 20
1032.830569
 30
0.0
 40
3.0
100
AcDbArc
 50
112.703656
 51
180.0
  0
LINE
  5
2FB6
100
AcDbEntity
  8
0
100
AcDbLine
 10
2141.434688
 20
1032.830569
 30
0.0
 11
2141.434688
 21
1030.622203
 31
0.0
  0
LINE
  5
2FB7
100
AcDbEntity
  8
0
100
AcDbLine
 10
2141.434688
 20
1030.622203
 30
0.0
 11
2137.934688
 21
1023.122203
 31
0.0
  0
LINE
  5
2FB8
100
AcDbEntity
  8
0
100
AcDbLine
 10
1440.017723
 20
1134.313259
 30
0.0
 11
1530.016723
 21
1134.313259
 31
0.0
  0
LINE
  5
2FB9
100
AcDbEntity
  8
0
100
AcDbLine
 10
1530.016723
 20
1127.816299
 30
0.0
 11
1430.517723
 21
1124.813259
 31
0.0
  0
LINE
  5
2FBA
100
AcDbEntity
  8
0
100
AcDbLine
 10
1440.018723
 20
1239.197527
 30
0.0
 11
1523.685723
 21
1237.227527
 31
0.0
  0
LINE
  5
2FBB
100
AcDbEntity
  8
0
100
AcDbLine
 10
1523.685723
 20
1255.927527
 30
0.0
 11
1440.018723
 21
1253.957527
 31
0.0
  0
LINE
  5
2FBC
100
AcDbEntity
  8
0
100
AcDbLine
 10
924.976612
 20
1118.813259
 30
0.0
 11
1003.479612
 21
1121.310233
 31
0.0
  0
LINE
  5
2FBD
100
AcDbEntity
  8
0
100
AcDbLine
 10
1003.479612
 20
1127.313259
 30
0.0
 11
933.476612
 21
1127.313259
 31
0.0
  0
LINE
  5
2FBE
100
AcDbEntity
  8
0
100
AcDbLine
 10
935.074364
 20
1240.577527
 30
0.0
 11
997.610141
 21
1238.278038
 31
0.0
  0
LINE
  5
2FBF
100
AcDbEntity
  8
0
100
AcDbLine
 10
934.805101
 20
1252.577527
 30
0.0
 11
997.606463
 21
1254.933434
 31
0.0
  0
LINE
  5
2FC0
100
AcDbEntity
  8
0
100
AcDbLine
 10
762.368228
 20
1071.313259
 30
0.0
 11
762.368228
 21
1085.313259
 31
0.0
  0
LINE
  5
2FC1
100
AcDbEntity
  8
0
100
AcDbLine
 10
794.368228
 20
1071.313259
 30
0.0
 11
794.368228
 21
1085.313259
 31
0.0
  0
LINE
  5
2FC2
100
AcDbEntity
  8
0
100
AcDbLine
 10
786.708228
 20
1127.313259
 30
0.0
 11
786.708228
 21
1118.813259
 31
0.0
  0
LINE
  5
2FC3
100
AcDbEntity
  8
0
100
AcDbLine
 10
784.368228
 20
1106.813259
 30
0.0
 11
784.368228
 21
1125.813259
 31
0.0
  0
LINE
  5
2FC4
100
AcDbEntity
  8
0
100
AcDbLine
 10
784.368228
 20
1118.813259
 30
0.0
 11
786.708228
 21
1118.813259
 31
0.0
  0
LINE
  5
2FC5
100
AcDbEntity
  8
0
100
AcDbLine
 10
797.368228
 20
1085.313259
 30
0.0
 11
797.368228
 21
1106.813259
 31
0.0
  0
LINE
  5
2FC6
100
AcDbEntity
  8
0
100
AcDbLine
 10
770.038228
 20
1127.313259
 30
0.0
 11
770.038228
 21
1118.813259
 31
0.0
  0
LINE
  5
2FC7
100
AcDbEntity
  8
0
100
AcDbLine
 10
772.368228
 20
1106.813259
 30
0.0
 11
772.368228
 21
1125.813259
 31
0.0
  0
LINE
  5
2FC8
100
AcDbEntity
  8
0
100
AcDbLine
 10
770.038228
 20
1118.813259
 30
0.0
 11
772.368228
 21
1118.813259
 31
0.0
  0
ELLIPSE
  5
2FC9
100
AcDbEntity
  8
0
100
AcDbEllipse
 10
778.368228
 20
1116.406185
 30
0.0
 11
-4.75
 21
0.0
 31
0.0
210
0.0
220
0.0
230
1.0
 40
0.440295
 41
0.0
 42
6.283185307179586
  0
LINE
  5
2FCA
100
AcDbEntity
  8
0
100
AcDbLine
 10
759.368228
 20
1106.813259
 30
0.0
 11
759.368228
 21
1085.313259
 31
0.0
  0
LINE
  5
2FCB
100
AcDbEntity
  8
0
100
AcDbLine
 10
797.368228
 20
1085.313259
 30
0.0
 11
759.368228
 21
1085.313259
 31
0.0
  0
LINE
  5
2FCC
100
AcDbEntity
  8
0
100
AcDbLine
 10
770.038228
 20
1127.313259
 30
0.0
 11
786.708228
 21
1127.313259
 31
0.0
  0
LINE
  5
2FCD
100
AcDbEntity
  8
0
100
AcDbLine
 10
759.368228
 20
1106.813259
 30
0.0
 11
797.368228
 21
1106.813259
 31
0.0
  0
LINE
  5
2FCE
100
AcDbEntity
  8
0
100
AcDbLine
 10
784.368228
 20
1125.813259
 30
0.0
 11
772.368228
 21
1125.813259
 31
0.0
  0
LINE
  5
2FCF
100
AcDbEntity
  8
0
100
AcDbLine
 10
917.476612
 20
1066.813259
 30
0.0
 11
898.476612
 21
1066.813259
 31
0.0
  0
ARC
  5
2FD0
100
AcDbEntity
  8
0
100
AcDbCircle
 10
897.148414
 20
1083.832981
 30
0.0
 40
17.830499
100
AcDbArc
 50
287.344681
 51
335.270322
  0
LINE
  5
2FD1
100
AcDbEntity
  8
0
100
AcDbLine
 10
916.476612
 20
1085.313259
 30
0.0
 11
878.476612
 21
1085.313259
 31
0.0
  0
ARC
  5
2FD2
100
AcDbEntity
  8
0
100
AcDbCircle
 10
1000.59181
 20
888.650119
 30
0.0
 40
250.011139
100
AcDbArc
 50
108.448171
 51
119.238035
  0
LINE
  5
2FD3
100
AcDbEntity
  8
0
100
AcDbLine
 10
880.563612
 20
1106.813259
 30
0.0
 11
916.476612
 21
1106.813259
 31
0.0
  0
ARC
  5
2FD4
100
AcDbEntity
  8
0
100
AcDbCircle
 10
898.476612
 20
1069.813259
 30
0.0
 40
3.0
100
AcDbArc
 50
201.195305
 51
270.0
  0
ARC
  5
2FD5
100
AcDbEntity
  8
0
100
AcDbCircle
 10
894.747198
 20
1068.367067
 30
0.0
 40
1.0
100
AcDbArc
 50
21.195305
 51
84.434662
  0
LINE
  5
2FD6
100
AcDbEntity
  8
0
100
AcDbLine
 10
863.976612
 20
1074.313259
 30
0.0
 11
874.476612
 21
1074.313259
 31
0.0
  0
LINE
  5
2FD7
100
AcDbEntity
  8
0
100
AcDbLine
 10
863.976612
 20
1066.813259
 30
0.0
 11
876.476612
 21
1066.813259
 31
0.0
  0
LINE
  5
2FD8
100
AcDbEntity
  8
0
100
AcDbLine
 10
880.476612
 20
1079.313259
 30
0.0
 11
881.476612
 21
1080.313259
 31
0.0
  0
ARC
  5
2FD9
100
AcDbEntity
  8
0
100
AcDbCircle
 10
880.414112
 20
1070.563259
 30
0.0
 40
5.4375
100
AcDbArc
 50
136.397181
 51
223.602819
  0
LINE
  5
2FDA
100
AcDbEntity
  8
0
100
AcDbLine
 10
880.476612
 20
1079.313259
 30
0.0
 11
877.476612
 21
1079.313259
 31
0.0
  0
LINE
  5
2FDB
100
AcDbEntity
  8
0
100
AcDbLine
 10
876.476612
 20
1076.313259
 30
0.0
 11
877.476612
 21
1079.313259
 31
0.0
  0
ARC
  5
2FDC
100
AcDbEntity
  8
0
100
AcDbCircle
 10
874.476612
 20
1076.313259
 30
0.0
 40
2.0
100
AcDbArc
 50
270.0
 51
0.0
  0
LINE
  5
2FDD
100
AcDbEntity
  8
0
100
AcDbLine
 10
881.476612
 20
1080.313259
 30
0.0
 11
881.476612
 21
1085.313259
 31
0.0
  0
ARC
  5
2FDE
100
AcDbEntity
  8
0
100
AcDbCircle
 10
897.628238
 20
1086.395025
 30
0.0
 40
17.258705
100
AcDbArc
 50
200.633463
 51
260.716866
  0
ARC
  5
2FDF
100
AcDbEntity
  8
0
100
AcDbCircle
 10
867.914112
 20
1070.563259
 30
0.0
 40
5.4375
100
AcDbArc
 50
136.397181
 51
223.602819
  0
LINE
  5
2FE0
100
AcDbEntity
  8
0
100
AcDbLine
 10
863.976612
 20
1074.313259
 30
0.0
 11
862.476612
 21
1072.813259
 31
0.0
  0
LINE
  5
2FE1
100
AcDbEntity
  8
0
100
AcDbLine
 10
878.476612
 20
1106.809346
 30
0.0
 11
878.476612
 21
1085.313259
 31
0.0
  0
LINE
  5
2FE2
100
AcDbEntity
  8
0
100
AcDbLine
 10
931.976612
 20
1125.813259
 30
0.0
 11
921.476612
 21
1125.813259
 31
0.0
  0
LINE
  5
2FE3
100
AcDbEntity
  8
0
100
AcDbLine
 10
933.476612
 20
1127.313259
 30
0.0
 11
916.476612
 21
1110.315368
 31
0.0
  0
LINE
  5
2FE4
100
AcDbEntity
  8
0
100
AcDbLine
 10
930.976612
 20
1074.313259
 30
0.0
 11
920.476612
 21
1074.313259
 31
0.0
  0
LINE
  5
2FE5
100
AcDbEntity
  8
0
100
AcDbLine
 10
930.976612
 20
1066.813259
 30
0.0
 11
918.476612
 21
1066.813259
 31
0.0
  0
LINE
  5
2FE6
100
AcDbEntity
  8
0
100
AcDbLine
 10
913.476612
 20
1078.313259
 30
0.0
 11
913.476612
 21
1085.313259
 31
0.0
  0
ARC
  5
2FE7
100
AcDbEntity
  8
0
100
AcDbCircle
 10
914.539112
 20
1070.563259
 30
0.0
 40
5.4375
100
AcDbArc
 50
316.397181
 51
43.602819
  0
ARC
  5
2FE8
100
AcDbEntity
  8
0
100
AcDbCircle
 10
917.476612
 20
1067.813259
 30
0.0
 40
1.0
100
AcDbArc
 50
270.0
 51
0.0
  0
ARC
  5
2FE9
100
AcDbEntity
  8
0
100
AcDbCircle
 10
915.476612
 20
1078.313259
 30
0.0
 40
2.0
100
AcDbArc
 50
180.0
 51
270.0
  0
LINE
  5
2FEA
100
AcDbEntity
  8
0
100
AcDbLine
 10
918.476612
 20
1076.313259
 30
0.0
 11
918.476612
 21
1067.813259
 31
0.0
  0
ARC
  5
2FEB
100
AcDbEntity
  8
0
100
AcDbCircle
 10
920.476612
 20
1076.313259
 30
0.0
 40
2.0
100
AcDbArc
 50
180.0
 51
270.0
  0
LINE
  5
2FEC
100
AcDbEntity
  8
0
100
AcDbLine
 10
918.476612
 20
1076.313259
 30
0.0
 11
915.476612
 21
1076.313259
 31
0.0
  0
ARC
  5
2FED
100
AcDbEntity
  8
0
100
AcDbCircle
 10
927.039112
 20
1070.563259
 30
0.0
 40
5.4375
100
AcDbArc
 50
316.397181
 51
43.602819
  0
LINE
  5
2FEE
100
AcDbEntity
  8
0
100
AcDbLine
 10
930.976612
 20
1074.313259
 30
0.0
 11
932.476612
 21
1072.813259
 31
0.0
  0
LINE
  5
2FEF
100
AcDbEntity
  8
0
100
AcDbLine
 10
916.476612
 20
1085.313259
 30
0.0
 11
916.476612
 21
1110.315368
 31
0.0
  0
LINE
  5
2FF0
100
AcDbEntity
  8
0
100
AcDbLine
 10
932.476612
 20
1253.787527
 30
0.0
 11
932.476612
 21
1260.077527
 31
0.0
  0
ARC
  5
2FF1
100
AcDbEntity
  8
0
100
AcDbCircle
 10
921.161745
 20
1253.516486
 30
0.0
 40
11.320949
100
AcDbArc
 50
355.242428
 51
35.418808
  0
LINE
  5
2FF2
100
AcDbEntity
  8
0
100
AcDbLine
 10
916.476612
 20
1252.577527
 30
0.0
 11
916.476612
 21
1262.267527
 31
0.0
  0
ARC
  5
2FF3
100
AcDbEntity
  8
0
100
AcDbCircle
 10
903.813431
 20
1253.332758
 30
0.0
 40
16.140037
100
AcDbArc
 50
357.318017
 51
24.701484
  0
LINE
  5
2FF4
100
AcDbEntity
  8
0
100
AcDbLine
 10
862.476612
 20
1260.077527
 30
0.0
 11
862.476612
 21
1246.577527
 31
0.0
  0
ARC
  5
2FF5
100
AcDbEntity
  8
0
100
AcDbCircle
 10
876.982399
 20
1253.327527
 30
0.0
 40
14.133787
100
AcDbArc
 50
151.472597
 51
208.527403
  0
ARC
  5
2FF6
100
AcDbEntity
  8
0
100
AcDbCircle
 10
888.894399
 20
1253.327527
 30
0.0
 40
14.133787
100
AcDbArc
 50
151.472597
 51
208.527403
  0
LINE
  5
2FF7
100
AcDbEntity
  8
0
100
AcDbLine
 10
877.476612
 20
1262.907527
 30
0.0
 11
877.476612
 21
1230.477527
 31
0.0
  0
LINE
  5
2FF8
100
AcDbEntity
  8
0
100
AcDbLine
 10
880.476612
 20
1266.577527
 30
0.0
 11
880.476612
 21
1255.067527
 31
0.0
  0
ARC
  5
2FF9
100
AcDbEntity
  8
0
100
AcDbCircle
 10
897.476358
 20
1246.57754
 30
0.0
 40
18.999746
100
AcDbArc
 50
18.408696
 51
180.000037
  0
LINE
  5
2FFA
100
AcDbEntity
  8
0
100
AcDbLine
 10
905.961612
 20
1229.577527
 30
0.0
 11
915.895612
 21
1229.577527
 31
0.0
  0
LINE
  5
2FFB
100
AcDbEntity
  8
0
100
AcDbLine
 10
934.805101
 20
1252.577527
 30
0.0
 11
879.448865
 21
1252.577527
 31
0.0
  0
LINE
  5
2FFC
100
AcDbEntity
  8
0
100
AcDbLine
 10
935.074364
 20
1240.577527
 30
0.0
 11
879.448814
 21
1240.577527
 31
0.0
  0
ARC
  5
2FFD
100
AcDbEntity
  8
0
100
AcDbCircle
 10
897.476328
 20
1246.577357
 30
0.0
 40
18.999716
100
AcDbArc
 50
179.999487
 51
341.591776
  0
LINE
  5
2FFE
100
AcDbEntity
  8
0
100
AcDbLine
 10
877.476663
 20
1226.577527
 30
0.0
 11
915.737612
 21
1226.577527
 31
0.0
  0
CIRCLE
  5
2FFF
100
AcDbEntity
  8
0
100
AcDbCircle
 10
897.476612
 20
1246.577527
 30
0.0
 40
4.75014
  0
LINE
  5
3000
100
AcDbEntity
  8
0
100
AcDbLine
 10
864.564612
 20
1246.577527
 30
0.0
 11
876.476612
 21
1246.577527
 31
0.0
  0
LINE
  5
3001
100
AcDbEntity
  8
0
100
AcDbLine
 10
862.476612
 20
1233.077527
 30
0.0
 11
876.474511
 21
1233.077527
 31
0.0
  0
LINE
  5
3002
100
AcDbEntity
  8
0
100
AcDbLine
 10
880.476612
 20
1238.097527
 30
0.0
 11
880.476612
 21
1226.577527
 31
0.0
  0
LINE
  5
3003
100
AcDbEntity
  8
0
100
AcDbLine
 10
876.474511
 20
1233.077527
 30
0.0
 11
877.476663
 21
1226.577527
 31
0.0
  0
LINE
  5
3004
100
AcDbEntity
  8
0
100
AcDbLine
 10
862.476612
 20
1246.577527
 30
0.0
 11
862.476612
 21
1233.077527
 31
0.0
  0
ARC
  5
3005
100
AcDbEntity
  8
0
100
AcDbCircle
 10
876.982399
 20
1239.827527
 30
0.0
 40
14.133787
100
AcDbArc
 50
151.472597
 51
208.527403
  0
ARC
  5
3006
100
AcDbEntity
  8
0
100
AcDbCircle
 10
888.894399
 20
1239.827527
 30
0.0
 40
14.133787
100
AcDbArc
 50
151.472597
 51
208.527403
  0
LINE
  5
3007
100
AcDbEntity
  8
0
100
AcDbLine
 10
938.478612
 20
1252.715334
 30
0.0
 11
938.478612
 21
1240.452351
 31
0.0
  0
LINE
  5
3008
100
AcDbEntity
  8
0
100
AcDbLine
 10
926.478612
 20
1251.489036
 30
0.0
 11
926.478612
 21
1241.678649
 31
0.0
  0
LINE
  5
3009
100
AcDbEntity
  8
0
100
AcDbLine
 10
919.636612
 20
1233.077527
 30
0.0
 11
915.895612
 21
1229.577527
 31
0.0
  0
LINE
  5
300A
100
AcDbEntity
  8
0
100
AcDbLine
 10
919.636612
 20
1233.077527
 30
0.0
 11
932.476612
 21
1233.077527
 31
0.0
  0
LINE
  5
300B
100
AcDbEntity
  8
0
100
AcDbLine
 10
919.636612
 20
1233.077527
 30
0.0
 11
915.737612
 21
1226.577527
 31
0.0
  0
LINE
  5
300C
100
AcDbEntity
  8
0
100
AcDbLine
 10
916.476612
 20
1231.217527
 30
0.0
 11
916.476612
 21
1240.577527
 31
0.0
  0
ARC
  5
300D
100
AcDbEntity
  8
0
100
AcDbCircle
 10
903.813431
 20
1239.822297
 30
0.0
 40
16.140037
100
AcDbArc
 50
335.298516
 51
2.681983
  0
LINE
  5
300E
100
AcDbEntity
  8
0
100
AcDbLine
 10
932.476612
 20
1233.077527
 30
0.0
 11
932.476612
 21
1239.367527
 31
0.0
  0
ARC
  5
300F
100
AcDbEntity
  8
0
100
AcDbCircle
 10
920.456279
 20
1239.86776
 30
0.0
 40
12.030738
100
AcDbArc
 50
325.638874
 51
3.382193
  0
LINE
  5
3010
100
AcDbEntity
  8
0
100
AcDbLine
 10
905.961612
 20
1263.577527
 30
0.0
 11
915.895612
 21
1263.577527
 31
0.0
  0
LINE
  5
3011
100
AcDbEntity
  8
0
100
AcDbLine
 10
915.737612
 20
1266.577527
 30
0.0
 11
877.476663
 21
1266.577527
 31
0.0
  0
LINE
  5
3012
100
AcDbEntity
  8
0
100
AcDbLine
 10
876.474511
 20
1260.077527
 30
0.0
 11
862.476612
 21
1260.077527
 31
0.0
  0
LINE
  5
3013
100
AcDbEntity
  8
0
100
AcDbLine
 10
877.476663
 20
1266.577527
 30
0.0
 11
876.474511
 21
1260.077527
 31
0.0
  0
LINE
  5
3014
100
AcDbEntity
  8
0
100
AcDbLine
 10
932.476612
 20
1260.077527
 30
0.0
 11
919.636612
 21
1260.077527
 31
0.0
  0
LINE
  5
3015
100
AcDbEntity
  8
0
100
AcDbLine
 10
919.636612
 20
1260.077527
 30
0.0
 11
915.895612
 21
1263.577527
 31
0.0
  0
LINE
  5
3016
100
AcDbEntity
  8
0
100
AcDbLine
 10
919.636612
 20
1260.077527
 30
0.0
 11
915.737612
 21
1266.577527
 31
0.0
  0
ARC
  5
3017
100
AcDbEntity
  8
0
100
AcDbCircle
 10
1058.469599
 20
1059.313259
 30
0.0
 40
17.0
100
AcDbArc
 50
30.0
 51
150.0
  0
LINE
  5
3018
100
AcDbEntity
  8
0
100
AcDbLine
 10
1077.469599
 20
1085.313259
 30
0.0
 11
1039.469599
 21
1085.313259
 31
0.0
  0
LINE
  5
3019
100
AcDbEntity
  8
0
100
AcDbLine
 10
1039.469599
 20
1106.813259
 30
0.0
 11
1077.469599
 21
1106.813259
 31
0.0
  0
LINE
  5
301A
100
AcDbEntity
  8
0
100
AcDbLine
 10
1050.139599
 20
1127.313259
 30
0.0
 11
1066.809599
 21
1127.313259
 31
0.0
  0
LINE
  5
301B
100
AcDbEntity
  8
0
100
AcDbLine
 10
1050.139599
 20
1118.813259
 30
0.0
 11
1066.809599
 21
1118.813259
 31
0.0
  0
LINE
  5
301C
100
AcDbEntity
  8
0
100
AcDbLine
 10
1003.479612
 20
1121.310233
 30
0.0
 11
1003.479612
 21
1127.313259
 31
0.0
  0
ARC
  5
301D
100
AcDbEntity
  8
0
100
AcDbCircle
 10
1042.015116
 20
1068.813259
 30
0.0
 40
2.0
100
AcDbArc
 50
270.0
 51
330.0
  0
ARC
  5
301E
100
AcDbEntity
  8
0
100
AcDbCircle
 10
1040.616027
 20
1065.813259
 30
0.0
 40
1.0
100
AcDbArc
 50
90.0
 51
159.99481
  0
LINE
  5
301F
100
AcDbEntity
  8
0
100
AcDbLine
 10
1042.015116
 20
1066.813259
 30
0.0
 11
1040.616027
 21
1066.813259
 31
0.0
  0
LINE
  5
3020
100
AcDbEntity
  8
0
100
AcDbLine
 10
1042.469599
 20
1066.865583
 30
0.0
 11
1042.469599
 21
1085.313259
 31
0.0
  0
LINE
  5
3021
100
AcDbEntity
  8
0
100
AcDbLine
 10
1053.240693
 20
1110.315368
 30
0.0
 11
1063.698504
 21
1110.315368
 31
0.0
  0
LINE
  5
3022
100
AcDbEntity
  8
0
100
AcDbLine
 10
1050.139599
 20
1127.313259
 30
0.0
 11
1050.139599
 21
1118.813259
 31
0.0
  0
LINE
  5
3023
100
AcDbEntity
  8
0
100
AcDbLine
 10
1052.469599
 20
1106.813259
 30
0.0
 11
1052.469599
 21
1118.813259
 31
0.0
  0
LINE
  5
3024
100
AcDbEntity
  8
0
100
AcDbLine
 10
1064.469599
 20
1106.813259
 30
0.0
 11
1064.469599
 21
1118.813259
 31
0.0
  0
LINE
  5
3025
100
AcDbEntity
  8
0
100
AcDbLine
 10
1039.469599
 20
1106.813259
 30
0.0
 11
1039.469599
 21
1085.313259
 31
0.0
  0
ARC
  5
3026
100
AcDbEntity
  8
0
100
AcDbCircle
 10
1074.924081
 20
1068.813259
 30
0.0
 40
2.0
100
AcDbArc
 50
210.0
 51
270.0
  0
ARC
  5
3027
100
AcDbEntity
  8
0
100
AcDbCircle
 10
1076.32317
 20
1065.813259
 30
0.0
 40
1.0
100
AcDbArc
 50
20.00519
 51
90.0
  0
LINE
  5
3028
100
AcDbEntity
  8
0
100
AcDbLine
 10
1074.924081
 20
1066.813259
 30
0.0
 11
1076.32317
 21
1066.813259
 31
0.0
  0
LINE
  5
3029
100
AcDbEntity
  8
0
100
AcDbLine
 10
1074.469599
 20
1066.865583
 30
0.0
 11
1074.469599
 21
1085.313259
 31
0.0
  0
LINE
  5
302A
100
AcDbEntity
  8
0
100
AcDbLine
 10
1066.809599
 20
1127.313259
 30
0.0
 11
1066.809599
 21
1118.813259
 31
0.0
  0
LINE
  5
302B
100
AcDbEntity
  8
0
100
AcDbLine
 10
1077.469599
 20
1085.313259
 30
0.0
 11
1077.469599
 21
1106.813259
 31
0.0
  0
ARC
  5
302C
100
AcDbEntity
  8
0
100
AcDbCircle
 10
973.476612
 20
1246.607527
 30
0.0
 40
30.0
100
AcDbArc
 50
353.359403
 51
6.632519
  0
ARC
  5
302D
100
AcDbEntity
  8
0
100
AcDbCircle
 10
997.812643
 20
1249.4373
 30
0.0
 40
5.5
100
AcDbArc
 50
6.632519
 51
92.148365
  0
ARC
  5
302E
100
AcDbEntity
  8
0
100
AcDbCircle
 10
997.812243
 20
1243.774323
 30
0.0
 40
5.5
100
AcDbArc
 50
267.894138
 51
353.359403
  0
ARC
  5
302F
100
AcDbEntity
  8
0
100
AcDbCircle
 10
995.312537
 20
1243.745195
 30
0.0
 40
5.501158
100
AcDbArc
 50
267.958967
 51
353.343586
  0
ARC
  5
3030
100
AcDbEntity
  8
0
100
AcDbCircle
 10
995.312528
 20
1249.419849
 30
0.0
 40
5.501168
100
AcDbArc
 50
6.656514
 51
92.040933
  0
ARC
  5
3031
100
AcDbEntity
  8
0
100
AcDbCircle
 10
970.986679
 20
1246.582527
 30
0.0
 40
29.991928
100
AcDbArc
 50
353.346509
 51
6.653491
  0
LINE
  5
3032
100
AcDbEntity
  8
0
100
AcDbLine
 10
916.476612
 20
1457.907334
 30
0.0
 11
916.476612
 21
1436.411248
 31
0.0
  0
LINE
  5
3033
100
AcDbEntity
  8
0
100
AcDbLine
 10
878.476612
 20
1436.411248
 30
0.0
 11
878.476612
 21
1461.413357
 31
0.0
  0
LINE
  5
3034
100
AcDbEntity
  8
0
100
AcDbLine
 10
903.476612
 20
1388.911248
 30
0.0
 11
903.476612
 21
1390.411248
 31
0.0
  0
LINE
  5
3035
100
AcDbEntity
  8
0
100
AcDbLine
 10
891.476612
 20
1388.911248
 30
0.0
 11
891.476612
 21
1390.411248
 31
0.0
  0
LINE
  5
3036
100
AcDbEntity
  8
0
100
AcDbLine
 10
903.476612
 20
1388.911248
 30
0.0
 11
901.476612
 21
1383.411248
 31
0.0
  0
LINE
  5
3037
100
AcDbEntity
  8
0
100
AcDbLine
 10
891.476612
 20
1388.911248
 30
0.0
 11
893.476612
 21
1383.411248
 31
0.0
  0
LINE
  5
3038
100
AcDbEntity
  8
0
100
AcDbLine
 10
893.476612
 20
1383.411248
 30
0.0
 11
901.476612
 21
1383.411248
 31
0.0
  0
LINE
  5
3039
100
AcDbEntity
  8
0
100
AcDbLine
 10
891.476612
 20
1388.911248
 30
0.0
 11
903.476612
 21
1388.911248
 31
0.0
  0
ARC
  5
303A
100
AcDbEntity
  8
0
100
AcDbCircle
 10
897.324986
 20
1437.493013
 30
0.0
 40
17.258705
100
AcDbArc
 50
279.283134
 51
339.366537
  0
LINE
  5
303B
100
AcDbEntity
  8
0
100
AcDbLine
 10
902.476612
 20
1390.411248
 30
0.0
 11
917.476612
 21
1390.411248
 31
0.0
  0
LINE
  5
303C
100
AcDbEntity
  8
0
100
AcDbLine
 10
878.476612
 20
1436.411248
 30
0.0
 11
916.476612
 21
1436.411248
 31
0.0
  0
ARC
  5
303D
100
AcDbEntity
  8
0
100
AcDbCircle
 10
896.476612
 20
1420.911248
 30
0.0
 40
3.0
100
AcDbArc
 50
270.0
 51
338.804695
  0
ARC
  5
303E
100
AcDbEntity
  8
0
100
AcDbCircle
 10
900.206026
 20
1419.465055
 30
0.0
 40
1.0
100
AcDbArc
 50
95.565338
 51
158.804695
  0
ARC
  5
303F
100
AcDbEntity
  8
0
100
AcDbCircle
 10
896.476612
 20
1399.911248
 30
0.0
 40
3.0
100
AcDbArc
 50
0.0
 51
90.0
  0
LINE
  5
3040
100
AcDbEntity
  8
0
100
AcDbLine
 10
899.476612
 20
1393.411248
 30
0.0
 11
899.476612
 21
1399.911248
 31
0.0
  0
ARC
  5
3041
100
AcDbEntity
  8
0
100
AcDbCircle
 10
902.476612
 20
1393.411248
 30
0.0
 40
3.0
100
AcDbArc
 50
180.0
 51
270.0
  0
LINE
  5
3042
100
AcDbEntity
  8
0
100
AcDbLine
 10
881.476612
 20
1429.411248
 30
0.0
 11
881.476612
 21
1436.411248
 31
0.0
  0
ARC
  5
3043
100
AcDbEntity
  8
0
100
AcDbCircle
 10
897.804811
 20
1434.930969
 30
0.0
 40
17.830499
100
AcDbArc
 50
204.729678
 51
252.655319
  0
ARC
  5
3044
100
AcDbEntity
  8
0
100
AcDbCircle
 10
877.476612
 20
1418.911248
 30
0.0
 40
1.0
100
AcDbArc
 50
180.0
 51
270.0
  0
ARC
  5
3045
100
AcDbEntity
  8
0
100
AcDbCircle
 10
880.414112
 20
1421.661248
 30
0.0
 40
5.4375
100
AcDbArc
 50
136.397181
 51
223.602819
  0
LINE
  5
3046
100
AcDbEntity
  8
0
100
AcDbLine
 10
876.476612
 20
1427.411248
 30
0.0
 11
876.476612
 21
1418.911248
 31
0.0
  0
LINE
  5
3047
100
AcDbEntity
  8
0
100
AcDbLine
 10
876.476612
 20
1427.411248
 30
0.0
 11
879.476612
 21
1427.411248
 31
0.0
  0
ARC
  5
3048
100
AcDbEntity
  8
0
100
AcDbCircle
 10
874.476612
 20
1427.411248
 30
0.0
 40
2.0
100
AcDbArc
 50
270.0
 51
0.0
  0
ARC
  5
3049
100
AcDbEntity
  8
0
100
AcDbCircle
 10
879.476612
 20
1429.411248
 30
0.0
 40
2.0
100
AcDbArc
 50
270.0
 51
0.0
  0
ARC
  5
304A
100
AcDbEntity
  8
0
100
AcDbCircle
 10
867.914112
 20
1421.661248
 30
0.0
 40
5.4375
100
AcDbArc
 50
136.397181
 51
223.602819
  0
LINE
  5
304B
100
AcDbEntity
  8
0
100
AcDbLine
 10
863.976612
 20
1425.411248
 30
0.0
 11
862.476612
 21
1423.911248
 31
0.0
  0
LINE
  5
304C
100
AcDbEntity
  8
0
100
AcDbLine
 10
863.976612
 20
1417.911248
 30
0.0
 11
876.476612
 21
1417.911248
 31
0.0
  0
LINE
  5
304D
100
AcDbEntity
  8
0
100
AcDbLine
 10
863.976612
 20
1425.411248
 30
0.0
 11
874.476612
 21
1425.411248
 31
0.0
  0
LINE
  5
304E
100
AcDbEntity
  8
0
100
AcDbLine
 10
876.476612
 20
1401.911248
 30
0.0
 11
876.476612
 21
1393.411248
 31
0.0
  0
ARC
  5
304F
100
AcDbEntity
  8
0
100
AcDbCircle
 10
874.476612
 20
1393.411248
 30
0.0
 40
2.0
100
AcDbArc
 50
0.0
 51
90.0
  0
ARC
  5
3050
100
AcDbEntity
  8
0
100
AcDbCircle
 10
880.414112
 20
1399.161248
 30
0.0
 40
5.4375
100
AcDbArc
 50
136.397181
 51
223.602819
  0
LINE
  5
3051
100
AcDbEntity
  8
0
100
AcDbLine
 10
876.476612
 20
1393.411248
 30
0.0
 11
888.476612
 21
1393.411248
 31
0.0
  0
ARC
  5
3052
100
AcDbEntity
  8
0
100
AcDbCircle
 10
888.476612
 20
1390.411248
 30
0.0
 40
3.0
100
AcDbArc
 50
0.0
 51
90.0
  0
ARC
  5
3053
100
AcDbEntity
  8
0
100
AcDbCircle
 10
877.476612
 20
1401.911248
 30
0.0
 40
1.0
100
AcDbArc
 50
90.0
 51
180.0
  0
LINE
  5
3054
100
AcDbEntity
  8
0
100
AcDbLine
 10
862.476612
 20
1396.911248
 30
0.0
 11
862.476612
 21
1410.411248
 31
0.0
  0
ARC
  5
3055
100
AcDbEntity
  8
0
100
AcDbCircle
 10
867.914112
 20
1399.161248
 30
0.0
 40
5.4375
100
AcDbArc
 50
136.397181
 51
223.602819
  0
LINE
  5
3056
100
AcDbEntity
  8
0
100
AcDbLine
 10
863.976612
 20
1395.411248
 30
0.0
 11
862.476612
 21
1396.911248
 31
0.0
  0
LINE
  5
3057
100
AcDbEntity
  8
0
100
AcDbLine
 10
863.976612
 20
1402.911248
 30
0.0
 11
876.476612
 21
1402.911248
 31
0.0
  0
LINE
  5
3058
100
AcDbEntity
  8
0
100
AcDbLine
 10
863.976612
 20
1395.411248
 30
0.0
 11
874.476612
 21
1395.411248
 31
0.0
  0
ARC
  5
3059
100
AcDbEntity
  8
0
100
AcDbCircle
 10
881.976612
 20
1410.411248
 30
0.0
 40
19.5
100
AcDbArc
 50
157.380135
 51
202.619865
  0
LINE
  5
305A
100
AcDbEntity
  8
0
100
AcDbLine
 10
862.476612
 20
1410.411248
 30
0.0
 11
862.476612
 21
1423.911248
 31
0.0
  0
LINE
  5
305B
100
AcDbEntity
  8
0
100
AcDbLine
 10
878.476612
 20
1417.911248
 30
0.0
 11
878.476612
 21
1402.911248
 31
0.0
  0
ARC
  5
305C
100
AcDbEntity
  8
0
100
AcDbCircle
 10
894.476612
 20
1410.411248
 30
0.0
 40
19.5
100
AcDbArc
 50
157.380135
 51
202.619865
  0
LINE
  5
305D
100
AcDbEntity
  8
0
100
AcDbLine
 10
877.476612
 20
1402.911248
 30
0.0
 11
896.476612
 21
1402.911248
 31
0.0
  0
LINE
  5
305E
100
AcDbEntity
  8
0
100
AcDbLine
 10
877.476612
 20
1417.911248
 30
0.0
 11
896.476612
 21
1417.911248
 31
0.0
  0
LINE
  5
305F
100
AcDbEntity
  8
0
100
AcDbLine
 10
930.976612
 20
1425.411248
 30
0.0
 11
920.476612
 21
1425.411248
 31
0.0
  0
ARC
  5
3060
100
AcDbEntity
  8
0
100
AcDbCircle
 10
927.039112
 20
1421.661248
 30
0.0
 40
5.4375
100
AcDbArc
 50
316.397181
 51
43.602819
  0
LINE
  5
3061
100
AcDbEntity
  8
0
100
AcDbLine
 10
930.976612
 20
1425.411248
 30
0.0
 11
932.476612
 21
1423.911248
 31
0.0
  0
LINE
  5
3062
100
AcDbEntity
  8
0
100
AcDbLine
 10
914.476612
 20
1430.411248
 30
0.0
 11
913.476612
 21
1431.411248
 31
0.0
  0
ARC
  5
3063
100
AcDbEntity
  8
0
100
AcDbCircle
 10
914.539112
 20
1421.661248
 30
0.0
 40
5.4375
100
AcDbArc
 50
316.397181
 51
43.602819
  0
LINE
  5
3064
100
AcDbEntity
  8
0
100
AcDbLine
 10
914.476612
 20
1430.411248
 30
0.0
 11
917.476612
 21
1430.411248
 31
0.0
  0
LINE
  5
3065
100
AcDbEntity
  8
0
100
AcDbLine
 10
918.476612
 20
1427.411248
 30
0.0
 11
917.476612
 21
1430.411248
 31
0.0
  0
LINE
  5
3066
100
AcDbEntity
  8
0
100
AcDbLine
 10
913.476612
 20
1431.411248
 30
0.0
 11
913.476612
 21
1436.411248
 31
0.0
  0
LINE
  5
3067
100
AcDbEntity
  8
0
100
AcDbLine
 10
930.976612
 20
1417.911248
 30
0.0
 11
918.476612
 21
1417.911248
 31
0.0
  0
ARC
  5
3068
100
AcDbEntity
  8
0
100
AcDbCircle
 10
920.476612
 20
1427.411248
 30
0.0
 40
2.0
100
AcDbArc
 50
180.0
 51
270.0
  0
LINE
  5
3069
100
AcDbEntity
  8
0
100
AcDbLine
 10
932.476612
 20
1396.911248
 30
0.0
 11
932.476612
 21
1410.411248
 31
0.0
  0
LINE
  5
306A
100
AcDbEntity
  8
0
100
AcDbLine
 10
930.976612
 20
1395.411248
 30
0.0
 11
920.476612
 21
1395.411248
 31
0.0
  0
LINE
  5
306B
100
AcDbEntity
  8
0
100
AcDbLine
 10
930.976612
 20
1395.411248
 30
0.0
 11
932.476612
 21
1396.911248
 31
0.0
  0
ARC
  5
306C
100
AcDbEntity
  8
0
100
AcDbCircle
 10
927.039112
 20
1399.161248
 30
0.0
 40
5.4375
100
AcDbArc
 50
316.397181
 51
43.602819
  0
ARC
  5
306D
100
AcDbEntity
  8
0
100
AcDbCircle
 10
914.539112
 20
1399.161248
 30
0.0
 40
5.4375
100
AcDbArc
 50
316.397181
 51
43.602819
  0
LINE
  5
306E
100
AcDbEntity
  8
0
100
AcDbLine
 10
918.476612
 20
1393.411248
 30
0.0
 11
917.476612
 21
1390.411248
 31
0.0
  0
LINE
  5
306F
100
AcDbEntity
  8
0
100
AcDbLine
 10
930.976612
 20
1402.911248
 30
0.0
 11
918.476612
 21
1402.911248
 31
0.0
  0
ARC
  5
3070
100
AcDbEntity
  8
0
100
AcDbCircle
 10
920.476612
 20
1393.411248
 30
0.0
 40
2.0
100
AcDbArc
 50
90.0
 51
180.0
  0
LINE
  5
3071
100
AcDbEntity
  8
0
100
AcDbLine
 10
917.476612
 20
1390.411248
 30
0.0
 11
917.476612
 21
1430.411248
 31
0.0
  0
LINE
  5
3072
100
AcDbEntity
  8
0
100
AcDbLine
 10
914.476612
 20
1390.411248
 30
0.0
 11
914.476612
 21
1430.411248
 31
0.0
  0
ARC
  5
3073
100
AcDbEntity
  8
0
100
AcDbCircle
 10
900.476612
 20
1410.411248
 30
0.0
 40
19.5
100
AcDbArc
 50
337.380135
 51
22.619865
  0
ARC
  5
3074
100
AcDbEntity
  8
0
100
AcDbCircle
 10
912.976612
 20
1410.411248
 30
0.0
 40
19.5
100
AcDbArc
 50
337.380135
 51
22.619865
  0
LINE
  5
3075
100
AcDbEntity
  8
0
100
AcDbLine
 10
932.476612
 20
1410.411248
 30
0.0
 11
932.476612
 21
1423.911248
 31
0.0
  0
LINE
  5
3076
100
AcDbEntity
  8
0
100
AcDbLine
 10
791.473612
 20
1478.411248
 30
0.0
 11
861.476612
 21
1478.411248
 31
0.0
  0
LINE
  5
3077
100
AcDbEntity
  8
0
100
AcDbLine
 10
869.976612
 20
1469.911248
 30
0.0
 11
791.473612
 21
1472.408222
 31
0.0
  0
LINE
  5
3078
100
AcDbEntity
  8
0
100
AcDbLine
 10
791.473612
 20
1472.408222
 30
0.0
 11
791.473612
 21
1478.411248
 31
0.0
  0
ARC
  5
3079
100
AcDbEntity
  8
0
100
AcDbCircle
 10
794.361414
 20
1239.748107
 30
0.0
 40
250.011139
100
AcDbArc
 50
60.761965
 51
71.551829
  0
LINE
  5
307A
100
AcDbEntity
  8
0
100
AcDbLine
 10
914.389612
 20
1457.911248
 30
0.0
 11
878.476612
 21
1457.911248
 31
0.0
  0
LINE
  5
307B
100
AcDbEntity
  8
0
100
AcDbLine
 10
861.476612
 20
1478.411248
 30
0.0
 11
878.476612
 21
1461.413357
 31
0.0
  0
LINE
  5
307C
100
AcDbEntity
  8
0
100
AcDbLine
 10
862.976612
 20
1476.911248
 30
0.0
 11
873.476612
 21
1476.911248
 31
0.0
  0
LINE
  5
307D
100
AcDbEntity
  8
0
100
AcDbLine
 10
1256.909339
 20
1090.813259
 30
0.0
 11
1294.909339
 21
1090.813259
 31
0.0
  0
LINE
  5
307E
100
AcDbEntity
  8
0
100
AcDbLine
 10
1259.909339
 20
1089.313259
 30
0.0
 11
1291.909339
 21
1089.313259
 31
0.0
  0
LINE
  5
307F
100
AcDbEntity
  8
0
100
AcDbLine
 10
1256.913807
 20
1111.813259
 30
0.0
 11
1294.909339
 21
1111.813259
 31
0.0
  0
LINE
  5
3080
100
AcDbEntity
  8
0
100
AcDbLine
 10
1259.909339
 20
1089.313259
 30
0.0
 11
1259.909339
 21
1090.813259
 31
0.0
  0
LINE
  5
3081
100
AcDbEntity
  8
0
100
AcDbLine
 10
1256.909339
 20
1090.813259
 30
0.0
 11
1256.913807
 21
1111.813259
 31
0.0
  0
LINE
  5
3082
100
AcDbEntity
  8
0
100
AcDbLine
 10
1259.909339
 20
1089.313259
 30
0.0
 11
1259.909339
 21
1075.644914
 31
0.0
  0
LINE
  5
3083
100
AcDbEntity
  8
0
100
AcDbLine
 10
1361.767723
 20
1068.188259
 30
0.0
 11
1374.517723
 21
1068.188259
 31
0.0
  0
LINE
  5
3084
100
AcDbEntity
  8
0
100
AcDbLine
 10
1361.767723
 20
1077.063259
 30
0.0
 11
1373.330457
 21
1077.063259
 31
0.0
  0
LINE
  5
3085
100
AcDbEntity
  8
0
100
AcDbLine
 10
1266.559339
 20
1123.810401
 30
0.0
 11
1266.559339
 21
1134.313259
 31
0.0
  0
LINE
  5
3086
100
AcDbEntity
  8
0
100
AcDbLine
 10
1285.259339
 20
1123.810401
 30
0.0
 11
1285.259339
 21
1134.313259
 31
0.0
  0
LINE
  5
3087
100
AcDbEntity
  8
0
100
AcDbLine
 10
1282.909339
 20
1111.813259
 30
0.0
 11
1282.909339
 21
1132.813259
 31
0.0
  0
LINE
  5
3088
100
AcDbEntity
  8
0
100
AcDbLine
 10
1268.909339
 20
1111.813259
 30
0.0
 11
1268.909339
 21
1132.813259
 31
0.0
  0
ELLIPSE
  5
3089
100
AcDbEntity
  8
0
100
AcDbEllipse
 10
1275.909339
 20
1122.145908
 30
0.0
 11
-4.75
 21
0.0
 31
0.0
210
0.0
220
0.0
230
1.0
 40
0.487122
 41
0.0
 42
6.283185307179586
  0
LINE
  5
308A
100
AcDbEntity
  8
0
100
AcDbLine
 10
1282.909339
 20
1123.810401
 30
0.0
 11
1285.259339
 21
1123.810401
 31
0.0
  0
LINE
  5
308B
100
AcDbEntity
  8
0
100
AcDbLine
 10
1291.909339
 20
1090.813259
 30
0.0
 11
1291.909339
 21
1089.313259
 31
0.0
  0
LINE
  5
308C
100
AcDbEntity
  8
0
100
AcDbLine
 10
1294.909339
 20
1111.813259
 30
0.0
 11
1294.909339
 21
1090.813259
 31
0.0
  0
LINE
  5
308D
100
AcDbEntity
  8
0
100
AcDbLine
 10
1266.559339
 20
1123.810401
 30
0.0
 11
1268.909339
 21
1123.810401
 31
0.0
  0
LINE
  5
308E
100
AcDbEntity
  8
0
100
AcDbLine
 10
1291.909339
 20
1089.313259
 30
0.0
 11
1291.909339
 21
1075.644914
 31
0.0
  0
LINE
  5
308F
100
AcDbEntity
  8
0
100
AcDbLine
 10
1360.017723
 20
1075.313259
 30
0.0
 11
1361.767723
 21
1077.063259
 31
0.0
  0
ARC
  5
3090
100
AcDbEntity
  8
0
100
AcDbCircle
 10
1366.518839
 20
1072.625759
 30
0.0
 40
6.501116
100
AcDbArc
 50
136.9548
 51
223.0452
  0
LINE
  5
3091
100
AcDbEntity
  8
0
100
AcDbLine
 10
1282.909339
 20
1132.813259
 30
0.0
 11
1268.909339
 21
1132.813259
 31
0.0
  0
LINE
  5
3092
100
AcDbEntity
  8
0
100
AcDbLine
 10
1266.559339
 20
1134.313259
 30
0.0
 11
1285.259339
 21
1134.313259
 31
0.0
  0
ARC
  5
3093
100
AcDbEntity
  8
0
100
AcDbCircle
 10
1533.589492
 20
853.960671
 30
0.0
 40
299.607641
100
AcDbArc
 50
111.451748
 51
120.613125
  0
LINE
  5
3094
100
AcDbEntity
  8
0
100
AcDbLine
 10
1440.017723
 20
1134.313259
 30
0.0
 11
1419.017723
 21
1113.307542
 31
0.0
  0
ARC
  5
3095
100
AcDbEntity
  8
0
100
AcDbCircle
 10
1419.017723
 20
1082.813259
 30
0.0
 40
3.0
100
AcDbArc
 50
180.0
 51
270.0
  0
LINE
  5
3096
100
AcDbEntity
  8
0
100
AcDbLine
 10
1424.017723
 20
1068.313259
 30
0.0
 11
1401.017723
 21
1068.313259
 31
0.0
  0
LINE
  5
3097
100
AcDbEntity
  8
0
100
AcDbLine
 10
1381.017723
 20
1090.813259
 30
0.0
 11
1419.017723
 21
1090.813259
 31
0.0
  0
LINE
  5
3098
100
AcDbEntity
  8
0
100
AcDbLine
 10
1382.541529
 20
1111.813259
 30
0.0
 11
1417.700723
 21
1111.813259
 31
0.0
  0
LINE
  5
3099
100
AcDbEntity
  8
0
100
AcDbLine
 10
1416.017723
 20
1090.813259
 30
0.0
 11
1416.017723
 21
1089.313259
 31
0.0
  0
LINE
  5
309A
100
AcDbEntity
  8
0
100
AcDbLine
 10
1416.017723
 20
1089.313259
 30
0.0
 11
1416.017723
 21
1082.813259
 31
0.0
  0
ARC
  5
309B
100
AcDbEntity
  8
0
100
AcDbCircle
 10
1396.017723
 20
1072.977309
 30
0.0
 40
1.0
100
AcDbArc
 50
0.0
 51
78.356337
  0
LINE
  5
309C
100
AcDbEntity
  8
0
100
AcDbLine
 10
1397.017723
 20
1072.977309
 30
0.0
 11
1397.017723
 21
1072.313259
 31
0.0
  0
ARC
  5
309D
100
AcDbEntity
  8
0
100
AcDbCircle
 10
1401.017723
 20
1072.313259
 30
0.0
 40
4.0
100
AcDbArc
 50
180.0
 51
270.0
  0
ARC
  5
309E
100
AcDbEntity
  8
0
100
AcDbCircle
 10
1400.362054
 20
1089.654994
 30
0.0
 40
18.149062
100
AcDbArc
 50
259.483158
 51
327.906853
  0
LINE
  5
309F
100
AcDbEntity
  8
0
100
AcDbLine
 10
1384.017723
 20
1089.313259
 30
0.0
 11
1384.017723
 21
1090.813259
 31
0.0
  0
ARC
  5
30A0
100
AcDbEntity
  8
0
100
AcDbCircle
 10
1373.330457
 20
1079.063259
 30
0.0
 40
2.0
100
AcDbArc
 50
270.0
 51
331.38954
  0
LINE
  5
30A1
100
AcDbEntity
  8
0
100
AcDbLine
 10
1374.517723
 20
1077.063259
 30
0.0
 11
1375.591329
 21
1079.031538
 31
0.0
  0
LINE
  5
30A2
100
AcDbEntity
  8
0
100
AcDbLine
 10
1381.017723
 20
1079.813259
 30
0.0
 11
1376.908173
 21
1079.813259
 31
0.0
  0
ARC
  5
30A3
100
AcDbEntity
  8
0
100
AcDbCircle
 10
1381.017723
 20
1082.813259
 30
0.0
 40
3.0
100
AcDbArc
 50
270.0
 51
0.0
  0
ARC
  5
30A4
100
AcDbEntity
  8
0
100
AcDbCircle
 10
1376.908173
 20
1078.313259
 30
0.0
 40
1.5
100
AcDbArc
 50
90.0
 51
151.38954
  0
ARC
  5
30A5
100
AcDbEntity
  8
0
100
AcDbCircle
 10
1379.268839
 20
1072.625759
 30
0.0
 40
6.501116
100
AcDbArc
 50
136.9548
 51
223.0452
  0
LINE
  5
30A6
100
AcDbEntity
  8
0
100
AcDbLine
 10
1384.017723
 20
1089.313259
 30
0.0
 11
1384.017723
 21
1082.813259
 31
0.0
  0
LINE
  5
30A7
100
AcDbEntity
  8
0
100
AcDbLine
 10
1384.017723
 20
1089.313259
 30
0.0
 11
1416.017723
 21
1089.313259
 31
0.0
  0
ARC
  5
30A8
100
AcDbEntity
  8
0
100
AcDbCircle
 10
1401.880418
 20
1101.428043
 30
0.0
 40
28.048501
100
AcDbArc
 50
230.746072
 51
258.356337
  0
LINE
  5
30A9
100
AcDbEntity
  8
0
100
AcDbLine
 10
1381.017723
 20
1090.813259
 30
0.0
 11
1381.022191
 21
1111.813259
 31
0.0
  0
LINE
  5
30AA
100
AcDbEntity
  8
0
100
AcDbLine
 10
1440.017723
 20
1075.313259
 30
0.0
 11
1438.267723
 21
1077.063259
 31
0.0
  0
ARC
  5
30AB
100
AcDbEntity
  8
0
100
AcDbCircle
 10
1433.516607
 20
1072.625759
 30
0.0
 40
6.501116
100
AcDbArc
 50
316.9548
 51
43.0452
  0
ARC
  5
30AC
100
AcDbEntity
  8
0
100
AcDbCircle
 10
1423.600557
 20
1078.313259
 30
0.0
 40
1.5
100
AcDbArc
 50
15.945396
 51
90.0
  0
LINE
  5
30AD
100
AcDbEntity
  8
0
100
AcDbLine
 10
1423.600557
 20
1079.813259
 30
0.0
 11
1419.017723
 21
1079.813259
 31
0.0
  0
LINE
  5
30AE
100
AcDbEntity
  8
0
100
AcDbLine
 10
1425.517723
 20
1077.063259
 30
0.0
 11
1425.042842
 21
1078.725341
 31
0.0
  0
ARC
  5
30AF
100
AcDbEntity
  8
0
100
AcDbCircle
 10
1424.017723
 20
1069.813259
 30
0.0
 40
1.5
100
AcDbArc
 50
270.0
 51
0.0
  0
LINE
  5
30B0
100
AcDbEntity
  8
0
100
AcDbLine
 10
1425.517723
 20
1077.063259
 30
0.0
 11
1425.517723
 21
1069.813259
 31
0.0
  0
ARC
  5
30B1
100
AcDbEntity
  8
0
100
AcDbCircle
 10
1420.766607
 20
1072.625759
 30
0.0
 40
6.501116
100
AcDbArc
 50
316.9548
 51
43.0452
  0
LINE
  5
30B2
100
AcDbEntity
  8
0
100
AcDbLine
 10
1419.017723
 20
1113.307542
 30
0.0
 11
1419.017723
 21
1090.813259
 31
0.0
  0
LINE
  5
30B3
100
AcDbEntity
  8
0
100
AcDbLine
 10
1438.267723
 20
1077.063259
 30
0.0
 11
1425.517723
 21
1077.063259
 31
0.0
  0
LINE
  5
30B4
100
AcDbEntity
  8
0
100
AcDbLine
 10
1438.267723
 20
1068.188259
 30
0.0
 11
1425.517723
 21
1068.188259
 31
0.0
  0
LINE
  5
30B5
100
AcDbEntity
  8
0
100
AcDbLine
 10
1424.017723
 20
1132.813259
 30
0.0
 11
1438.517723
 21
1132.813259
 31
0.0
  0
LINE
  5
30B6
100
AcDbEntity
  8
0
100
AcDbLine
 10
1362.493723
 20
1246.577527
 30
0.0
 11
1373.073723
 21
1246.577527
 31
0.0
  0
LINE
  5
30B7
100
AcDbEntity
  8
0
100
AcDbLine
 10
1360.017723
 20
1230.577527
 30
0.0
 11
1374.517938
 21
1230.577527
 31
0.0
  0
LINE
  5
30B8
100
AcDbEntity
  8
0
100
AcDbLine
 10
1374.517938
 20
1262.577527
 30
0.0
 11
1360.017723
 21
1262.577527
 31
0.0
  0
ARC
  5
30B9
100
AcDbEntity
  8
0
100
AcDbCircle
 10
1374.179794
 20
1254.577527
 30
0.0
 40
14.162071
100
AcDbArc
 50
145.605407
 51
214.394593
  0
LINE
  5
30BA
100
AcDbEntity
  8
0
100
AcDbLine
 10
1360.017723
 20
1246.577527
 30
0.0
 11
1360.017723
 21
1262.577527
 31
0.0
  0
ARC
  5
30BB
100
AcDbEntity
  8
0
100
AcDbCircle
 10
1374.179794
 20
1238.577527
 30
0.0
 40
14.162071
100
AcDbArc
 50
145.605407
 51
214.394593
  0
LINE
  5
30BC
100
AcDbEntity
  8
0
100
AcDbLine
 10
1360.017723
 20
1230.577527
 30
0.0
 11
1360.017723
 21
1246.577527
 31
0.0
  0
ARC
  5
30BD
100
AcDbEntity
  8
0
100
AcDbCircle
 10
1425.858652
 20
1254.577527
 30
0.0
 40
14.162071
100
AcDbArc
 50
357.489833
 51
34.394593
  0
LINE
  5
30BE
100
AcDbEntity
  8
0
100
AcDbLine
 10
1440.017723
 20
1253.957504
 30
0.0
 11
1440.017723
 21
1262.577527
 31
0.0
  0
ARC
  5
30BF
100
AcDbEntity
  8
0
100
AcDbCircle
 10
1415.275652
 20
1254.577527
 30
0.0
 40
14.162071
100
AcDbArc
 50
356.470219
 51
39.044087
  0
LINE
  5
30C0
100
AcDbEntity
  8
0
100
AcDbLine
 10
1424.017723
 20
1264.547527
 30
0.0
 11
1424.017723
 21
1253.577527
 31
0.0
  0
ARC
  5
30C1
100
AcDbEntity
  8
0
100
AcDbCircle
 10
1384.759794
 20
1254.577527
 30
0.0
 40
14.162071
100
AcDbArc
 50
145.605407
 51
214.394593
  0
ARC
  5
30C2
100
AcDbEntity
  8
0
100
AcDbCircle
 10
1400.017982
 20
1246.577377
 30
0.0
 40
19.000259
100
AcDbArc
 50
21.618452
 51
179.999545
  0
LINE
  5
30C3
100
AcDbEntity
  8
0
100
AcDbLine
 10
1376.017723
 20
1265.787527
 30
0.0
 11
1376.017723
 21
1227.377527
 31
0.0
  0
LINE
  5
30C4
100
AcDbEntity
  8
0
100
AcDbLine
 10
1379.517723
 20
1269.577527
 30
0.0
 11
1379.517723
 21
1223.577527
 31
0.0
  0
LINE
  5
30C5
100
AcDbEntity
  8
0
100
AcDbLine
 10
1424.017723
 20
1239.577527
 30
0.0
 11
1382.354723
 21
1239.577527
 31
0.0
  0
LINE
  5
30C6
100
AcDbEntity
  8
0
100
AcDbLine
 10
1382.354723
 20
1253.577527
 30
0.0
 11
1424.017723
 21
1253.577527
 31
0.0
  0
LINE
  5
30C7
100
AcDbEntity
  8
0
100
AcDbLine
 10
1422.936723
 20
1226.077527
 30
0.0
 11
1392.517723
 21
1226.077527
 31
0.0
  0
LINE
  5
30C8
100
AcDbEntity
  8
0
100
AcDbLine
 10
1376.018884
 20
1223.577527
 30
0.0
 11
1422.805723
 21
1223.577527
 31
0.0
  0
CIRCLE
  5
30C9
100
AcDbEntity
  8
0
100
AcDbCircle
 10
1400.017723
 20
1246.577527
 30
0.0
 40
4.75021
  0
LINE
  5
30CA
100
AcDbEntity
  8
0
100
AcDbLine
 10
1392.517723
 20
1226.077527
 30
0.0
 11
1392.517723
 21
1229.117527
 31
0.0
  0
LINE
  5
30CB
100
AcDbEntity
  8
0
100
AcDbLine
 10
1374.517938
 20
1230.577527
 30
0.0
 11
1376.018884
 21
1223.577527
 31
0.0
  0
ARC
  5
30CC
100
AcDbEntity
  8
0
100
AcDbCircle
 10
1400.017982
 20
1246.577678
 30
0.0
 40
19.000259
100
AcDbArc
 50
180.000455
 51
338.381548
  0
ARC
  5
30CD
100
AcDbEntity
  8
0
100
AcDbCircle
 10
1384.759794
 20
1238.577527
 30
0.0
 40
14.162071
100
AcDbArc
 50
145.605407
 51
214.394593
  0
LINE
  5
30CE
100
AcDbEntity
  8
0
100
AcDbLine
 10
1424.017723
 20
1253.577527
 30
0.0
 11
1440.018723
 21
1253.957527
 31
0.0
  0
LINE
  5
30CF
100
AcDbEntity
  8
0
100
AcDbLine
 10
1440.017723
 20
1246.577527
 30
0.0
 11
1440.017723
 21
1251.907527
 31
0.0
  0
LINE
  5
30D0
100
AcDbEntity
  8
0
100
AcDbLine
 10
1438.517723
 20
1241.287527
 30
0.0
 11
1438.517723
 21
1251.867527
 31
0.0
  0
LINE
  5
30D1
100
AcDbEntity
  8
0
100
AcDbLine
 10
1440.017723
 20
1241.247527
 30
0.0
 11
1440.017723
 21
1246.577527
 31
0.0
  0
LINE
  5
30D2
100
AcDbEntity
  8
0
100
AcDbLine
 10
1424.017723
 20
1240.857527
 30
0.0
 11
1424.017723
 21
1252.357527
 31
0.0
  0
ARC
  5
30D3
100
AcDbEntity
  8
0
100
AcDbCircle
 10
1438.046277
 20
1251.902952
 30
0.0
 40
1.971764
100
AcDbArc
 50
358.970587
 51
92.195995
  0
ARC
  5
30D4
100
AcDbEntity
  8
0
100
AcDbCircle
 10
1436.546277
 20
1251.902952
 30
0.0
 40
1.971764
100
AcDbArc
 50
358.970587
 51
92.195995
  0
ARC
  5
30D5
100
AcDbEntity
  8
0
100
AcDbCircle
 10
1425.858652
 20
1238.577527
 30
0.0
 40
14.162071
100
AcDbArc
 50
325.605407
 51
2.510167
  0
LINE
  5
30D6
100
AcDbEntity
  8
0
100
AcDbLine
 10
1440.017723
 20
1230.577527
 30
0.0
 11
1440.017723
 21
1239.197551
 31
0.0
  0
ARC
  5
30D7
100
AcDbEntity
  8
0
100
AcDbCircle
 10
1415.275652
 20
1238.577527
 30
0.0
 40
14.162071
100
AcDbArc
 50
325.605407
 51
3.529781
  0
LINE
  5
30D8
100
AcDbEntity
  8
0
100
AcDbLine
 10
1440.018723
 20
1239.197527
 30
0.0
 11
1424.017723
 21
1239.577527
 31
0.0
  0
LINE
  5
30D9
100
AcDbEntity
  8
0
100
AcDbLine
 10
1426.959723
 20
1230.577527
 30
0.0
 11
1440.017723
 21
1230.577527
 31
0.0
  0
LINE
  5
30DA
100
AcDbEntity
  8
0
100
AcDbLine
 10
1426.961723
 20
1230.577527
 30
0.0
 11
1422.805723
 21
1223.577527
 31
0.0
  0
LINE
  5
30DB
100
AcDbEntity
  8
0
100
AcDbLine
 10
1426.959723
 20
1230.577527
 30
0.0
 11
1422.936723
 21
1226.077527
 31
0.0
  0
LINE
  5
30DC
100
AcDbEntity
  8
0
100
AcDbLine
 10
1424.017723
 20
1239.577527
 30
0.0
 11
1424.017723
 21
1227.577527
 31
0.0
  0
ARC
  5
30DD
100
AcDbEntity
  8
0
100
AcDbCircle
 10
1436.546277
 20
1241.252103
 30
0.0
 40
1.971764
100
AcDbArc
 50
267.804005
 51
1.029413
  0
ARC
  5
30DE
100
AcDbEntity
  8
0
100
AcDbCircle
 10
1438.046277
 20
1241.212103
 30
0.0
 40
1.971764
100
AcDbArc
 50
267.804005
 51
1.029413
  0
LINE
  5
30DF
100
AcDbEntity
  8
0
100
AcDbLine
 10
1422.936723
 20
1267.077527
 30
0.0
 11
1392.517723
 21
1267.077527
 31
0.0
  0
LINE
  5
30E0
100
AcDbEntity
  8
0
100
AcDbLine
 10
1422.805723
 20
1269.577527
 30
0.0
 11
1376.018884
 21
1269.577527
 31
0.0
  0
LINE
  5
30E1
100
AcDbEntity
  8
0
100
AcDbLine
 10
1392.517723
 20
1267.077527
 30
0.0
 11
1392.517723
 21
1264.037527
 31
0.0
  0
LINE
  5
30E2
100
AcDbEntity
  8
0
100
AcDbLine
 10
1376.018884
 20
1269.577527
 30
0.0
 11
1374.517938
 21
1262.577527
 31
0.0
  0
LINE
  5
30E3
100
AcDbEntity
  8
0
100
AcDbLine
 10
1440.017723
 20
1262.577527
 30
0.0
 11
1427.133723
 21
1262.577527
 31
0.0
  0
LINE
  5
30E4
100
AcDbEntity
  8
0
100
AcDbLine
 10
1427.133723
 20
1262.577527
 30
0.0
 11
1422.805723
 21
1269.577527
 31
0.0
  0
LINE
  5
30E5
100
AcDbEntity
  8
0
100
AcDbLine
 10
1427.133723
 20
1262.577527
 30
0.0
 11
1422.936723
 21
1267.077527
 31
0.0
  0
LINE
  5
30E6
100
AcDbEntity
  8
0
100
AcDbLine
 10
1419.017723
 20
1441.911248
 30
0.0
 11
1419.013255
 21
1462.911248
 31
0.0
  0
LINE
  5
30E7
100
AcDbEntity
  8
0
100
AcDbLine
 10
1381.017723
 20
1464.40553
 30
0.0
 11
1381.017723
 21
1441.911248
 31
0.0
  0
LINE
  5
30E8
100
AcDbEntity
  8
0
100
AcDbLine
 10
1361.767723
 20
1401.536248
 30
0.0
 11
1374.517723
 21
1401.536248
 31
0.0
  0
LINE
  5
30E9
100
AcDbEntity
  8
0
100
AcDbLine
 10
1361.767723
 20
1392.661248
 30
0.0
 11
1374.517723
 21
1392.661248
 31
0.0
  0
LINE
  5
30EA
100
AcDbEntity
  8
0
100
AcDbLine
 10
1361.767723
 20
1428.161248
 30
0.0
 11
1374.517723
 21
1428.161248
 31
0.0
  0
LINE
  5
30EB
100
AcDbEntity
  8
0
100
AcDbLine
 10
1361.767723
 20
1419.286248
 30
0.0
 11
1374.517723
 21
1419.286248
 31
0.0
  0
LINE
  5
30EC
100
AcDbEntity
  8
0
100
AcDbLine
 10
1360.017723
 20
1426.411248
 30
0.0
 11
1361.767723
 21
1428.161248
 31
0.0
  0
ARC
  5
30ED
100
AcDbEntity
  8
0
100
AcDbCircle
 10
1366.518839
 20
1423.723748
 30
0.0
 40
6.501116
100
AcDbArc
 50
136.9548
 51
223.0452
  0
LINE
  5
30EE
100
AcDbEntity
  8
0
100
AcDbLine
 10
1360.017723
 20
1426.411248
 30
0.0
 11
1360.017723
 21
1410.411248
 31
0.0
  0
LINE
  5
30EF
100
AcDbEntity
  8
0
100
AcDbLine
 10
1360.017723
 20
1394.411248
 30
0.0
 11
1361.767723
 21
1392.661248
 31
0.0
  0
ARC
  5
30F0
100
AcDbEntity
  8
0
100
AcDbCircle
 10
1366.518839
 20
1397.098748
 30
0.0
 40
6.501116
100
AcDbArc
 50
136.9548
 51
223.0452
  0
LINE
  5
30F1
100
AcDbEntity
  8
0
100
AcDbLine
 10
1360.017723
 20
1410.411248
 30
0.0
 11
1360.017723
 21
1394.411248
 31
0.0
  0
ARC
  5
30F2
100
AcDbEntity
  8
0
100
AcDbCircle
 10
1383.397187
 20
1410.411248
 30
0.0
 40
23.379464
100
AcDbArc
 50
157.690681
 51
202.309319
  0
LINE
  5
30F3
100
AcDbEntity
  8
0
100
AcDbLine
 10
1408.017723
 20
1389.911248
 30
0.0
 11
1408.017723
 21
1387.411248
 31
0.0
  0
ARC
  5
30F4
100
AcDbEntity
  8
0
100
AcDbCircle
 10
1389.017723
 20
1387.411248
 30
0.0
 40
3.0
100
AcDbArc
 50
0.0
 51
56.44269
  0
LINE
  5
30F5
100
AcDbEntity
  8
0
100
AcDbLine
 10
1408.017723
 20
1387.411248
 30
0.0
 11
1404.517723
 21
1380.411248
 31
0.0
  0
LINE
  5
30F6
100
AcDbEntity
  8
0
100
AcDbLine
 10
1392.017723
 20
1387.411248
 30
0.0
 11
1395.517723
 21
1380.411248
 31
0.0
  0
LINE
  5
30F7
100
AcDbEntity
  8
0
100
AcDbLine
 10
1395.517723
 20
1380.411248
 30
0.0
 11
1404.517723
 21
1380.411248
 31
0.0
  0
LINE
  5
30F8
100
AcDbEntity
  8
0
100
AcDbLine
 10
1392.017723
 20
1387.411248
 30
0.0
 11
1408.017723
 21
1387.411248
 31
0.0
  0
LINE
  5
30F9
100
AcDbEntity
  8
0
100
AcDbLine
 10
1419.017723
 20
1441.911248
 30
0.0
 11
1381.017723
 21
1441.911248
 31
0.0
  0
ARC
  5
30FA
100
AcDbEntity
  8
0
100
AcDbCircle
 10
1419.017723
 20
1433.911248
 30
0.0
 40
3.0
100
AcDbArc
 50
180.0
 51
270.0
  0
LINE
  5
30FB
100
AcDbEntity
  8
0
100
AcDbLine
 10
1376.434889
 20
1389.911248
 30
0.0
 11
1423.127273
 21
1389.911248
 31
0.0
  0
LINE
  5
30FC
100
AcDbEntity
  8
0
100
AcDbLine
 10
1416.017723
 20
1441.911248
 30
0.0
 11
1416.017723
 21
1440.411248
 31
0.0
  0
LINE
  5
30FD
100
AcDbEntity
  8
0
100
AcDbLine
 10
1384.017723
 20
1440.411248
 30
0.0
 11
1384.017723
 21
1441.911248
 31
0.0
  0
LINE
  5
30FE
100
AcDbEntity
  8
0
100
AcDbLine
 10
1384.017723
 20
1440.411248
 30
0.0
 11
1416.017723
 21
1440.411248
 31
0.0
  0
ARC
  5
30FF
100
AcDbEntity
  8
0
100
AcDbCircle
 10
1399.017723
 20
1423.411248
 30
0.0
 40
4.0
100
AcDbArc
 50
270.0
 51
0.0
  0
ARC
  5
3100
100
AcDbEntity
  8
0
100
AcDbCircle
 10
1404.017723
 20
1424.075297
 30
0.0
 40
1.0
100
AcDbArc
 50
101.643663
 51
180.0
  0
LINE
  5
3101
100
AcDbEntity
  8
0
100
AcDbLine
 10
1403.017723
 20
1424.075297
 30
0.0
 11
1403.017723
 21
1423.411248
 31
0.0
  0
ARC
  5
3102
100
AcDbEntity
  8
0
100
AcDbCircle
 10
1398.155028
 20
1452.526031
 30
0.0
 40
28.048501
100
AcDbArc
 50
281.643663
 51
309.253928
  0
LINE
  5
3103
100
AcDbEntity
  8
0
100
AcDbLine
 10
1376.434889
 20
1430.911248
 30
0.0
 11
1381.017723
 21
1430.911248
 31
0.0
  0
ARC
  5
3104
100
AcDbEntity
  8
0
100
AcDbCircle
 10
1381.017723
 20
1433.911248
 30
0.0
 40
3.0
100
AcDbArc
 50
270.0
 51
0.0
  0
ARC
  5
3105
100
AcDbEntity
  8
0
100
AcDbCircle
 10
1376.434889
 20
1429.411248
 30
0.0
 40
1.5
100
AcDbArc
 50
90.0
 51
164.054604
  0
LINE
  5
3106
100
AcDbEntity
  8
0
100
AcDbLine
 10
1374.517723
 20
1428.161248
 30
0.0
 11
1374.992603
 21
1429.82333
 31
0.0
  0
ARC
  5
3107
100
AcDbEntity
  8
0
100
AcDbCircle
 10
1376.017723
 20
1420.911248
 30
0.0
 40
1.5
100
AcDbArc
 50
180.0
 51
270.0
  0
LINE
  5
3108
100
AcDbEntity
  8
0
100
AcDbLine
 10
1374.517723
 20
1428.161248
 30
0.0
 11
1374.517723
 21
1420.911248
 31
0.0
  0
LINE
  5
3109
100
AcDbEntity
  8
0
100
AcDbLine
 10
1376.017723
 20
1419.411248
 30
0.0
 11
1399.017723
 21
1419.411248
 31
0.0
  0
ARC
  5
310A
100
AcDbEntity
  8
0
100
AcDbCircle
 10
1399.673392
 20
1440.752982
 30
0.0
 40
18.149062
100
AcDbArc
 50
212.093147
 51
280.516842
  0
ARC
  5
310B
100
AcDbEntity
  8
0
100
AcDbCircle
 10
1398.986041
 20
1397.411248
 30
0.0
 40
4.0
100
AcDbArc
 50
0.0
 51
90.0
  0
LINE
  5
310C
100
AcDbEntity
  8
0
100
AcDbLine
 10
1402.986041
 20
1397.411248
 30
0.0
 11
1402.986041
 21
1389.911248
 31
0.0
  0
ARC
  5
310D
100
AcDbEntity
  8
0
100
AcDbCircle
 10
1376.017723
 20
1399.911248
 30
0.0
 40
1.5
100
AcDbArc
 50
90.0
 51
180.0
  0
LINE
  5
310E
100
AcDbEntity
  8
0
100
AcDbLine
 10
1374.517723
 20
1392.661248
 30
0.0
 11
1374.992603
 21
1390.999166
 31
0.0
  0
ARC
  5
310F
100
AcDbEntity
  8
0
100
AcDbCircle
 10
1376.434889
 20
1391.411248
 30
0.0
 40
1.5
100
AcDbArc
 50
195.945396
 51
270.0
  0
LINE
  5
3110
100
AcDbEntity
  8
0
100
AcDbLine
 10
1374.517723
 20
1399.911248
 30
0.0
 11
1374.517723
 21
1392.661248
 31
0.0
  0
LINE
  5
3111
100
AcDbEntity
  8
0
100
AcDbLine
 10
1376.017723
 20
1401.411248
 30
0.0
 11
1398.986041
 21
1401.411248
 31
0.0
  0
LINE
  5
3112
100
AcDbEntity
  8
0
100
AcDbLine
 10
1376.017723
 20
1419.411248
 30
0.0
 11
1376.017723
 21
1401.411248
 31
0.0
  0
ARC
  5
3113
100
AcDbEntity
  8
0
100
AcDbCircle
 10
1396.147187
 20
1410.411248
 30
0.0
 40
23.379464
100
AcDbArc
 50
157.690681
 51
202.309319
  0
ARC
  5
3114
100
AcDbEntity
  8
0
100
AcDbCircle
 10
1379.268839
 20
1397.098748
 30
0.0
 40
6.501116
100
AcDbArc
 50
136.9548
 51
223.0452
  0
ARC
  5
3115
100
AcDbEntity
  8
0
100
AcDbCircle
 10
1379.268839
 20
1423.723748
 30
0.0
 40
6.501116
100
AcDbArc
 50
136.9548
 51
223.0452
  0
LINE
  5
3116
100
AcDbEntity
  8
0
100
AcDbLine
 10
1416.017723
 20
1440.411248
 30
0.0
 11
1416.017723
 21
1433.911248
 31
0.0
  0
LINE
  5
3117
100
AcDbEntity
  8
0
100
AcDbLine
 10
1384.017723
 20
1440.411248
 30
0.0
 11
1384.017723
 21
1433.911248
 31
0.0
  0
ARC
  5
3118
100
AcDbEntity
  8
0
100
AcDbCircle
 10
1426.704989
 20
1430.161248
 30
0.0
 40
2.0
100
AcDbArc
 50
208.61046
 51
270.0
  0
ARC
  5
3119
100
AcDbEntity
  8
0
100
AcDbCircle
 10
1420.766607
 20
1423.723748
 30
0.0
 40
6.501116
100
AcDbArc
 50
316.9548
 51
43.0452
  0
LINE
  5
311A
100
AcDbEntity
  8
0
100
AcDbLine
 10
1438.267723
 20
1419.286248
 30
0.0
 11
1425.517723
 21
1419.286248
 31
0.0
  0
LINE
  5
311B
100
AcDbEntity
  8
0
100
AcDbLine
 10
1440.017723
 20
1426.411248
 30
0.0
 11
1438.267723
 21
1428.161248
 31
0.0
  0
ARC
  5
311C
100
AcDbEntity
  8
0
100
AcDbCircle
 10
1433.516607
 20
1423.723748
 30
0.0
 40
6.501116
100
AcDbArc
 50
316.9548
 51
43.0452
  0
LINE
  5
311D
100
AcDbEntity
  8
0
100
AcDbLine
 10
1440.017723
 20
1426.411248
 30
0.0
 11
1440.017723
 21
1410.411248
 31
0.0
  0
LINE
  5
311E
100
AcDbEntity
  8
0
100
AcDbLine
 10
1438.267723
 20
1428.161248
 30
0.0
 11
1426.704989
 21
1428.161248
 31
0.0
  0
LINE
  5
311F
100
AcDbEntity
  8
0
100
AcDbLine
 10
1425.517723
 20
1428.161248
 30
0.0
 11
1424.444117
 21
1430.129526
 31
0.0
  0
ARC
  5
3120
100
AcDbEntity
  8
0
100
AcDbCircle
 10
1426.704989
 20
1390.661248
 30
0.0
 40
2.0
100
AcDbArc
 50
90.0
 51
151.38954
  0
ARC
  5
3121
100
AcDbEntity
  8
0
100
AcDbCircle
 10
1420.766607
 20
1397.098748
 30
0.0
 40
6.501116
100
AcDbArc
 50
316.9548
 51
43.0452
  0
LINE
  5
3122
100
AcDbEntity
  8
0
100
AcDbLine
 10
1438.267723
 20
1401.536248
 30
0.0
 11
1425.517723
 21
1401.536248
 31
0.0
  0
LINE
  5
3123
100
AcDbEntity
  8
0
100
AcDbLine
 10
1440.017723
 20
1394.411248
 30
0.0
 11
1438.267723
 21
1392.661248
 31
0.0
  0
ARC
  5
3124
100
AcDbEntity
  8
0
100
AcDbCircle
 10
1433.516607
 20
1397.098748
 30
0.0
 40
6.501116
100
AcDbArc
 50
316.9548
 51
43.0452
  0
LINE
  5
3125
100
AcDbEntity
  8
0
100
AcDbLine
 10
1438.267723
 20
1392.661248
 30
0.0
 11
1426.704989
 21
1392.661248
 31
0.0
  0
LINE
  5
3126
100
AcDbEntity
  8
0
100
AcDbLine
 10
1425.517723
 20
1392.661248
 30
0.0
 11
1424.444117
 21
1390.69297
 31
0.0
  0
ARC
  5
3127
100
AcDbEntity
  8
0
100
AcDbCircle
 10
1403.888259
 20
1410.411248
 30
0.0
 40
23.379464
100
AcDbArc
 50
337.690681
 51
22.309319
  0
LINE
  5
3128
100
AcDbEntity
  8
0
100
AcDbLine
 10
1440.017723
 20
1410.411248
 30
0.0
 11
1440.017723
 21
1394.411248
 31
0.0
  0
ARC
  5
3129
100
AcDbEntity
  8
0
100
AcDbCircle
 10
1416.638259
 20
1410.411248
 30
0.0
 40
23.379464
100
AcDbArc
 50
337.690681
 51
22.309319
  0
LINE
  5
312A
100
AcDbEntity
  8
0
100
AcDbLine
 10
1424.017723
 20
1429.620263
 30
0.0
 11
1424.017723
 21
1391.202233
 31
0.0
  0
LINE
  5
312B
100
AcDbEntity
  8
0
100
AcDbLine
 10
1419.017723
 20
1430.911248
 30
0.0
 11
1423.127273
 21
1430.911248
 31
0.0
  0
LINE
  5
312C
100
AcDbEntity
  8
0
100
AcDbLine
 10
1420.517723
 20
1430.911248
 30
0.0
 11
1420.517723
 21
1389.911248
 31
0.0
  0
ARC
  5
312D
100
AcDbEntity
  8
0
100
AcDbCircle
 10
1423.127273
 20
1391.411248
 30
0.0
 40
1.5
100
AcDbArc
 50
270.0
 51
331.38954
  0
ARC
  5
312E
100
AcDbEntity
  8
0
100
AcDbCircle
 10
1423.127273
 20
1429.411248
 30
0.0
 40
1.5
100
AcDbArc
 50
28.61046
 51
90.0
  0
LINE
  5
312F
100
AcDbEntity
  8
0
100
AcDbLine
 10
1376.017723
 20
1483.911248
 30
0.0
 11
1361.517723
 21
1483.911248
 31
0.0
  0
LINE
  5
3130
100
AcDbEntity
  8
0
100
AcDbLine
 10
1360.017723
 20
1485.411248
 30
0.0
 11
1381.017723
 21
1464.40553
 31
0.0
  0
LINE
  5
3131
100
AcDbEntity
  8
0
100
AcDbLine
 10
1270.018723
 20
1478.914287
 30
0.0
 11
1369.517723
 21
1475.911248
 31
0.0
  0
LINE
  5
3132
100
AcDbEntity
  8
0
100
AcDbLine
 10
1360.017723
 20
1485.411248
 30
0.0
 11
1270.018723
 21
1485.411248
 31
0.0
  0
LINE
  5
3133
100
AcDbEntity
  8
0
100
AcDbLine
 10
1270.018723
 20
1485.411248
 30
0.0
 11
1270.018723
 21
1478.914287
 31
0.0
  0
ARC
  5
3134
100
AcDbEntity
  8
0
100
AcDbCircle
 10
1266.445954
 20
1205.05866
 30
0.0
 40
299.607641
100
AcDbArc
 50
59.386875
 51
68.548252
  0
LINE
  5
3135
100
AcDbEntity
  8
0
100
AcDbLine
 10
1417.493917
 20
1462.911248
 30
0.0
 11
1382.334723
 21
1462.911248
 31
0.0
  0
LINE
  5
3136
100
AcDbEntity
  8
0
100
AcDbLine
 10
1830.333318
 20
1139.622203
 30
0.0
 11
1816.333318
 21
1139.622203
 31
0.0
  0
ELLIPSE
  5
3137
100
AcDbEntity
  8
0
100
AcDbEllipse
 10
1823.333318
 20
1128.954851
 30
0.0
 11
-4.75
 21
0.0
 31
0.0
210
0.0
220
0.0
230
1.0
 40
0.487122
 41
0.0
 42
6.283185307179586
  0
LINE
  5
3138
100
AcDbEntity
  8
0
100
AcDbLine
 10
1804.337786
 20
1118.622203
 30
0.0
 11
1842.333318
 21
1118.622203
 31
0.0
  0
LINE
  5
3139
100
AcDbEntity
  8
0
100
AcDbLine
 10
1813.983318
 20
1141.122203
 30
0.0
 11
1832.683318
 21
1141.122203
 31
0.0
  0
LINE
  5
313A
100
AcDbEntity
  8
0
100
AcDbLine
 10
1842.333318
 20
1096.122203
 30
0.0
 11
1804.333318
 21
1096.122203
 31
0.0
  0
LINE
  5
313B
100
AcDbEntity
  8
0
100
AcDbLine
 10
1842.333318
 20
1097.622203
 30
0.0
 11
1804.333318
 21
1097.622203
 31
0.0
  0
LINE
  5
313C
100
AcDbEntity
  8
0
100
AcDbLine
 10
1912.425635
 20
1492.220191
 30
0.0
 11
1822.426635
 21
1492.220191
 31
0.0
  0
LINE
  5
313D
100
AcDbEntity
  8
0
100
AcDbLine
 10
1822.426635
 20
1485.72323
 30
0.0
 11
1921.925635
 21
1482.720191
 31
0.0
  0
LINE
  5
313E
100
AcDbEntity
  8
0
100
AcDbLine
 10
1567.015178
 20
1111.813259
 30
0.0
 11
1605.010709
 21
1111.813259
 31
0.0
  0
LINE
  5
313F
100
AcDbEntity
  8
0
100
AcDbLine
 10
1570.010709
 20
1089.313259
 30
0.0
 11
1602.010709
 21
1089.313259
 31
0.0
  0
LINE
  5
3140
100
AcDbEntity
  8
0
100
AcDbLine
 10
1567.010709
 20
1090.813259
 30
0.0
 11
1605.010709
 21
1090.813259
 31
0.0
  0
LINE
  5
3141
100
AcDbEntity
  8
0
100
AcDbLine
 10
1567.010709
 20
1090.813259
 30
0.0
 11
1567.015178
 21
1111.813259
 31
0.0
  0
LINE
  5
3142
100
AcDbEntity
  8
0
100
AcDbLine
 10
1570.010709
 20
1089.313259
 30
0.0
 11
1570.010709
 21
1090.813259
 31
0.0
  0
ARC
  5
3143
100
AcDbEntity
  8
0
100
AcDbCircle
 10
1566.382923
 20
1070.122203
 30
0.0
 40
2.0
100
AcDbArc
 50
270.0
 51
330.732422
  0
ARC
  5
3144
100
AcDbEntity
  8
0
100
AcDbCircle
 10
1565.516808
 20
1067.122203
 30
0.0
 40
1.0
100
AcDbArc
 50
90.0
 51
158.676314
  0
LINE
  5
3145
100
AcDbEntity
  8
0
100
AcDbLine
 10
1565.516808
 20
1068.122203
 30
0.0
 11
1566.382923
 21
1068.122203
 31
0.0
  0
ARC
  5
3146
100
AcDbEntity
  8
0
100
AcDbCircle
 10
1586.010709
 20
1059.122203
 30
0.0
 40
20.5
100
AcDbArc
 50
143.950671
 51
150.732422
  0
ARC
  5
3147
100
AcDbEntity
  8
0
100
AcDbCircle
 10
1567.010709
 20
1072.951519
 30
0.0
 40
3.0
100
AcDbArc
 50
323.950671
 51
360.0
  0
LINE
  5
3148
100
AcDbEntity
  8
0
100
AcDbLine
 10
1570.010709
 20
1090.813259
 30
0.0
 11
1570.010709
 21
1072.951519
 31
0.0
  0
LINE
  5
3149
100
AcDbEntity
  8
0
100
AcDbLine
 10
1530.016723
 20
1134.313259
 30
0.0
 11
1530.016723
 21
1127.816299
 31
0.0
  0
LINE
  5
314A
100
AcDbEntity
  8
0
100
AcDbLine
 10
1595.360709
 20
1123.810401
 30
0.0
 11
1595.360709
 21
1134.313259
 31
0.0
  0
LINE
  5
314B
100
AcDbEntity
  8
0
100
AcDbLine
 10
1576.660709
 20
1123.810401
 30
0.0
 11
1576.660709
 21
1134.313259
 31
0.0
  0
LINE
  5
314C
100
AcDbEntity
  8
0
100
AcDbLine
 10
1579.718121
 20
1113.307542
 30
0.0
 11
1592.303298
 21
1113.307542
 31
0.0
  0
LINE
  5
314D
100
AcDbEntity
  8
0
100
AcDbLine
 10
1593.010709
 20
1111.813259
 30
0.0
 11
1593.010709
 21
1123.810401
 31
0.0
  0
LINE
  5
314E
100
AcDbEntity
  8
0
100
AcDbLine
 10
1579.010709
 20
1111.813259
 30
0.0
 11
1579.010709
 21
1123.810401
 31
0.0
  0
LINE
  5
314F
100
AcDbEntity
  8
0
100
AcDbLine
 10
1605.010709
 20
1111.813259
 30
0.0
 11
1605.010709
 21
1090.813259
 31
0.0
  0
LINE
  5
3150
100
AcDbEntity
  8
0
100
AcDbLine
 10
1602.010709
 20
1090.813259
 30
0.0
 11
1602.010709
 21
1089.313259
 31
0.0
  0
LINE
  5
3151
100
AcDbEntity
  8
0
100
AcDbLine
 10
1576.660709
 20
1123.810401
 30
0.0
 11
1595.360709
 21
1123.810401
 31
0.0
  0
ARC
  5
3152
100
AcDbEntity
  8
0
100
AcDbCircle
 10
1605.010709
 20
1072.951519
 30
0.0
 40
3.0
100
AcDbArc
 50
180.0
 51
216.049329
  0
ARC
  5
3153
100
AcDbEntity
  8
0
100
AcDbCircle
 10
1605.638496
 20
1070.122203
 30
0.0
 40
2.0
100
AcDbArc
 50
209.267578
 51
270.0
  0
ARC
  5
3154
100
AcDbEntity
  8
0
100
AcDbCircle
 10
1606.504611
 20
1067.122203
 30
0.0
 40
1.0
100
AcDbArc
 50
21.323686
 51
90.0
  0
ARC
  5
3155
100
AcDbEntity
  8
0
100
AcDbCircle
 10
1586.010709
 20
1059.122203
 30
0.0
 40
20.5
100
AcDbArc
 50
29.267578
 51
36.049329
  0
LINE
  5
3156
100
AcDbEntity
  8
0
100
AcDbLine
 10
1606.504611
 20
1068.122203
 30
0.0
 11
1605.638496
 21
1068.122203
 31
0.0
  0
LINE
  5
3157
100
AcDbEntity
  8
0
100
AcDbLine
 10
1602.010709
 20
1090.813259
 30
0.0
 11
1602.010709
 21
1072.951519
 31
0.0
  0
LINE
  5
3158
100
AcDbEntity
  8
0
100
AcDbLine
 10
1576.660709
 20
1134.313259
 30
0.0
 11
1595.360709
 21
1134.313259
 31
0.0
  0
ARC
  5
3159
100
AcDbEntity
  8
0
100
AcDbCircle
 10
1494.983943
 20
1246.577527
 30
0.0
 40
35.036643
100
AcDbArc
 50
353.362155
 51
6.637845
  0
ARC
  5
315A
100
AcDbEntity
  8
0
100
AcDbCircle
 10
1523.829166
 20
1243.22281
 30
0.0
 40
5.996998
100
AcDbArc
 50
268.629402
 51
353.342246
  0
ARC
  5
315B
100
AcDbEntity
  8
0
100
AcDbCircle
 10
1523.828953
 20
1249.932
 30
0.0
 40
5.997238
100
AcDbArc
 50
6.659846
 51
91.368505
  0
LINE
  5
315C
100
AcDbEntity
  8
0
100
AcDbLine
 10
1816.333318
 20
1118.622203
 30
0.0
 11
1816.333318
 21
1139.622203
 31
0.0
  0
LINE
  5
315D
100
AcDbEntity
  8
0
100
AcDbLine
 10
1804.333318
 20
1097.622203
 30
0.0
 11
1804.337786
 21
1118.622203
 31
0.0
  0
LINE
  5
315E
100
AcDbEntity
  8
0
100
AcDbLine
 10
1807.333318
 20
1097.622203
 30
0.0
 11
1806.333318
 21
1096.122203
 31
0.0
  0
LINE
  5
315F
100
AcDbEntity
  8
0
100
AcDbLine
 10
1804.333318
 20
1096.122203
 30
0.0
 11
1804.333318
 21
1080.364848
 31
0.0
  0
LINE
  5
3160
100
AcDbEntity
  8
0
100
AcDbLine
 10
1813.983318
 20
1130.619344
 30
0.0
 11
1813.983318
 21
1141.122203
 31
0.0
  0
LINE
  5
3161
100
AcDbEntity
  8
0
100
AcDbLine
 10
1813.983318
 20
1130.619344
 30
0.0
 11
1816.333318
 21
1130.619344
 31
0.0
  0
LINE
  5
3162
100
AcDbEntity
  8
0
100
AcDbLine
 10
1822.426635
 20
1492.220191
 30
0.0
 11
1822.426635
 21
1485.72323
 31
0.0
  0
LINE
  5
3163
100
AcDbEntity
  8
0
100
AcDbLine
 10
2082.440702
 20
1134.625242
 30
0.0
 11
1982.941702
 21
1131.622203
 31
0.0
  0
LINE
  5
3164
100
AcDbEntity
  8
0
100
AcDbLine
 10
1992.441702
 20
1141.122203
 30
0.0
 11
2082.440702
 21
1141.122203
 31
0.0
  0
LINE
  5
3165
100
AcDbEntity
  8
0
100
AcDbLine
 10
2076.070702
 20
1255.736471
 30
0.0
 11
1976.441702
 21
1252.886471
 31
0.0
  0
LINE
  5
3166
100
AcDbEntity
  8
0
100
AcDbLine
 10
1976.441702
 20
1239.886471
 30
0.0
 11
2076.070702
 21
1237.026471
 31
0.0
  0
LINE
  5
3167
100
AcDbEntity
  8
0
100
AcDbLine
 10
1924.941653
 20
1087.622203
 30
0.0
 11
1929.441702
 21
1087.622203
 31
0.0
  0
LINE
  5
3168
100
AcDbEntity
  8
0
100
AcDbLine
 10
1830.333318
 20
1118.622203
 30
0.0
 11
1830.333318
 21
1139.622203
 31
0.0
  0
LINE
  5
3169
100
AcDbEntity
  8
0
100
AcDbLine
 10
1842.333318
 20
1118.622203
 30
0.0
 11
1842.333318
 21
1097.622203
 31
0.0
  0
LINE
  5
316A
100
AcDbEntity
  8
0
100
AcDbLine
 10
1839.333318
 20
1097.622203
 30
0.0
 11
1840.333318
 21
1096.122203
 31
0.0
  0
LINE
  5
316B
100
AcDbEntity
  8
0
100
AcDbLine
 10
1842.333318
 20
1096.122203
 30
0.0
 11
1842.333318
 21
1080.364848
 31
0.0
  0
ARC
  5
316C
100
AcDbEntity
  8
0
100
AcDbCircle
 10
1957.122982
 20
1077.826677
 30
0.0
 40
33.639118
100
AcDbArc
 50
163.070518
 51
191.77461
  0
LINE
  5
316D
100
AcDbEntity
  8
0
100
AcDbLine
 10
1907.441702
 20
1079.622203
 30
0.0
 11
1910.612702
 21
1082.792203
 31
0.0
  0
ARC
  5
316E
100
AcDbEntity
  8
0
100
AcDbCircle
 10
1914.543947
 20
1076.877203
 30
0.0
 40
7.102247
100
AcDbArc
 50
146.372999
 51
236.391071
  0
LINE
  5
316F
100
AcDbEntity
  8
0
100
AcDbLine
 10
1910.612702
 20
1082.792203
 30
0.0
 11
1923.852368
 21
1082.792203
 31
0.0
  0
LINE
  5
3170
100
AcDbEntity
  8
0
100
AcDbLine
 10
1910.612702
 20
1070.962203
 30
0.0
 11
1924.191702
 21
1070.962203
 31
0.0
  0
LINE
  5
3171
100
AcDbEntity
  8
0
100
AcDbLine
 10
1832.683318
 20
1130.619344
 30
0.0
 11
1832.683318
 21
1141.122203
 31
0.0
  0
LINE
  5
3172
100
AcDbEntity
  8
0
100
AcDbLine
 10
1830.333318
 20
1130.619344
 30
0.0
 11
1832.683318
 21
1130.619344
 31
0.0
  0
LINE
  5
3173
100
AcDbEntity
  8
0
100
AcDbLine
 10
1992.441702
 20
1141.122203
 30
0.0
 11
1971.441702
 21
1120.12429
 31
0.0
  0
ARC
  5
3174
100
AcDbEntity
  8
0
100
AcDbCircle
 10
2086.184484
 20
860.41035
 30
0.0
 40
300.004561
100
AcDbArc
 50
111.457053
 51
120.606221
  0
LINE
  5
3175
100
AcDbEntity
  8
0
100
AcDbLine
 10
1975.441702
 20
1084.622203
 30
0.0
 11
1978.825702
 21
1084.622203
 31
0.0
  0
LINE
  5
3176
100
AcDbEntity
  8
0
100
AcDbLine
 10
1952.441702
 20
1070.622203
 30
0.0
 11
1979.941702
 21
1070.622203
 31
0.0
  0
LINE
  5
3177
100
AcDbEntity
  8
0
100
AcDbLine
 10
1935.028702
 20
1118.622203
 30
0.0
 11
1969.853702
 21
1118.622203
 31
0.0
  0
ARC
  5
3178
100
AcDbEntity
  8
0
100
AcDbCircle
 10
1975.439746
 20
1088.620247
 30
0.0
 40
3.998045
100
AcDbArc
 50
179.971978
 51
270.028022
  0
LINE
  5
3179
100
AcDbEntity
  8
0
100
AcDbLine
 10
1971.441702
 20
1096.122203
 30
0.0
 11
1971.441702
 21
1088.622203
 31
0.0
  0
LINE
  5
317A
100
AcDbEntity
  8
0
100
AcDbLine
 10
1968.441702
 20
1097.622203
 30
0.0
 11
1969.441702
 21
1096.122203
 31
0.0
  0
ARC
  5
317B
100
AcDbEntity
  8
0
100
AcDbCircle
 10
1952.477935
 20
1075.658436
 30
0.0
 40
5.036364
100
AcDbArc
 50
180.412211
 51
269.587789
  0
ARC
  5
317C
100
AcDbEntity
  8
0
100
AcDbCircle
 10
1952.603163
 20
1109.17708
 30
0.0
 40
28.840498
100
AcDbArc
 50
228.364128
 51
259.690476
  0
ARC
  5
317D
100
AcDbEntity
  8
0
100
AcDbCircle
 10
1929.405001
 20
1091.658903
 30
0.0
 40
4.036867
100
AcDbArc
 50
270.520902
 51
359.479098
  0
LINE
  5
317E
100
AcDbEntity
  8
0
100
AcDbLine
 10
1947.441702
 20
1080.802203
 30
0.0
 11
1947.441702
 21
1075.622203
 31
0.0
  0
LINE
  5
317F
100
AcDbEntity
  8
0
100
AcDbLine
 10
1933.441702
 20
1091.622203
 30
0.0
 11
1933.441702
 21
1096.122203
 31
0.0
  0
LINE
  5
3180
100
AcDbEntity
  8
0
100
AcDbLine
 10
1936.441702
 20
1097.622203
 30
0.0
 11
1935.441702
 21
1096.122203
 31
0.0
  0
LINE
  5
3181
100
AcDbEntity
  8
0
100
AcDbLine
 10
1971.441702
 20
1097.622203
 30
0.0
 11
1933.441702
 21
1097.622203
 31
0.0
  0
LINE
  5
3182
100
AcDbEntity
  8
0
100
AcDbLine
 10
1971.441702
 20
1096.122203
 30
0.0
 11
1933.441702
 21
1096.122203
 31
0.0
  0
ARC
  5
3183
100
AcDbEntity
  8
0
100
AcDbCircle
 10
1953.097202
 20
1099.655703
 30
0.0
 40
23.717647
100
AcDbArc
 50
256.204857
 51
320.665041
  0
LINE
  5
3184
100
AcDbEntity
  8
0
100
AcDbLine
 10
1933.441702
 20
1097.622203
 30
0.0
 11
1933.441702
 21
1118.620302
 31
0.0
  0
LINE
  5
3185
100
AcDbEntity
  8
0
100
AcDbLine
 10
1971.441702
 20
1120.12429
 30
0.0
 11
1971.441702
 21
1097.622203
 31
0.0
  0
ARC
  5
3186
100
AcDbEntity
  8
0
100
AcDbCircle
 10
1978.81662
 20
1083.110067
 30
0.0
 40
1.512163
100
AcDbArc
 50
17.000866
 51
89.655892
  0
LINE
  5
3187
100
AcDbEntity
  8
0
100
AcDbLine
 10
1980.490702
 20
1082.792203
 30
0.0
 11
1994.270702
 21
1082.792203
 31
0.0
  0
LINE
  5
3188
100
AcDbEntity
  8
0
100
AcDbLine
 10
1979.941702
 20
1070.622203
 30
0.0
 11
1979.941702
 21
1083.442203
 31
0.0
  0
LINE
  5
3189
100
AcDbEntity
  8
0
100
AcDbLine
 10
1994.270702
 20
1070.962203
 30
0.0
 11
1980.490702
 21
1070.962203
 31
0.0
  0
ARC
  5
318A
100
AcDbEntity
  8
0
100
AcDbCircle
 10
1962.249781
 20
1076.928931
 30
0.0
 40
19.192004
100
AcDbArc
 50
341.886729
 51
20.188253
  0
LINE
  5
318B
100
AcDbEntity
  8
0
100
AcDbLine
 10
1994.270702
 20
1082.792203
 30
0.0
 11
1997.441702
 21
1079.622203
 31
0.0
  0
ARC
  5
318C
100
AcDbEntity
  8
0
100
AcDbCircle
 10
1990.339456
 20
1076.877203
 30
0.0
 40
7.102247
100
AcDbArc
 50
303.608929
 51
33.627001
  0
LINE
  5
318D
100
AcDbEntity
  8
0
100
AcDbLine
 10
1976.441702
 20
1139.622203
 30
0.0
 11
1990.941702
 21
1139.622203
 31
0.0
  0
LINE
  5
318E
100
AcDbEntity
  8
0
100
AcDbLine
 10
1924.941237
 20
1217.886471
 30
0.0
 11
1979.941655
 21
1217.886471
 31
0.0
  0
LINE
  5
318F
100
AcDbEntity
  8
0
100
AcDbLine
 10
1979.941655
 20
1274.886471
 30
0.0
 11
1924.941237
 21
1274.886471
 31
0.0
  0
LINE
  5
3190
100
AcDbEntity
  8
0
100
AcDbLine
 10
1907.441702
 20
1246.386471
 30
0.0
 11
1907.441702
 21
1266.886471
 31
0.0
  0
LINE
  5
3191
100
AcDbEntity
  8
0
100
AcDbLine
 10
1924.941702
 20
1271.816471
 30
0.0
 11
1924.941702
 21
1220.946471
 31
0.0
  0
ARC
  5
3192
100
AcDbEntity
  8
0
100
AcDbCircle
 10
1925.593348
 20
1256.636471
 30
0.0
 40
18.151646
100
AcDbArc
 50
145.619436
 51
214.380564
  0
ARC
  5
3193
100
AcDbEntity
  8
0
100
AcDbCircle
 10
2053.815959
 20
1257.237276
 30
0.0
 40
130.077624
100
AcDbArc
 50
172.20194
 51
184.785055
  0
ARC
  5
3194
100
AcDbEntity
  8
0
100
AcDbCircle
 10
2053.815959
 20
1235.535665
 30
0.0
 40
130.077624
100
AcDbArc
 50
175.214945
 51
187.79806
  0
ARC
  5
3195
100
AcDbEntity
  8
0
100
AcDbCircle
 10
1925.593348
 20
1236.136471
 30
0.0
 40
18.151646
100
AcDbArc
 50
145.619436
 51
214.380564
  0
LINE
  5
3196
100
AcDbEntity
  8
0
100
AcDbLine
 10
1907.441702
 20
1225.886471
 30
0.0
 11
1924.096719
 21
1225.886471
 31
0.0
  0
LINE
  5
3197
100
AcDbEntity
  8
0
100
AcDbLine
 10
1910.612702
 20
1246.386471
 30
0.0
 11
1924.191702
 21
1246.386471
 31
0.0
  0
LINE
  5
3198
100
AcDbEntity
  8
0
100
AcDbLine
 10
1907.441702
 20
1246.386471
 30
0.0
 11
1907.441702
 21
1225.886471
 31
0.0
  0
LINE
  5
3199
100
AcDbEntity
  8
0
100
AcDbLine
 10
1924.096719
 20
1266.886471
 30
0.0
 11
1907.441702
 21
1266.886471
 31
0.0
  0
ARC
  5
319A
100
AcDbEntity
  8
0
100
AcDbCircle
 10
1869.343899
 20
1259.701111
 30
0.0
 40
112.139619
100
AcDbArc
 50
356.587692
 51
4.513831
  0
LINE
  5
319B
100
AcDbEntity
  8
0
100
AcDbLine
 10
1997.441702
 20
1266.886471
 30
0.0
 11
1997.441702
 21
1253.496471
 31
0.0
  0
ARC
  5
319C
100
AcDbEntity
  8
0
100
AcDbCircle
 10
1979.299844
 20
1256.639499
 30
0.0
 40
18.141858
100
AcDbArc
 50
349.974848
 51
34.390127
  0
LINE
  5
319D
100
AcDbEntity
  8
0
100
AcDbLine
 10
1928.941702
 20
1274.886471
 30
0.0
 11
1928.941702
 21
1217.886471
 31
0.0
  0
ARC
  5
319E
100
AcDbEntity
  8
0
100
AcDbCircle
 10
1952.441435
 20
1246.386551
 30
0.0
 40
18.999733
100
AcDbArc
 50
21.618332
 51
180.000241
  0
LINE
  5
319F
100
AcDbEntity
  8
0
100
AcDbLine
 10
1970.104702
 20
1253.386471
 30
0.0
 11
1976.441702
 21
1252.886471
 31
0.0
  0
LINE
  5
31A0
100
AcDbEntity
  8
0
100
AcDbLine
 10
1970.104702
 20
1239.386471
 30
0.0
 11
1976.441702
 21
1239.886471
 31
0.0
  0
LINE
  5
31A1
100
AcDbEntity
  8
0
100
AcDbLine
 10
1980.504884
 20
1220.886471
 30
0.0
 11
1947.441702
 21
1220.886471
 31
0.0
  0
LINE
  5
31A2
100
AcDbEntity
  8
0
100
AcDbLine
 10
1947.441702
 20
1220.886471
 30
0.0
 11
1947.441702
 21
1228.056471
 31
0.0
  0
ARC
  5
31A3
100
AcDbEntity
  8
0
100
AcDbCircle
 10
1952.441495
 20
1246.386706
 30
0.0
 40
18.999794
100
AcDbArc
 50
180.000711
 51
338.380716
  0
LINE
  5
31A4
100
AcDbEntity
  8
0
100
AcDbLine
 10
1934.778168
 20
1253.386471
 30
0.0
 11
1970.104702
 21
1253.386471
 31
0.0
  0
LINE
  5
31A5
100
AcDbEntity
  8
0
100
AcDbLine
 10
1934.778289
 20
1239.386471
 30
0.0
 11
1970.104702
 21
1239.386471
 31
0.0
  0
CIRCLE
  5
31A6
100
AcDbEntity
  8
0
100
AcDbCircle
 10
1952.441702
 20
1246.386471
 30
0.0
 40
5.0
  0
ARC
  5
31A7
100
AcDbEntity
  8
0
100
AcDbCircle
 10
1869.343899
 20
1233.07183
 30
0.0
 40
112.139619
100
AcDbArc
 50
355.486169
 51
3.412308
  0
LINE
  5
31A8
100
AcDbEntity
  8
0
100
AcDbLine
 10
1997.441702
 20
1225.886471
 30
0.0
 11
1997.441702
 21
1239.276471
 31
0.0
  0
LINE
  5
31A9
100
AcDbEntity
  8
0
100
AcDbLine
 10
1981.4436
 20
1225.886471
 30
0.0
 11
1997.441702
 21
1225.886471
 31
0.0
  0
LINE
  5
31AA
100
AcDbEntity
  8
0
100
AcDbLine
 10
1979.941655
 20
1217.886471
 30
0.0
 11
1981.4436
 21
1225.886471
 31
0.0
  0
ARC
  5
31AB
100
AcDbEntity
  8
0
100
AcDbCircle
 10
1979.299844
 20
1236.133442
 30
0.0
 40
18.141858
100
AcDbArc
 50
325.609873
 51
10.025152
  0
LINE
  5
31AC
100
AcDbEntity
  8
0
100
AcDbLine
 10
1992.441702
 20
1253.344169
 30
0.0
 11
1992.441702
 21
1239.427167
 31
0.0
  0
LINE
  5
31AD
100
AcDbEntity
  8
0
100
AcDbLine
 10
1990.941702
 20
1239.470226
 30
0.0
 11
1990.941702
 21
1253.301259
 31
0.0
  0
LINE
  5
31AE
100
AcDbEntity
  8
0
100
AcDbLine
 10
1976.441702
 20
1252.886471
 30
0.0
 11
1976.441702
 21
1239.886471
 31
0.0
  0
LINE
  5
31AF
100
AcDbEntity
  8
0
100
AcDbLine
 10
1980.504884
 20
1271.886471
 30
0.0
 11
1947.441702
 21
1271.886471
 31
0.0
  0
LINE
  5
31B0
100
AcDbEntity
  8
0
100
AcDbLine
 10
1947.441702
 20
1271.886471
 30
0.0
 11
1947.441702
 21
1264.716471
 31
0.0
  0
LINE
  5
31B1
100
AcDbEntity
  8
0
100
AcDbLine
 10
1981.135702
 20
1268.526471
 30
0.0
 11
1980.733702
 21
1270.666471
 31
0.0
  0
LINE
  5
31B2
100
AcDbEntity
  8
0
100
AcDbLine
 10
1979.941655
 20
1274.886471
 30
0.0
 11
1981.4436
 21
1266.886471
 31
0.0
  0
LINE
  5
31B3
100
AcDbEntity
  8
0
100
AcDbLine
 10
1997.441702
 20
1266.886471
 30
0.0
 11
1981.4436
 21
1266.886471
 31
0.0
  0
LINE
  5
31B4
100
AcDbEntity
  8
0
100
AcDbLine
 10
2114.439156
 20
1118.622203
 30
0.0
 11
2152.434688
 21
1118.622203
 31
0.0
  0
LINE
  5
31B5
100
AcDbEntity
  8
0
100
AcDbLine
 10
2124.084688
 20
1130.619344
 30
0.0
 11
2142.784688
 21
1130.619344
 31
0.0
  0
LINE
  5
31B6
100
AcDbEntity
  8
0
100
AcDbLine
 10
2124.084688
 20
1141.122203
 30
0.0
 11
2142.784688
 21
1141.122203
 31
0.0
  0
LINE
  5
31B7
100
AcDbEntity
  8
0
100
AcDbLine
 10
2127.142099
 20
1120.116485
 30
0.0
 11
2139.727277
 21
1120.116485
 31
0.0
  0
LINE
  5
31B8
100
AcDbEntity
  8
0
100
AcDbLine
 10
2152.434688
 20
1096.122203
 30
0.0
 11
2114.434688
 21
1096.122203
 31
0.0
  0
LINE
  5
31B9
100
AcDbEntity
  8
0
100
AcDbLine
 10
2152.434688
 20
1097.622203
 30
0.0
 11
2114.434688
 21
1097.622203
 31
0.0
  0
ARC
  5
31BA
100
AcDbEntity
  8
0
100
AcDbCircle
 10
2133.434688
 20
1059.122203
 30
0.0
 40
25.5
100
AcDbArc
 50
30.582063
 51
149.417937
  0
LINE
  5
31BB
100
AcDbEntity
  8
0
100
AcDbLine
 10
2126.434688
 20
1118.622203
 30
0.0
 11
2126.434688
 21
1130.619344
 31
0.0
  0
LINE
  5
31BC
100
AcDbEntity
  8
0
100
AcDbLine
 10
2114.434688
 20
1097.622203
 30
0.0
 11
2114.434688
 21
1118.620302
 31
0.0
  0
LINE
  5
31BD
100
AcDbEntity
  8
0
100
AcDbLine
 10
2117.434688
 20
1097.622203
 30
0.0
 11
2116.434688
 21
1096.122203
 31
0.0
  0
ARC
  5
31BE
100
AcDbEntity
  8
0
100
AcDbCircle
 10
2108.899
 20
1073.622203
 30
0.0
 40
3.0
100
AcDbArc
 50
270.0
 51
329.417937
  0
LINE
  5
31BF
100
AcDbEntity
  8
0
100
AcDbLine
 10
2108.018158
 20
1070.622203
 30
0.0
 11
2108.899
 21
1070.622203
 31
0.0
  0
ARC
  5
31C0
100
AcDbEntity
  8
0
100
AcDbCircle
 10
2110.434688
 20
1082.084128
 30
0.0
 40
4.0
100
AcDbArc
 50
315.047464
 51
0.0
  0
ARC
  5
31C1
100
AcDbEntity
  8
0
100
AcDbCircle
 10
2110.434688
 20
1077.595156
 30
0.0
 40
4.0
100
AcDbArc
 50
321.229549
 51
360.0
  0
ARC
  5
31C2
100
AcDbEntity
  8
0
100
AcDbCircle
 10
2108.018158
 20
1069.622203
 30
0.0
 40
1.0
100
AcDbArc
 50
90.0
 51
157.553649
  0
LINE
  5
31C3
100
AcDbEntity
  8
0
100
AcDbLine
 10
2114.434688
 20
1096.122203
 30
0.0
 11
2114.434688
 21
1077.595156
 31
0.0
  0
LINE
  5
31C4
100
AcDbEntity
  8
0
100
AcDbLine
 10
2124.084688
 20
1130.619344
 30
0.0
 11
2124.084688
 21
1141.122203
 31
0.0
  0
LINE
  5
31C5
100
AcDbEntity
  8
0
100
AcDbLine
 10
2082.440702
 20
1141.122203
 30
0.0
 11
2082.440702
 21
1134.625242
 31
0.0
  0
LINE
  5
31C6
100
AcDbEntity
  8
0
100
AcDbLine
 10
2140.434688
 20
1118.622203
 30
0.0
 11
2140.434688
 21
1130.619344
 31
0.0
  0
LINE
  5
31C7
100
AcDbEntity
  8
0
100
AcDbLine
 10
2152.434688
 20
1118.622203
 30
0.0
 11
2152.434688
 21
1097.622203
 31
0.0
  0
LINE
  5
31C8
100
AcDbEntity
  8
0
100
AcDbLine
 10
2149.434688
 20
1097.622203
 30
0.0
 11
2150.434688
 21
1096.122203
 31
0.0
  0
ARC
  5
31C9
100
AcDbEntity
  8
0
100
AcDbCircle
 10
2156.434688
 20
1077.595156
 30
0.0
 40
4.0
100
AcDbArc
 50
180.0
 51
218.770451
  0
ARC
  5
31CA
100
AcDbEntity
  8
0
100
AcDbCircle
 10
2156.434688
 20
1082.084128
 30
0.0
 40
4.0
100
AcDbArc
 50
180.0
 51
224.952536
  0
ARC
  5
31CB
100
AcDbEntity
  8
0
100
AcDbCircle
 10
2158.851218
 20
1069.622203
 30
0.0
 40
1.0
100
AcDbArc
 50
22.446351
 51
90.0
  0
ARC
  5
31CC
100
AcDbEntity
  8
0
100
AcDbCircle
 10
2157.970376
 20
1073.622203
 30
0.0
 40
3.0
100
AcDbArc
 50
210.582063
 51
270.0
  0
LINE
  5
31CD
100
AcDbEntity
  8
0
100
AcDbLine
 10
2158.851218
 20
1070.622203
 30
0.0
 11
2157.970376
 21
1070.622203
 31
0.0
  0
LINE
  5
31CE
100
AcDbEntity
  8
0
100
AcDbLine
 10
2152.434688
 20
1096.122203
 30
0.0
 11
2152.434688
 21
1077.595156
 31
0.0
  0
LINE
  5
31CF
100
AcDbEntity
  8
0
100
AcDbLine
 10
2142.784688
 20
1130.619344
 30
0.0
 11
2142.784688
 21
1141.122203
 31
0.0
  0
ARC
  5
31D0
100
AcDbEntity
  8
0
100
AcDbCircle
 10
2076.248212
 20
1249.735549
 30
0.0
 40
6.003547
100
AcDbArc
 50
6.704646
 51
91.694347
  0
ARC
  5
31D1
100
AcDbEntity
  8
0
100
AcDbCircle
 10
2076.248343
 20
1243.02724
 30
0.0
 40
6.003399
100
AcDbArc
 50
268.304359
 51
353.296648
  0
ARC
  5
31D2
100
AcDbEntity
  8
0
100
AcDbCircle
 10
2047.422727
 20
1246.381471
 30
0.0
 40
35.023509
100
AcDbArc
 50
353.35142
 51
6.64858
  0
LINE
  5
31D3
100
AcDbEntity
  8
0
100
AcDbLine
 10
1971.425635
 20
1448.720191
 30
0.0
 11
1971.425635
 21
1469.71829
 31
0.0
  0
LINE
  5
31D4
100
AcDbEntity
  8
0
100
AcDbLine
 10
1933.425635
 20
1471.222278
 30
0.0
 11
1933.425635
 21
1448.720191
 31
0.0
  0
ARC
  5
31D5
100
AcDbEntity
  8
0
100
AcDbCircle
 10
1926.050717
 20
1434.208056
 30
0.0
 40
1.512163
100
AcDbArc
 50
90.344108
 51
162.999134
  0
ARC
  5
31D6
100
AcDbEntity
  8
0
100
AcDbCircle
 10
1926.050717
 20
1386.232326
 30
0.0
 40
1.512163
100
AcDbArc
 50
197.000866
 51
269.655892
  0
LINE
  5
31D7
100
AcDbEntity
  8
0
100
AcDbLine
 10
1924.925635
 20
1398.720191
 30
0.0
 11
1957.425635
 21
1398.720191
 31
0.0
  0
LINE
  5
31D8
100
AcDbEntity
  8
0
100
AcDbLine
 10
1952.425635
 20
1421.720191
 30
0.0
 11
1924.925635
 21
1421.720191
 31
0.0
  0
LINE
  5
31D9
100
AcDbEntity
  8
0
100
AcDbLine
 10
1924.925635
 20
1386.010191
 30
0.0
 11
1924.925635
 21
1398.721226
 31
0.0
  0
ARC
  5
31DA
100
AcDbEntity
  8
0
100
AcDbCircle
 10
1942.617555
 20
1392.413462
 30
0.0
 40
19.192004
100
AcDbArc
 50
161.886729
 51
200.188253
  0
LINE
  5
31DB
100
AcDbEntity
  8
0
100
AcDbLine
 10
1907.425635
 20
1389.720191
 30
0.0
 11
1910.596635
 21
1386.550191
 31
0.0
  0
ARC
  5
31DC
100
AcDbEntity
  8
0
100
AcDbCircle
 10
1914.52788
 20
1392.465191
 30
0.0
 40
7.102247
100
AcDbArc
 50
123.608929
 51
213.627001
  0
LINE
  5
31DD
100
AcDbEntity
  8
0
100
AcDbLine
 10
1910.596635
 20
1386.550191
 30
0.0
 11
1924.343118
 21
1386.550191
 31
0.0
  0
ARC
  5
31DE
100
AcDbEntity
  8
0
100
AcDbCircle
 10
1942.617555
 20
1428.026919
 30
0.0
 40
19.192004
100
AcDbArc
 50
159.811747
 51
198.113271
  0
LINE
  5
31DF
100
AcDbEntity
  8
0
100
AcDbLine
 10
1910.596635
 20
1422.060191
 30
0.0
 11
1924.376635
 21
1422.060191
 31
0.0
  0
LINE
  5
31E0
100
AcDbEntity
  8
0
100
AcDbLine
 10
1924.925635
 20
1421.720191
 30
0.0
 11
1924.925635
 21
1434.540191
 31
0.0
  0
LINE
  5
31E1
100
AcDbEntity
  8
0
100
AcDbLine
 10
1924.376635
 20
1433.890191
 30
0.0
 11
1910.596635
 21
1433.890191
 31
0.0
  0
LINE
  5
31E2
100
AcDbEntity
  8
0
100
AcDbLine
 10
1907.425635
 20
1430.720191
 30
0.0
 11
1907.425635
 21
1410.220191
 31
0.0
  0
ARC
  5
31E3
100
AcDbEntity
  8
0
100
AcDbCircle
 10
1914.52788
 20
1427.975191
 30
0.0
 40
7.102247
100
AcDbArc
 50
146.372999
 51
236.391071
  0
LINE
  5
31E4
100
AcDbEntity
  8
0
100
AcDbLine
 10
1910.596635
 20
1433.890191
 30
0.0
 11
1907.425635
 21
1430.720191
 31
0.0
  0
LINE
  5
31E5
100
AcDbEntity
  8
0
100
AcDbLine
 10
1910.596635
 20
1398.380191
 30
0.0
 11
1924.376635
 21
1398.380191
 31
0.0
  0
ARC
  5
31E6
100
AcDbEntity
  8
0
100
AcDbCircle
 10
1931.175613
 20
1410.220191
 30
0.0
 40
23.741944
100
AcDbArc
 50
150.08627
 51
209.91373
  0
ARC
  5
31E7
100
AcDbEntity
  8
0
100
AcDbCircle
 10
1997.605446
 20
1410.220191
 30
0.0
 40
74.179811
100
AcDbArc
 50
170.815615
 51
189.184385
  0
LINE
  5
31E8
100
AcDbEntity
  8
0
100
AcDbLine
 10
1907.425635
 20
1410.220191
 30
0.0
 11
1907.425635
 21
1389.720191
 31
0.0
  0
LINE
  5
31E9
100
AcDbEntity
  8
0
100
AcDbLine
 10
1994.254635
 20
1386.550191
 30
0.0
 11
1997.425635
 21
1389.720191
 31
0.0
  0
ARC
  5
31EA
100
AcDbEntity
  8
0
100
AcDbCircle
 10
1990.323389
 20
1392.465191
 30
0.0
 40
7.102247
100
AcDbArc
 50
326.372999
 51
56.391071
  0
ARC
  5
31EB
100
AcDbEntity
  8
0
100
AcDbCircle
 10
1953.737567
 20
1392.14165
 30
0.0
 40
27.65102
100
AcDbArc
 50
344.732006
 51
13.039164
  0
LINE
  5
31EC
100
AcDbEntity
  8
0
100
AcDbLine
 10
1957.425635
 20
1398.720191
 30
0.0
 11
1957.425635
 21
1382.423191
 31
0.0
  0
LINE
  5
31ED
100
AcDbEntity
  8
0
100
AcDbLine
 10
1975.925635
 20
1438.720191
 30
0.0
 11
1975.925635
 21
1381.720191
 31
0.0
  0
LINE
  5
31EE
100
AcDbEntity
  8
0
100
AcDbLine
 10
1979.925635
 20
1435.980191
 30
0.0
 11
1979.925635
 21
1384.460191
 31
0.0
  0
LINE
  5
31EF
100
AcDbEntity
  8
0
100
AcDbLine
 10
1979.925683
 20
1381.720191
 30
0.0
 11
1944.425635
 21
1381.720191
 31
0.0
  0
ARC
  5
31F0
100
AcDbEntity
  8
0
100
AcDbCircle
 10
1952.426322
 20
1360.420348
 30
0.0
 40
25.583068
100
AcDbArc
 50
78.731037
 51
108.224051
  0
LINE
  5
31F1
100
AcDbEntity
  8
0
100
AcDbLine
 10
1944.415635
 20
1381.720191
 30
0.0
 11
1944.425635
 21
1381.720191
 31
0.0
  0
LINE
  5
31F2
100
AcDbEntity
  8
0
100
AcDbLine
 10
1947.925635
 20
1374.220191
 30
0.0
 11
1956.925635
 21
1374.220191
 31
0.0
  0
LINE
  5
31F3
100
AcDbEntity
  8
0
100
AcDbLine
 10
1943.025635
 20
1384.720191
 30
0.0
 11
1947.925635
 21
1374.220191
 31
0.0
  0
LINE
  5
31F4
100
AcDbEntity
  8
0
100
AcDbLine
 10
1956.925635
 20
1374.220191
 30
0.0
 11
1960.425635
 21
1381.720191
 31
0.0
  0
LINE
  5
31F5
100
AcDbEntity
  8
0
100
AcDbLine
 10
1926.041635
 20
1384.720191
 30
0.0
 11
1943.025635
 21
1384.720191
 31
0.0
  0
LINE
  5
31F6
100
AcDbEntity
  8
0
100
AcDbLine
 10
1979.925683
 20
1381.720191
 30
0.0
 11
1980.412635
 21
1384.860191
 31
0.0
  0
ARC
  5
31F7
100
AcDbEntity
  8
0
100
AcDbCircle
 10
1982.404282
 20
1384.531696
 30
0.0
 40
2.018556
100
AcDbArc
 50
90.44414
 51
170.634164
  0
LINE
  5
31F8
100
AcDbEntity
  8
0
100
AcDbLine
 10
1982.388635
 20
1386.550191
 30
0.0
 11
1994.254635
 21
1386.550191
 31
0.0
  0
LINE
  5
31F9
100
AcDbEntity
  8
0
100
AcDbLine
 10
1979.925683
 20
1438.720191
 30
0.0
 11
1975.425635
 21
1438.720191
 31
0.0
  0
LINE
  5
31FA
100
AcDbEntity
  8
0
100
AcDbLine
 10
1968.425635
 20
1448.720191
 30
0.0
 11
1969.425635
 21
1447.220191
 31
0.0
  0
LINE
  5
31FB
100
AcDbEntity
  8
0
100
AcDbLine
 10
1936.425635
 20
1448.720191
 30
0.0
 11
1935.425635
 21
1447.220191
 31
0.0
  0
LINE
  5
31FC
100
AcDbEntity
  8
0
100
AcDbLine
 10
1933.425635
 20
1448.720191
 30
0.0
 11
1971.425635
 21
1448.720191
 31
0.0
  0
LINE
  5
31FD
100
AcDbEntity
  8
0
100
AcDbLine
 10
1933.425635
 20
1447.220191
 30
0.0
 11
1971.425635
 21
1447.220191
 31
0.0
  0
ARC
  5
31FE
100
AcDbEntity
  8
0
100
AcDbCircle
 10
1975.462335
 20
1442.756891
 30
0.0
 40
4.036867
100
AcDbArc
 50
180.520902
 51
269.479098
  0
LINE
  5
31FF
100
AcDbEntity
  8
0
100
AcDbLine
 10
1957.425635
 20
1431.900191
 30
0.0
 11
1957.425635
 21
1426.720191
 31
0.0
  0
ARC
  5
3200
100
AcDbEntity
  8
0
100
AcDbCircle
 10
1952.389401
 20
1426.756424
 30
0.0
 40
5.036364
100
AcDbArc
 50
270.412211
 51
359.587789
  0
ARC
  5
3201
100
AcDbEntity
  8
0
100
AcDbCircle
 10
1952.264173
 20
1460.275068
 30
0.0
 40
28.840498
100
AcDbArc
 50
280.309524
 51
311.635872
  0
LINE
  5
3202
100
AcDbEntity
  8
0
100
AcDbLine
 10
1933.425635
 20
1447.220191
 30
0.0
 11
1933.425635
 21
1439.720191
 31
0.0
  0
LINE
  5
3203
100
AcDbEntity
  8
0
100
AcDbLine
 10
1971.425635
 20
1442.720191
 30
0.0
 11
1971.425635
 21
1447.220191
 31
0.0
  0
LINE
  5
3204
100
AcDbEntity
  8
0
100
AcDbLine
 10
1929.425635
 20
1435.720191
 30
0.0
 11
1926.041635
 21
1435.720191
 31
0.0
  0
LINE
  5
3205
100
AcDbEntity
  8
0
100
AcDbLine
 10
1925.999635
 20
1398.720191
 30
0.0
 11
1925.999635
 21
1421.720191
 31
0.0
  0
ARC
  5
3206
100
AcDbEntity
  8
0
100
AcDbCircle
 10
1951.770135
 20
1450.753691
 30
0.0
 40
23.717647
100
AcDbArc
 50
219.334959
 51
283.795143
  0
ARC
  5
3207
100
AcDbEntity
  8
0
100
AcDbCircle
 10
1929.42759
 20
1439.718236
 30
0.0
 40
3.998045
100
AcDbArc
 50
269.971978
 51
0.028022
  0
ARC
  5
3208
100
AcDbEntity
  8
0
100
AcDbCircle
 10
1990.323389
 20
1427.975191
 30
0.0
 40
7.102247
100
AcDbArc
 50
303.608929
 51
33.627001
  0
LINE
  5
3209
100
AcDbEntity
  8
0
100
AcDbLine
 10
1997.425635
 20
1430.720191
 30
0.0
 11
1994.254635
 21
1433.890191
 31
0.0
  0
LINE
  5
320A
100
AcDbEntity
  8
0
100
AcDbLine
 10
1997.425635
 20
1410.220191
 30
0.0
 11
1997.425635
 21
1430.720191
 31
0.0
  0
ARC
  5
320B
100
AcDbEntity
  8
0
100
AcDbCircle
 10
1973.675657
 20
1410.220191
 30
0.0
 40
23.741944
100
AcDbArc
 50
330.08627
 51
29.91373
  0
LINE
  5
320C
100
AcDbEntity
  8
0
100
AcDbLine
 10
1997.425635
 20
1389.720191
 30
0.0
 11
1997.425635
 21
1410.220191
 31
0.0
  0
ARC
  5
320D
100
AcDbEntity
  8
0
100
AcDbCircle
 10
1947.744354
 20
1428.924665
 30
0.0
 40
33.639118
100
AcDbArc
 50
348.22539
 51
16.929482
  0
ARC
  5
320E
100
AcDbEntity
  8
0
100
AcDbCircle
 10
1907.446824
 20
1410.220191
 30
0.0
 40
74.179811
100
AcDbArc
 50
350.815615
 51
9.184385
  0
LINE
  5
320F
100
AcDbEntity
  8
0
100
AcDbLine
 10
1994.254635
 20
1398.380191
 30
0.0
 11
1980.675635
 21
1398.380191
 31
0.0
  0
LINE
  5
3210
100
AcDbEntity
  8
0
100
AcDbLine
 10
1994.254635
 20
1422.060191
 30
0.0
 11
1980.675635
 21
1422.060191
 31
0.0
  0
LINE
  5
3211
100
AcDbEntity
  8
0
100
AcDbLine
 10
1994.254635
 20
1433.890191
 30
0.0
 11
1981.014969
 21
1433.890191
 31
0.0
  0
LINE
  5
3212
100
AcDbEntity
  8
0
100
AcDbLine
 10
1928.425635
 20
1490.720191
 30
0.0
 11
1913.925635
 21
1490.720191
 31
0.0
  0
LINE
  5
3213
100
AcDbEntity
  8
0
100
AcDbLine
 10
1912.425635
 20
1492.220191
 30
0.0
 11
1933.425635
 21
1471.222278
 31
0.0
  0
LINE
  5
3214
100
AcDbEntity
  8
0
100
AcDbLine
 10
1969.838635
 20
1469.720191
 30
0.0
 11
1935.013635
 21
1469.720191
 31
0.0
  0
ARC
  5
3215
100
AcDbEntity
  8
0
100
AcDbCircle
 10
1818.682853
 20
1211.508338
 30
0.0
 40
300.004561
100
AcDbArc
 50
59.393779
 51
68.542947
  0
TEXT
  5
3216
100
AcDbEntity
  8
0
100
AcDbText
 10
1819.573608
 20
160.660499
 30
0.0
 40
20.0
  1
50A
 41
0.8
 72
     4
 11
1840.906941
 21
170.660499
 31
0.0
100
AcDbText
  0
LINE
  5
3217
100
AcDbEntity
  8
0
100
AcDbLine
 10
1796.020922
 20
870.630673
 30
0.0
 11
1771.020922
 21
870.630673
 31
0.0
  0
LINE
  5
3218
100
AcDbEntity
  8
0
100
AcDbLine
 10
1813.556456
 20
828.095139
 30
0.0
 11
1769.020922
 21
872.630673
 31
0.0
  0
LINE
  5
3219
100
AcDbEntity
  8
0
100
AcDbLine
 10
1629.426362
 20
862.538634
 30
0.0
 11
1783.270922
 21
858.380673
 31
0.0
  0
CIRCLE
  5
321A
100
AcDbEntity
  8
0
100
AcDbCircle
 10
1649.806188
 20
269.195829
 30
0.0
 40
35.0
  0
CIRCLE
  5
321B
100
AcDbEntity
  8
0
100
AcDbCircle
 10
1649.806188
 20
269.195829
 30
0.0
 40
51.0
  0
POLYLINE
  5
321C
100
AcDbEntity
  8
0
100
AcDb2dPolyline
 66
     1
 10
0.0
 20
0.0
 30
0.0
 70
     1
  0
VERTEX
  5
419A
100
AcDbEntity
  8
0
100
AcDbVertex
100
AcDb2dVertex
 10
1684.806188
 20
248.98857
 30
0.0
  0
VERTEX
  5
419B
100
AcDbEntity
  8
0
100
AcDbVertex
100
AcDb2dVertex
 10
1649.806188
 20
228.78131
 30
0.0
  0
VERTEX
  5
419C
100
AcDbEntity
  8
0
100
AcDbVertex
100
AcDb2dVertex
 10
1614.806188
 20
248.98857
 30
0.0
  0
VERTEX
  5
419D
100
AcDbEntity
  8
0
100
AcDbVertex
100
AcDb2dVertex
 10
1614.806188
 20
289.403089
 30
0.0
  0
VERTEX
  5
419E
100
AcDbEntity
  8
0
100
AcDbVertex
100
AcDb2dVertex
 10
1649.806188
 20
309.610348
 30
0.0
  0
VERTEX
  5
419F
100
AcDbEntity
  8
0
100
AcDbVertex
100
AcDb2dVertex
 10
1684.806188
 20
289.403089
 30
0.0
  0
SEQEND
  5
41A0
100
AcDbEntity
  8
0
  0
CIRCLE
  5
321D
100
AcDbEntity
  8
0
100
AcDbCircle
 10
1649.806188
 20
269.195829
 30
0.0
 40
46.0
  0
CIRCLE
  5
321E
100
AcDbEntity
  8
0
100
AcDbCircle
 10
967.090256
 20
269.195829
 30
0.0
 40
30.0
  0
CIRCLE
  5
321F
100
AcDbEntity
  8
0
100
AcDbCircle
 10
967.090256
 20
269.195829
 30
0.0
 40
42.0
  0
POLYLINE
  5
3220
100
AcDbEntity
  8
0
100
AcDb2dPolyline
 66
     1
 10
0.0
 20
0.0
 30
0.0
 70
     1
  0
VERTEX
  5
41A1
100
AcDbEntity
  8
0
100
AcDbVertex
100
AcDb2dVertex
 10
997.090256
 20
251.875321
 30
0.0
  0
VERTEX
  5
41A2
100
AcDbEntity
  8
0
100
AcDbVertex
100
AcDb2dVertex
 10
967.090256
 20
234.554813
 30
0.0
  0
VERTEX
  5
41A3
100
AcDbEntity
  8
0
100
AcDbVertex
100
AcDb2dVertex
 10
937.090256
 20
251.875321
 30
0.0
  0
VERTEX
  5
41A4
100
AcDbEntity
  8
0
100
AcDbVertex
100
AcDb2dVertex
 10
937.090256
 20
286.516337
 30
0.0
  0
VERTEX
  5
41A5
100
AcDbEntity
  8
0
100
AcDbVertex
100
AcDb2dVertex
 10
967.090256
 20
303.836845
 30
0.0
  0
VERTEX
  5
41A6
100
AcDbEntity
  8
0
100
AcDbVertex
100
AcDb2dVertex
 10
997.090256
 20
286.516337
 30
0.0
  0
SEQEND
  5
41A7
100
AcDbEntity
  8
0
  0
CIRCLE
  5
3221
100
AcDbEntity
  8
0
100
AcDbCircle
 10
1403.40636
 20
269.195829
 30
0.0
 40
30.0
  0
POLYLINE
  5
3222
100
AcDbEntity
  8
0
100
AcDb2dPolyline
 66
     1
 10
0.0
 20
0.0
 30
0.0
 70
     1
  0
VERTEX
  5
41A8
100
AcDbEntity
  8
0
100
AcDbVertex
100
AcDb2dVertex
 10
1373.40636
 20
251.875321
 30
0.0
  0
VERTEX
  5
41A9
100
AcDbEntity
  8
0
100
AcDbVertex
100
AcDb2dVertex
 10
1403.40636
 20
234.554813
 30
0.0
  0
VERTEX
  5
41AA
100
AcDbEntity
  8
0
100
AcDbVertex
100
AcDb2dVertex
 10
1433.40636
 20
251.875321
 30
0.0
  0
VERTEX
  5
41AB
100
AcDbEntity
  8
0
100
AcDbVertex
100
AcDb2dVertex
 10
1433.40636
 20
286.516337
 30
0.0
  0
VERTEX
  5
41AC
100
AcDbEntity
  8
0
100
AcDbVertex
100
AcDb2dVertex
 10
1403.40636
 20
303.836845
 30
0.0
  0
VERTEX
  5
41AD
100
AcDbEntity
  8
0
100
AcDbVertex
100
AcDb2dVertex
 10
1373.40636
 20
286.516337
 30
0.0
  0
SEQEND
  5
41AE
100
AcDbEntity
  8
0
  0
ARC
  5
3223
100
AcDbEntity
  8
0
100
AcDbCircle
 10
1403.40636
 20
269.195829
 30
0.0
 40
42.0
100
AcDbArc
 50
131.532401
 51
256.225853
  0
ARC
  5
3224
100
AcDbEntity
  8
0
100
AcDbCircle
 10
1403.40636
 20
269.195829
 30
0.0
 40
42.0
100
AcDbArc
 50
283.774147
 51
48.467599
  0
ARC
  5
3225
100
AcDbEntity
  8
0
100
AcDbCircle
 10
1157.21124
 20
269.195829
 30
0.0
 40
39.84375
100
AcDbArc
 50
334.942385
 51
25.057615
  0
ARC
  5
3226
100
AcDbEntity
  8
0
100
AcDbCircle
 10
1173.46124
 20
269.195829
 30
0.0
 40
39.84375
100
AcDbArc
 50
334.942385
 51
25.057615
  0
LINE
  5
3227
100
AcDbEntity
  8
0
100
AcDbLine
 10
1191.80499
 20
285.195829
 30
0.0
 11
1191.80499
 21
253.195829
 31
0.0
  0
LINE
  5
3228
100
AcDbEntity
  8
0
100
AcDbLine
 10
1213.30499
 20
299.195829
 30
0.0
 11
1213.30499
 21
269.195829
 31
0.0
  0
ARC
  5
3229
100
AcDbEntity
  8
0
100
AcDbCircle
 10
1147.89874
 20
269.195829
 30
0.0
 40
39.84375
100
AcDbArc
 50
154.942385
 51
205.057615
  0
ARC
  5
322A
100
AcDbEntity
  8
0
100
AcDbCircle
 10
1133.14874
 20
269.195829
 30
0.0
 40
39.84375
100
AcDbArc
 50
154.942385
 51
205.057615
  0
LINE
  5
322B
100
AcDbEntity
  8
0
100
AcDbLine
 10
1093.30499
 20
299.195829
 30
0.0
 11
1093.30499
 21
269.195829
 31
0.0
  0
LINE
  5
322C
100
AcDbEntity
  8
0
100
AcDbLine
 10
1118.30499
 20
311.195829
 30
0.0
 11
1118.30499
 21
227.195829
 31
0.0
  0
LINE
  5
322D
100
AcDbEntity
  8
0
100
AcDbLine
 10
1123.30499
 20
311.195829
 30
0.0
 11
1123.30499
 21
227.195829
 31
0.0
  0
ARC
  5
322E
100
AcDbEntity
  8
0
100
AcDbCircle
 10
490.594295
 20
269.195829
 30
0.0
 40
34.166667
100
AcDbArc
 50
335.810486
 51
24.189514
  0
LINE
  5
322F
100
AcDbEntity
  8
0
100
AcDbLine
 10
524.760961
 20
294.195829
 30
0.0
 11
524.760961
 21
269.195829
 31
0.0
  0
LINE
  5
3230
100
AcDbEntity
  8
0
100
AcDbLine
 10
502.760961
 20
283.195829
 30
0.0
 11
502.760961
 21
255.195829
 31
0.0
  0
ARC
  5
3231
100
AcDbEntity
  8
0
100
AcDbCircle
 10
475.094295
 20
269.195829
 30
0.0
 40
34.166667
100
AcDbArc
 50
335.810486
 51
24.189514
  0
ARC
  5
3232
100
AcDbEntity
  8
0
100
AcDbCircle
 10
467.927628
 20
269.195829
 30
0.0
 40
34.166667
100
AcDbArc
 50
155.810486
 51
204.189514
  0
ARC
  5
3233
100
AcDbEntity
  8
0
100
AcDbCircle
 10
453.927628
 20
269.195829
 30
0.0
 40
34.166667
100
AcDbArc
 50
155.810486
 51
204.189514
  0
LINE
  5
3234
100
AcDbEntity
  8
0
100
AcDbLine
 10
419.760961
 20
294.195829
 30
0.0
 11
419.760961
 21
269.195829
 31
0.0
  0
LINE
  5
3235
100
AcDbEntity
  8
0
100
AcDbLine
 10
443.260961
 20
304.195829
 30
0.0
 11
443.260961
 21
234.195829
 31
0.0
  0
LINE
  5
3236
100
AcDbEntity
  8
0
100
AcDbLine
 10
438.260961
 20
301.312811
 30
0.0
 11
438.260961
 21
237.078847
 31
0.0
  0
CIRCLE
  5
3237
100
AcDbEntity
  8
0
100
AcDbCircle
 10
284.374323
 20
269.195829
 30
0.0
 40
35.0
  0
CIRCLE
  5
3238
100
AcDbEntity
  8
0
100
AcDbCircle
 10
284.374323
 20
269.195829
 30
0.0
 40
25.0
  0
POLYLINE
  5
3239
100
AcDbEntity
  8
0
100
AcDb2dPolyline
 66
     1
 10
0.0
 20
0.0
 30
0.0
 70
     1
  0
VERTEX
  5
41AF
100
AcDbEntity
  8
0
100
AcDbVertex
100
AcDb2dVertex
 10
259.374323
 20
254.762072
 30
0.0
  0
VERTEX
  5
41B0
100
AcDbEntity
  8
0
100
AcDbVertex
100
AcDb2dVertex
 10
284.374323
 20
240.328316
 30
0.0
  0
VERTEX
  5
41B1
100
AcDbEntity
  8
0
100
AcDbVertex
100
AcDb2dVertex
 10
309.374323
 20
254.762072
 30
0.0
  0
VERTEX
  5
41B2
100
AcDbEntity
  8
0
100
AcDbVertex
100
AcDb2dVertex
 10
309.374323
 20
283.629586
 30
0.0
  0
VERTEX
  5
41B3
100
AcDbEntity
  8
0
100
AcDbVertex
100
AcDb2dVertex
 10
284.374323
 20
298.063343
 30
0.0
  0
VERTEX
  5
41B4
100
AcDbEntity
  8
0
100
AcDbVertex
100
AcDb2dVertex
 10
259.374323
 20
283.629586
 30
0.0
  0
SEQEND
  5
41B5
100
AcDbEntity
  8
0
  0
POLYLINE
  5
323A
100
AcDbEntity
  8
0
100
AcDb2dPolyline
 66
     1
 10
0.0
 20
0.0
 30
0.0
 70
     1
  0
VERTEX
  5
41B6
100
AcDbEntity
  8
0
100
AcDbVertex
100
AcDb2dVertex
 10
754.862332
 20
254.762072
 30
0.0
  0
VERTEX
  5
41B7
100
AcDbEntity
  8
0
100
AcDbVertex
100
AcDb2dVertex
 10
729.862332
 20
240.328316
 30
0.0
  0
VERTEX
  5
41B8
100
AcDbEntity
  8
0
100
AcDbVertex
100
AcDb2dVertex
 10
704.862332
 20
254.762072
 30
0.0
  0
VERTEX
  5
41B9
100
AcDbEntity
  8
0
100
AcDbVertex
100
AcDb2dVertex
 10
704.862332
 20
283.629586
 30
0.0
  0
VERTEX
  5
41BA
100
AcDbEntity
  8
0
100
AcDbVertex
100
AcDb2dVertex
 10
729.862332
 20
298.063343
 30
0.0
  0
VERTEX
  5
41BB
100
AcDbEntity
  8
0
100
AcDbVertex
100
AcDb2dVertex
 10
754.862332
 20
283.629586
 30
0.0
  0
SEQEND
  5
41BC
100
AcDbEntity
  8
0
  0
CIRCLE
  5
323B
100
AcDbEntity
  8
0
100
AcDbCircle
 10
729.862332
 20
269.195829
 30
0.0
 40
25.0
  0
ARC
  5
323C
100
AcDbEntity
  8
0
100
AcDbCircle
 10
729.862332
 20
269.195829
 30
0.0
 40
35.0
100
AcDbArc
 50
135.584691
 51
254.250707
  0
ARC
  5
323D
100
AcDbEntity
  8
0
100
AcDbCircle
 10
729.862332
 20
269.195829
 30
0.0
 40
35.0
100
AcDbArc
 50
285.749293
 51
44.415309
  0
LINE
  5
323E
100
AcDbEntity
  8
0
100
AcDbLine
 10
957.090256
 20
227.195829
 30
0.0
 11
977.090256
 21
227.195829
 31
0.0
  0
LINE
  5
323F
100
AcDbEntity
  8
0
100
AcDbLine
 10
957.090256
 20
227.195829
 30
0.0
 11
961.090256
 21
218.195829
 31
0.0
  0
LINE
  5
3241
100
AcDbEntity
  8
0
100
AcDbLine
 10
293.874323
 20
234.195829
 30
0.0
 11
274.874323
 21
234.195829
 31
0.0
  0
LINE
  5
3242
100
AcDbEntity
  8
0
100
AcDbLine
 10
289.874323
 20
226.195829
 30
0.0
 11
278.874323
 21
226.195829
 31
0.0
  0
LINE
  5
3243
100
AcDbEntity
  8
0
100
AcDbLine
 10
274.874323
 20
235.509779
 30
0.0
 11
274.874323
 21
234.195829
 31
0.0
  0
LINE
  5
3244
100
AcDbEntity
  8
0
100
AcDbLine
 10
274.874323
 20
234.195829
 30
0.0
 11
278.874323
 21
226.195829
 31
0.0
  0
LINE
  5
3245
100
AcDbEntity
  8
0
100
AcDbLine
 10
293.874323
 20
235.509779
 30
0.0
 11
293.874323
 21
234.195829
 31
0.0
  0
LINE
  5
3246
100
AcDbEntity
  8
0
100
AcDbLine
 10
289.874323
 20
226.195829
 30
0.0
 11
293.874323
 21
234.195829
 31
0.0
  0
TEXT
  5
3247
100
AcDbEntity
  8
0
100
AcDbText
 10
451.973084
 20
160.660499
 30
0.0
 40
20.0
  1
32A
 41
0.8
 72
     4
 11
473.306418
 21
170.660499
 31
0.0
100
AcDbText
  0
LINE
  5
3248
100
AcDbEntity
  8
0
100
AcDbLine
 10
462.760961
 20
234.195829
 30
0.0
 11
439.877793
 21
234.195829
 31
0.0
  0
LINE
  5
3249
100
AcDbEntity
  8
0
100
AcDbLine
 10
422.760961
 20
255.195829
 30
0.0
 11
436.760961
 21
255.195829
 31
0.0
  0
ARC
  5
324A
100
AcDbEntity
  8
0
100
AcDbCircle
 10
439.877793
 20
236.195829
 30
0.0
 40
2.0
100
AcDbArc
 50
192.094757
 51
270.0
  0
LINE
  5
324B
100
AcDbEntity
  8
0
100
AcDbLine
 10
436.760961
 20
241.195829
 30
0.0
 11
437.922188
 21
235.776771
 31
0.0
  0
LINE
  5
324C
100
AcDbEntity
  8
0
100
AcDbLine
 10
422.760961
 20
241.195829
 30
0.0
 11
419.760961
 21
244.195829
 31
0.0
  0
LINE
  5
324D
100
AcDbEntity
  8
0
100
AcDbLine
 10
422.760961
 20
241.195829
 30
0.0
 11
436.760961
 21
241.195829
 31
0.0
  0
LINE
  5
324E
100
AcDbEntity
  8
0
100
AcDbLine
 10
419.760961
 20
269.195829
 30
0.0
 11
419.760961
 21
244.195829
 31
0.0
  0
ARC
  5
324F
100
AcDbEntity
  8
0
100
AcDbCircle
 10
429.427628
 20
248.195829
 30
0.0
 40
9.666667
100
AcDbArc
 50
133.602819
 51
226.397181
  0
ARC
  5
3250
100
AcDbEntity
  8
0
100
AcDbCircle
 10
443.427628
 20
248.195829
 30
0.0
 40
9.666667
100
AcDbArc
 50
133.602819
 51
226.397181
  0
LINE
  5
3251
100
AcDbEntity
  8
0
100
AcDbLine
 10
502.760961
 20
255.195829
 30
0.0
 11
485.040173
 21
255.195829
 31
0.0
  0
LINE
  5
3252
100
AcDbEntity
  8
0
100
AcDbLine
 10
504.760961
 20
238.195829
 30
0.0
 11
481.760961
 21
238.195829
 31
0.0
  0
LINE
  5
3253
100
AcDbEntity
  8
0
100
AcDbLine
 10
502.760961
 20
255.195829
 30
0.0
 11
468.260961
 21
255.195829
 31
0.0
  0
LINE
  5
3254
100
AcDbEntity
  8
0
100
AcDbLine
 10
481.760961
 20
238.195829
 30
0.0
 11
481.760961
 21
234.195829
 31
0.0
  0
ARC
  5
3255
100
AcDbEntity
  8
0
100
AcDbCircle
 10
468.260961
 20
249.195829
 30
0.0
 40
6.0
100
AcDbArc
 50
90.0
 51
180.0
  0
LINE
  5
3256
100
AcDbEntity
  8
0
100
AcDbLine
 10
462.760961
 20
234.195829
 30
0.0
 11
466.760961
 21
226.195829
 31
0.0
  0
LINE
  5
3257
100
AcDbEntity
  8
0
100
AcDbLine
 10
477.760961
 20
226.195829
 30
0.0
 11
466.760961
 21
226.195829
 31
0.0
  0
LINE
  5
3258
100
AcDbEntity
  8
0
100
AcDbLine
 10
462.260961
 20
249.195829
 30
0.0
 11
462.260961
 21
234.195829
 31
0.0
  0
LINE
  5
3259
100
AcDbEntity
  8
0
100
AcDbLine
 10
481.760961
 20
234.195829
 30
0.0
 11
462.760961
 21
234.195829
 31
0.0
  0
ARC
  5
325A
100
AcDbEntity
  8
0
100
AcDbCircle
 10
472.390483
 20
200.101697
 30
0.0
 40
39.283658
100
AcDbArc
 50
77.606809
 51
103.861525
  0
LINE
  5
325B
100
AcDbEntity
  8
0
100
AcDbLine
 10
477.760961
 20
226.195829
 30
0.0
 11
481.760961
 21
234.195829
 31
0.0
  0
LINE
  5
325C
100
AcDbEntity
  8
0
100
AcDbLine
 10
521.760961
 20
255.195829
 30
0.0
 11
506.260961
 21
255.195829
 31
0.0
  0
ARC
  5
325D
100
AcDbEntity
  8
0
100
AcDbCircle
 10
502.760961
 20
253.195829
 30
0.0
 40
2.0
100
AcDbArc
 50
0.0
 51
90.0
  0
LINE
  5
325E
100
AcDbEntity
  8
0
100
AcDbLine
 10
521.760961
 20
241.195829
 30
0.0
 11
506.260961
 21
241.195829
 31
0.0
  0
LINE
  5
325F
100
AcDbEntity
  8
0
100
AcDbLine
 10
521.760961
 20
241.195829
 30
0.0
 11
524.760961
 21
244.195829
 31
0.0
  0
LINE
  5
3260
100
AcDbEntity
  8
0
100
AcDbLine
 10
506.260961
 20
241.195829
 30
0.0
 11
504.760961
 21
238.195829
 31
0.0
  0
LINE
  5
3261
100
AcDbEntity
  8
0
100
AcDbLine
 10
524.760961
 20
269.195829
 30
0.0
 11
524.760961
 21
244.195829
 31
0.0
  0
LINE
  5
3262
100
AcDbEntity
  8
0
100
AcDbLine
 10
504.760961
 20
238.195829
 30
0.0
 11
504.760961
 21
253.195829
 31
0.0
  0
ARC
  5
3263
100
AcDbEntity
  8
0
100
AcDbCircle
 10
515.094295
 20
248.195829
 30
0.0
 40
9.666667
100
AcDbArc
 50
313.602819
 51
46.397181
  0
ARC
  5
3264
100
AcDbEntity
  8
0
100
AcDbCircle
 10
499.594295
 20
248.195829
 30
0.0
 40
9.666667
100
AcDbArc
 50
313.602819
 51
46.397181
  0
ARC
  5
3265
100
AcDbEntity
  8
0
100
AcDbCircle
 10
729.862332
 20
269.195829
 30
0.0
 40
29.992883
100
AcDbArc
 50
213.063775
 51
326.936225
  0
ARC
  5
3266
100
AcDbEntity
  8
0
100
AcDbCircle
 10
702.21219
 20
251.195829
 30
0.0
 40
3.0
100
AcDbArc
 50
33.063775
 51
90.0
  0
LINE
  5
3267
100
AcDbEntity
  8
0
100
AcDbLine
 10
698.878465
 20
254.195829
 30
0.0
 11
702.21219
 21
254.195829
 31
0.0
  0
ARC
  5
3268
100
AcDbEntity
  8
0
100
AcDbCircle
 10
698.878465
 20
255.195829
 30
0.0
 40
1.0
100
AcDbArc
 50
204.315739
 51
270.0
  0
LINE
  5
3269
100
AcDbEntity
  8
0
100
AcDbLine
 10
724.362332
 20
226.195829
 30
0.0
 11
735.362332
 21
226.195829
 31
0.0
  0
ARC
  5
326A
100
AcDbEntity
  8
0
100
AcDbCircle
 10
742.362332
 20
238.662563
 30
0.0
 40
3.0
100
AcDbArc
 50
112.26368
 51
180.0
  0
LINE
  5
326B
100
AcDbEntity
  8
0
100
AcDbLine
 10
739.362332
 20
234.195829
 30
0.0
 11
735.362332
 21
226.195829
 31
0.0
  0
LINE
  5
326C
100
AcDbEntity
  8
0
100
AcDbLine
 10
739.362332
 20
238.662563
 30
0.0
 11
739.362332
 21
234.195829
 31
0.0
  0
ARC
  5
326D
100
AcDbEntity
  8
0
100
AcDbCircle
 10
717.362332
 20
238.662563
 30
0.0
 40
3.0
100
AcDbArc
 50
0.0
 51
67.73632
  0
LINE
  5
326E
100
AcDbEntity
  8
0
100
AcDbLine
 10
720.362332
 20
238.662563
 30
0.0
 11
720.362332
 21
234.195829
 31
0.0
  0
LINE
  5
326F
100
AcDbEntity
  8
0
100
AcDbLine
 10
720.362332
 20
234.195829
 30
0.0
 11
739.362332
 21
234.195829
 31
0.0
  0
LINE
  5
3270
100
AcDbEntity
  8
0
100
AcDbLine
 10
724.362332
 20
226.195829
 30
0.0
 11
720.362332
 21
234.195829
 31
0.0
  0
ARC
  5
3271
100
AcDbEntity
  8
0
100
AcDbCircle
 10
757.512474
 20
251.195829
 30
0.0
 40
3.0
100
AcDbArc
 50
90.0
 51
146.936225
  0
ARC
  5
3272
100
AcDbEntity
  8
0
100
AcDbCircle
 10
760.846199
 20
255.195829
 30
0.0
 40
1.0
100
AcDbArc
 50
270.0
 51
335.684261
  0
LINE
  5
3273
100
AcDbEntity
  8
0
100
AcDbLine
 10
760.846199
 20
254.195829
 30
0.0
 11
757.512474
 21
254.195829
 31
0.0
  0
LINE
  5
3274
100
AcDbEntity
  8
0
100
AcDbLine
 10
957.090256
 20
227.195829
 30
0.0
 11
957.090256
 21
228.403673
 31
0.0
  0
LINE
  5
3275
100
AcDbEntity
  8
0
100
AcDbLine
 10
1365.591019
 20
253.195829
 30
0.0
 11
1367.639756
 21
253.195829
 31
0.0
  0
TEXT
  5
3276
100
AcDbEntity
  8
0
100
AcDbText
 10
1119.569811
 20
160.660499
 30
0.0
 40
20.0
  1
40A
 41
0.8
 72
     4
 11
1140.903145
 21
170.660499
 31
0.0
100
AcDbText
  0
ARC
  5
3277
100
AcDbEntity
  8
0
100
AcDbCircle
 10
1153.902458
 20
193.264515
 30
0.0
 40
35.638651
100
AcDbArc
 50
76.039586
 51
101.799681
  0
LINE
  5
3278
100
AcDbEntity
  8
0
100
AcDbLine
 10
1159.30499
 20
218.195829
 30
0.0
 11
1163.30499
 21
227.195829
 31
0.0
  0
LINE
  5
3279
100
AcDbEntity
  8
0
100
AcDbLine
 10
1163.30499
 20
227.195829
 30
0.0
 11
1114.974142
 21
227.195829
 31
0.0
  0
TEXT
  5
327A
100
AcDbEntity
  8
0
100
AcDbText
 10
1021.549002
 20
91.230063
 30
0.0
 40
35.0
  1
TLV  BB1N (PT)
100
AcDbText
  0
LINE
  5
327B
100
AcDbEntity
  8
0
100
AcDbLine
 10
1193.30499
 20
253.195829
 30
0.0
 11
1153.30499
 21
253.195829
 31
0.0
  0
LINE
  5
327C
100
AcDbEntity
  8
0
100
AcDbLine
 10
977.090256
 20
227.195829
 30
0.0
 11
977.090256
 21
228.403673
 31
0.0
  0
LINE
  5
327D
100
AcDbEntity
  8
0
100
AcDbLine
 10
961.090256
 20
218.195829
 30
0.0
 11
973.090256
 21
218.195829
 31
0.0
  0
LINE
  5
327E
100
AcDbEntity
  8
0
100
AcDbLine
 10
977.090256
 20
227.195829
 30
0.0
 11
973.090256
 21
218.195829
 31
0.0
  0
LINE
  5
327F
100
AcDbEntity
  8
0
100
AcDbLine
 10
1097.05499
 20
252.320829
 30
0.0
 11
1111.80499
 21
252.320829
 31
0.0
  0
ARC
  5
3280
100
AcDbEntity
  8
0
100
AcDbCircle
 10
1110.135837
 20
233.445829
 30
0.0
 40
2.0
100
AcDbArc
 50
10.304846
 51
90.0
  0
ARC
  5
3281
100
AcDbEntity
  8
0
100
AcDbCircle
 10
1119.422177
 20
243.883329
 30
0.0
 40
11.367188
100
AcDbArc
 50
132.075022
 51
227.924978
  0
LINE
  5
3282
100
AcDbEntity
  8
0
100
AcDbLine
 10
1093.30499
 20
239.195829
 30
0.0
 11
1097.05499
 21
235.445829
 31
0.0
  0
LINE
  5
3283
100
AcDbEntity
  8
0
100
AcDbLine
 10
1097.05499
 20
235.445829
 30
0.0
 11
1110.135837
 21
235.445829
 31
0.0
  0
LINE
  5
3284
100
AcDbEntity
  8
0
100
AcDbLine
 10
1093.30499
 20
269.195829
 30
0.0
 11
1093.30499
 21
239.195829
 31
0.0
  0
ARC
  5
3285
100
AcDbEntity
  8
0
100
AcDbCircle
 10
1104.672177
 20
243.883329
 30
0.0
 40
11.367188
100
AcDbArc
 50
132.075022
 51
227.924978
  0
ARC
  5
3286
100
AcDbEntity
  8
0
100
AcDbCircle
 10
1153.30499
 20
246.195829
 30
0.0
 40
7.0
100
AcDbArc
 50
90.0
 51
180.0
  0
ARC
  5
3287
100
AcDbEntity
  8
0
100
AcDbCircle
 10
1144.30499
 20
229.195829
 30
0.0
 40
2.0
100
AcDbArc
 50
270.0
 51
0.0
  0
LINE
  5
3288
100
AcDbEntity
  8
0
100
AcDbLine
 10
1159.30499
 20
218.195829
 30
0.0
 11
1147.30499
 21
218.195829
 31
0.0
  0
LINE
  5
3289
100
AcDbEntity
  8
0
100
AcDbLine
 10
1143.30499
 20
227.195829
 30
0.0
 11
1147.30499
 21
218.195829
 31
0.0
  0
LINE
  5
328A
100
AcDbEntity
  8
0
100
AcDbLine
 10
1146.30499
 20
246.195829
 30
0.0
 11
1146.30499
 21
229.195829
 31
0.0
  0
ARC
  5
328B
100
AcDbEntity
  8
0
100
AcDbCircle
 10
1114.974142
 20
229.195829
 30
0.0
 40
2.0
100
AcDbArc
 50
190.304846
 51
270.0
  0
LINE
  5
328C
100
AcDbEntity
  8
0
100
AcDbLine
 10
1112.103577
 20
233.8036
 30
0.0
 11
1113.006403
 21
228.838058
 31
0.0
  0
LINE
  5
328D
100
AcDbEntity
  8
0
100
AcDbLine
 10
1213.30499
 20
239.195829
 30
0.0
 11
1209.55499
 21
235.445829
 31
0.0
  0
ARC
  5
328E
100
AcDbEntity
  8
0
100
AcDbCircle
 10
1201.937802
 20
243.883329
 30
0.0
 40
11.367188
100
AcDbArc
 50
312.075022
 51
47.924978
  0
LINE
  5
328F
100
AcDbEntity
  8
0
100
AcDbLine
 10
1209.55499
 20
252.320829
 30
0.0
 11
1193.30499
 21
252.320829
 31
0.0
  0
LINE
  5
3290
100
AcDbEntity
  8
0
100
AcDbLine
 10
1209.55499
 20
235.445829
 30
0.0
 11
1193.30499
 21
235.445829
 31
0.0
  0
LINE
  5
3291
100
AcDbEntity
  8
0
100
AcDbLine
 10
1193.30499
 20
235.445829
 30
0.0
 11
1192.307877
 21
232.953048
 31
0.0
  0
LINE
  5
3292
100
AcDbEntity
  8
0
100
AcDbLine
 10
1190.450924
 20
231.695829
 30
0.0
 11
1166.80499
 21
231.695829
 31
0.0
  0
ARC
  5
3293
100
AcDbEntity
  8
0
100
AcDbCircle
 10
1190.450924
 20
233.695829
 30
0.0
 40
2.0
100
AcDbArc
 50
270.0
 51
338.198591
  0
LINE
  5
3294
100
AcDbEntity
  8
0
100
AcDbLine
 10
1193.30499
 20
253.195829
 30
0.0
 11
1193.30499
 21
235.445829
 31
0.0
  0
ARC
  5
3295
100
AcDbEntity
  8
0
100
AcDbCircle
 10
1185.687802
 20
243.883329
 30
0.0
 40
11.367188
100
AcDbArc
 50
312.075022
 51
47.924978
  0
LINE
  5
3296
100
AcDbEntity
  8
0
100
AcDbLine
 10
1163.30499
 20
227.195829
 30
0.0
 11
1163.30499
 21
228.195829
 31
0.0
  0
ARC
  5
3297
100
AcDbEntity
  8
0
100
AcDbCircle
 10
1166.80499
 20
228.195829
 30
0.0
 40
3.5
100
AcDbArc
 50
90.0
 51
180.0
  0
LINE
  5
3298
100
AcDbEntity
  8
0
100
AcDbLine
 10
1213.30499
 20
269.195829
 30
0.0
 11
1213.30499
 21
239.195829
 31
0.0
  0
ARC
  5
3299
100
AcDbEntity
  8
0
100
AcDbCircle
 10
1365.591019
 20
254.695829
 30
0.0
 40
1.5
100
AcDbArc
 50
200.978935
 51
270.0
  0
ARC
  5
329A
100
AcDbEntity
  8
0
100
AcDbCircle
 10
1403.40636
 20
269.195829
 30
0.0
 40
37.5
100
AcDbArc
 50
207.978214
 51
332.021786
  0
ARC
  5
329B
100
AcDbEntity
  8
0
100
AcDbCircle
 10
1367.639756
 20
250.195829
 30
0.0
 40
3.0
100
AcDbArc
 50
27.978214
 51
90.0
  0
LINE
  5
329C
100
AcDbEntity
  8
0
100
AcDbLine
 10
1413.40636
 20
227.195829
 30
0.0
 11
1393.40636
 21
227.195829
 31
0.0
  0
LINE
  5
329D
100
AcDbEntity
  8
0
100
AcDbLine
 10
1409.40636
 20
218.195829
 30
0.0
 11
1397.40636
 21
218.195829
 31
0.0
  0
ARC
  5
329E
100
AcDbEntity
  8
0
100
AcDbCircle
 10
1389.90636
 20
230.482137
 30
0.0
 40
3.5
100
AcDbArc
 50
0.0
 51
70.77563
  0
LINE
  5
329F
100
AcDbEntity
  8
0
100
AcDbLine
 10
1393.40636
 20
227.195829
 30
0.0
 11
1393.40636
 21
230.482137
 31
0.0
  0
LINE
  5
32A0
100
AcDbEntity
  8
0
100
AcDbLine
 10
1393.40636
 20
227.195829
 30
0.0
 11
1397.40636
 21
218.195829
 31
0.0
  0
ARC
  5
32A1
100
AcDbEntity
  8
0
100
AcDbCircle
 10
1416.90636
 20
230.482137
 30
0.0
 40
3.5
100
AcDbArc
 50
109.22437
 51
180.0
  0
LINE
  5
32A2
100
AcDbEntity
  8
0
100
AcDbLine
 10
1413.40636
 20
227.195829
 30
0.0
 11
1413.40636
 21
230.482137
 31
0.0
  0
LINE
  5
32A3
100
AcDbEntity
  8
0
100
AcDbLine
 10
1413.40636
 20
227.195829
 30
0.0
 11
1409.40636
 21
218.195829
 31
0.0
  0
ARC
  5
32A4
100
AcDbEntity
  8
0
100
AcDbCircle
 10
1441.221701
 20
254.695829
 30
0.0
 40
1.5
100
AcDbArc
 50
270.0
 51
339.021065
  0
ARC
  5
32A5
100
AcDbEntity
  8
0
100
AcDbCircle
 10
1439.172965
 20
250.195829
 30
0.0
 40
3.0
100
AcDbArc
 50
90.0
 51
152.021786
  0
LINE
  5
32A6
100
AcDbEntity
  8
0
100
AcDbLine
 10
1441.221701
 20
253.195829
 30
0.0
 11
1439.172965
 21
253.195829
 31
0.0
  0
LINE
  5
32A7
100
AcDbEntity
  8
0
100
AcDbLine
 10
1660.806188
 20
218.195829
 30
0.0
 11
1656.306188
 21
208.195829
 31
0.0
  0
LINE
  5
32A8
100
AcDbEntity
  8
0
100
AcDbLine
 10
1638.806188
 20
218.195829
 30
0.0
 11
1660.806188
 21
218.195829
 31
0.0
  0
LINE
  5
32A9
100
AcDbEntity
  8
0
100
AcDbLine
 10
1638.806188
 20
220.195829
 30
0.0
 11
1638.806188
 21
218.195829
 31
0.0
  0
LINE
  5
32AA
100
AcDbEntity
  8
0
100
AcDbLine
 10
1638.806188
 20
219.396231
 30
0.0
 11
1638.806188
 21
218.195829
 31
0.0
  0
LINE
  5
32AB
100
AcDbEntity
  8
0
100
AcDbLine
 10
1643.306188
 20
208.195829
 30
0.0
 11
1656.306188
 21
208.195829
 31
0.0
  0
LINE
  5
32AC
100
AcDbEntity
  8
0
100
AcDbLine
 10
1638.806188
 20
218.195829
 30
0.0
 11
1643.306188
 21
208.195829
 31
0.0
  0
LINE
  5
32AD
100
AcDbEntity
  8
0
100
AcDbLine
 10
1660.806188
 20
220.195829
 30
0.0
 11
1660.806188
 21
218.195829
 31
0.0
  0
LINE
  5
32AE
100
AcDbEntity
  8
0
100
AcDbLine
 10
1660.806188
 20
219.396231
 30
0.0
 11
1660.806188
 21
218.195829
 31
0.0
  0
LINE
  5
32AF
100
AcDbEntity
  8
0
100
AcDbLine
 10
953.728624
 20
388.195829
 30
0.0
 11
980.451888
 21
388.195829
 31
0.0
  0
LINE
  5
32B0
100
AcDbEntity
  8
0
100
AcDbLine
 10
979.090256
 20
386.195829
 30
0.0
 11
955.090256
 21
386.195829
 31
0.0
  0
LINE
  5
32B1
100
AcDbEntity
  8
0
100
AcDbLine
 10
936.090256
 20
353.195829
 30
0.0
 11
998.090256
 21
353.195829
 31
0.0
  0
ELLIPSE
  5
32B2
100
AcDbEntity
  8
0
100
AcDbEllipse
 10
967.090256
 20
369.42695
 30
0.0
 11
-9.75
 21
0.0
 31
0.0
210
0.0
220
0.0
230
1.0
 40
0.466646
 41
0.0
 42
6.283185307179586
  0
LINE
  5
32B3
100
AcDbEntity
  8
0
100
AcDbLine
 10
936.090256
 20
323.195829
 30
0.0
 11
998.090256
 21
323.195829
 31
0.0
  0
ARC
  5
32B4
100
AcDbEntity
  8
0
100
AcDbCircle
 10
481.839526
 20
781.937772
 30
0.0
 40
19.527719
100
AcDbArc
 50
271.236619
 51
321.385828
  0
ARC
  5
32B5
100
AcDbEntity
  8
0
100
AcDbCircle
 10
504.64413
 20
767.630673
 30
0.0
 40
2.0
100
AcDbArc
 50
12.094757
 51
90.0
  0
LINE
  5
32B6
100
AcDbEntity
  8
0
100
AcDbLine
 10
501.260961
 20
769.630673
 30
0.0
 11
501.260961
 21
699.630673
 31
0.0
  0
ARC
  5
32B7
100
AcDbEntity
  8
0
100
AcDbCircle
 10
443.260961
 20
769.630673
 30
0.0
 40
4.0
100
AcDbArc
 50
270.0
 51
0.0
  0
LINE
  5
32B8
100
AcDbEntity
  8
0
100
AcDbLine
 10
514.84007
 20
549.329254
 30
0.0
 11
650.124927
 21
551.690886
 31
0.0
  0
LINE
  5
32B9
100
AcDbEntity
  8
0
100
AcDbLine
 10
650.124927
 20
524.967621
 30
0.0
 11
514.84007
 21
527.329254
 31
0.0
  0
LINE
  5
32BA
100
AcDbEntity
  8
0
100
AcDbLine
 10
528.7945
 20
370.994755
 30
0.0
 11
655.358258
 21
375.101639
 31
0.0
  0
LINE
  5
32BB
100
AcDbEntity
  8
0
100
AcDbLine
 10
535.260961
 20
383.195829
 30
0.0
 11
655.260961
 21
383.195829
 31
0.0
  0
LINE
  5
32BC
100
AcDbEntity
  8
0
100
AcDbLine
 10
514.84007
 20
529.854485
 30
0.0
 11
514.84007
 21
546.804022
 31
0.0
  0
CIRCLE
  5
32BD
100
AcDbEntity
  8
0
100
AcDbCircle
 10
472.260961
 20
538.329254
 30
0.0
 40
9.75
  0
CIRCLE
  5
32BE
100
AcDbEntity
  8
0
100
AcDbCircle
 10
472.260961
 20
538.329254
 30
0.0
 40
6.75
  0
LINE
  5
32BF
100
AcDbEntity
  8
0
100
AcDbLine
 10
419.760961
 20
514.080542
 30
0.0
 11
419.760961
 21
538.329254
 31
0.0
  0
ARC
  5
32C0
100
AcDbEntity
  8
0
100
AcDbCircle
 10
442.805637
 20
526.204898
 30
0.0
 40
23.044676
100
AcDbArc
 50
148.256063
 51
211.743937
  0
ARC
  5
32C1
100
AcDbEntity
  8
0
100
AcDbCircle
 10
474.010961
 20
526.204898
 30
0.0
 40
37.75
100
AcDbArc
 50
161.266002
 51
198.733998
  0
ARC
  5
32C2
100
AcDbEntity
  8
0
100
AcDbCircle
 10
472.260961
 20
538.329254
 30
0.0
 40
31.0
100
AcDbArc
 50
21.078534
 51
338.921466
  0
LINE
  5
32C3
100
AcDbEntity
  8
0
100
AcDbLine
 10
315.374323
 20
348.195829
 30
0.0
 11
315.374323
 21
318.195829
 31
0.0
  0
LINE
  5
32C4
100
AcDbEntity
  8
0
100
AcDbLine
 10
253.374323
 20
348.195829
 30
0.0
 11
253.374323
 21
318.195829
 31
0.0
  0
LINE
  5
32C5
100
AcDbEntity
  8
0
100
AcDbLine
 10
253.374323
 20
318.195829
 30
0.0
 11
315.374323
 21
318.195829
 31
0.0
  0
LINE
  5
32C6
100
AcDbEntity
  8
0
100
AcDbLine
 10
259.374323
 20
317.195829
 30
0.0
 11
259.374323
 21
293.690727
 31
0.0
  0
LINE
  5
32C7
100
AcDbEntity
  8
0
100
AcDbLine
 10
309.374323
 20
317.195829
 30
0.0
 11
309.374323
 21
293.690727
 31
0.0
  0
ELLIPSE
  5
32C8
100
AcDbEntity
  8
0
100
AcDbEllipse
 10
284.374323
 20
364.42695
 30
0.0
 11
-9.75
 21
0.0
 31
0.0
210
0.0
220
0.0
230
1.0
 40
0.466646
 41
0.0
 42
6.283185307179586
  0
LINE
  5
32C9
100
AcDbEntity
  8
0
100
AcDbLine
 10
296.374323
 20
381.195829
 30
0.0
 11
272.374323
 21
381.195829
 31
0.0
  0
LINE
  5
32CA
100
AcDbEntity
  8
0
100
AcDbLine
 10
271.012691
 20
383.195829
 30
0.0
 11
297.735955
 21
383.195829
 31
0.0
  0
LINE
  5
32CB
100
AcDbEntity
  8
0
100
AcDbLine
 10
253.374323
 20
348.195829
 30
0.0
 11
315.374323
 21
348.195829
 31
0.0
  0
LINE
  5
32CC
100
AcDbEntity
  8
0
100
AcDbLine
 10
271.012691
 20
366.609247
 30
0.0
 11
271.012691
 21
383.195829
 31
0.0
  0
LINE
  5
32CD
100
AcDbEntity
  8
0
100
AcDbLine
 10
271.012691
 20
366.609247
 30
0.0
 11
272.374323
 21
366.609247
 31
0.0
  0
LINE
  5
32CE
100
AcDbEntity
  8
0
100
AcDbLine
 10
272.374323
 20
348.195829
 30
0.0
 11
272.374323
 21
381.195829
 31
0.0
  0
LINE
  5
32CF
100
AcDbEntity
  8
0
100
AcDbLine
 10
296.374323
 20
366.609247
 30
0.0
 11
297.735955
 21
366.609247
 31
0.0
  0
LINE
  5
32D0
100
AcDbEntity
  8
0
100
AcDbLine
 10
297.735955
 20
366.609247
 30
0.0
 11
297.735955
 21
383.195829
 31
0.0
  0
LINE
  5
32D1
100
AcDbEntity
  8
0
100
AcDbLine
 10
296.374323
 20
348.195829
 30
0.0
 11
296.374323
 21
381.195829
 31
0.0
  0
ARC
  5
32D2
100
AcDbEntity
  8
0
100
AcDbCircle
 10
443.260961
 20
308.195829
 30
0.0
 40
4.0
100
AcDbArc
 50
270.0
 51
0.0
  0
ARC
  5
32D3
100
AcDbEntity
  8
0
100
AcDbCircle
 10
462.682397
 20
316.502928
 30
0.0
 40
19.527719
100
AcDbArc
 50
218.614172
 51
268.763381
  0
LINE
  5
32D4
100
AcDbEntity
  8
0
100
AcDbLine
 10
441.260961
 20
318.195829
 30
0.0
 11
503.260961
 21
318.195829
 31
0.0
  0
LINE
  5
32D5
100
AcDbEntity
  8
0
100
AcDbLine
 10
443.194145
 20
348.195829
 30
0.0
 11
503.260961
 21
348.195829
 31
0.0
  0
ARC
  5
32D6
100
AcDbEntity
  8
0
100
AcDbCircle
 10
696.647044
 20
-103.69973
 30
0.0
 40
519.125903
100
AcDbArc
 50
110.922939
 51
119.286154
  0
LINE
  5
32D7
100
AcDbEntity
  8
0
100
AcDbLine
 10
441.260961
 20
346.510236
 30
0.0
 11
441.260961
 21
318.195829
 31
0.0
  0
ARC
  5
32D8
100
AcDbEntity
  8
0
100
AcDbCircle
 10
439.877793
 20
302.195829
 30
0.0
 40
2.0
100
AcDbArc
 50
90.0
 51
167.905243
  0
LINE
  5
32D9
100
AcDbEntity
  8
0
100
AcDbLine
 10
443.260961
 20
304.195829
 30
0.0
 11
439.877793
 21
304.195829
 31
0.0
  0
LINE
  5
32DA
100
AcDbEntity
  8
0
100
AcDbLine
 10
437.922188
 20
302.614887
 30
0.0
 11
436.760961
 21
297.195829
 31
0.0
  0
ARC
  5
32DB
100
AcDbEntity
  8
0
100
AcDbCircle
 10
443.427628
 20
290.195829
 30
0.0
 40
9.666667
100
AcDbArc
 50
133.602819
 51
226.397181
  0
LINE
  5
32DC
100
AcDbEntity
  8
0
100
AcDbLine
 10
422.760961
 20
297.195829
 30
0.0
 11
419.760961
 21
294.195829
 31
0.0
  0
ARC
  5
32DD
100
AcDbEntity
  8
0
100
AcDbCircle
 10
429.427628
 20
290.195829
 30
0.0
 40
9.666667
100
AcDbArc
 50
133.602819
 51
226.397181
  0
LINE
  5
32DE
100
AcDbEntity
  8
0
100
AcDbLine
 10
422.760961
 20
297.195829
 30
0.0
 11
436.760961
 21
297.195829
 31
0.0
  0
LINE
  5
32DF
100
AcDbEntity
  8
0
100
AcDbLine
 10
422.760961
 20
283.195829
 30
0.0
 11
436.760961
 21
283.195829
 31
0.0
  0
ARC
  5
32E0
100
AcDbEntity
  8
0
100
AcDbCircle
 10
444.260961
 20
346.510236
 30
0.0
 40
3.0
100
AcDbArc
 50
121.234336
 51
180.0
  0
LINE
  5
32E1
100
AcDbEntity
  8
0
100
AcDbLine
 10
503.260961
 20
347.103946
 30
0.0
 11
503.260961
 21
318.195829
 31
0.0
  0
ARC
  5
32E2
100
AcDbEntity
  8
0
100
AcDbCircle
 10
501.260961
 20
304.195829
 30
0.0
 40
4.0
100
AcDbArc
 50
180.0
 51
270.0
  0
LINE
  5
32E3
100
AcDbEntity
  8
0
100
AcDbLine
 10
502.760961
 20
283.195829
 30
0.0
 11
494.621263
 21
283.195829
 31
0.0
  0
LINE
  5
32E4
100
AcDbEntity
  8
0
100
AcDbLine
 10
502.760961
 20
283.195829
 30
0.0
 11
468.260961
 21
283.195829
 31
0.0
  0
LINE
  5
32E5
100
AcDbEntity
  8
0
100
AcDbLine
 10
497.260961
 20
318.195829
 30
0.0
 11
497.260961
 21
304.195829
 31
0.0
  0
LINE
  5
32E6
100
AcDbEntity
  8
0
100
AcDbLine
 10
462.260961
 20
296.979757
 30
0.0
 11
462.260961
 21
289.195829
 31
0.0
  0
ARC
  5
32E7
100
AcDbEntity
  8
0
100
AcDbCircle
 10
468.260961
 20
289.195829
 30
0.0
 40
6.0
100
AcDbArc
 50
180.0
 51
270.0
  0
LINE
  5
32E8
100
AcDbEntity
  8
0
100
AcDbLine
 10
447.260961
 20
318.195829
 30
0.0
 11
447.260961
 21
308.195829
 31
0.0
  0
ARC
  5
32E9
100
AcDbEntity
  8
0
100
AcDbCircle
 10
472.098895
 20
338.353787
 30
0.0
 40
43.640924
100
AcDbArc
 50
256.971889
 51
300.257487
  0
LINE
  5
32EA
100
AcDbEntity
  8
0
100
AcDbLine
 10
521.760961
 20
297.195829
 30
0.0
 11
506.260961
 21
297.195829
 31
0.0
  0
LINE
  5
32EB
100
AcDbEntity
  8
0
100
AcDbLine
 10
521.760961
 20
283.195829
 30
0.0
 11
506.260961
 21
283.195829
 31
0.0
  0
LINE
  5
32EC
100
AcDbEntity
  8
0
100
AcDbLine
 10
521.760961
 20
297.195829
 30
0.0
 11
524.760961
 21
294.195829
 31
0.0
  0
ARC
  5
32ED
100
AcDbEntity
  8
0
100
AcDbCircle
 10
515.094295
 20
290.195829
 30
0.0
 40
9.666667
100
AcDbArc
 50
313.602819
 51
46.397181
  0
LINE
  5
32EE
100
AcDbEntity
  8
0
100
AcDbLine
 10
506.260961
 20
297.195829
 30
0.0
 11
504.760961
 21
300.195829
 31
0.0
  0
LINE
  5
32EF
100
AcDbEntity
  8
0
100
AcDbLine
 10
504.760961
 20
300.195829
 30
0.0
 11
504.760961
 21
285.195829
 31
0.0
  0
ARC
  5
32F0
100
AcDbEntity
  8
0
100
AcDbCircle
 10
499.594295
 20
290.195829
 30
0.0
 40
9.666667
100
AcDbArc
 50
313.602819
 51
46.397181
  0
LINE
  5
32F1
100
AcDbEntity
  8
0
100
AcDbLine
 10
504.760961
 20
300.195829
 30
0.0
 11
501.260961
 21
300.195829
 31
0.0
  0
ARC
  5
32F2
100
AcDbEntity
  8
0
100
AcDbCircle
 10
502.760961
 20
285.195829
 30
0.0
 40
2.0
100
AcDbArc
 50
270.0
 51
360.0
  0
ARC
  5
32F3
100
AcDbEntity
  8
0
100
AcDbCircle
 10
529.280981
 20
356.002646
 30
0.0
 40
15.0
100
AcDbArc
 50
91.858546
 51
135.0
  0
ARC
  5
32F4
100
AcDbEntity
  8
0
100
AcDbCircle
 10
518.260961
 20
347.103946
 30
0.0
 40
15.0
100
AcDbArc
 50
160.841933
 51
180.0
  0
LINE
  5
32F5
100
AcDbEntity
  8
0
100
AcDbLine
 10
518.67438
 20
366.609247
 30
0.0
 11
504.091709
 21
352.026577
 31
0.0
  0
LINE
  5
32F6
100
AcDbEntity
  8
0
100
AcDbLine
 10
535.260961
 20
383.195829
 30
0.0
 11
518.67438
 21
366.609247
 31
0.0
  0
LINE
  5
32F7
100
AcDbEntity
  8
0
100
AcDbLine
 10
511.260961
 20
381.195829
 30
0.0
 11
533.260961
 21
381.195829
 31
0.0
  0
LINE
  5
32F8
100
AcDbEntity
  8
0
100
AcDbLine
 10
443.677749
 20
526.329254
 30
0.0
 11
514.84007
 21
527.329254
 31
0.0
  0
LINE
  5
32F9
100
AcDbEntity
  8
0
100
AcDbLine
 10
468.84007
 20
569.329254
 30
0.0
 11
507.157807
 21
569.329254
 31
0.0
  0
LINE
  5
32FA
100
AcDbEntity
  8
0
100
AcDbLine
 10
441.501297
 20
573.329254
 30
0.0
 11
506.599735
 21
573.329254
 31
0.0
  0
LINE
  5
32FB
100
AcDbEntity
  8
0
100
AcDbLine
 10
508.580549
 20
571.605613
 30
0.0
 11
509.539471
 21
564.732515
 31
0.0
  0
ARC
  5
32FC
100
AcDbEntity
  8
0
100
AcDbCircle
 10
436.085542
 20
511.580542
 30
0.0
 40
2.5
100
AcDbArc
 50
7.942532
 51
90.0
  0
ARC
  5
32FD
100
AcDbEntity
  8
0
100
AcDbCircle
 10
507.157807
 20
567.329254
 30
0.0
 40
2.0
100
AcDbArc
 50
7.942532
 51
90.0
  0
ARC
  5
32FE
100
AcDbEntity
  8
0
100
AcDbCircle
 10
506.599735
 20
571.329254
 30
0.0
 40
2.0
100
AcDbArc
 50
7.942532
 51
90.0
  0
LINE
  5
32FF
100
AcDbEntity
  8
0
100
AcDbLine
 10
419.760961
 20
514.080542
 30
0.0
 11
436.085542
 21
514.080542
 31
0.0
  0
LINE
  5
3300
100
AcDbEntity
  8
0
100
AcDbLine
 10
468.84007
 20
569.139925
 30
0.0
 11
468.84007
 21
569.329254
 31
0.0
  0
LINE
  5
3301
100
AcDbEntity
  8
0
100
AcDbLine
 10
439.520482
 20
571.605613
 30
0.0
 11
438.56156
 21
564.732515
 31
0.0
  0
LINE
  5
3302
100
AcDbEntity
  8
0
100
AcDbLine
 10
524.760961
 20
514.080542
 30
0.0
 11
512.015489
 21
514.080542
 31
0.0
  0
ARC
  5
3303
100
AcDbEntity
  8
0
100
AcDbCircle
 10
512.015489
 20
511.580542
 30
0.0
 40
2.5
100
AcDbArc
 50
90.0
 51
172.057468
  0
ARC
  5
3304
100
AcDbEntity
  8
0
100
AcDbCircle
 10
441.501297
 20
571.329254
 30
0.0
 40
2.0
100
AcDbArc
 50
90.0
 51
172.057468
  0
ARC
  5
3305
100
AcDbEntity
  8
0
100
AcDbCircle
 10
474.09007
 20
526.204898
 30
0.0
 40
37.75
100
AcDbArc
 50
341.266002
 51
1.642421
  0
ARC
  5
3306
100
AcDbEntity
  8
0
100
AcDbCircle
 10
501.716285
 20
526.204898
 30
0.0
 40
23.044676
100
AcDbArc
 50
328.256063
 51
2.36641
  0
LINE
  5
3307
100
AcDbEntity
  8
0
100
AcDbLine
 10
446.84007
 20
573.329254
 30
0.0
 11
446.84007
 21
556.071245
 31
0.0
  0
LINE
  5
3308
100
AcDbEntity
  8
0
100
AcDbLine
 10
441.501297
 20
573.329254
 30
0.0
 11
441.501297
 21
503.329254
 31
0.0
  0
LINE
  5
3309
100
AcDbEntity
  8
0
100
AcDbLine
 10
524.760961
 20
514.080542
 30
0.0
 11
524.760961
 21
527.156067
 31
0.0
  0
LINE
  5
330A
100
AcDbEntity
  8
0
100
AcDbLine
 10
441.501297
 20
503.329254
 30
0.0
 11
506.599735
 21
503.329254
 31
0.0
  0
LINE
  5
330B
100
AcDbEntity
  8
0
100
AcDbLine
 10
468.84007
 20
507.329254
 30
0.0
 11
507.157807
 21
507.329254
 31
0.0
  0
LINE
  5
330C
100
AcDbEntity
  8
0
100
AcDbLine
 10
443.677749
 20
550.329254
 30
0.0
 11
514.84007
 21
549.329254
 31
0.0
  0
LINE
  5
330D
100
AcDbEntity
  8
0
100
AcDbLine
 10
508.580549
 20
505.052894
 30
0.0
 11
509.539471
 21
511.925992
 31
0.0
  0
ARC
  5
330E
100
AcDbEntity
  8
0
100
AcDbCircle
 10
507.157807
 20
509.329254
 30
0.0
 40
2.0
100
AcDbArc
 50
270.0
 51
352.057468
  0
ARC
  5
330F
100
AcDbEntity
  8
0
100
AcDbCircle
 10
436.085542
 20
565.077965
 30
0.0
 40
2.5
100
AcDbArc
 50
270.0
 51
352.057468
  0
ARC
  5
3310
100
AcDbEntity
  8
0
100
AcDbCircle
 10
506.599735
 20
505.329254
 30
0.0
 40
2.0
100
AcDbArc
 50
270.0
 51
352.057468
  0
LINE
  5
3311
100
AcDbEntity
  8
0
100
AcDbLine
 10
419.760961
 20
562.577965
 30
0.0
 11
436.085542
 21
562.577965
 31
0.0
  0
LINE
  5
3312
100
AcDbEntity
  8
0
100
AcDbLine
 10
423.208263
 20
538.329254
 30
0.0
 11
438.260961
 21
538.329254
 31
0.0
  0
LINE
  5
3313
100
AcDbEntity
  8
0
100
AcDbLine
 10
419.760961
 20
562.577965
 30
0.0
 11
419.760961
 21
538.329254
 31
0.0
  0
ARC
  5
3314
100
AcDbEntity
  8
0
100
AcDbCircle
 10
442.805637
 20
550.453609
 30
0.0
 40
23.044676
100
AcDbArc
 50
148.256063
 51
211.743937
  0
ARC
  5
3315
100
AcDbEntity
  8
0
100
AcDbCircle
 10
474.010961
 20
550.453609
 30
0.0
 40
37.75
100
AcDbArc
 50
161.266002
 51
198.733998
  0
LINE
  5
3316
100
AcDbEntity
  8
0
100
AcDbLine
 10
419.760961
 20
538.329254
 30
0.0
 11
419.760961
 21
562.577965
 31
0.0
  0
LINE
  5
3317
100
AcDbEntity
  8
0
100
AcDbLine
 10
468.84007
 20
507.518582
 30
0.0
 11
468.84007
 21
507.329254
 31
0.0
  0
LINE
  5
3318
100
AcDbEntity
  8
0
100
AcDbLine
 10
439.520482
 20
505.052894
 30
0.0
 11
438.56156
 21
511.925992
 31
0.0
  0
LINE
  5
3319
100
AcDbEntity
  8
0
100
AcDbLine
 10
524.760961
 20
562.577965
 30
0.0
 11
512.015489
 21
562.577965
 31
0.0
  0
ARC
  5
331A
100
AcDbEntity
  8
0
100
AcDbCircle
 10
512.015489
 20
565.077965
 30
0.0
 40
2.5
100
AcDbArc
 50
187.942532
 51
270.0
  0
ARC
  5
331B
100
AcDbEntity
  8
0
100
AcDbCircle
 10
441.501297
 20
505.329254
 30
0.0
 40
2.0
100
AcDbArc
 50
187.942532
 51
270.0
  0
ARC
  5
331C
100
AcDbEntity
  8
0
100
AcDbCircle
 10
474.09007
 20
550.453609
 30
0.0
 40
37.75
100
AcDbArc
 50
358.357579
 51
18.733998
  0
ARC
  5
331D
100
AcDbEntity
  8
0
100
AcDbCircle
 10
501.716285
 20
550.453609
 30
0.0
 40
23.044676
100
AcDbArc
 50
357.63359
 51
31.743937
  0
LINE
  5
331E
100
AcDbEntity
  8
0
100
AcDbLine
 10
446.84007
 20
520.587262
 30
0.0
 11
446.84007
 21
503.329254
 31
0.0
  0
LINE
  5
3320
100
AcDbEntity
  8
0
100
AcDbLine
 10
524.760961
 20
562.577965
 30
0.0
 11
524.760961
 21
549.50244
 31
0.0
  0
LINE
  5
3321
100
AcDbEntity
  8
0
100
AcDbLine
 10
441.760961
 20
748.630673
 30
0.0
 11
449.90066
 21
748.630673
 31
0.0
  0
LINE
  5
3322
100
AcDbEntity
  8
0
100
AcDbLine
 10
441.760961
 20
748.630673
 30
0.0
 11
476.260961
 21
748.630673
 31
0.0
  0
LINE
  5
3323
100
AcDbEntity
  8
0
100
AcDbLine
 10
441.760961
 20
720.630673
 30
0.0
 11
459.48175
 21
720.630673
 31
0.0
  0
LINE
  5
3324
100
AcDbEntity
  8
0
100
AcDbLine
 10
441.760961
 20
720.630673
 30
0.0
 11
476.260961
 21
720.630673
 31
0.0
  0
LINE
  5
3325
100
AcDbEntity
  8
0
100
AcDbLine
 10
439.760961
 20
703.630673
 30
0.0
 11
462.760961
 21
703.630673
 31
0.0
  0
LINE
  5
3326
100
AcDbEntity
  8
0
100
AcDbLine
 10
439.760961
 20
765.630673
 30
0.0
 11
443.260961
 21
765.630673
 31
0.0
  0
LINE
  5
3327
100
AcDbEntity
  8
0
100
AcDbLine
 10
438.260961
 20
762.630673
 30
0.0
 11
439.760961
 21
765.630673
 31
0.0
  0
LINE
  5
3328
100
AcDbEntity
  8
0
100
AcDbLine
 10
439.760961
 20
765.630673
 30
0.0
 11
439.760961
 21
750.630673
 31
0.0
  0
ARC
  5
3329
100
AcDbEntity
  8
0
100
AcDbCircle
 10
441.760961
 20
750.630673
 30
0.0
 40
2.0
100
AcDbArc
 50
180.0
 51
270.0
  0
ARC
  5
332A
100
AcDbEntity
  8
0
100
AcDbCircle
 10
444.927628
 20
755.630673
 30
0.0
 40
9.666667
100
AcDbArc
 50
133.602819
 51
226.397181
  0
LINE
  5
332B
100
AcDbEntity
  8
0
100
AcDbLine
 10
422.760961
 20
762.630673
 30
0.0
 11
419.760961
 21
759.630673
 31
0.0
  0
ARC
  5
332C
100
AcDbEntity
  8
0
100
AcDbCircle
 10
429.427628
 20
755.630673
 30
0.0
 40
9.666667
100
AcDbArc
 50
133.602819
 51
226.397181
  0
LINE
  5
332D
100
AcDbEntity
  8
0
100
AcDbLine
 10
419.760961
 20
759.630673
 30
0.0
 11
419.760961
 21
734.630673
 31
0.0
  0
LINE
  5
332E
100
AcDbEntity
  8
0
100
AcDbLine
 10
422.760961
 20
762.630673
 30
0.0
 11
438.260961
 21
762.630673
 31
0.0
  0
LINE
  5
332F
100
AcDbEntity
  8
0
100
AcDbLine
 10
422.760961
 20
748.630673
 30
0.0
 11
438.260961
 21
748.630673
 31
0.0
  0
ARC
  5
3330
100
AcDbEntity
  8
0
100
AcDbCircle
 10
441.760961
 20
718.630673
 30
0.0
 40
2.0
100
AcDbArc
 50
90.0
 51
180.0
  0
LINE
  5
3331
100
AcDbEntity
  8
0
100
AcDbLine
 10
438.260961
 20
706.630673
 30
0.0
 11
439.760961
 21
703.630673
 31
0.0
  0
ARC
  5
3332
100
AcDbEntity
  8
0
100
AcDbCircle
 10
444.927628
 20
713.630673
 30
0.0
 40
9.666667
100
AcDbArc
 50
133.602819
 51
226.397181
  0
LINE
  5
3333
100
AcDbEntity
  8
0
100
AcDbLine
 10
439.760961
 20
703.630673
 30
0.0
 11
439.760961
 21
718.630673
 31
0.0
  0
LINE
  5
3334
100
AcDbEntity
  8
0
100
AcDbLine
 10
422.760961
 20
706.630673
 30
0.0
 11
419.760961
 21
709.630673
 31
0.0
  0
ARC
  5
3335
100
AcDbEntity
  8
0
100
AcDbCircle
 10
429.427628
 20
713.630673
 30
0.0
 40
9.666667
100
AcDbArc
 50
133.602819
 51
226.397181
  0
LINE
  5
3336
100
AcDbEntity
  8
0
100
AcDbLine
 10
422.760961
 20
720.630673
 30
0.0
 11
438.260961
 21
720.630673
 31
0.0
  0
LINE
  5
3337
100
AcDbEntity
  8
0
100
AcDbLine
 10
422.760961
 20
706.630673
 30
0.0
 11
438.260961
 21
706.630673
 31
0.0
  0
LINE
  5
3338
100
AcDbEntity
  8
0
100
AcDbLine
 10
419.760961
 20
734.630673
 30
0.0
 11
419.760961
 21
709.630673
 31
0.0
  0
ARC
  5
3339
100
AcDbEntity
  8
0
100
AcDbCircle
 10
469.427628
 20
734.630673
 30
0.0
 40
34.166667
100
AcDbArc
 50
155.810486
 51
204.189514
  0
ARC
  5
333A
100
AcDbEntity
  8
0
100
AcDbCircle
 10
453.927628
 20
734.630673
 30
0.0
 40
34.166667
100
AcDbArc
 50
155.810486
 51
204.189514
  0
LINE
  5
333B
100
AcDbEntity
  8
0
100
AcDbLine
 10
441.760961
 20
748.630673
 30
0.0
 11
441.760961
 21
720.630673
 31
0.0
  0
LINE
  5
333C
100
AcDbEntity
  8
0
100
AcDbLine
 10
507.760961
 20
706.630673
 30
0.0
 11
506.599735
 21
701.211615
 31
0.0
  0
LINE
  5
333D
100
AcDbEntity
  8
0
100
AcDbLine
 10
506.260961
 20
766.747655
 30
0.0
 11
506.260961
 21
702.513691
 31
0.0
  0
LINE
  5
333E
100
AcDbEntity
  8
0
100
AcDbLine
 10
482.260961
 20
714.630673
 30
0.0
 11
482.260961
 21
699.630673
 31
0.0
  0
LINE
  5
333F
100
AcDbEntity
  8
0
100
AcDbLine
 10
462.760961
 20
703.630673
 30
0.0
 11
462.760961
 21
699.630673
 31
0.0
  0
LINE
  5
3340
100
AcDbEntity
  8
0
100
AcDbLine
 10
481.760961
 20
699.630673
 30
0.0
 11
504.64413
 21
699.630673
 31
0.0
  0
LINE
  5
3341
100
AcDbEntity
  8
0
100
AcDbLine
 10
462.760961
 20
699.630673
 30
0.0
 11
481.760961
 21
699.630673
 31
0.0
  0
LINE
  5
3342
100
AcDbEntity
  8
0
100
AcDbLine
 10
466.760961
 20
691.630673
 30
0.0
 11
477.760961
 21
691.630673
 31
0.0
  0
LINE
  5
3343
100
AcDbEntity
  8
0
100
AcDbLine
 10
466.760961
 20
691.630673
 30
0.0
 11
462.760961
 21
699.630673
 31
0.0
  0
LINE
  5
3344
100
AcDbEntity
  8
0
100
AcDbLine
 10
481.760961
 20
699.630673
 30
0.0
 11
477.760961
 21
691.630673
 31
0.0
  0
ARC
  5
3345
100
AcDbEntity
  8
0
100
AcDbCircle
 10
504.64413
 20
701.630673
 30
0.0
 40
2.0
100
AcDbArc
 50
270.0
 51
347.905243
  0
LINE
  5
3346
100
AcDbEntity
  8
0
100
AcDbLine
 10
482.260961
 20
762.414601
 30
0.0
 11
482.260961
 21
754.630673
 31
0.0
  0
ARC
  5
3347
100
AcDbEntity
  8
0
100
AcDbCircle
 10
476.260961
 20
754.630673
 30
0.0
 40
6.0
100
AcDbArc
 50
270.0
 51
0.0
  0
ARC
  5
3348
100
AcDbEntity
  8
0
100
AcDbCircle
 10
472.13144
 20
665.536541
 30
0.0
 40
39.283658
100
AcDbArc
 50
76.138475
 51
102.393191
  0
ARC
  5
3349
100
AcDbEntity
  8
0
100
AcDbCircle
 10
476.260961
 20
714.630673
 30
0.0
 40
6.0
100
AcDbArc
 50
0.0
 51
90.0
  0
ARC
  5
334A
100
AcDbEntity
  8
0
100
AcDbCircle
 10
472.423028
 20
803.788632
 30
0.0
 40
43.640924
100
AcDbArc
 50
239.742513
 51
283.028111
  0
LINE
  5
334B
100
AcDbEntity
  8
0
100
AcDbLine
 10
521.760961
 20
762.630673
 30
0.0
 11
507.760961
 21
762.630673
 31
0.0
  0
LINE
  5
334C
100
AcDbEntity
  8
0
100
AcDbLine
 10
521.760961
 20
748.630673
 30
0.0
 11
507.760961
 21
748.630673
 31
0.0
  0
LINE
  5
334D
100
AcDbEntity
  8
0
100
AcDbLine
 10
521.760961
 20
762.630673
 30
0.0
 11
524.760961
 21
759.630673
 31
0.0
  0
ARC
  5
334E
100
AcDbEntity
  8
0
100
AcDbCircle
 10
515.094295
 20
755.630673
 30
0.0
 40
9.666667
100
AcDbArc
 50
313.602819
 51
46.397181
  0
LINE
  5
334F
100
AcDbEntity
  8
0
100
AcDbLine
 10
524.760961
 20
759.630673
 30
0.0
 11
524.760961
 21
734.630673
 31
0.0
  0
LINE
  5
3350
100
AcDbEntity
  8
0
100
AcDbLine
 10
506.599735
 20
768.049732
 30
0.0
 11
507.760961
 21
762.630673
 31
0.0
  0
ARC
  5
3351
100
AcDbEntity
  8
0
100
AcDbCircle
 10
501.094295
 20
755.630673
 30
0.0
 40
9.666667
100
AcDbArc
 50
313.602819
 51
46.397181
  0
LINE
  5
3352
100
AcDbEntity
  8
0
100
AcDbLine
 10
521.760961
 20
720.630673
 30
0.0
 11
507.760961
 21
720.630673
 31
0.0
  0
LINE
  5
3353
100
AcDbEntity
  8
0
100
AcDbLine
 10
521.760961
 20
706.630673
 30
0.0
 11
507.760961
 21
706.630673
 31
0.0
  0
ARC
  5
3354
100
AcDbEntity
  8
0
100
AcDbCircle
 10
515.094295
 20
713.630673
 30
0.0
 40
9.666667
100
AcDbArc
 50
313.602819
 51
46.397181
  0
LINE
  5
3355
100
AcDbEntity
  8
0
100
AcDbLine
 10
521.760961
 20
706.630673
 30
0.0
 11
524.760961
 21
709.630673
 31
0.0
  0
ARC
  5
3356
100
AcDbEntity
  8
0
100
AcDbCircle
 10
501.094295
 20
713.630673
 30
0.0
 40
9.666667
100
AcDbArc
 50
313.602819
 51
46.397181
  0
LINE
  5
3357
100
AcDbEntity
  8
0
100
AcDbLine
 10
524.760961
 20
734.630673
 30
0.0
 11
524.760961
 21
709.630673
 31
0.0
  0
ARC
  5
3358
100
AcDbEntity
  8
0
100
AcDbCircle
 10
476.594295
 20
734.630673
 30
0.0
 40
34.166667
100
AcDbArc
 50
335.810486
 51
24.189514
  0
ARC
  5
3359
100
AcDbEntity
  8
0
100
AcDbCircle
 10
490.594295
 20
734.630673
 30
0.0
 40
34.166667
100
AcDbArc
 50
335.810486
 51
24.189514
  0
LINE
  5
335A
100
AcDbEntity
  8
0
100
AcDbLine
 10
658.260961
 20
543.692042
 30
0.0
 11
658.260961
 21
532.966465
 31
0.0
  0
LINE
  5
335B
100
AcDbEntity
  8
0
100
AcDbLine
 10
698.862332
 20
348.195829
 30
0.0
 11
760.862332
 21
348.195829
 31
0.0
  0
LINE
  5
335C
100
AcDbEntity
  8
0
100
AcDbLine
 10
698.862332
 20
318.195829
 30
0.0
 11
760.862332
 21
318.195829
 31
0.0
  0
ARC
  5
335D
100
AcDbEntity
  8
0
100
AcDbCircle
 10
729.862332
 20
269.195829
 30
0.0
 40
29.992883
100
AcDbArc
 50
33.063775
 51
146.936225
  0
LINE
  5
335E
100
AcDbEntity
  8
0
100
AcDbLine
 10
698.862332
 20
348.195829
 30
0.0
 11
698.862332
 21
318.195829
 31
0.0
  0
ARC
  5
335F
100
AcDbEntity
  8
0
100
AcDbCircle
 10
702.21219
 20
287.195829
 30
0.0
 40
3.0
100
AcDbArc
 50
270.0
 51
326.936225
  0
ARC
  5
3360
100
AcDbEntity
  8
0
100
AcDbCircle
 10
698.878465
 20
283.195829
 30
0.0
 40
1.0
100
AcDbArc
 50
90.0
 51
155.684261
  0
LINE
  5
3361
100
AcDbEntity
  8
0
100
AcDbLine
 10
698.878465
 20
284.195829
 30
0.0
 11
702.21219
 21
284.195829
 31
0.0
  0
LINE
  5
3362
100
AcDbEntity
  8
0
100
AcDbLine
 10
704.862332
 20
317.195829
 30
0.0
 11
704.862332
 21
285.766075
 31
0.0
  0
ARC
  5
3363
100
AcDbEntity
  8
0
100
AcDbCircle
 10
655.260961
 20
380.195829
 30
0.0
 40
3.0
100
AcDbArc
 50
0.0
 51
90.0
  0
LINE
  5
3364
100
AcDbEntity
  8
0
100
AcDbLine
 10
658.260961
 20
380.195829
 30
0.0
 11
658.260961
 21
378.100061
 31
0.0
  0
ARC
  5
3365
100
AcDbEntity
  8
0
100
AcDbCircle
 10
655.260961
 20
378.100061
 30
0.0
 40
3.0
100
AcDbArc
 50
271.858546
 51
0.0
  0
LINE
  5
3366
100
AcDbEntity
  8
0
100
AcDbLine
 10
719.862332
 20
352.026577
 30
0.0
 11
739.862332
 21
352.026577
 31
0.0
  0
LINE
  5
3367
100
AcDbEntity
  8
0
100
AcDbLine
 10
741.862332
 20
348.195829
 30
0.0
 11
741.862332
 21
366.609247
 31
0.0
  0
LINE
  5
3368
100
AcDbEntity
  8
0
100
AcDbLine
 10
717.862332
 20
348.195829
 30
0.0
 11
717.862332
 21
366.609247
 31
0.0
  0
LINE
  5
3369
100
AcDbEntity
  8
0
100
AcDbLine
 10
716.5007
 20
366.609247
 30
0.0
 11
743.223964
 21
366.609247
 31
0.0
  0
LINE
  5
336A
100
AcDbEntity
  8
0
100
AcDbLine
 10
716.5007
 20
366.609247
 30
0.0
 11
716.5007
 21
383.195829
 31
0.0
  0
LINE
  5
336B
100
AcDbEntity
  8
0
100
AcDbLine
 10
743.223964
 20
366.609247
 30
0.0
 11
743.223964
 21
383.195829
 31
0.0
  0
LINE
  5
336C
100
AcDbEntity
  8
0
100
AcDbLine
 10
716.5007
 20
383.195829
 30
0.0
 11
743.223964
 21
383.195829
 31
0.0
  0
ARC
  5
336D
100
AcDbEntity
  8
0
100
AcDbCircle
 10
650.260961
 20
532.966465
 30
0.0
 40
8.0
100
AcDbArc
 50
269.025676
 51
0.0
  0
LINE
  5
336E
100
AcDbEntity
  8
0
100
AcDbLine
 10
760.862332
 20
348.195829
 30
0.0
 11
760.862332
 21
318.195829
 31
0.0
  0
ARC
  5
336F
100
AcDbEntity
  8
0
100
AcDbCircle
 10
757.512474
 20
287.195829
 30
0.0
 40
3.0
100
AcDbArc
 50
213.063775
 51
270.0
  0
ARC
  5
3370
100
AcDbEntity
  8
0
100
AcDbCircle
 10
760.846199
 20
283.195829
 30
0.0
 40
1.0
100
AcDbArc
 50
24.315739
 51
90.0
  0
LINE
  5
3371
100
AcDbEntity
  8
0
100
AcDbLine
 10
760.846199
 20
284.195829
 30
0.0
 11
757.512474
 21
284.195829
 31
0.0
  0
LINE
  5
3372
100
AcDbEntity
  8
0
100
AcDbLine
 10
754.862332
 20
317.195829
 30
0.0
 11
754.862332
 21
285.766075
 31
0.0
  0
LINE
  5
3373
100
AcDbEntity
  8
0
100
AcDbLine
 10
936.090256
 20
353.195829
 30
0.0
 11
936.090256
 21
323.195829
 31
0.0
  0
ARC
  5
3374
100
AcDbEntity
  8
0
100
AcDbCircle
 10
936.590256
 20
303.63055
 30
0.0
 40
4.0
100
AcDbArc
 50
311.532401
 51
0.0
  0
LINE
  5
3375
100
AcDbEntity
  8
0
100
AcDbLine
 10
940.590256
 20
323.195829
 30
0.0
 11
940.590256
 21
303.63055
 31
0.0
  0
LINE
  5
3376
100
AcDbEntity
  8
0
100
AcDbLine
 10
953.728624
 20
371.609247
 30
0.0
 11
953.728624
 21
388.195829
 31
0.0
  0
LINE
  5
3377
100
AcDbEntity
  8
0
100
AcDbLine
 10
953.728624
 20
371.609247
 30
0.0
 11
955.090256
 21
371.609247
 31
0.0
  0
LINE
  5
3378
100
AcDbEntity
  8
0
100
AcDbLine
 10
955.090256
 20
353.195829
 30
0.0
 11
955.090256
 21
386.195829
 31
0.0
  0
ARC
  5
3379
100
AcDbEntity
  8
0
100
AcDbCircle
 10
650.260961
 20
543.692042
 30
0.0
 40
8.0
100
AcDbArc
 50
0.0
 51
90.974324
  0
LINE
  5
337A
100
AcDbEntity
  8
0
100
AcDbLine
 10
409.260961
 20
848.630673
 30
0.0
 11
289.260961
 21
848.630673
 31
0.0
  0
LINE
  5
337B
100
AcDbEntity
  8
0
100
AcDbLine
 10
415.727422
 20
836.429599
 30
0.0
 11
289.163665
 21
840.536483
 31
0.0
  0
ARC
  5
337C
100
AcDbEntity
  8
0
100
AcDbCircle
 10
289.260961
 20
843.534905
 30
0.0
 40
3.0
100
AcDbArc
 50
180.0
 51
268.141454
  0
LINE
  5
337D
100
AcDbEntity
  8
0
100
AcDbLine
 10
286.260961
 20
845.630673
 30
0.0
 11
286.260961
 21
843.534905
 31
0.0
  0
ARC
  5
337E
100
AcDbEntity
  8
0
100
AcDbCircle
 10
289.260961
 20
845.630673
 30
0.0
 40
3.0
100
AcDbArc
 50
90.0
 51
180.0
  0
LINE
  5
337F
100
AcDbEntity
  8
0
100
AcDbLine
 10
503.260961
 20
783.630673
 30
0.0
 11
441.260961
 21
783.630673
 31
0.0
  0
ARC
  5
3380
100
AcDbEntity
  8
0
100
AcDbCircle
 10
247.874879
 20
361.735114
 30
0.0
 40
519.125903
100
AcDbArc
 50
60.713846
 51
69.077061
  0
LINE
  5
3381
100
AcDbEntity
  8
0
100
AcDbLine
 10
501.327778
 20
813.630673
 30
0.0
 11
441.260961
 21
813.630673
 31
0.0
  0
ARC
  5
3382
100
AcDbEntity
  8
0
100
AcDbCircle
 10
415.240941
 20
821.43749
 30
0.0
 40
15.0
100
AcDbArc
 50
45.0
 51
88.141454
  0
LINE
  5
3383
100
AcDbEntity
  8
0
100
AcDbLine
 10
409.260961
 20
848.630673
 30
0.0
 11
425.847543
 21
832.044092
 31
0.0
  0
ARC
  5
3384
100
AcDbEntity
  8
0
100
AcDbCircle
 10
426.260961
 20
812.53879
 30
0.0
 40
15.0
100
AcDbArc
 50
0.0
 51
19.158067
  0
LINE
  5
3385
100
AcDbEntity
  8
0
100
AcDbLine
 10
425.847543
 20
832.044092
 30
0.0
 11
440.430213
 21
817.461421
 31
0.0
  0
LINE
  5
3386
100
AcDbEntity
  8
0
100
AcDbLine
 10
441.260961
 20
812.53879
 30
0.0
 11
441.260961
 21
783.630673
 31
0.0
  0
LINE
  5
3387
100
AcDbEntity
  8
0
100
AcDbLine
 10
433.260961
 20
846.630673
 30
0.0
 11
411.260961
 21
846.630673
 31
0.0
  0
ARC
  5
3388
100
AcDbEntity
  8
0
100
AcDbCircle
 10
501.260961
 20
773.630673
 30
0.0
 40
4.0
100
AcDbArc
 50
180.0
 51
270.0
  0
LINE
  5
3389
100
AcDbEntity
  8
0
100
AcDbLine
 10
497.260961
 20
783.630673
 30
0.0
 11
497.260961
 21
773.630673
 31
0.0
  0
LINE
  5
338A
100
AcDbEntity
  8
0
100
AcDbLine
 10
447.260961
 20
783.630673
 30
0.0
 11
447.260961
 21
769.630673
 31
0.0
  0
ARC
  5
338B
100
AcDbEntity
  8
0
100
AcDbCircle
 10
500.260961
 20
811.94508
 30
0.0
 40
3.0
100
AcDbArc
 50
0.0
 51
58.765664
  0
LINE
  5
338C
100
AcDbEntity
  8
0
100
AcDbLine
 10
503.260961
 20
811.94508
 30
0.0
 11
503.260961
 21
783.630673
 31
0.0
  0
LINE
  5
338D
100
AcDbEntity
  8
0
100
AcDbLine
 10
501.260961
 20
769.630673
 30
0.0
 11
504.64413
 21
769.630673
 31
0.0
  0
ARC
  5
338E
100
AcDbEntity
  8
0
100
AcDbCircle
 10
1196.474142
 20
770.380673
 30
0.0
 40
2.0
100
AcDbArc
 50
190.304846
 51
270.0
  0
ARC
  5
338F
100
AcDbEntity
  8
0
100
AcDbCircle
 10
1142.954857
 20
818.328576
 30
0.0
 40
55.758642
100
AcDbArc
 50
288.129447
 51
311.774603
  0
LINE
  5
3390
100
AcDbEntity
  8
0
100
AcDbLine
 10
1183.30499
 20
776.630673
 30
0.0
 11
1183.30499
 21
692.630673
 31
0.0
  0
LINE
  5
3391
100
AcDbEntity
  8
0
100
AcDbLine
 10
1188.30499
 20
776.630673
 30
0.0
 11
1188.30499
 21
692.630673
 31
0.0
  0
LINE
  5
3392
100
AcDbEntity
  8
0
100
AcDbLine
 10
1114.302102
 20
770.873455
 30
0.0
 11
1113.30499
 21
768.380673
 31
0.0
  0
ARC
  5
3393
100
AcDbEntity
  8
0
100
AcDbCircle
 10
1159.766198
 20
809.509758
 30
0.0
 40
49.751487
100
AcDbArc
 50
228.436404
 51
270.620506
  0
LINE
  5
3394
100
AcDbEntity
  8
0
100
AcDbLine
 10
1365.591019
 20
285.195829
 30
0.0
 11
1367.639756
 21
285.195829
 31
0.0
  0
LINE
  5
3395
100
AcDbEntity
  8
0
100
AcDbLine
 10
1336.80499
 20
543.692042
 30
0.0
 11
1336.80499
 21
532.966465
 31
0.0
  0
LINE
  5
3396
100
AcDbEntity
  8
0
100
AcDbLine
 10
1193.384098
 20
529.854485
 30
0.0
 11
1193.384098
 21
546.804022
 31
0.0
  0
LINE
  5
3397
100
AcDbEntity
  8
0
100
AcDbLine
 10
1187.80499
 20
574.564118
 30
0.0
 11
1187.80499
 21
549.407653
 31
0.0
  0
CIRCLE
  5
3398
100
AcDbEntity
  8
0
100
AcDbCircle
 10
1150.80499
 20
538.329254
 30
0.0
 40
9.75
  0
ARC
  5
3399
100
AcDbEntity
  8
0
100
AcDbCircle
 10
1150.80499
 20
538.329254
 30
0.0
 40
31.0
100
AcDbArc
 50
21.078534
 51
338.921466
  0
LINE
  5
339A
100
AcDbEntity
  8
0
100
AcDbLine
 10
1090.80499
 20
509.100896
 30
0.0
 11
1090.80499
 21
567.557611
 31
0.0
  0
ARC
  5
339B
100
AcDbEntity
  8
0
100
AcDbCircle
 10
1152.269833
 20
523.715075
 30
0.0
 40
43.964844
100
AcDbArc
 50
160.585124
 51
199.414876
  0
ARC
  5
339C
100
AcDbEntity
  8
0
100
AcDbCircle
 10
1134.769833
 20
523.715075
 30
0.0
 40
43.964844
100
AcDbArc
 50
160.585124
 51
199.414876
  0
CIRCLE
  5
339D
100
AcDbEntity
  8
0
100
AcDbCircle
 10
1150.80499
 20
538.329254
 30
0.0
 40
6.75
  0
LINE
  5
339E
100
AcDbEntity
  8
0
100
AcDbLine
 10
1122.30499
 20
323.195829
 30
0.0
 11
1184.30499
 21
323.195829
 31
0.0
  0
LINE
  5
339F
100
AcDbEntity
  8
0
100
AcDbLine
 10
1126.80499
 20
323.195829
 30
0.0
 11
1179.80499
 21
323.195829
 31
0.0
  0
ARC
  5
33A0
100
AcDbEntity
  8
0
100
AcDbCircle
 10
1377.691073
 20
-98.69973
 30
0.0
 40
519.125903
100
AcDbArc
 50
110.922939
 51
119.286154
  0
LINE
  5
33A1
100
AcDbEntity
  8
0
100
AcDbLine
 10
1124.238173
 20
353.195829
 30
0.0
 11
1184.30499
 21
353.195829
 31
0.0
  0
LINE
  5
33A2
100
AcDbEntity
  8
0
100
AcDbLine
 10
1193.30499
 20
285.195829
 30
0.0
 11
1153.30499
 21
285.195829
 31
0.0
  0
ARC
  5
33A3
100
AcDbEntity
  8
0
100
AcDbCircle
 10
1146.843782
 20
344.074913
 30
0.0
 40
49.751487
100
AcDbArc
 50
269.379494
 51
311.563596
  0
LINE
  5
33A4
100
AcDbEntity
  8
0
100
AcDbLine
 10
1187.526138
 20
580.329254
 30
0.0
 11
1114.083841
 21
580.329254
 31
0.0
  0
LINE
  5
33A5
100
AcDbEntity
  8
0
100
AcDbLine
 10
1122.221778
 20
526.329254
 30
0.0
 11
1193.384098
 21
527.329254
 31
0.0
  0
LINE
  5
33A6
100
AcDbEntity
  8
0
100
AcDbLine
 10
998.090256
 20
353.195829
 30
0.0
 11
998.090256
 21
323.195829
 31
0.0
  0
ARC
  5
33A7
100
AcDbEntity
  8
0
100
AcDbCircle
 10
997.590256
 20
303.63055
 30
0.0
 40
4.0
100
AcDbArc
 50
180.0
 51
228.467599
  0
LINE
  5
33A8
100
AcDbEntity
  8
0
100
AcDbLine
 10
993.590256
 20
323.195829
 30
0.0
 11
993.590256
 21
303.63055
 31
0.0
  0
LINE
  5
33A9
100
AcDbEntity
  8
0
100
AcDbLine
 10
980.451888
 20
371.609247
 30
0.0
 11
980.451888
 21
388.195829
 31
0.0
  0
LINE
  5
33AA
100
AcDbEntity
  8
0
100
AcDbLine
 10
979.090256
 20
371.609247
 30
0.0
 11
980.451888
 21
371.609247
 31
0.0
  0
LINE
  5
33AB
100
AcDbEntity
  8
0
100
AcDbLine
 10
979.090256
 20
353.195829
 30
0.0
 11
979.090256
 21
386.195829
 31
0.0
  0
LINE
  5
33AC
100
AcDbEntity
  8
0
100
AcDbLine
 10
1122.30499
 20
351.510236
 30
0.0
 11
1122.30499
 21
323.195829
 31
0.0
  0
ARC
  5
33AD
100
AcDbEntity
  8
0
100
AcDbCircle
 10
1110.135837
 20
304.945829
 30
0.0
 40
2.0
100
AcDbArc
 50
270.0
 51
349.695154
  0
LINE
  5
33AE
100
AcDbEntity
  8
0
100
AcDbLine
 10
1097.05499
 20
286.070829
 30
0.0
 11
1111.80499
 21
286.070829
 31
0.0
  0
ARC
  5
33AF
100
AcDbEntity
  8
0
100
AcDbCircle
 10
1119.422177
 20
294.508329
 30
0.0
 40
11.367188
100
AcDbArc
 50
132.075022
 51
227.924978
  0
LINE
  5
33B0
100
AcDbEntity
  8
0
100
AcDbLine
 10
1093.30499
 20
299.195829
 30
0.0
 11
1097.05499
 21
302.945829
 31
0.0
  0
LINE
  5
33B1
100
AcDbEntity
  8
0
100
AcDbLine
 10
1097.05499
 20
302.945829
 30
0.0
 11
1110.135837
 21
302.945829
 31
0.0
  0
ARC
  5
33B2
100
AcDbEntity
  8
0
100
AcDbCircle
 10
1104.672177
 20
294.508329
 30
0.0
 40
11.367188
100
AcDbArc
 50
132.075022
 51
227.924978
  0
LINE
  5
33B3
100
AcDbEntity
  8
0
100
AcDbLine
 10
1126.80499
 20
323.195829
 30
0.0
 11
1126.80499
 21
315.195829
 31
0.0
  0
LINE
  5
33B4
100
AcDbEntity
  8
0
100
AcDbLine
 10
1146.30499
 20
299.903175
 30
0.0
 11
1146.30499
 21
292.195829
 31
0.0
  0
ARC
  5
33B5
100
AcDbEntity
  8
0
100
AcDbCircle
 10
1153.30499
 20
292.195829
 30
0.0
 40
7.0
100
AcDbArc
 50
180.0
 51
270.0
  0
ARC
  5
33B6
100
AcDbEntity
  8
0
100
AcDbCircle
 10
1163.655122
 20
352.893732
 30
0.0
 40
55.758642
100
AcDbArc
 50
228.225397
 51
251.870553
  0
ARC
  5
33B7
100
AcDbEntity
  8
0
100
AcDbCircle
 10
1122.80499
 20
315.195829
 30
0.0
 40
4.0
100
AcDbArc
 50
270.0
 51
0.0
  0
ARC
  5
33B8
100
AcDbEntity
  8
0
100
AcDbCircle
 10
1114.974142
 20
309.195829
 30
0.0
 40
2.0
100
AcDbArc
 50
90.0
 51
169.695154
  0
LINE
  5
33B9
100
AcDbEntity
  8
0
100
AcDbLine
 10
1113.006403
 20
309.5536
 30
0.0
 11
1112.103577
 21
304.588058
 31
0.0
  0
LINE
  5
33BA
100
AcDbEntity
  8
0
100
AcDbLine
 10
1122.80499
 20
311.195829
 30
0.0
 11
1114.974142
 21
311.195829
 31
0.0
  0
ARC
  5
33BB
100
AcDbEntity
  8
0
100
AcDbCircle
 10
1125.30499
 20
351.510236
 30
0.0
 40
3.0
100
AcDbArc
 50
121.234336
 51
180.0
  0
LINE
  5
33BC
100
AcDbEntity
  8
0
100
AcDbLine
 10
1190.80499
 20
567.557611
 30
0.0
 11
1189.512486
 21
578.562545
 31
0.0
  0
LINE
  5
33BE
100
AcDbEntity
  8
0
100
AcDbLine
 10
1090.80499
 20
509.100896
 30
0.0
 11
1110.80499
 21
509.100896
 31
0.0
  0
ARC
  5
33BF
100
AcDbEntity
  8
0
100
AcDbCircle
 10
1187.635056
 20
573.829254
 30
0.0
 40
2.0
100
AcDbArc
 50
10.278459
 51
90.0
  0
ARC
  5
33C0
100
AcDbEntity
  8
0
100
AcDbCircle
 10
1187.526138
 20
578.329254
 30
0.0
 40
2.0
100
AcDbArc
 50
6.69857
 51
90.0
  0
LINE
  5
33C1
100
AcDbEntity
  8
0
100
AcDbLine
 10
1187.635056
 20
575.829254
 30
0.0
 11
1151.80499
 21
575.829254
 31
0.0
  0
ARC
  5
33C2
100
AcDbEntity
  8
0
100
AcDbCircle
 10
1151.80499
 20
567.829254
 30
0.0
 40
8.0
100
AcDbArc
 50
90.0
 51
174.932982
  0
LINE
  5
33C3
100
AcDbEntity
  8
0
100
AcDbLine
 10
1216.30499
 20
388.195829
 30
0.0
 11
1336.30499
 21
388.195829
 31
0.0
  0
LINE
  5
33C4
100
AcDbEntity
  8
0
100
AcDbLine
 10
1209.838529
 20
375.994755
 30
0.0
 11
1336.402286
 21
380.101639
 31
0.0
  0
LINE
  5
33C5
100
AcDbEntity
  8
0
100
AcDbLine
 10
1184.30499
 20
352.103946
 30
0.0
 11
1184.30499
 21
323.195829
 31
0.0
  0
LINE
  5
33C6
100
AcDbEntity
  8
0
100
AcDbLine
 10
1213.30499
 20
299.195829
 30
0.0
 11
1209.55499
 21
302.945829
 31
0.0
  0
ARC
  5
33C7
100
AcDbEntity
  8
0
100
AcDbCircle
 10
1201.937802
 20
294.508329
 30
0.0
 40
11.367188
100
AcDbArc
 50
312.075022
 51
47.924978
  0
LINE
  5
33C8
100
AcDbEntity
  8
0
100
AcDbLine
 10
1209.55499
 20
302.945829
 30
0.0
 11
1193.30499
 21
302.945829
 31
0.0
  0
LINE
  5
33C9
100
AcDbEntity
  8
0
100
AcDbLine
 10
1192.307877
 20
305.438611
 30
0.0
 11
1193.30499
 21
302.945829
 31
0.0
  0
LINE
  5
33CA
100
AcDbEntity
  8
0
100
AcDbLine
 10
1209.55499
 20
286.070829
 30
0.0
 11
1193.30499
 21
286.070829
 31
0.0
  0
LINE
  5
33CB
100
AcDbEntity
  8
0
100
AcDbLine
 10
1193.30499
 20
302.945829
 30
0.0
 11
1193.30499
 21
285.195829
 31
0.0
  0
ARC
  5
33CC
100
AcDbEntity
  8
0
100
AcDbCircle
 10
1185.687802
 20
294.508329
 30
0.0
 40
11.367188
100
AcDbArc
 50
312.075022
 51
47.924978
  0
LINE
  5
33CD
100
AcDbEntity
  8
0
100
AcDbLine
 10
1190.450924
 20
306.695829
 30
0.0
 11
1183.80499
 21
306.695829
 31
0.0
  0
ARC
  5
33CE
100
AcDbEntity
  8
0
100
AcDbCircle
 10
1183.80499
 20
310.695829
 30
0.0
 40
4.0
100
AcDbArc
 50
180.0
 51
270.0
  0
ARC
  5
33CF
100
AcDbEntity
  8
0
100
AcDbCircle
 10
1190.450924
 20
304.695829
 30
0.0
 40
2.0
100
AcDbArc
 50
21.801409
 51
90.0
  0
LINE
  5
33D0
100
AcDbEntity
  8
0
100
AcDbLine
 10
1179.80499
 20
323.195829
 30
0.0
 11
1179.80499
 21
310.695829
 31
0.0
  0
LINE
  5
33D1
100
AcDbEntity
  8
0
100
AcDbLine
 10
1192.30499
 20
386.195829
 30
0.0
 11
1214.30499
 21
386.195829
 31
0.0
  0
LINE
  5
33D2
100
AcDbEntity
  8
0
100
AcDbLine
 10
1216.30499
 20
388.195829
 30
0.0
 11
1199.718408
 21
371.609247
 31
0.0
  0
ARC
  5
33D3
100
AcDbEntity
  8
0
100
AcDbCircle
 10
1210.32501
 20
361.002646
 30
0.0
 40
15.0
100
AcDbArc
 50
91.858546
 51
135.0
  0
ARC
  5
33D4
100
AcDbEntity
  8
0
100
AcDbCircle
 10
1199.30499
 20
352.103946
 30
0.0
 40
15.0
100
AcDbArc
 50
160.841933
 51
180.0
  0
LINE
  5
33D5
100
AcDbEntity
  8
0
100
AcDbLine
 10
1199.718408
 20
371.609247
 30
0.0
 11
1185.135738
 21
357.026577
 31
0.0
  0
ARC
  5
33D6
100
AcDbEntity
  8
0
100
AcDbCircle
 10
1365.591019
 20
283.695829
 30
0.0
 40
1.5
100
AcDbArc
 50
90.0
 51
159.021065
  0
ARC
  5
33D7
100
AcDbEntity
  8
0
100
AcDbCircle
 10
1336.30499
 20
385.195829
 30
0.0
 40
3.0
100
AcDbArc
 50
0.0
 51
90.0
  0
ARC
  5
33D8
100
AcDbEntity
  8
0
100
AcDbCircle
 10
1336.30499
 20
383.100061
 30
0.0
 40
3.0
100
AcDbArc
 50
271.858546
 51
0.0
  0
LINE
  5
33D9
100
AcDbEntity
  8
0
100
AcDbLine
 10
1339.30499
 20
385.195829
 30
0.0
 11
1339.30499
 21
383.100061
 31
0.0
  0
LINE
  5
33DA
100
AcDbEntity
  8
0
100
AcDbLine
 10
1328.668955
 20
524.967621
 30
0.0
 11
1193.384098
 21
527.329254
 31
0.0
  0
LINE
  5
33DB
100
AcDbEntity
  8
0
100
AcDbLine
 10
1210.80499
 20
509.100896
 30
0.0
 11
1190.80499
 21
509.100896
 31
0.0
  0
ARC
  5
33DC
100
AcDbEntity
  8
0
100
AcDbCircle
 10
1149.340146
 20
523.715075
 30
0.0
 40
43.964844
100
AcDbArc
 50
340.585124
 51
4.711201
  0
ARC
  5
33DD
100
AcDbEntity
  8
0
100
AcDbCircle
 10
1166.840146
 20
523.715075
 30
0.0
 40
43.964844
100
AcDbArc
 50
340.585124
 51
4.320675
  0
LINE
  5
33DE
100
AcDbEntity
  8
0
100
AcDbLine
 10
1210.80499
 20
509.100896
 30
0.0
 11
1210.80499
 21
527.025142
 31
0.0
  0
ARC
  5
33DF
100
AcDbEntity
  8
0
100
AcDbCircle
 10
1114.083841
 20
578.329254
 30
0.0
 40
2.0
100
AcDbArc
 50
90.0
 51
173.30143
  0
LINE
  5
33E0
100
AcDbEntity
  8
0
100
AcDbLine
 10
1120.80499
 20
580.329254
 30
0.0
 11
1120.80499
 21
546.139503
 31
0.0
  0
LINE
  5
33E1
100
AcDbEntity
  8
0
100
AcDbLine
 10
1115.80499
 20
580.329254
 30
0.0
 11
1115.80499
 21
496.329254
 31
0.0
  0
LINE
  5
33E2
100
AcDbEntity
  8
0
100
AcDbLine
 10
1110.80499
 20
567.557611
 30
0.0
 11
1112.097494
 21
578.562545
 31
0.0
  0
ARC
  5
33E3
100
AcDbEntity
  8
0
100
AcDbCircle
 10
1328.80499
 20
532.966465
 30
0.0
 40
8.0
100
AcDbArc
 50
269.025676
 51
0.0
  0
LINE
  5
33E4
100
AcDbEntity
  8
0
100
AcDbLine
 10
1187.30499
 20
496.329254
 30
0.0
 11
1114.083841
 21
496.329254
 31
0.0
  0
LINE
  5
33E5
100
AcDbEntity
  8
0
100
AcDbLine
 10
1122.221778
 20
550.329254
 30
0.0
 11
1193.384098
 21
549.329254
 31
0.0
  0
ARC
  5
33E6
100
AcDbEntity
  8
0
100
AcDbCircle
 10
1162.30499
 20
694.630673
 30
0.0
 40
2.0
100
AcDbArc
 50
180.0
 51
270.0
  0
LINE
  5
33E7
100
AcDbEntity
  8
0
100
AcDbLine
 10
1163.30499
 20
692.630673
 30
0.0
 11
1159.30499
 21
683.630673
 31
0.0
  0
LINE
  5
33E8
100
AcDbEntity
  8
0
100
AcDbLine
 10
1143.30499
 20
692.630673
 30
0.0
 11
1191.635837
 21
692.630673
 31
0.0
  0
LINE
  5
33E9
100
AcDbEntity
  8
0
100
AcDbLine
 10
1190.80499
 20
509.100896
 30
0.0
 11
1189.60296
 21
502.472389
 31
0.0
  0
LINE
  5
33EA
100
AcDbEntity
  8
0
100
AcDbLine
 10
1190.80499
 20
509.100896
 30
0.0
 11
1189.512486
 21
498.095962
 31
0.0
  0
LINE
  5
33EB
100
AcDbEntity
  8
0
100
AcDbLine
 10
1090.80499
 20
567.557611
 30
0.0
 11
1110.80499
 21
567.557611
 31
0.0
  0
LINE
  5
33EC
100
AcDbEntity
  8
0
100
AcDbLine
 10
1093.30499
 20
538.329254
 30
0.0
 11
1110.80499
 21
538.329254
 31
0.0
  0
ARC
  5
33ED
100
AcDbEntity
  8
0
100
AcDbCircle
 10
1152.269833
 20
552.943432
 30
0.0
 40
43.964844
100
AcDbArc
 50
160.585124
 51
199.414876
  0
ARC
  5
33EE
100
AcDbEntity
  8
0
100
AcDbCircle
 10
1134.769833
 20
552.943432
 30
0.0
 40
43.964844
100
AcDbArc
 50
160.585124
 51
199.414876
  0
ARC
  5
33EF
100
AcDbEntity
  8
0
100
AcDbCircle
 10
1187.526138
 20
498.329254
 30
0.0
 40
2.0
100
AcDbArc
 50
270.0
 51
353.30143
  0
ARC
  5
33F0
100
AcDbEntity
  8
0
100
AcDbCircle
 10
1151.80499
 20
508.829254
 30
0.0
 40
8.0
100
AcDbArc
 50
185.067018
 51
270.0
  0
ARC
  5
33F1
100
AcDbEntity
  8
0
100
AcDbCircle
 10
1187.635056
 20
502.829254
 30
0.0
 40
2.0
100
AcDbArc
 50
270.0
 51
349.721541
  0
LINE
  5
33F2
100
AcDbEntity
  8
0
100
AcDbLine
 10
1187.635056
 20
500.829254
 30
0.0
 11
1151.80499
 21
500.829254
 31
0.0
  0
LINE
  5
33F3
100
AcDbEntity
  8
0
100
AcDbLine
 10
1160.30499
 20
711.630673
 30
0.0
 11
1160.30499
 21
694.630673
 31
0.0
  0
LINE
  5
33F4
100
AcDbEntity
  8
0
100
AcDbLine
 10
1113.30499
 20
718.630673
 30
0.0
 11
1113.30499
 21
700.880673
 31
0.0
  0
LINE
  5
33F5
100
AcDbEntity
  8
0
100
AcDbLine
 10
1093.30499
 20
704.630673
 30
0.0
 11
1097.05499
 21
700.880673
 31
0.0
  0
ARC
  5
33F6
100
AcDbEntity
  8
0
100
AcDbCircle
 10
1104.672177
 20
709.318173
 30
0.0
 40
11.367188
100
AcDbArc
 50
132.075022
 51
227.924978
  0
ARC
  5
33F7
100
AcDbEntity
  8
0
100
AcDbCircle
 10
1120.922177
 20
709.318173
 30
0.0
 40
11.367188
100
AcDbArc
 50
132.075022
 51
227.924978
  0
LINE
  5
33F8
100
AcDbEntity
  8
0
100
AcDbLine
 10
1097.05499
 20
700.880673
 30
0.0
 11
1113.30499
 21
700.880673
 31
0.0
  0
LINE
  5
33F9
100
AcDbEntity
  8
0
100
AcDbLine
 10
1147.30499
 20
683.630673
 30
0.0
 11
1143.30499
 21
692.630673
 31
0.0
  0
LINE
  5
33FA
100
AcDbEntity
  8
0
100
AcDbLine
 10
1147.30499
 20
683.630673
 30
0.0
 11
1159.30499
 21
683.630673
 31
0.0
  0
LINE
  5
33FB
100
AcDbEntity
  8
0
100
AcDbLine
 10
1143.30499
 20
692.630673
 30
0.0
 11
1143.30499
 21
693.630673
 31
0.0
  0
ARC
  5
33FC
100
AcDbEntity
  8
0
100
AcDbCircle
 10
1152.707522
 20
658.69936
 30
0.0
 40
35.638651
100
AcDbArc
 50
78.200319
 51
103.960414
  0
ARC
  5
33FD
100
AcDbEntity
  8
0
100
AcDbCircle
 10
1139.80499
 20
693.630673
 30
0.0
 40
3.5
100
AcDbArc
 50
0.0
 51
90.0
  0
LINE
  5
33FE
100
AcDbEntity
  8
0
100
AcDbLine
 10
1113.30499
 20
700.880673
 30
0.0
 11
1114.302102
 21
698.387892
 31
0.0
  0
ARC
  5
33FF
100
AcDbEntity
  8
0
100
AcDbCircle
 10
1116.159056
 20
699.130673
 30
0.0
 40
2.0
100
AcDbArc
 50
201.801409
 51
270.0
  0
LINE
  5
3400
100
AcDbEntity
  8
0
100
AcDbLine
 10
1116.159056
 20
697.130673
 30
0.0
 11
1139.80499
 21
697.130673
 31
0.0
  0
LINE
  5
3401
100
AcDbEntity
  8
0
100
AcDbLine
 10
1097.05499
 20
768.380673
 30
0.0
 11
1113.30499
 21
768.380673
 31
0.0
  0
LINE
  5
3402
100
AcDbEntity
  8
0
100
AcDbLine
 10
1097.05499
 20
751.505673
 30
0.0
 11
1113.30499
 21
751.505673
 31
0.0
  0
LINE
  5
3403
100
AcDbEntity
  8
0
100
AcDbLine
 10
1097.05499
 20
717.755673
 30
0.0
 11
1113.30499
 21
717.755673
 31
0.0
  0
ARC
  5
3404
100
AcDbEntity
  8
0
100
AcDbCircle
 10
1149.39874
 20
734.630673
 30
0.0
 40
39.84375
100
AcDbArc
 50
154.942385
 51
205.057615
  0
ARC
  5
3405
100
AcDbEntity
  8
0
100
AcDbCircle
 10
1120.922177
 20
759.943173
 30
0.0
 40
11.367188
100
AcDbArc
 50
132.075022
 51
227.924978
  0
LINE
  5
3406
100
AcDbEntity
  8
0
100
AcDbLine
 10
1093.30499
 20
764.630673
 30
0.0
 11
1093.30499
 21
734.630673
 31
0.0
  0
ARC
  5
3407
100
AcDbEntity
  8
0
100
AcDbCircle
 10
1133.14874
 20
734.630673
 30
0.0
 40
39.84375
100
AcDbArc
 50
154.942385
 51
205.057615
  0
LINE
  5
3408
100
AcDbEntity
  8
0
100
AcDbLine
 10
1093.30499
 20
734.630673
 30
0.0
 11
1093.30499
 21
704.630673
 31
0.0
  0
LINE
  5
3409
100
AcDbEntity
  8
0
100
AcDbLine
 10
1093.30499
 20
764.630673
 30
0.0
 11
1097.05499
 21
768.380673
 31
0.0
  0
ARC
  5
340A
100
AcDbEntity
  8
0
100
AcDbCircle
 10
1104.672177
 20
759.943173
 30
0.0
 40
11.367188
100
AcDbArc
 50
132.075022
 51
227.924978
  0
LINE
  5
340B
100
AcDbEntity
  8
0
100
AcDbLine
 10
1160.30499
 20
765.338019
 30
0.0
 11
1160.30499
 21
757.630673
 31
0.0
  0
ARC
  5
340C
100
AcDbEntity
  8
0
100
AcDbCircle
 10
1153.30499
 20
757.630673
 30
0.0
 40
7.0
100
AcDbArc
 50
270.0
 51
0.0
  0
ARC
  5
340D
100
AcDbEntity
  8
0
100
AcDbCircle
 10
1153.30499
 20
711.630673
 30
0.0
 40
7.0
100
AcDbArc
 50
0.0
 51
90.0
  0
LINE
  5
340E
100
AcDbEntity
  8
0
100
AcDbLine
 10
1114.80499
 20
750.630673
 30
0.0
 11
1114.80499
 21
718.630673
 31
0.0
  0
LINE
  5
340F
100
AcDbEntity
  8
0
100
AcDbLine
 10
1113.30499
 20
768.380673
 30
0.0
 11
1113.30499
 21
750.630673
 31
0.0
  0
LINE
  5
3410
100
AcDbEntity
  8
0
100
AcDbLine
 10
1113.30499
 20
718.630673
 30
0.0
 11
1153.30499
 21
718.630673
 31
0.0
  0
LINE
  5
3411
100
AcDbEntity
  8
0
100
AcDbLine
 10
1113.30499
 20
750.630673
 30
0.0
 11
1153.30499
 21
750.630673
 31
0.0
  0
LINE
  5
3412
100
AcDbEntity
  8
0
100
AcDbLine
 10
1193.384098
 20
549.329254
 30
0.0
 11
1328.668955
 21
551.690886
 31
0.0
  0
ARC
  5
3413
100
AcDbEntity
  8
0
100
AcDbCircle
 10
1114.083841
 20
498.329254
 30
0.0
 40
2.0
100
AcDbArc
 50
186.69857
 51
270.0
  0
LINE
  5
3414
100
AcDbEntity
  8
0
100
AcDbLine
 10
1210.80499
 20
567.557611
 30
0.0
 11
1190.80499
 21
567.557611
 31
0.0
  0
ARC
  5
3415
100
AcDbEntity
  8
0
100
AcDbCircle
 10
1149.340146
 20
552.943432
 30
0.0
 40
43.964844
100
AcDbArc
 50
355.288799
 51
19.414876
  0
ARC
  5
3416
100
AcDbEntity
  8
0
100
AcDbCircle
 10
1166.840146
 20
552.943432
 30
0.0
 40
43.964844
100
AcDbArc
 50
355.679325
 51
19.414876
  0
LINE
  5
3417
100
AcDbEntity
  8
0
100
AcDbLine
 10
1210.80499
 20
549.633365
 30
0.0
 11
1210.80499
 21
567.557611
 31
0.0
  0
LINE
  5
341A
100
AcDbEntity
  8
0
100
AcDbLine
 10
1110.80499
 20
509.100896
 30
0.0
 11
1112.097494
 21
498.095962
 31
0.0
  0
ARC
  5
341B
100
AcDbEntity
  8
0
100
AcDbCircle
 10
1328.80499
 20
543.692042
 30
0.0
 40
8.0
100
AcDbArc
 50
0.0
 51
90.974324
  0
LINE
  5
341C
100
AcDbEntity
  8
0
100
AcDbLine
 10
1213.30499
 20
704.630673
 30
0.0
 11
1209.55499
 21
700.880673
 31
0.0
  0
ARC
  5
341D
100
AcDbEntity
  8
0
100
AcDbCircle
 10
1201.937802
 20
709.318173
 30
0.0
 40
11.367188
100
AcDbArc
 50
312.075022
 51
47.924978
  0
ARC
  5
341E
100
AcDbEntity
  8
0
100
AcDbCircle
 10
1187.187802
 20
709.318173
 30
0.0
 40
11.367188
100
AcDbArc
 50
312.075022
 51
47.924978
  0
ARC
  5
341F
100
AcDbEntity
  8
0
100
AcDbCircle
 10
1196.474142
 20
698.880673
 30
0.0
 40
2.0
100
AcDbArc
 50
90.0
 51
169.695154
  0
LINE
  5
3420
100
AcDbEntity
  8
0
100
AcDbLine
 10
1209.55499
 20
700.880673
 30
0.0
 11
1196.474142
 21
700.880673
 31
0.0
  0
ARC
  5
3421
100
AcDbEntity
  8
0
100
AcDbCircle
 10
1191.635837
 20
694.630673
 30
0.0
 40
2.0
100
AcDbArc
 50
270.0
 51
349.695154
  0
LINE
  5
3422
100
AcDbEntity
  8
0
100
AcDbLine
 10
1194.506403
 20
699.238444
 30
0.0
 11
1193.603577
 21
694.272902
 31
0.0
  0
ARC
  5
3423
100
AcDbEntity
  8
0
100
AcDbCircle
 10
1173.46124
 20
734.630673
 30
0.0
 40
39.84375
100
AcDbArc
 50
334.942385
 51
25.057615
  0
LINE
  5
3424
100
AcDbEntity
  8
0
100
AcDbLine
 10
1213.30499
 20
764.630673
 30
0.0
 11
1209.55499
 21
768.380673
 31
0.0
  0
ARC
  5
3425
100
AcDbEntity
  8
0
100
AcDbCircle
 10
1201.937802
 20
759.943173
 30
0.0
 40
11.367188
100
AcDbArc
 50
312.075022
 51
47.924978
  0
LINE
  5
3426
100
AcDbEntity
  8
0
100
AcDbLine
 10
1209.55499
 20
768.380673
 30
0.0
 11
1196.474142
 21
768.380673
 31
0.0
  0
LINE
  5
3427
100
AcDbEntity
  8
0
100
AcDbLine
 10
1209.55499
 20
751.505673
 30
0.0
 11
1194.80499
 21
751.505673
 31
0.0
  0
LINE
  5
3428
100
AcDbEntity
  8
0
100
AcDbLine
 10
1209.55499
 20
717.755673
 30
0.0
 11
1194.80499
 21
717.755673
 31
0.0
  0
ARC
  5
3429
100
AcDbEntity
  8
0
100
AcDbCircle
 10
1158.71124
 20
734.630673
 30
0.0
 40
39.84375
100
AcDbArc
 50
334.942385
 51
25.057615
  0
ARC
  5
342A
100
AcDbEntity
  8
0
100
AcDbCircle
 10
1187.187802
 20
759.943173
 30
0.0
 40
11.367188
100
AcDbArc
 50
312.075022
 51
47.924978
  0
LINE
  5
342B
100
AcDbEntity
  8
0
100
AcDbLine
 10
1213.30499
 20
764.630673
 30
0.0
 11
1213.30499
 21
734.630673
 31
0.0
  0
LINE
  5
342C
100
AcDbEntity
  8
0
100
AcDbLine
 10
1213.30499
 20
734.630673
 30
0.0
 11
1213.30499
 21
704.630673
 31
0.0
  0
LINE
  5
342D
100
AcDbEntity
  8
0
100
AcDbLine
 10
1372.40636
 20
353.195829
 30
0.0
 11
1372.40636
 21
323.195829
 31
0.0
  0
LINE
  5
342E
100
AcDbEntity
  8
0
100
AcDbLine
 10
1434.47714
 20
353.195829
 30
0.0
 11
1434.47714
 21
323.195829
 31
0.0
  0
LINE
  5
342F
100
AcDbEntity
  8
0
100
AcDbLine
 10
1372.47714
 20
323.195829
 30
0.0
 11
1434.47714
 21
323.195829
 31
0.0
  0
LINE
  5
3430
100
AcDbEntity
  8
0
100
AcDbLine
 10
1376.97714
 20
323.195829
 30
0.0
 11
1429.97714
 21
323.195829
 31
0.0
  0
ARC
  5
3431
100
AcDbEntity
  8
0
100
AcDbCircle
 10
1403.40636
 20
269.195829
 30
0.0
 40
37.5
100
AcDbArc
 50
27.978214
 51
152.021786
  0
ARC
  5
3432
100
AcDbEntity
  8
0
100
AcDbCircle
 10
1367.639756
 20
288.195829
 30
0.0
 40
3.0
100
AcDbArc
 50
270.0
 51
332.021786
  0
ARC
  5
3433
100
AcDbEntity
  8
0
100
AcDbCircle
 10
1372.90636
 20
303.63055
 30
0.0
 40
4.0
100
AcDbArc
 50
311.532401
 51
0.0
  0
ARC
  5
3434
100
AcDbEntity
  8
0
100
AcDbCircle
 10
1372.90636
 20
297.338324
 30
0.0
 40
4.0
100
AcDbArc
 50
317.302126
 51
0.0
  0
LINE
  5
3435
100
AcDbEntity
  8
0
100
AcDbLine
 10
1376.90636
 20
323.195829
 30
0.0
 11
1376.90636
 21
297.338324
 31
0.0
  0
ARC
  5
3436
100
AcDbEntity
  8
0
100
AcDbCircle
 10
1433.90636
 20
297.338324
 30
0.0
 40
4.0
100
AcDbArc
 50
180.0
 51
222.697874
  0
ARC
  5
3437
100
AcDbEntity
  8
0
100
AcDbCircle
 10
1433.90636
 20
303.63055
 30
0.0
 40
4.0
100
AcDbArc
 50
180.0
 51
228.467599
  0
ARC
  5
3438
100
AcDbEntity
  8
0
100
AcDbCircle
 10
1441.221701
 20
283.695829
 30
0.0
 40
1.5
100
AcDbArc
 50
20.978935
 51
90.0
  0
ARC
  5
3439
100
AcDbEntity
  8
0
100
AcDbCircle
 10
1439.172965
 20
288.195829
 30
0.0
 40
3.0
100
AcDbArc
 50
207.978214
 51
270.0
  0
LINE
  5
343A
100
AcDbEntity
  8
0
100
AcDbLine
 10
1441.221701
 20
285.195829
 30
0.0
 11
1439.172965
 21
285.195829
 31
0.0
  0
LINE
  5
343B
100
AcDbEntity
  8
0
100
AcDbLine
 10
1429.90636
 20
323.195829
 30
0.0
 11
1429.90636
 21
297.338324
 31
0.0
  0
LINE
  5
343C
100
AcDbEntity
  8
0
100
AcDbLine
 10
1372.40636
 20
353.195829
 30
0.0
 11
1434.47714
 21
353.195829
 31
0.0
  0
LINE
  5
343D
100
AcDbEntity
  8
0
100
AcDbLine
 10
1416.767992
 20
371.609247
 30
0.0
 11
1416.767992
 21
388.195829
 31
0.0
  0
LINE
  5
343E
100
AcDbEntity
  8
0
100
AcDbLine
 10
1390.044728
 20
371.609247
 30
0.0
 11
1390.044728
 21
388.195829
 31
0.0
  0
LINE
  5
343F
100
AcDbEntity
  8
0
100
AcDbLine
 10
1390.044728
 20
371.609247
 30
0.0
 11
1416.767992
 21
371.609247
 31
0.0
  0
LINE
  5
3440
100
AcDbEntity
  8
0
100
AcDbLine
 10
1390.044728
 20
388.195829
 30
0.0
 11
1416.767992
 21
388.195829
 31
0.0
  0
LINE
  5
3441
100
AcDbEntity
  8
0
100
AcDbLine
 10
1393.40636
 20
357.026577
 30
0.0
 11
1413.40636
 21
357.026577
 31
0.0
  0
LINE
  5
3442
100
AcDbEntity
  8
0
100
AcDbLine
 10
1415.40636
 20
353.195829
 30
0.0
 11
1415.40636
 21
371.609247
 31
0.0
  0
LINE
  5
3443
100
AcDbEntity
  8
0
100
AcDbLine
 10
1391.40636
 20
353.195829
 30
0.0
 11
1391.40636
 21
371.609247
 31
0.0
  0
LINE
  5
3444
100
AcDbEntity
  8
0
100
AcDbLine
 10
1665.662521
 20
407.195829
 30
0.0
 11
1665.662521
 21
392.945829
 31
0.0
  0
LINE
  5
3445
100
AcDbEntity
  8
0
100
AcDbLine
 10
1663.806188
 20
363.195829
 30
0.0
 11
1663.806188
 21
405.195829
 31
0.0
  0
LINE
  5
3446
100
AcDbEntity
  8
0
100
AcDbLine
 10
1633.949856
 20
407.195829
 30
0.0
 11
1633.949856
 21
392.945829
 31
0.0
  0
LINE
  5
3447
100
AcDbEntity
  8
0
100
AcDbLine
 10
1635.806188
 20
363.195829
 30
0.0
 11
1635.806188
 21
405.195829
 31
0.0
  0
LINE
  5
3448
100
AcDbEntity
  8
0
100
AcDbLine
 10
1618.806188
 20
363.195829
 30
0.0
 11
1680.806188
 21
363.195829
 31
0.0
  0
LINE
  5
3449
100
AcDbEntity
  8
0
100
AcDbLine
 10
1618.806188
 20
333.195829
 30
0.0
 11
1680.806188
 21
333.195829
 31
0.0
  0
LINE
  5
344A
100
AcDbEntity
  8
0
100
AcDbLine
 10
1618.806188
 20
363.195829
 30
0.0
 11
1618.806188
 21
333.195829
 31
0.0
  0
LINE
  5
344B
100
AcDbEntity
  8
0
100
AcDbLine
 10
1618.806188
 20
333.195829
 30
0.0
 11
1618.806188
 21
311.622236
 31
0.0
  0
ARC
  5
344C
100
AcDbEntity
  8
0
100
AcDbCircle
 10
1614.806188
 20
311.622236
 30
0.0
 40
4.0
100
AcDbArc
 50
309.521196
 51
0.0
  0
LINE
  5
344D
100
AcDbEntity
  8
0
100
AcDbLine
 10
1618.806188
 20
333.195829
 30
0.0
 11
1618.806188
 21
324.195829
 31
0.0
  0
ELLIPSE
  5
344E
100
AcDbEntity
  8
0
100
AcDbEllipse
 10
1649.806188
 20
381.426389
 30
0.0
 11
-9.75
 21
0.0
 31
0.0
210
0.0
220
0.0
230
1.0
 40
0.528796
 41
0.0
 42
6.283185307179586
  0
LINE
  5
344F
100
AcDbEntity
  8
0
100
AcDbLine
 10
1633.949856
 20
392.945829
 30
0.0
 11
1665.662521
 21
392.945829
 31
0.0
  0
LINE
  5
3450
100
AcDbEntity
  8
0
100
AcDbLine
 10
1680.806188
 20
363.195829
 30
0.0
 11
1680.806188
 21
333.195829
 31
0.0
  0
LINE
  5
3451
100
AcDbEntity
  8
0
100
AcDbLine
 10
1680.806188
 20
333.195829
 30
0.0
 11
1680.806188
 21
311.622236
 31
0.0
  0
ARC
  5
3452
100
AcDbEntity
  8
0
100
AcDbCircle
 10
1684.806188
 20
311.622236
 30
0.0
 40
4.0
100
AcDbArc
 50
180.0
 51
230.478804
  0
LINE
  5
3453
100
AcDbEntity
  8
0
100
AcDbLine
 10
1680.806188
 20
333.195829
 30
0.0
 11
1680.806188
 21
319.195829
 31
0.0
  0
LINE
  5
3454
100
AcDbEntity
  8
0
100
AcDbLine
 10
1663.806188
 20
405.195829
 30
0.0
 11
1635.806188
 21
405.195829
 31
0.0
  0
LINE
  5
3455
100
AcDbEntity
  8
0
100
AcDbLine
 10
1633.949856
 20
407.195829
 30
0.0
 11
1665.662521
 21
407.195829
 31
0.0
  0
LINE
  5
3456
100
AcDbEntity
  8
0
100
AcDbLine
 10
1179.80499
 20
788.630673
 30
0.0
 11
1126.80499
 21
788.630673
 31
0.0
  0
LINE
  5
3457
100
AcDbEntity
  8
0
100
AcDbLine
 10
1184.30499
 20
788.630673
 30
0.0
 11
1122.30499
 21
788.630673
 31
0.0
  0
ARC
  5
3458
100
AcDbEntity
  8
0
100
AcDbCircle
 10
928.918907
 20
366.735114
 30
0.0
 40
519.125903
100
AcDbArc
 50
60.713846
 51
69.077061
  0
LINE
  5
3459
100
AcDbEntity
  8
0
100
AcDbLine
 10
1182.371806
 20
818.630673
 30
0.0
 11
1122.30499
 21
818.630673
 31
0.0
  0
LINE
  5
345A
100
AcDbEntity
  8
0
100
AcDbLine
 10
1096.771451
 20
841.429599
 30
0.0
 11
970.207694
 21
845.536483
 31
0.0
  0
LINE
  5
345B
100
AcDbEntity
  8
0
100
AcDbLine
 10
1090.30499
 20
853.630673
 30
0.0
 11
970.30499
 21
853.630673
 31
0.0
  0
LINE
  5
345C
100
AcDbEntity
  8
0
100
AcDbLine
 10
967.30499
 20
850.630673
 30
0.0
 11
967.30499
 21
848.534905
 31
0.0
  0
ARC
  5
345D
100
AcDbEntity
  8
0
100
AcDbCircle
 10
970.30499
 20
848.534905
 30
0.0
 40
3.0
100
AcDbArc
 50
180.0
 51
268.141454
  0
ARC
  5
345E
100
AcDbEntity
  8
0
100
AcDbCircle
 10
970.30499
 20
850.630673
 30
0.0
 40
3.0
100
AcDbArc
 50
90.0
 51
180.0
  0
LINE
  5
345F
100
AcDbEntity
  8
0
100
AcDbLine
 10
1106.891571
 20
837.044092
 30
0.0
 11
1121.474242
 21
822.461421
 31
0.0
  0
ARC
  5
3460
100
AcDbEntity
  8
0
100
AcDbCircle
 10
1107.30499
 20
817.53879
 30
0.0
 40
15.0
100
AcDbArc
 50
0.0
 51
19.158067
  0
LINE
  5
3461
100
AcDbEntity
  8
0
100
AcDbLine
 10
1116.159056
 20
772.130673
 30
0.0
 11
1122.80499
 21
772.130673
 31
0.0
  0
ARC
  5
3462
100
AcDbEntity
  8
0
100
AcDbCircle
 10
1122.80499
 20
776.130673
 30
0.0
 40
4.0
100
AcDbArc
 50
270.0
 51
0.0
  0
LINE
  5
3463
100
AcDbEntity
  8
0
100
AcDbLine
 10
1126.80499
 20
788.630673
 30
0.0
 11
1126.80499
 21
776.130673
 31
0.0
  0
ARC
  5
3464
100
AcDbEntity
  8
0
100
AcDbCircle
 10
1116.159056
 20
770.130673
 30
0.0
 40
2.0
100
AcDbArc
 50
90.0
 51
158.198591
  0
LINE
  5
3465
100
AcDbEntity
  8
0
100
AcDbLine
 10
1122.30499
 20
817.53879
 30
0.0
 11
1122.30499
 21
788.630673
 31
0.0
  0
LINE
  5
3466
100
AcDbEntity
  8
0
100
AcDbLine
 10
1114.30499
 20
851.630673
 30
0.0
 11
1092.30499
 21
851.630673
 31
0.0
  0
LINE
  5
3467
100
AcDbEntity
  8
0
100
AcDbLine
 10
1090.30499
 20
853.630673
 30
0.0
 11
1106.891571
 21
837.044092
 31
0.0
  0
ARC
  5
3468
100
AcDbEntity
  8
0
100
AcDbCircle
 10
1096.28497
 20
826.43749
 30
0.0
 40
15.0
100
AcDbArc
 50
45.0
 51
88.141454
  0
LINE
  5
3469
100
AcDbEntity
  8
0
100
AcDbLine
 10
1193.603577
 20
774.988444
 30
0.0
 11
1194.506403
 21
770.022902
 31
0.0
  0
ARC
  5
346A
100
AcDbEntity
  8
0
100
AcDbCircle
 10
1191.635837
 20
774.630673
 30
0.0
 40
2.0
100
AcDbArc
 50
10.304846
 51
90.0
  0
ARC
  5
346B
100
AcDbEntity
  8
0
100
AcDbCircle
 10
1181.30499
 20
816.94508
 30
0.0
 40
3.0
100
AcDbArc
 50
0.0
 51
58.765664
  0
LINE
  5
346C
100
AcDbEntity
  8
0
100
AcDbLine
 10
1179.80499
 20
788.630673
 30
0.0
 11
1179.80499
 21
780.630673
 31
0.0
  0
ARC
  5
346D
100
AcDbEntity
  8
0
100
AcDbCircle
 10
1183.80499
 20
780.630673
 30
0.0
 40
4.0
100
AcDbArc
 50
180.0
 51
270.0
  0
LINE
  5
346E
100
AcDbEntity
  8
0
100
AcDbLine
 10
1184.30499
 20
816.94508
 30
0.0
 11
1184.30499
 21
788.630673
 31
0.0
  0
LINE
  5
346F
100
AcDbEntity
  8
0
100
AcDbLine
 10
1183.80499
 20
776.630673
 30
0.0
 11
1191.635837
 21
776.630673
 31
0.0
  0
LINE
  5
3470
100
AcDbEntity
  8
0
100
AcDbLine
 10
1769.020922
 20
872.630673
 30
0.0
 11
1629.520922
 21
872.630673
 31
0.0
  0
LINE
  5
3471
100
AcDbEntity
  8
0
100
AcDbLine
 10
1626.020922
 20
869.130673
 30
0.0
 11
1626.020922
 21
866.037357
 31
0.0
  0
ARC
  5
3472
100
AcDbEntity
  8
0
100
AcDbCircle
 10
1629.520922
 20
866.037357
 30
0.0
 40
3.5
100
AcDbArc
 50
180.0
 51
268.451842
  0
ARC
  5
3473
100
AcDbEntity
  8
0
100
AcDbCircle
 10
1629.520922
 20
869.130673
 30
0.0
 40
3.5
100
AcDbArc
 50
90.0
 51
180.0
  0
ARC
  5
3475
100
AcDbEntity
  8
0
100
AcDbCircle
 10
2173.804698
 20
269.195829
 30
0.0
 40
51.0
100
AcDbArc
 50
129.521196
 51
257.544207
  0
ARC
  5
3476
100
AcDbEntity
  8
0
100
AcDbCircle
 10
2173.804698
 20
269.195829
 30
0.0
 40
51.0
100
AcDbArc
 50
282.455793
 51
50.478804
  0
CIRCLE
  5
3477
100
AcDbEntity
  8
0
100
AcDbCircle
 10
2173.804698
 20
269.195829
 30
0.0
 40
35.0
  0
POLYLINE
  5
3478
100
AcDbEntity
  8
0
100
AcDb2dPolyline
 66
     1
 10
0.0
 20
0.0
 30
0.0
 70
     1
  0
VERTEX
  5
41BD
100
AcDbEntity
  8
0
100
AcDbVertex
100
AcDb2dVertex
 10
2138.804698
 20
248.98857
 30
0.0
  0
VERTEX
  5
41BE
100
AcDbEntity
  8
0
100
AcDbVertex
100
AcDb2dVertex
 10
2173.804698
 20
228.78131
 30
0.0
  0
VERTEX
  5
41BF
100
AcDbEntity
  8
0
100
AcDbVertex
100
AcDb2dVertex
 10
2208.804698
 20
248.98857
 30
0.0
  0
VERTEX
  5
41C0
100
AcDbEntity
  8
0
100
AcDbVertex
100
AcDb2dVertex
 10
2208.804698
 20
289.403089
 30
0.0
  0
VERTEX
  5
41C1
100
AcDbEntity
  8
0
100
AcDbVertex
100
AcDb2dVertex
 10
2173.804698
 20
309.610348
 30
0.0
  0
VERTEX
  5
41C2
100
AcDbEntity
  8
0
100
AcDbVertex
100
AcDb2dVertex
 10
2138.804698
 20
289.403089
 30
0.0
  0
SEQEND
  5
41C3
100
AcDbEntity
  8
0
  0
ARC
  5
3479
100
AcDbEntity
  8
0
100
AcDbCircle
 10
1870.430644
 20
269.195829
 30
0.0
 40
45.590278
100
AcDbArc
 50
334.328781
 51
25.671219
  0
ARC
  5
347A
100
AcDbEntity
  8
0
100
AcDbCircle
 10
1851.430644
 20
269.195829
 30
0.0
 40
45.590278
100
AcDbArc
 50
334.328781
 51
25.671219
  0
LINE
  5
347B
100
AcDbEntity
  8
0
100
AcDbLine
 10
1890.020922
 20
288.195829
 30
0.0
 11
1890.020922
 21
250.195829
 31
0.0
  0
LINE
  5
347C
100
AcDbEntity
  8
0
100
AcDbLine
 10
1916.020922
 20
304.195829
 30
0.0
 11
1916.020922
 21
269.195829
 31
0.0
  0
ARC
  5
347D
100
AcDbEntity
  8
0
100
AcDbCircle
 10
1838.6112
 20
269.195829
 30
0.0
 40
45.590278
100
AcDbArc
 50
154.328781
 51
205.671219
  0
ARC
  5
347E
100
AcDbEntity
  8
0
100
AcDbCircle
 10
1821.6112
 20
269.195829
 30
0.0
 40
45.590278
100
AcDbArc
 50
154.328781
 51
205.671219
  0
LINE
  5
347F
100
AcDbEntity
  8
0
100
AcDbLine
 10
1805.020922
 20
320.195829
 30
0.0
 11
1805.020922
 21
218.195829
 31
0.0
  0
LINE
  5
3480
100
AcDbEntity
  8
0
100
AcDbLine
 10
1776.020922
 20
304.195829
 30
0.0
 11
1776.020922
 21
269.195829
 31
0.0
  0
LINE
  5
3481
100
AcDbEntity
  8
0
100
AcDbLine
 10
1799.020922
 20
320.195829
 30
0.0
 11
1799.020922
 21
218.195829
 31
0.0
  0
LINE
  5
3482
100
AcDbEntity
  8
0
100
AcDbLine
 10
2184.804698
 20
218.195829
 30
0.0
 11
2180.304698
 21
208.195829
 31
0.0
  0
LINE
  5
3483
100
AcDbEntity
  8
0
100
AcDbLine
 10
2184.804698
 20
218.195829
 30
0.0
 11
2162.804698
 21
218.195829
 31
0.0
  0
ARC
  5
3484
100
AcDbEntity
  8
0
100
AcDbCircle
 10
2173.804698
 20
269.195829
 30
0.0
 40
46.0
100
AcDbArc
 50
206.678234
 51
333.321766
  0
LINE
  5
3485
100
AcDbEntity
  8
0
100
AcDbLine
 10
1890.020922
 20
223.195829
 30
0.0
 11
1860.020922
 21
223.195829
 31
0.0
  0
LINE
  5
3486
100
AcDbEntity
  8
0
100
AcDbLine
 10
1890.520922
 20
250.195829
 30
0.0
 11
1846.020922
 21
250.195829
 31
0.0
  0
LINE
  5
3488
100
AcDbEntity
  8
0
100
AcDbLine
 10
1835.020922
 20
218.195829
 30
0.0
 11
1799.020922
 21
218.195829
 31
0.0
  0
ARC
  5
3489
100
AcDbEntity
  8
0
100
AcDbCircle
 10
1794.520922
 20
226.695829
 30
0.0
 40
3.0
100
AcDbArc
 50
360.0
 51
90.0
  0
ARC
  5
348A
100
AcDbEntity
  8
0
100
AcDbCircle
 10
1806.105992
 20
239.570829
 30
0.0
 40
13.085069
100
AcDbArc
 50
131.002852
 51
228.997148
  0
LINE
  5
348B
100
AcDbEntity
  8
0
100
AcDbLine
 10
1797.520922
 20
229.695829
 30
0.0
 11
1799.020922
 21
218.195829
 31
0.0
  0
LINE
  5
348C
100
AcDbEntity
  8
0
100
AcDbLine
 10
1776.020922
 20
234.195829
 30
0.0
 11
1780.520922
 21
229.695829
 31
0.0
  0
ARC
  5
348D
100
AcDbEntity
  8
0
100
AcDbCircle
 10
1789.105992
 20
239.570829
 30
0.0
 40
13.085069
100
AcDbArc
 50
131.002852
 51
228.997148
  0
LINE
  5
348E
100
AcDbEntity
  8
0
100
AcDbLine
 10
1776.020922
 20
269.195829
 30
0.0
 11
1776.020922
 21
234.195829
 31
0.0
  0
LINE
  5
348F
100
AcDbEntity
  8
0
100
AcDbLine
 10
1780.520922
 20
249.445829
 30
0.0
 11
1797.520922
 21
249.445829
 31
0.0
  0
LINE
  5
3490
100
AcDbEntity
  8
0
100
AcDbLine
 10
1780.520922
 20
229.695829
 30
0.0
 11
1794.520922
 21
229.695829
 31
0.0
  0
ARC
  5
3491
100
AcDbEntity
  8
0
100
AcDbCircle
 10
1846.020922
 20
242.195829
 30
0.0
 40
8.0
100
AcDbArc
 50
90.0
 51
180.0
  0
LINE
  5
3492
100
AcDbEntity
  8
0
100
AcDbLine
 10
1857.020922
 20
218.195829
 30
0.0
 11
1852.520922
 21
208.195829
 31
0.0
  0
ARC
  5
3493
100
AcDbEntity
  8
0
100
AcDbCircle
 10
1860.020922
 20
220.195829
 30
0.0
 40
3.0
100
AcDbArc
 50
90.0
 51
180.0
  0
LINE
  5
3494
100
AcDbEntity
  8
0
100
AcDbLine
 10
1857.020922
 20
220.195829
 30
0.0
 11
1857.020922
 21
218.195829
 31
0.0
  0
LINE
  5
3495
100
AcDbEntity
  8
0
100
AcDbLine
 10
1852.520922
 20
208.195829
 30
0.0
 11
1839.520922
 21
208.195829
 31
0.0
  0
ARC
  5
3496
100
AcDbEntity
  8
0
100
AcDbCircle
 10
1844.954111
 20
215.635916
 30
0.0
 40
10.257749
100
AcDbArc
 50
132.523905
 51
165.548582
  0
LINE
  5
3497
100
AcDbEntity
  8
0
100
AcDbLine
 10
1857.020922
 20
218.195829
 30
0.0
 11
1835.020922
 21
218.195829
 31
0.0
  0
ARC
  5
3498
100
AcDbEntity
  8
0
100
AcDbCircle
 10
1846.162162
 20
171.641487
 30
0.0
 40
48.303193
100
AcDbArc
 50
77.720451
 51
102.279549
  0
LINE
  5
3499
100
AcDbEntity
  8
0
100
AcDbLine
 10
1835.020922
 20
218.195829
 30
0.0
 11
1839.520922
 21
208.195829
 31
0.0
  0
LINE
  5
349A
100
AcDbEntity
  8
0
100
AcDbLine
 10
1838.020922
 20
242.195829
 30
0.0
 11
1838.020922
 21
223.195829
 31
0.0
  0
LINE
  5
349B
100
AcDbEntity
  8
0
100
AcDbLine
 10
1911.520922
 20
249.445829
 30
0.0
 11
1892.520922
 21
249.445829
 31
0.0
  0
LINE
  5
349C
100
AcDbEntity
  8
0
100
AcDbLine
 10
1911.520922
 20
229.695829
 30
0.0
 11
1895.520922
 21
229.695829
 31
0.0
  0
LINE
  5
349D
100
AcDbEntity
  8
0
100
AcDbLine
 10
1892.520922
 20
226.695829
 30
0.0
 11
1892.520922
 21
225.695829
 31
0.0
  0
ARC
  5
349E
100
AcDbEntity
  8
0
100
AcDbCircle
 10
1895.520922
 20
226.695829
 30
0.0
 40
3.0
100
AcDbArc
 50
90.0
 51
180.0
  0
LINE
  5
349F
100
AcDbEntity
  8
0
100
AcDbLine
 10
1892.520922
 20
248.195829
 30
0.0
 11
1892.520922
 21
226.695829
 31
0.0
  0
ARC
  5
34A0
100
AcDbEntity
  8
0
100
AcDbCircle
 10
1890.520922
 20
248.195829
 30
0.0
 40
2.0
100
AcDbArc
 50
0.0
 51
90.0
  0
ARC
  5
34A1
100
AcDbEntity
  8
0
100
AcDbCircle
 10
1883.935853
 20
239.570829
 30
0.0
 40
13.085069
100
AcDbArc
 50
311.002852
 51
48.997148
  0
LINE
  5
34A2
100
AcDbEntity
  8
0
100
AcDbLine
 10
1916.020922
 20
234.195829
 30
0.0
 11
1911.520922
 21
229.695829
 31
0.0
  0
ARC
  5
34A3
100
AcDbEntity
  8
0
100
AcDbCircle
 10
1902.935853
 20
239.570829
 30
0.0
 40
13.085069
100
AcDbArc
 50
311.002852
 51
48.997148
  0
LINE
  5
34A4
100
AcDbEntity
  8
0
100
AcDbLine
 10
1916.020922
 20
269.195829
 30
0.0
 11
1916.020922
 21
234.195829
 31
0.0
  0
ARC
  5
34A5
100
AcDbEntity
  8
0
100
AcDbCircle
 10
1890.020922
 20
225.695829
 30
0.0
 40
2.5
100
AcDbArc
 50
270.0
 51
0.0
  0
ARC
  5
34A6
100
AcDbEntity
  8
0
100
AcDbCircle
 10
2130.021139
 20
247.195829
 30
0.0
 40
3.0
100
AcDbArc
 50
26.678234
 51
90.0
  0
LINE
  5
34A7
100
AcDbEntity
  8
0
100
AcDbLine
 10
2127.848196
 20
250.195829
 30
0.0
 11
2130.021139
 21
250.195829
 31
0.0
  0
ARC
  5
34A8
100
AcDbEntity
  8
0
100
AcDbCircle
 10
2127.848196
 20
252.195829
 30
0.0
 40
2.0
100
AcDbArc
 50
200.300191
 51
270.0
  0
ARC
  5
34A9
100
AcDbEntity
  8
0
100
AcDbCircle
 10
2157.804698
 20
220.770629
 30
0.0
 40
5.0
100
AcDbArc
 50
0.0
 51
71.71611
  0
LINE
  5
34AA
100
AcDbEntity
  8
0
100
AcDbLine
 10
2162.804698
 20
220.770629
 30
0.0
 11
2162.804698
 21
218.195829
 31
0.0
  0
LINE
  5
34AB
100
AcDbEntity
  8
0
100
AcDbLine
 10
2162.804698
 20
220.195829
 30
0.0
 11
2162.804698
 21
218.195829
 31
0.0
  0
LINE
  5
34AC
100
AcDbEntity
  8
0
100
AcDbLine
 10
2162.804698
 20
218.195829
 30
0.0
 11
2167.304698
 21
208.195829
 31
0.0
  0
LINE
  5
34AD
100
AcDbEntity
  8
0
100
AcDbLine
 10
2180.304698
 20
208.195829
 30
0.0
 11
2167.304698
 21
208.195829
 31
0.0
  0
ARC
  5
34AE
100
AcDbEntity
  8
0
100
AcDbCircle
 10
2219.761199
 20
252.195829
 30
0.0
 40
2.0
100
AcDbArc
 50
270.0
 51
339.699809
  0
LINE
  5
34AF
100
AcDbEntity
  8
0
100
AcDbLine
 10
2219.761199
 20
250.195829
 30
0.0
 11
2217.588256
 21
250.195829
 31
0.0
  0
ARC
  5
34B0
100
AcDbEntity
  8
0
100
AcDbCircle
 10
2189.804698
 20
220.770629
 30
0.0
 40
5.0
100
AcDbArc
 50
108.28389
 51
180.0
  0
LINE
  5
34B1
100
AcDbEntity
  8
0
100
AcDbLine
 10
2184.804698
 20
220.770629
 30
0.0
 11
2184.804698
 21
218.195829
 31
0.0
  0
LINE
  5
34B2
100
AcDbEntity
  8
0
100
AcDbLine
 10
2184.804698
 20
220.195829
 30
0.0
 11
2184.804698
 21
218.195829
 31
0.0
  0
ARC
  5
34B3
100
AcDbEntity
  8
0
100
AcDbCircle
 10
2217.588256
 20
247.195829
 30
0.0
 40
3.0
100
AcDbArc
 50
90.0
 51
153.321766
  0
ARC
  5
34B4
100
AcDbEntity
  8
0
100
AcDbCircle
 10
1850.934225
 20
795.569819
 30
0.0
 40
28.118744
100
AcDbArc
 50
281.279533
 51
340.648641
  0
LINE
  5
34B5
100
AcDbEntity
  8
0
100
AcDbLine
 10
1887.020922
 20
785.630673
 30
0.0
 11
1887.020922
 21
683.630673
 31
0.0
  0
LINE
  5
34B6
100
AcDbEntity
  8
0
100
AcDbLine
 10
1893.020922
 20
785.630673
 30
0.0
 11
1893.020922
 21
683.630673
 31
0.0
  0
ARC
  5
34B7
100
AcDbEntity
  8
0
100
AcDbCircle
 10
1860.427493
 20
817.059206
 30
0.0
 40
55.797548
100
AcDbArc
 50
221.579191
 51
263.406865
  0
ARC
  5
34B8
100
AcDbEntity
  8
0
100
AcDbCircle
 10
1808.105992
 20
764.255673
 30
0.0
 40
13.085069
100
AcDbArc
 50
131.002852
 51
228.997148
  0
LINE
  5
34B9
100
AcDbEntity
  8
0
100
AcDbLine
 10
1799.520922
 20
755.630673
 30
0.0
 11
1799.520922
 21
774.130673
 31
0.0
  0
LINE
  5
34BA
100
AcDbEntity
  8
0
100
AcDbLine
 10
1916.020922
 20
769.630673
 30
0.0
 11
1916.020922
 21
734.630673
 31
0.0
  0
ARC
  5
34BB
100
AcDbEntity
  8
0
100
AcDbCircle
 10
1885.935853
 20
764.255673
 30
0.0
 40
13.085069
100
AcDbArc
 50
311.002852
 51
48.997148
  0
ARC
  5
34BC
100
AcDbEntity
  8
0
100
AcDbCircle
 10
1902.935853
 20
764.255673
 30
0.0
 40
13.085069
100
AcDbArc
 50
311.002852
 51
48.997148
  0
LINE
  5
34BD
100
AcDbEntity
  8
0
100
AcDbLine
 10
1776.020922
 20
769.630673
 30
0.0
 11
1776.020922
 21
734.630673
 31
0.0
  0
ARC
  5
34BE
100
AcDbEntity
  8
0
100
AcDbCircle
 10
1789.105992
 20
764.255673
 30
0.0
 40
13.085069
100
AcDbArc
 50
131.002852
 51
228.997148
  0
LINE
  5
34BF
100
AcDbEntity
  8
0
100
AcDbLine
 10
2142.804698
 20
363.195829
 30
0.0
 11
2204.804698
 21
363.195829
 31
0.0
  0
LINE
  5
34C0
100
AcDbEntity
  8
0
100
AcDbLine
 10
2157.948365
 20
392.945829
 30
0.0
 11
2189.66103
 21
392.945829
 31
0.0
  0
LINE
  5
34C1
100
AcDbEntity
  8
0
100
AcDbLine
 10
2157.948365
 20
407.195829
 30
0.0
 11
2189.66103
 21
407.195829
 31
0.0
  0
ARC
  5
34C2
100
AcDbEntity
  8
0
100
AcDbCircle
 10
2173.804698
 20
269.195829
 30
0.0
 40
46.0
100
AcDbArc
 50
26.678234
 51
153.321766
  0
LINE
  5
34C3
100
AcDbEntity
  8
0
100
AcDbLine
 10
2142.804698
 20
333.195829
 30
0.0
 11
2204.804698
 21
333.195829
 31
0.0
  0
LINE
  5
34C4
100
AcDbEntity
  8
0
100
AcDbLine
 10
2066.020922
 20
530.471676
 30
0.0
 11
2066.020922
 21
546.186831
 31
0.0
  0
LINE
  5
34C5
100
AcDbEntity
  8
0
100
AcDbLine
 10
1921.020922
 20
527.870897
 30
0.0
 11
1921.020922
 21
548.78761
 31
0.0
  0
LINE
  5
34C6
100
AcDbEntity
  8
0
100
AcDbLine
 10
1923.020922
 20
527.835603
 30
0.0
 11
1923.020922
 21
548.822904
 31
0.0
  0
LINE
  5
34C7
100
AcDbEntity
  8
0
100
AcDbLine
 10
1896.520922
 20
548.011515
 30
0.0
 11
1896.520922
 21
528.646992
 31
0.0
  0
CIRCLE
  5
34C8
100
AcDbEntity
  8
0
100
AcDbCircle
 10
1846.020922
 20
538.329254
 30
0.0
 40
6.75
  0
CIRCLE
  5
34C9
100
AcDbEntity
  8
0
100
AcDbCircle
 10
1846.020922
 20
538.329254
 30
0.0
 40
9.75
  0
LINE
  5
34CA
100
AcDbEntity
  8
0
100
AcDbLine
 10
1776.020922
 20
538.329254
 30
0.0
 11
1776.020922
 21
504.12125
 31
0.0
  0
ARC
  5
34CB
100
AcDbEntity
  8
0
100
AcDbCircle
 10
1826.278735
 20
521.225252
 30
0.0
 40
50.257813
100
AcDbArc
 50
160.10331
 51
199.89669
  0
ARC
  5
34CC
100
AcDbEntity
  8
0
100
AcDbCircle
 10
1846.778735
 20
521.225252
 30
0.0
 40
50.257813
100
AcDbArc
 50
160.10331
 51
199.89669
  0
LINE
  5
34CD
100
AcDbEntity
  8
0
100
AcDbLine
 10
1892.868675
 20
580.222993
 30
0.0
 11
1892.868675
 21
551.329254
 31
0.0
  0
ARC
  5
34CE
100
AcDbEntity
  8
0
100
AcDbCircle
 10
1846.020922
 20
538.329254
 30
0.0
 40
31.0
100
AcDbArc
 50
24.793862
 51
335.206138
  0
LINE
  5
34CF
100
AcDbEntity
  8
0
100
AcDbLine
 10
1923.020922
 20
407.195829
 30
0.0
 11
2062.520922
 21
407.195829
 31
0.0
  0
LINE
  5
34D0
100
AcDbEntity
  8
0
100
AcDbLine
 10
2062.615482
 20
397.10379
 30
0.0
 11
1908.770922
 21
392.945829
 31
0.0
  0
LINE
  5
34D1
100
AcDbEntity
  8
0
100
AcDbLine
 10
2057.879768
 20
522.472921
 30
0.0
 11
1896.520922
 21
525.329254
 31
0.0
  0
LINE
  5
34D2
100
AcDbEntity
  8
0
100
AcDbLine
 10
1878.485388
 20
362.660295
 30
0.0
 11
1923.020922
 21
407.195829
 31
0.0
  0
ARC
  5
34D3
100
AcDbEntity
  8
0
100
AcDbCircle
 10
2093.962881
 20
-75.656519
 30
0.0
 40
520.0
100
AcDbArc
 50
112.374423
 51
122.258289
  0
ARC
  5
34D4
100
AcDbEntity
  8
0
100
AcDbCircle
 10
1882.020922
 20
359.124761
 30
0.0
 40
5.0
100
AcDbArc
 50
135.0
 51
180.0
  0
ARC
  5
34D5
100
AcDbEntity
  8
0
100
AcDbCircle
 10
1881.020922
 20
319.195829
 30
0.0
 40
4.0
100
AcDbArc
 50
180.0
 51
270.0
  0
LINE
  5
34D6
100
AcDbEntity
  8
0
100
AcDbLine
 10
1815.020922
 20
333.195829
 30
0.0
 11
1877.020922
 21
333.195829
 31
0.0
  0
LINE
  5
34D7
100
AcDbEntity
  8
0
100
AcDbLine
 10
1890.520954
 20
288.195829
 30
0.0
 11
1846.020922
 21
288.195829
 31
0.0
  0
LINE
  5
34D8
100
AcDbEntity
  8
0
100
AcDbLine
 10
1815.020922
 20
361.544848
 30
0.0
 11
1815.020922
 21
333.195829
 31
0.0
  0
ARC
  5
34D9
100
AcDbEntity
  8
0
100
AcDbCircle
 10
1841.107619
 20
330.134975
 30
0.0
 40
28.118744
100
AcDbArc
 50
199.351359
 51
258.720467
  0
LINE
  5
34DA
100
AcDbEntity
  8
0
100
AcDbLine
 10
1872.520922
 20
333.195829
 30
0.0
 11
1819.520922
 21
333.195829
 31
0.0
  0
LINE
  5
34DB
100
AcDbEntity
  8
0
100
AcDbLine
 10
1876.020922
 20
333.195829
 30
0.0
 11
1816.020922
 21
333.195829
 31
0.0
  0
LINE
  5
34DC
100
AcDbEntity
  8
0
100
AcDbLine
 10
1811.020922
 20
320.195829
 30
0.0
 11
1799.020922
 21
320.195829
 31
0.0
  0
LINE
  5
34DD
100
AcDbEntity
  8
0
100
AcDbLine
 10
1799.020922
 20
320.195829
 30
0.0
 11
1797.748051
 21
310.437151
 31
0.0
  0
ARC
  5
34DE
100
AcDbEntity
  8
0
100
AcDbCircle
 10
1795.76485
 20
310.695829
 30
0.0
 40
2.0
100
AcDbArc
 50
270.0
 51
352.568592
  0
ARC
  5
34DF
100
AcDbEntity
  8
0
100
AcDbCircle
 10
1811.020922
 20
324.195829
 30
0.0
 40
4.0
100
AcDbArc
 50
270.0
 51
0.0
  0
LINE
  5
34E0
100
AcDbEntity
  8
0
100
AcDbLine
 10
1815.020922
 20
333.195829
 30
0.0
 11
1815.020922
 21
324.195829
 31
0.0
  0
LINE
  5
34E1
100
AcDbEntity
  8
0
100
AcDbLine
 10
1776.020922
 20
304.195829
 30
0.0
 11
1780.520922
 21
308.695829
 31
0.0
  0
LINE
  5
34E2
100
AcDbEntity
  8
0
100
AcDbLine
 10
1780.520922
 20
308.695829
 30
0.0
 11
1795.76485
 21
308.695829
 31
0.0
  0
LINE
  5
34E3
100
AcDbEntity
  8
0
100
AcDbLine
 10
1780.520922
 20
288.945829
 30
0.0
 11
1797.520922
 21
288.945829
 31
0.0
  0
ARC
  5
34E4
100
AcDbEntity
  8
0
100
AcDbCircle
 10
1806.105992
 20
298.820829
 30
0.0
 40
13.085069
100
AcDbArc
 50
131.002852
 51
228.997148
  0
ARC
  5
34E5
100
AcDbEntity
  8
0
100
AcDbCircle
 10
1789.105992
 20
298.820829
 30
0.0
 40
13.085069
100
AcDbArc
 50
131.002852
 51
228.997148
  0
LINE
  5
34E6
100
AcDbEntity
  8
0
100
AcDbLine
 10
1838.020922
 20
299.617303
 30
0.0
 11
1838.020922
 21
296.195829
 31
0.0
  0
ARC
  5
34E7
100
AcDbEntity
  8
0
100
AcDbCircle
 10
1835.020922
 20
299.617303
 30
0.0
 40
3.0
100
AcDbArc
 50
0.0
 51
78.720467
  0
ARC
  5
34E8
100
AcDbEntity
  8
0
100
AcDbCircle
 10
1846.020922
 20
296.195829
 30
0.0
 40
8.0
100
AcDbArc
 50
180.0
 51
270.0
  0
ARC
  5
34E9
100
AcDbEntity
  8
0
100
AcDbCircle
 10
1831.614352
 20
351.624362
 30
0.0
 40
55.797548
100
AcDbArc
 50
276.593135
 51
318.420809
  0
LINE
  5
34EA
100
AcDbEntity
  8
0
100
AcDbLine
 10
1821.118448
 20
363.195829
 30
0.0
 11
1870.923397
 21
363.195829
 31
0.0
  0
ARC
  5
34EB
100
AcDbEntity
  8
0
100
AcDbCircle
 10
1818.020922
 20
361.544848
 30
0.0
 40
3.0
100
AcDbArc
 50
122.258289
 51
180.0
  0
LINE
  5
34EC
100
AcDbEntity
  8
0
100
AcDbLine
 10
1877.020922
 20
359.124761
 30
0.0
 11
1877.020922
 21
333.195829
 31
0.0
  0
LINE
  5
34ED
100
AcDbEntity
  8
0
100
AcDbLine
 10
1911.520922
 20
308.695829
 30
0.0
 11
1895.520922
 21
308.695829
 31
0.0
  0
ARC
  5
34EE
100
AcDbEntity
  8
0
100
AcDbCircle
 10
1890.020922
 20
312.695829
 30
0.0
 40
2.5
100
AcDbArc
 50
0.0
 51
90.0
  0
LINE
  5
34EF
100
AcDbEntity
  8
0
100
AcDbLine
 10
1892.520922
 20
312.695829
 30
0.0
 11
1892.520922
 21
311.695829
 31
0.0
  0
ARC
  5
34F0
100
AcDbEntity
  8
0
100
AcDbCircle
 10
1895.520922
 20
311.695829
 30
0.0
 40
3.0
100
AcDbArc
 50
180.0
 51
270.0
  0
LINE
  5
34F1
100
AcDbEntity
  8
0
100
AcDbLine
 10
1916.020922
 20
304.195829
 30
0.0
 11
1911.520922
 21
308.695829
 31
0.0
  0
LINE
  5
34F2
100
AcDbEntity
  8
0
100
AcDbLine
 10
1911.520922
 20
288.945829
 30
0.0
 11
1892.520922
 21
288.945829
 31
0.0
  0
ARC
  5
34F3
100
AcDbEntity
  8
0
100
AcDbCircle
 10
1890.520922
 20
290.195829
 30
0.0
 40
2.0
100
AcDbArc
 50
270.0
 51
0.0
  0
ARC
  5
34F4
100
AcDbEntity
  8
0
100
AcDbCircle
 10
1902.935853
 20
298.820829
 30
0.0
 40
13.085069
100
AcDbArc
 50
311.002852
 51
48.997148
  0
ARC
  5
34F5
100
AcDbEntity
  8
0
100
AcDbCircle
 10
1883.935853
 20
298.820829
 30
0.0
 40
13.085069
100
AcDbArc
 50
311.002852
 51
48.997148
  0
LINE
  5
34F6
100
AcDbEntity
  8
0
100
AcDbLine
 10
1892.520922
 20
290.195829
 30
0.0
 11
1892.520922
 21
308.695829
 31
0.0
  0
LINE
  5
34F7
100
AcDbEntity
  8
0
100
AcDbLine
 10
1877.020922
 20
333.195829
 30
0.0
 11
1877.020922
 21
319.195829
 31
0.0
  0
LINE
  5
34F8
100
AcDbEntity
  8
0
100
AcDbLine
 10
1890.02096
 20
315.195829
 30
0.0
 11
1881.020922
 21
315.195829
 31
0.0
  0
LINE
  5
34F9
100
AcDbEntity
  8
0
100
AcDbLine
 10
1817.878428
 20
525.329254
 30
0.0
 11
1896.520922
 21
525.329254
 31
0.0
  0
LINE
  5
34FA
100
AcDbEntity
  8
0
100
AcDbLine
 10
1804.1942
 20
590.329254
 30
0.0
 11
1890.695397
 21
590.329254
 31
0.0
  0
LINE
  5
34FB
100
AcDbEntity
  8
0
100
AcDbLine
 10
1848.868675
 20
584.329254
 30
0.0
 11
1890.843129
 21
584.329254
 31
0.0
  0
LINE
  5
34FC
100
AcDbEntity
  8
0
100
AcDbLine
 10
1801.600827
 20
494.310757
 30
0.0
 11
1799.520922
 21
504.12125
 31
0.0
  0
LINE
  5
34FD
100
AcDbEntity
  8
0
100
AcDbLine
 10
1776.020922
 20
504.12125
 30
0.0
 11
1799.520922
 21
504.12125
 31
0.0
  0
ARC
  5
34FE
100
AcDbEntity
  8
0
100
AcDbCircle
 10
1890.695397
 20
587.829254
 30
0.0
 40
2.5
100
AcDbArc
 50
7.998415
 51
90.0
  0
LINE
  5
34FF
100
AcDbEntity
  8
0
100
AcDbLine
 10
1801.71852
 20
488.481389
 30
0.0
 11
1799.520922
 21
504.12125
 31
0.0
  0
ARC
  5
3500
100
AcDbEntity
  8
0
100
AcDbCircle
 10
1890.843129
 20
581.829254
 30
0.0
 40
2.5
100
AcDbArc
 50
11.969936
 51
90.0
  0
LINE
  5
3501
100
AcDbEntity
  8
0
100
AcDbLine
 10
1841.868675
 20
582.329254
 30
0.0
 11
1841.868675
 21
569.049912
 31
0.0
  0
ARC
  5
3502
100
AcDbEntity
  8
0
100
AcDbCircle
 10
1849.868675
 20
576.329254
 30
0.0
 40
8.0
100
AcDbArc
 50
90.0
 51
180.0
  0
ARC
  5
3503
100
AcDbEntity
  8
0
100
AcDbCircle
 10
1849.868675
 20
582.329254
 30
0.0
 40
8.0
100
AcDbArc
 50
90.0
 51
180.0
  0
LINE
  5
3504
100
AcDbEntity
  8
0
100
AcDbLine
 10
1896.020922
 20
405.195829
 30
0.0
 11
1921.020922
 21
405.195829
 31
0.0
  0
ARC
  5
3505
100
AcDbEntity
  8
0
100
AcDbCircle
 10
1922.020922
 20
527.870897
 30
0.0
 40
1.0
100
AcDbArc
 50
180.0
 51
268.989003
  0
ARC
  5
3506
100
AcDbEntity
  8
0
100
AcDbCircle
 10
1924.020922
 20
527.835603
 30
0.0
 40
1.0
100
AcDbArc
 50
180.0
 51
268.989003
  0
LINE
  5
3507
100
AcDbEntity
  8
0
100
AcDbLine
 10
1916.020922
 20
504.12125
 30
0.0
 11
1897.406272
 21
504.12125
 31
0.0
  0
ARC
  5
3508
100
AcDbEntity
  8
0
100
AcDbCircle
 10
1804.1942
 20
587.829254
 30
0.0
 40
2.5
100
AcDbArc
 50
90.0
 51
172.568592
  0
LINE
  5
3509
100
AcDbEntity
  8
0
100
AcDbLine
 10
1894.927271
 20
501.944598
 30
0.0
 11
1893.174399
 21
488.505906
 31
0.0
  0
ARC
  5
350A
100
AcDbEntity
  8
0
100
AcDbCircle
 10
1897.406272
 20
501.62125
 30
0.0
 40
2.5
100
AcDbArc
 50
90.0
 51
172.568592
  0
ARC
  5
350B
100
AcDbEntity
  8
0
100
AcDbCircle
 10
1847.26311
 20
521.225252
 30
0.0
 40
50.257813
100
AcDbArc
 50
340.10331
 51
4.667056
  0
LINE
  5
350C
100
AcDbEntity
  8
0
100
AcDbLine
 10
1807.868675
 20
486.829254
 30
0.0
 11
1807.868675
 21
589.829254
 31
0.0
  0
LINE
  5
350D
100
AcDbEntity
  8
0
100
AcDbLine
 10
1801.868675
 20
489.035424
 30
0.0
 11
1801.868675
 21
587.623083
 31
0.0
  0
ARC
  5
350E
100
AcDbEntity
  8
0
100
AcDbCircle
 10
1865.76311
 20
521.225252
 30
0.0
 40
50.257813
100
AcDbArc
 50
340.10331
 51
4.29205
  0
LINE
  5
350F
100
AcDbEntity
  8
0
100
AcDbLine
 10
1916.020922
 20
524.98407
 30
0.0
 11
1916.020922
 21
504.12125
 31
0.0
  0
LINE
  5
3510
100
AcDbEntity
  8
0
100
AcDbLine
 10
2157.948365
 20
407.195829
 30
0.0
 11
2157.948365
 21
392.945829
 31
0.0
  0
LINE
  5
3511
100
AcDbEntity
  8
0
100
AcDbLine
 10
2066.020922
 20
403.695829
 30
0.0
 11
2066.020922
 21
400.602513
 31
0.0
  0
ARC
  5
3512
100
AcDbEntity
  8
0
100
AcDbCircle
 10
2062.520922
 20
400.602513
 30
0.0
 40
3.5
100
AcDbArc
 50
271.548158
 51
0.0
  0
LINE
  5
3513
100
AcDbEntity
  8
0
100
AcDbLine
 10
2142.804698
 20
363.195829
 30
0.0
 11
2142.804698
 21
333.195829
 31
0.0
  0
ARC
  5
3514
100
AcDbEntity
  8
0
100
AcDbCircle
 10
2130.021139
 20
291.195829
 30
0.0
 40
3.0
100
AcDbArc
 50
270.0
 51
333.321766
  0
LINE
  5
3515
100
AcDbEntity
  8
0
100
AcDbLine
 10
2127.848196
 20
288.195829
 30
0.0
 11
2130.021139
 21
288.195829
 31
0.0
  0
ARC
  5
3516
100
AcDbEntity
  8
0
100
AcDbCircle
 10
2127.848196
 20
286.195829
 30
0.0
 40
2.0
100
AcDbArc
 50
90.0
 51
159.699809
  0
ARC
  5
3517
100
AcDbEntity
  8
0
100
AcDbCircle
 10
2138.804698
 20
311.622236
 30
0.0
 40
4.0
100
AcDbArc
 50
309.521196
 51
0.0
  0
ARC
  5
3518
100
AcDbEntity
  8
0
100
AcDbCircle
 10
2138.804698
 20
304.902971
 30
0.0
 40
4.0
100
AcDbArc
 50
314.427004
 51
0.0
  0
LINE
  5
3519
100
AcDbEntity
  8
0
100
AcDbLine
 10
2142.804698
 20
333.195829
 30
0.0
 11
2142.804698
 21
304.902971
 31
0.0
  0
LINE
  5
351A
100
AcDbEntity
  8
0
100
AcDbLine
 10
2142.804698
 20
333.195829
 30
0.0
 11
2142.804698
 21
324.195829
 31
0.0
  0
LINE
  5
351B
100
AcDbEntity
  8
0
100
AcDbLine
 10
2159.804698
 20
363.195829
 30
0.0
 11
2159.804698
 21
392.945829
 31
0.0
  0
ARC
  5
351C
100
AcDbEntity
  8
0
100
AcDbCircle
 10
2062.520922
 20
403.695829
 30
0.0
 40
3.5
100
AcDbArc
 50
0.0
 51
90.0
  0
ARC
  5
351D
100
AcDbEntity
  8
0
100
AcDbCircle
 10
2058.020922
 20
530.471676
 30
0.0
 40
8.0
100
AcDbArc
 50
268.989003
 51
0.0
  0
LINE
  5
351E
100
AcDbEntity
  8
0
100
AcDbLine
 10
2057.879768
 20
554.185586
 30
0.0
 11
1896.520922
 21
551.329254
 31
0.0
  0
LINE
  5
351F
100
AcDbEntity
  8
0
100
AcDbLine
 10
1817.878428
 20
551.329254
 30
0.0
 11
1896.520922
 21
551.329254
 31
0.0
  0
LINE
  5
3520
100
AcDbEntity
  8
0
100
AcDbLine
 10
1804.1942
 20
486.329254
 30
0.0
 11
1890.695397
 21
486.329254
 31
0.0
  0
LINE
  5
3521
100
AcDbEntity
  8
0
100
AcDbLine
 10
1849.868675
 20
492.329254
 30
0.0
 11
1890.843129
 21
492.329254
 31
0.0
  0
ARC
  5
3522
100
AcDbEntity
  8
0
100
AcDbCircle
 10
1890.695397
 20
488.829254
 30
0.0
 40
2.5
100
AcDbArc
 50
270.0
 51
352.001585
  0
LINE
  5
3523
100
AcDbEntity
  8
0
100
AcDbLine
 10
1801.600827
 20
582.34775
 30
0.0
 11
1799.520922
 21
572.537257
 31
0.0
  0
LINE
  5
3524
100
AcDbEntity
  8
0
100
AcDbLine
 10
1776.020922
 20
572.537257
 30
0.0
 11
1799.520922
 21
572.537257
 31
0.0
  0
LINE
  5
3525
100
AcDbEntity
  8
0
100
AcDbLine
 10
1799.520922
 20
538.329254
 30
0.0
 11
1779.020922
 21
538.329254
 31
0.0
  0
ARC
  5
3526
100
AcDbEntity
  8
0
100
AcDbCircle
 10
1826.278735
 20
555.433255
 30
0.0
 40
50.257813
100
AcDbArc
 50
160.10331
 51
199.89669
  0
LINE
  5
3527
100
AcDbEntity
  8
0
100
AcDbLine
 10
1776.020922
 20
538.329254
 30
0.0
 11
1776.020922
 21
572.537257
 31
0.0
  0
ARC
  5
3528
100
AcDbEntity
  8
0
100
AcDbCircle
 10
1846.778735
 20
555.433255
 30
0.0
 40
50.257813
100
AcDbArc
 50
160.10331
 51
199.89669
  0
LINE
  5
3529
100
AcDbEntity
  8
0
100
AcDbLine
 10
1801.71852
 20
588.177118
 30
0.0
 11
1799.520922
 21
572.537257
 31
0.0
  0
ARC
  5
352A
100
AcDbEntity
  8
0
100
AcDbCircle
 10
1890.843129
 20
494.829254
 30
0.0
 40
2.5
100
AcDbArc
 50
270.0
 51
348.030064
  0
LINE
  5
352B
100
AcDbEntity
  8
0
100
AcDbLine
 10
1841.868675
 20
507.608595
 30
0.0
 11
1841.868675
 21
494.329254
 31
0.0
  0
ARC
  5
352C
100
AcDbEntity
  8
0
100
AcDbCircle
 10
1849.868675
 20
500.329254
 30
0.0
 40
8.0
100
AcDbArc
 50
180.0
 51
270.0
  0
ARC
  5
352D
100
AcDbEntity
  8
0
100
AcDbCircle
 10
1849.868675
 20
494.329254
 30
0.0
 40
8.0
100
AcDbArc
 50
180.0
 51
270.0
  0
ARC
  5
352E
100
AcDbEntity
  8
0
100
AcDbCircle
 10
1804.1942
 20
488.829254
 30
0.0
 40
2.5
100
AcDbArc
 50
187.431408
 51
270.0
  0
LINE
  5
352F
100
AcDbEntity
  8
0
100
AcDbLine
 10
1916.020922
 20
572.537257
 30
0.0
 11
1897.406272
 21
572.537257
 31
0.0
  0
ARC
  5
3530
100
AcDbEntity
  8
0
100
AcDbCircle
 10
1922.020922
 20
548.78761
 30
0.0
 40
1.0
100
AcDbArc
 50
91.010997
 51
180.0
  0
ARC
  5
3531
100
AcDbEntity
  8
0
100
AcDbCircle
 10
1924.020922
 20
548.822904
 30
0.0
 40
1.0
100
AcDbArc
 50
91.010997
 51
180.0
  0
ARC
  5
3532
100
AcDbEntity
  8
0
100
AcDbCircle
 10
1865.76311
 20
555.433255
 30
0.0
 40
50.257813
100
AcDbArc
 50
355.70795
 51
19.89669
  0
LINE
  5
3533
100
AcDbEntity
  8
0
100
AcDbLine
 10
1916.020922
 20
551.674437
 30
0.0
 11
1916.020922
 21
572.537257
 31
0.0
  0
ARC
  5
3534
100
AcDbEntity
  8
0
100
AcDbCircle
 10
1897.406272
 20
575.037257
 30
0.0
 40
2.5
100
AcDbArc
 50
187.431408
 51
270.0
  0
ARC
  5
3535
100
AcDbEntity
  8
0
100
AcDbCircle
 10
1847.26311
 20
555.433255
 30
0.0
 40
50.257813
100
AcDbArc
 50
355.332944
 51
19.89669
  0
LINE
  5
3536
100
AcDbEntity
  8
0
100
AcDbLine
 10
1893.174399
 20
588.152601
 30
0.0
 11
1894.927271
 21
574.713909
 31
0.0
  0
LINE
  5
3539
100
AcDbEntity
  8
0
100
AcDbLine
 10
1857.020922
 20
683.630673
 30
0.0
 11
1893.020922
 21
683.630673
 31
0.0
  0
ARC
  5
353A
100
AcDbEntity
  8
0
100
AcDbCircle
 10
1808.105992
 20
705.005673
 30
0.0
 40
13.085069
100
AcDbArc
 50
131.002852
 51
228.997148
  0
LINE
  5
353B
100
AcDbEntity
  8
0
100
AcDbLine
 10
1799.520922
 20
713.630673
 30
0.0
 11
1799.520922
 21
692.130673
 31
0.0
  0
LINE
  5
353C
100
AcDbEntity
  8
0
100
AcDbLine
 10
1854.020922
 20
707.630673
 30
0.0
 11
1854.020922
 21
688.630673
 31
0.0
  0
LINE
  5
353D
100
AcDbEntity
  8
0
100
AcDbLine
 10
1776.020922
 20
734.630673
 30
0.0
 11
1776.020922
 21
699.630673
 31
0.0
  0
ARC
  5
353E
100
AcDbEntity
  8
0
100
AcDbCircle
 10
1789.105992
 20
705.005673
 30
0.0
 40
13.085069
100
AcDbArc
 50
131.002852
 51
228.997148
  0
LINE
  5
353F
100
AcDbEntity
  8
0
100
AcDbLine
 10
1802.020922
 20
688.630673
 30
0.0
 11
1832.020922
 21
688.630673
 31
0.0
  0
LINE
  5
3540
100
AcDbEntity
  8
0
100
AcDbLine
 10
1780.520922
 20
695.130673
 30
0.0
 11
1796.520922
 21
695.130673
 31
0.0
  0
ARC
  5
3541
100
AcDbEntity
  8
0
100
AcDbCircle
 10
1796.520922
 20
692.130673
 30
0.0
 40
3.0
100
AcDbArc
 50
360.0
 51
90.0
  0
ARC
  5
3542
100
AcDbEntity
  8
0
100
AcDbCircle
 10
1802.020922
 20
691.130673
 30
0.0
 40
2.5
100
AcDbArc
 50
180.0
 51
270.0
  0
LINE
  5
3543
100
AcDbEntity
  8
0
100
AcDbLine
 10
1799.520922
 20
692.130673
 30
0.0
 11
1799.520922
 21
691.130673
 31
0.0
  0
LINE
  5
3544
100
AcDbEntity
  8
0
100
AcDbLine
 10
1776.020922
 20
699.630673
 30
0.0
 11
1780.520922
 21
695.130673
 31
0.0
  0
ARC
  5
3545
100
AcDbEntity
  8
0
100
AcDbCircle
 10
1847.087733
 20
681.07076
 30
0.0
 40
10.257749
100
AcDbArc
 50
14.451418
 51
47.476095
  0
LINE
  5
3546
100
AcDbEntity
  8
0
100
AcDbLine
 10
1857.020922
 20
683.630673
 30
0.0
 11
1852.520922
 21
673.630673
 31
0.0
  0
ARC
  5
3547
100
AcDbEntity
  8
0
100
AcDbCircle
 10
1832.020922
 20
685.630673
 30
0.0
 40
3.0
100
AcDbArc
 50
0.0
 51
90.0
  0
LINE
  5
3548
100
AcDbEntity
  8
0
100
AcDbLine
 10
1835.020922
 20
685.630673
 30
0.0
 11
1835.020922
 21
683.630673
 31
0.0
  0
LINE
  5
3549
100
AcDbEntity
  8
0
100
AcDbLine
 10
1835.020922
 20
683.630673
 30
0.0
 11
1839.520922
 21
673.630673
 31
0.0
  0
LINE
  5
354A
100
AcDbEntity
  8
0
100
AcDbLine
 10
1839.520922
 20
673.630673
 30
0.0
 11
1852.520922
 21
673.630673
 31
0.0
  0
LINE
  5
354B
100
AcDbEntity
  8
0
100
AcDbLine
 10
1835.020922
 20
683.630673
 30
0.0
 11
1857.020922
 21
683.630673
 31
0.0
  0
ARC
  5
354C
100
AcDbEntity
  8
0
100
AcDbCircle
 10
1845.879682
 20
637.076331
 30
0.0
 40
48.303193
100
AcDbArc
 50
77.720451
 51
102.279549
  0
LINE
  5
354D
100
AcDbEntity
  8
0
100
AcDbLine
 10
1801.52089
 20
753.630673
 30
0.0
 11
1846.020922
 21
753.630673
 31
0.0
  0
LINE
  5
354E
100
AcDbEntity
  8
0
100
AcDbLine
 10
1801.520922
 20
715.630673
 30
0.0
 11
1846.020922
 21
715.630673
 31
0.0
  0
LINE
  5
354F
100
AcDbEntity
  8
0
100
AcDbLine
 10
1780.520922
 20
754.380673
 30
0.0
 11
1799.520922
 21
754.380673
 31
0.0
  0
ARC
  5
3550
100
AcDbEntity
  8
0
100
AcDbCircle
 10
1801.520922
 20
755.630673
 30
0.0
 40
2.0
100
AcDbArc
 50
180.0
 51
270.0
  0
LINE
  5
3551
100
AcDbEntity
  8
0
100
AcDbLine
 10
1780.520922
 20
714.880673
 30
0.0
 11
1799.520922
 21
714.880673
 31
0.0
  0
ARC
  5
3552
100
AcDbEntity
  8
0
100
AcDbCircle
 10
1801.520922
 20
713.630673
 30
0.0
 40
2.0
100
AcDbArc
 50
90.0
 51
180.0
  0
ARC
  5
3553
100
AcDbEntity
  8
0
100
AcDbCircle
 10
1840.6112
 20
734.630673
 30
0.0
 40
45.590278
100
AcDbArc
 50
154.328781
 51
205.671219
  0
LINE
  5
3554
100
AcDbEntity
  8
0
100
AcDbLine
 10
1802.020922
 20
753.630673
 30
0.0
 11
1802.020922
 21
715.630673
 31
0.0
  0
ARC
  5
3555
100
AcDbEntity
  8
0
100
AcDbCircle
 10
1821.6112
 20
734.630673
 30
0.0
 40
45.590278
100
AcDbArc
 50
154.328781
 51
205.671219
  0
ARC
  5
3556
100
AcDbEntity
  8
0
100
AcDbCircle
 10
1857.020922
 20
765.052147
 30
0.0
 40
3.0
100
AcDbArc
 50
101.279533
 51
180.0
  0
LINE
  5
3557
100
AcDbEntity
  8
0
100
AcDbLine
 10
1854.020922
 20
765.052147
 30
0.0
 11
1854.020922
 21
761.630673
 31
0.0
  0
ARC
  5
3558
100
AcDbEntity
  8
0
100
AcDbCircle
 10
1846.020922
 20
707.630673
 30
0.0
 40
8.0
100
AcDbArc
 50
360.0
 51
90.0
  0
ARC
  5
3559
100
AcDbEntity
  8
0
100
AcDbCircle
 10
1846.020922
 20
761.630673
 30
0.0
 40
8.0
100
AcDbArc
 50
270.0
 51
0.0
  0
ARC
  5
355A
100
AcDbEntity
  8
0
100
AcDbCircle
 10
1902.935853
 20
705.005673
 30
0.0
 40
13.085069
100
AcDbArc
 50
311.002852
 51
48.997148
  0
ARC
  5
355B
100
AcDbEntity
  8
0
100
AcDbCircle
 10
1885.935853
 20
705.005673
 30
0.0
 40
13.085069
100
AcDbArc
 50
311.002852
 51
48.997148
  0
LINE
  5
355C
100
AcDbEntity
  8
0
100
AcDbLine
 10
1916.020922
 20
734.630673
 30
0.0
 11
1916.020922
 21
699.630673
 31
0.0
  0
LINE
  5
355D
100
AcDbEntity
  8
0
100
AcDbLine
 10
1916.020922
 20
699.630673
 30
0.0
 11
1911.520922
 21
695.130673
 31
0.0
  0
ARC
  5
355E
100
AcDbEntity
  8
0
100
AcDbCircle
 10
1897.520922
 20
692.130673
 30
0.0
 40
3.0
100
AcDbArc
 50
90.0
 51
180.0
  0
LINE
  5
355F
100
AcDbEntity
  8
0
100
AcDbLine
 10
1911.520922
 20
695.130673
 30
0.0
 11
1897.520922
 21
695.130673
 31
0.0
  0
LINE
  5
3560
100
AcDbEntity
  8
0
100
AcDbLine
 10
1894.520922
 20
695.130673
 30
0.0
 11
1893.020922
 21
683.630673
 31
0.0
  0
LINE
  5
3561
100
AcDbEntity
  8
0
100
AcDbLine
 10
1911.520922
 20
754.380673
 30
0.0
 11
1894.520922
 21
754.380673
 31
0.0
  0
LINE
  5
3562
100
AcDbEntity
  8
0
100
AcDbLine
 10
1911.520922
 20
714.880673
 30
0.0
 11
1894.520922
 21
714.880673
 31
0.0
  0
ARC
  5
3563
100
AcDbEntity
  8
0
100
AcDbCircle
 10
1870.430644
 20
734.630673
 30
0.0
 40
45.590278
100
AcDbArc
 50
334.328781
 51
25.671219
  0
ARC
  5
3564
100
AcDbEntity
  8
0
100
AcDbCircle
 10
1853.430644
 20
734.630673
 30
0.0
 40
45.590278
100
AcDbArc
 50
334.328781
 51
25.671219
  0
ARC
  5
3565
100
AcDbEntity
  8
0
100
AcDbCircle
 10
2058.020922
 20
546.186831
 30
0.0
 40
8.0
100
AcDbArc
 50
0.0
 51
91.010997
  0
LINE
  5
3566
100
AcDbEntity
  8
0
100
AcDbLine
 10
2189.66103
 20
407.195829
 30
0.0
 11
2189.66103
 21
392.945829
 31
0.0
  0
LINE
  5
3567
100
AcDbEntity
  8
0
100
AcDbLine
 10
2204.804698
 20
363.195829
 30
0.0
 11
2204.804698
 21
333.195829
 31
0.0
  0
ARC
  5
3568
100
AcDbEntity
  8
0
100
AcDbCircle
 10
2208.804698
 20
311.622236
 30
0.0
 40
4.0
100
AcDbArc
 50
180.0
 51
230.478804
  0
ARC
  5
3569
100
AcDbEntity
  8
0
100
AcDbCircle
 10
2219.761199
 20
286.195829
 30
0.0
 40
2.0
100
AcDbArc
 50
20.300191
 51
90.0
  0
ARC
  5
356A
100
AcDbEntity
  8
0
100
AcDbCircle
 10
2208.804698
 20
304.902971
 30
0.0
 40
4.0
100
AcDbArc
 50
180.0
 51
225.572996
  0
ARC
  5
356B
100
AcDbEntity
  8
0
100
AcDbCircle
 10
2217.588256
 20
291.195829
 30
0.0
 40
3.0
100
AcDbArc
 50
206.678234
 51
270.0
  0
LINE
  5
356C
100
AcDbEntity
  8
0
100
AcDbLine
 10
2219.761199
 20
288.195829
 30
0.0
 11
2217.588256
 21
288.195829
 31
0.0
  0
LINE
  5
356D
100
AcDbEntity
  8
0
100
AcDbLine
 10
2204.804698
 20
333.195829
 30
0.0
 11
2204.804698
 21
304.902971
 31
0.0
  0
LINE
  5
356E
100
AcDbEntity
  8
0
100
AcDbLine
 10
2204.804698
 20
333.195829
 30
0.0
 11
2204.804698
 21
319.195829
 31
0.0
  0
LINE
  5
356F
100
AcDbEntity
  8
0
100
AcDbLine
 10
2187.804698
 20
363.195829
 30
0.0
 11
2187.804698
 21
392.945829
 31
0.0
  0
ARC
  5
3570
100
AcDbEntity
  8
0
100
AcDbCircle
 10
1874.020922
 20
826.979692
 30
0.0
 40
3.0
100
AcDbArc
 50
360.0
 51
57.741711
  0
ARC
  5
3571
100
AcDbEntity
  8
0
100
AcDbCircle
 10
1881.020922
 20
789.630673
 30
0.0
 40
4.0
100
AcDbArc
 50
180.0
 51
270.0
  0
LINE
  5
3572
100
AcDbEntity
  8
0
100
AcDbLine
 10
1877.020922
 20
798.630673
 30
0.0
 11
1815.020922
 21
798.630673
 31
0.0
  0
ARC
  5
3573
100
AcDbEntity
  8
0
100
AcDbCircle
 10
1598.078964
 20
389.778325
 30
0.0
 40
520.0
100
AcDbArc
 50
57.741711
 51
67.625577
  0
LINE
  5
3574
100
AcDbEntity
  8
0
100
AcDbLine
 10
1819.520922
 20
798.630673
 30
0.0
 11
1872.520922
 21
798.630673
 31
0.0
  0
LINE
  5
3575
100
AcDbEntity
  8
0
100
AcDbLine
 10
1870.923397
 20
828.630673
 30
0.0
 11
1821.118448
 21
828.630673
 31
0.0
  0
LINE
  5
3576
100
AcDbEntity
  8
0
100
AcDbLine
 10
1816.020922
 20
798.630673
 30
0.0
 11
1876.020922
 21
798.630673
 31
0.0
  0
LINE
  5
3577
100
AcDbEntity
  8
0
100
AcDbLine
 10
1815.020922
 20
824.559606
 30
0.0
 11
1815.020922
 21
798.630673
 31
0.0
  0
ARC
  5
3578
100
AcDbEntity
  8
0
100
AcDbCircle
 10
1810.020922
 20
824.559606
 30
0.0
 40
5.0
100
AcDbArc
 50
360.0
 51
45.0
  0
ARC
  5
3579
100
AcDbEntity
  8
0
100
AcDbCircle
 10
1811.020922
 20
784.630673
 30
0.0
 40
4.0
100
AcDbArc
 50
270.0
 51
0.0
  0
LINE
  5
357A
100
AcDbEntity
  8
0
100
AcDbLine
 10
1802.020884
 20
780.630673
 30
0.0
 11
1811.020922
 21
780.630673
 31
0.0
  0
LINE
  5
357B
100
AcDbEntity
  8
0
100
AcDbLine
 10
1799.520922
 20
778.130673
 30
0.0
 11
1799.520922
 21
777.130673
 31
0.0
  0
ARC
  5
357C
100
AcDbEntity
  8
0
100
AcDbCircle
 10
1796.520922
 20
777.130673
 30
0.0
 40
3.0
100
AcDbArc
 50
270.0
 51
360.0
  0
LINE
  5
357D
100
AcDbEntity
  8
0
100
AcDbLine
 10
1780.520922
 20
774.130673
 30
0.0
 11
1796.520922
 21
774.130673
 31
0.0
  0
ARC
  5
357E
100
AcDbEntity
  8
0
100
AcDbCircle
 10
1802.020922
 20
778.130673
 30
0.0
 40
2.5
100
AcDbArc
 50
90.0
 51
180.0
  0
LINE
  5
357F
100
AcDbEntity
  8
0
100
AcDbLine
 10
1815.020922
 20
798.630673
 30
0.0
 11
1815.020922
 21
784.630673
 31
0.0
  0
LINE
  5
3580
100
AcDbEntity
  8
0
100
AcDbLine
 10
1776.020922
 20
769.630673
 30
0.0
 11
1780.520922
 21
774.130673
 31
0.0
  0
LINE
  5
3581
100
AcDbEntity
  8
0
100
AcDbLine
 10
1877.020922
 20
826.979692
 30
0.0
 11
1877.020922
 21
798.630673
 31
0.0
  0
LINE
  5
3582
100
AcDbEntity
  8
0
100
AcDbLine
 10
1916.020922
 20
769.630673
 30
0.0
 11
1911.520922
 21
774.130673
 31
0.0
  0
LINE
  5
3583
100
AcDbEntity
  8
0
100
AcDbLine
 10
1893.020922
 20
785.630673
 30
0.0
 11
1894.293793
 21
775.871995
 31
0.0
  0
ARC
  5
3584
100
AcDbEntity
  8
0
100
AcDbCircle
 10
1896.276994
 20
776.130673
 30
0.0
 40
2.0
100
AcDbArc
 50
187.431408
 51
270.0
  0
LINE
  5
3585
100
AcDbEntity
  8
0
100
AcDbLine
 10
1881.020922
 20
785.630673
 30
0.0
 11
1893.020922
 21
785.630673
 31
0.0
  0
LINE
  5
3586
100
AcDbEntity
  8
0
100
AcDbLine
 10
1911.520922
 20
774.130673
 30
0.0
 11
1896.276994
 21
774.130673
 31
0.0
  0
LINE
  5
3587
100
AcDbEntity
  8
0
100
AcDbLine
 10
1877.020922
 20
798.630673
 30
0.0
 11
1877.020922
 21
789.630673
 31
0.0
  0
TEXT
  5
3588
100
AcDbEntity
  8
0
100
AcDbText
 10
142.562666
 20
323.011917
 30
0.0
 40
25.0
  1
正面
100
AcDbText
  0
TEXT
  5
3589
100
AcDbEntity
  8
0
100
AcDbText
 10
142.562666
 20
535.260495
 30
0.0
 40
25.0
  1
平面
100
AcDbText
  0
TEXT
  5
358A
100
AcDbEntity
  8
0
100
AcDbText
 10
142.562666
 20
736.292988
 30
0.0
 40
25.0
  1
背面
100
AcDbText
  0
LINE
  5
37FE
100
AcDbEntity
  8
0
100
AcDbLine
 10
1120.80499
 20
530.519004
 30
0.0
 11
1120.80499
 21
496.329254
 31
0.0
  0
LINE
  5
3835
100
AcDbEntity
  8
0
100
AcDbLine
 10
1162.80499
 20
566.912465
 30
0.0
 11
1161.80499
 21
495.750145
 31
0.0
  0
LINE
  5
3836
100
AcDbEntity
  8
0
100
AcDbLine
 10
1138.80499
 20
566.912465
 30
0.0
 11
1139.80499
 21
495.750145
 31
0.0
  0
LINE
  5
3837
100
AcDbEntity
  8
0
100
AcDbLine
 10
1161.80499
 20
495.750145
 30
0.0
 11
1162.175775
 21
474.509929
 31
0.0
  0
LINE
  5
3838
100
AcDbEntity
  8
0
100
AcDbLine
 10
1139.45019
 20
475.425652
 30
0.0
 11
1139.80499
 21
495.750145
 31
0.0
  0
LINE
  5
3A46
100
AcDbEntity
  8
0
100
AcDbLine
 10
1142.330221
 20
495.750145
 30
0.0
 11
1159.279758
 21
495.750145
 31
0.0
  0
LINE
  5
3AA2
100
AcDbEntity
  8
0
100
AcDbLine
 10
460.260961
 20
566.912465
 30
0.0
 11
461.260961
 21
495.750145
 31
0.0
  0
LINE
  5
3AA3
100
AcDbEntity
  8
0
100
AcDbLine
 10
484.260961
 20
566.912465
 30
0.0
 11
483.260961
 21
495.750145
 31
0.0
  0
LINE
  5
3AC6
100
AcDbEntity
  8
0
100
AcDbLine
 10
483.260961
 20
495.750145
 30
0.0
 11
483.631746
 21
474.509929
 31
0.0
  0
LINE
  5
3AC7
100
AcDbEntity
  8
0
100
AcDbLine
 10
460.898742
 20
475.000612
 30
0.0
 11
461.260961
 21
495.750145
 31
0.0
  0
LINE
  5
3B0B
100
AcDbEntity
  8
0
100
AcDbLine
 10
1892.868675
 20
525.329254
 30
0.0
 11
1892.868675
 21
496.435514
 31
0.0
  0
LINE
  5
3B0C
100
AcDbEntity
  8
0
100
AcDbLine
 10
1859.020922
 20
566.471748
 30
0.0
 11
1859.020922
 21
487.829254
 31
0.0
  0
LINE
  5
3B0D
100
AcDbEntity
  8
0
100
AcDbLine
 10
1833.020922
 20
566.471748
 30
0.0
 11
1833.020922
 21
487.829254
 31
0.0
  0
LINE
  5
3B0E
100
AcDbEntity
  8
0
100
AcDbLine
 10
1835.527272
 20
461.329254
 30
0.0
 11
1856.514573
 21
461.329254
 31
0.0
  0
LINE
  5
3B0F
100
AcDbEntity
  8
0
100
AcDbLine
 10
1835.562566
 20
463.329254
 30
0.0
 11
1856.479279
 21
463.329254
 31
0.0
  0
LINE
  5
3B10
100
AcDbEntity
  8
0
100
AcDbLine
 10
1855.703184
 20
487.829254
 30
0.0
 11
1836.33866
 21
487.829254
 31
0.0
  0
LINE
  5
3B11
100
AcDbEntity
  8
0
100
AcDbLine
 10
1832.226994
 20
442.978946
 30
0.0
 11
1833.020922
 21
487.829254
 31
0.0
  0
LINE
  5
3B12
100
AcDbEntity
  8
0
100
AcDbLine
 10
1859.790031
 20
444.381027
 30
0.0
 11
1859.020922
 21
487.829254
 31
0.0
  0
ARC
  5
3B13
100
AcDbEntity
  8
0
100
AcDbCircle
 10
1856.514573
 20
460.329254
 30
0.0
 40
1.0
100
AcDbArc
 50
1.010997
 51
90.0
  0
ARC
  5
3B14
100
AcDbEntity
  8
0
100
AcDbCircle
 10
1856.479279
 20
462.329254
 30
0.0
 40
1.0
100
AcDbArc
 50
1.010997
 51
90.0
  0
ARC
  5
3B15
100
AcDbEntity
  8
0
100
AcDbCircle
 10
1835.527272
 20
460.329254
 30
0.0
 40
1.0
100
AcDbArc
 50
90.0
 51
178.989003
  0
ARC
  5
3B16
100
AcDbEntity
  8
0
100
AcDbCircle
 10
1835.562566
 20
462.329254
 30
0.0
 40
1.0
100
AcDbArc
 50
90.0
 51
178.989003
  0
SPLINE
  5
3F7C
100
AcDbEntity
  8
0
100
AcDbSpline
210
0.0
220
0.0
230
1.0
 70
     8
 71
     3
 72
    11
 73
     7
 74
     0
 42
0.0000001
 43
0.0000001
 40
0.9126610034491346
 40
0.9126610034491346
 40
0.9126610034491346
 40
0.9126610034491346
 40
6.941552115107799
 40
13.46196871994957
 40
21.05904714047864
 40
25.64458380060935
 40
25.64458380060935
 40
25.64458380060935
 40
25.64458380060935
 10
460.9061620448478
 20
475.4256523945685
 30
0.0
 10
462.3562501798708
 20
476.9110271839993
 30
0.0
 10
466.8054877067373
 20
479.1377474742056
 30
0.0
 10
472.6676670831235
 20
475.0260016821926
 30
0.0
 10
477.8491465234806
 20
470.2844776470973
 30
0.0
 10
482.6415697977549
 20
473.485097704856
 30
0.0
 10
483.6317462042091
 20
474.5099288914507
 30
0.0
  0
SPLINE
  5
3F7D
100
AcDbEntity
  8
0
100
AcDbSpline
210
0.0
220
0.0
230
1.0
 70
     8
 71
     3
 72
    11
 73
     7
 74
     0
 42
0.0000001
 43
0.0000001
 40
0.9126610034491346
 40
0.9126610034491346
 40
0.9126610034491346
 40
0.9126610034491346
 40
6.941552115107799
 40
13.46196871994957
 40
21.05904714047864
 40
25.64458380060935
 40
25.64458380060935
 40
25.64458380060935
 40
25.64458380060935
 10
1139.450190431897
 20
475.4256523945685
 30
0.0
 10
1140.90027856692
 20
476.9110271839993
 30
0.0
 10
1145.349516093787
 20
479.1377474742056
 30
0.0
 10
1151.211695470173
 20
475.0260016821926
 30
0.0
 10
1156.39317491053
 20
470.2844776470973
 30
0.0
 10
1161.185598184804
 20
473.485097704856
 30
0.0
 10
1162.175774591258
 20
474.5099288914507
 30
0.0
  0
SPLINE
  5
3F81
100
AcDbEntity
  8
0
100
AcDbSpline
210
0.0
220
0.0
230
1.0
 70
     8
 71
     3
 72
    11
 73
     7
 74
     5
 42
0.0000001
 43
0.0000001
 44
0.0000000001
 40
0.0
 40
0.0
 40
0.0
 40
0.0
 40
8.589474472794657
 40
16.07080843171234
 40
23.61006025778351
 40
34.31814901696186
 40
34.31814901696186
 40
34.31814901696186
 40
34.31814901696186
 10
1831.707506619974
 20
442.4559860454967
 30
0.0
 10
1834.198965279222
 20
444.9683003999635
 30
0.0
 10
1838.86045591583
 20
449.6688118036303
 30
0.0
 10
1844.361476242327
 20
441.8035433709006
 30
0.0
 10
1852.431089704264
 20
436.5890899612229
 30
0.0
 10
1857.293899217921
 20
441.7378620145369
 30
0.0
 10
1860.147542226771
 20
444.7593164500523
 30
0.0
 11
1831.707506619974
 21
442.4559860454967
 31
0.0
 11
1838.919905519618
 21
447.1207876309017
 31
0.0
 11
1844.648495895489
 21
442.3089677973739
 31
0.0
 11
1851.290339167353
 21
438.7415827538279
 31
0.0
 11
1860.147542226771
 21
444.7593164500523
 31
0.0
  0
LINE
  5
3FAC
100
AcDbEntity
  8
0
100
AcDbLine
 10
420.063119
 20
1264.414471
 30
0.0
 11
420.063119
 21
1211.886471
 31
0.0
  0
LINE
  5
3FAD
100
AcDbEntity
  8
0
100
AcDbLine
 10
420.116593
 20
1210.386471
 30
0.0
 11
408.009874
 21
1210.386471
 31
0.0
  0
LINE
  5
3FAE
100
AcDbEntity
  8
0
100
AcDbLine
 10
407.417981
 20
1193.711849
 30
0.0
 11
408.063119
 21
1211.886471
 31
0.0
  0
LINE
  5
3FAF
100
AcDbEntity
  8
0
100
AcDbLine
 10
408.063119
 20
1264.414471
 30
0.0
 11
408.063119
 21
1211.886471
 31
0.0
  0
LINE
  5
3FB0
100
AcDbEntity
  8
0
100
AcDbLine
 10
420.063119
 20
1211.886471
 30
0.0
 11
420.712393
 21
1193.673495
 31
0.0
  0
SPLINE
  5
3FB1
100
AcDbEntity
  8
0
100
AcDbSpline
210
0.0
220
0.0
230
1.0
 70
     8
 71
     3
 72
    11
 73
     7
 74
     0
 42
0.0000001
 43
0.0000001
 40
1.247711436623101
 40
1.247711436623101
 40
1.247711436623101
 40
1.247711436623101
 40
4.851897039194472
 40
9.083869164082802
 40
13.42510727048311
 40
18.9631716284853
 40
18.9631716284853
 40
18.9631716284853
 40
18.9631716284853
 10
407.4179808559779
 20
1193.711848748278
 30
0.0
 10
408.4223030839889
 20
1194.735306920075
 30
0.0
 10
410.5670258539433
 20
1196.451344756778
 30
0.0
 10
413.3894032087949
 20
1192.428656086101
 30
0.0
 10
417.5088203557756
 20
1188.632128154446
 30
0.0
 10
419.5947524921889
 20
1191.62800421268
 30
0.0
 10
420.712393263159
 20
1193.673495498961
 30
0.0
  0
LINE
  5
3FB2
100
AcDbEntity
  8
0
100
AcDbLine
 10
903.476612
 20
1264.605527
 30
0.0
 11
903.476612
 21
1212.077527
 31
0.0
  0
LINE
  5
3FB3
100
AcDbEntity
  8
0
100
AcDbLine
 10
891.476612
 20
1264.605527
 30
0.0
 11
891.476612
 21
1212.077527
 31
0.0
  0
SPLINE
  5
3FB4
100
AcDbEntity
  8
0
100
AcDbSpline
210
0.0
220
0.0
230
1.0
 70
     8
 71
     3
 72
    11
 73
     7
 74
     0
 42
0.0000001
 43
0.0000001
 40
1.247711436623103
 40
1.247711436623103
 40
1.247711436623103
 40
1.247711436623103
 40
4.851897039194472
 40
9.083869164082802
 40
13.42510727048311
 40
18.96317162848538
 40
18.96317162848538
 40
18.96317162848538
 40
18.96317162848538
 10
890.8314739185115
 20
1193.902905658827
 30
0.0
 10
891.8357961465225
 20
1194.926363830625
 30
0.0
 10
893.980518916477
 20
1196.642401667328
 30
0.0
 10
896.8028962713287
 20
1192.61971299665
 30
0.0
 10
900.9223134183093
 20
1188.823185064996
 30
0.0
 10
903.0082455547226
 20
1191.81906112323
 30
0.0
 10
904.1258863256928
 20
1193.864552409511
 30
0.0
  0
LINE
  5
3FB5
100
AcDbEntity
  8
0
100
AcDbLine
 10
903.530086
 20
1210.577527
 30
0.0
 11
891.423367
 21
1210.577527
 31
0.0
  0
LINE
  5
3FB6
100
AcDbEntity
  8
0
100
AcDbLine
 10
890.831474
 20
1193.902906
 30
0.0
 11
891.476612
 21
1212.077527
 31
0.0
  0
LINE
  5
3FB7
100
AcDbEntity
  8
0
100
AcDbLine
 10
903.476612
 20
1212.077527
 30
0.0
 11
904.125886
 21
1193.864552
 31
0.0
  0
LINE
  5
3FE3
100
AcDbEntity
  8
0
100
AcDbLine
 10
1959.441702
 20
1264.050004
 30
0.0
 11
1959.441702
 21
1228.723471
 31
0.0
  0
LINE
  5
3FE4
100
AcDbEntity
  8
0
100
AcDbLine
 10
1945.441702
 20
1264.049883
 30
0.0
 11
1945.441702
 21
1228.723471
 31
0.0
  0
LINE
  5
3FE5
100
AcDbEntity
  8
0
100
AcDbLine
 10
1958.941702
 20
1222.386471
 30
0.0
 11
1945.941702
 21
1222.386471
 31
0.0
  0
LINE
  5
3FE6
100
AcDbEntity
  8
0
100
AcDbLine
 10
1945.525457
 20
1207.886471
 30
0.0
 11
1959.35649
 21
1207.886471
 31
0.0
  0
LINE
  5
3FE7
100
AcDbEntity
  8
0
100
AcDbLine
 10
1959.3994
 20
1206.386471
 30
0.0
 11
1945.482398
 21
1206.386471
 31
0.0
  0
LINE
  5
3FE8
100
AcDbEntity
  8
0
100
AcDbLine
 10
1945.441702
 20
1228.723471
 30
0.0
 11
1945.941702
 21
1222.386471
 31
0.0
  0
LINE
  5
3FE9
100
AcDbEntity
  8
0
100
AcDbLine
 10
1959.441702
 20
1228.723471
 30
0.0
 11
1958.941702
 21
1222.386471
 31
0.0
  0
LINE
  5
3FEA
100
AcDbEntity
  8
0
100
AcDbLine
 10
1960.007823
 20
1185.11747
 30
0.0
 11
1958.941702
 21
1222.386471
 31
0.0
  0
LINE
  5
3FEB
100
AcDbEntity
  8
0
100
AcDbLine
 10
1945.941702
 20
1222.386471
 30
0.0
 11
1944.9132
 21
1186.558307
 31
0.0
  0
SPLINE
  5
3FEC
100
AcDbEntity
  8
0
100
AcDbSpline
210
0.0
220
0.0
230
1.0
 70
     8
 71
     3
 72
    11
 73
     7
 74
     0
 42
0.0000001
 43
0.0000001
 40
1.696791557829898
 40
1.696791557829898
 40
1.696791557829898
 40
1.696791557829898
 40
6.537532381040993
 40
11.89620780335695
 40
16.69884282761958
 40
23.18405017708073
 40
23.18405017708073
 40
23.18405017708073
 40
23.18405017708073
 10
1944.91320036383
 20
1186.558306659488
 30
0.0
 10
1946.25538671157
 20
1188.059050235973
 30
0.0
 10
1948.97706268393
 20
1190.447084185177
 30
0.0
 10
1951.710978157848
 20
1184.717297834692
 30
0.0
 10
1956.081504598826
 20
1179.887040145943
 30
0.0
 10
1958.603463119829
 20
1182.811475754052
 30
0.0
 10
1960.007823406727
 20
1185.11747040246
 30
0.0
  0
LINE
  5
3FED
100
AcDbEntity
  8
0
100
AcDbLine
 10
1407.017723
 20
1264.241061
 30
0.0
 11
1407.017723
 21
1228.914527
 31
0.0
  0
LINE
  5
3FEE
100
AcDbEntity
  8
0
100
AcDbLine
 10
1393.017723
 20
1264.24094
 30
0.0
 11
1393.017723
 21
1228.914527
 31
0.0
  0
LINE
  5
3FEF
100
AcDbEntity
  8
0
100
AcDbLine
 10
1407.017723
 20
1228.914527
 30
0.0
 11
1406.517723
 21
1222.577527
 31
0.0
  0
LINE
  5
3FF0
100
AcDbEntity
  8
0
100
AcDbLine
 10
1406.517723
 20
1222.577527
 30
0.0
 11
1393.517723
 21
1222.577527
 31
0.0
  0
LINE
  5
3FF1
100
AcDbEntity
  8
0
100
AcDbLine
 10
1393.017723
 20
1228.914527
 30
0.0
 11
1393.517723
 21
1222.577527
 31
0.0
  0
LINE
  5
3FF2
100
AcDbEntity
  8
0
100
AcDbLine
 10
1393.517723
 20
1222.577527
 30
0.0
 11
1392.489222
 21
1186.749364
 31
0.0
  0
LINE
  5
3FF3
100
AcDbEntity
  8
0
100
AcDbLine
 10
1407.583845
 20
1185.308527
 30
0.0
 11
1406.517723
 21
1222.577527
 31
0.0
  0
SPLINE
  5
3FF4
100
AcDbEntity
  8
0
100
AcDbSpline
210
0.0
220
0.0
230
1.0
 70
     8
 71
     3
 72
    11
 73
     7
 74
     0
 42
0.0000001
 43
0.0000001
 40
1.696791557829898
 40
1.696791557829898
 40
1.696791557829898
 40
1.696791557829898
 40
6.537532381040993
 40
11.89620780335695
 40
16.69884282761958
 40
23.18405017708073
 40
23.18405017708073
 40
23.18405017708073
 40
23.18405017708073
 10
1392.489221732492
 20
1186.749363570038
 30
0.0
 10
1393.831408080232
 20
1188.250107146523
 30
0.0
 10
1396.553084052592
 20
1190.638141095727
 30
0.0
 10
1399.28699952651
 20
1184.908354745242
 30
0.0
 10
1403.657525967488
 20
1180.078097056493
 30
0.0
 10
1406.179484488492
 20
1183.002532664602
 30
0.0
 10
1407.58384477539
 20
1185.30852731301
 30
0.0
  0
LINE
  5
3FF5
100
AcDbEntity
  8
0
100
AcDbLine
 10
1406.975421
 20
1206.577527
 30
0.0
 11
1393.058419
 21
1206.577527
 31
0.0
  0
LINE
  5
3FF6
100
AcDbEntity
  8
0
100
AcDbLine
 10
1393.101479
 20
1208.077527
 30
0.0
 11
1406.932512
 21
1208.077527
 31
0.0
  0
LINE
  5
3FF8
100
AcDbEntity
  8
0
100
AcDbLine
 10
463.786193
 20
495.750145
 30
0.0
 11
480.73573
 21
495.750145
 31
0.0
  0
LINE
  5
4016
100
AcDbEntity
  8
0
100
AcDbLine
 10
1187.80499
 20
527.250854
 30
0.0
 11
1187.80499
 21
502.011536
 31
0.0
  0
VIEWPORT
  5
41
100
AcDbEntity
 67
     1
  8
0
100
AcDbViewport
 10
117.358407
 20
73.5
 30
0.0
 40
234.716814
 41
147.0
 68
    -1
 69
     1
1001
ACAD
1000
MVIEW
1002
{
1070
    16
1010
0.0
1020
0.0
1030
0.0
1010
0.0
1020
0.0
1030
1.0
1040
0.0
1040
147.0
1040
117.358407
1040
73.5
1040
50.0
1040
0.0
1040
0.0
1070
     0
1070
   100
1070
     1
1070
     1
1070
     0
1070
     0
1070
     0
1070
     0
1040
0.0
1040
0.0
1040
0.0
1040
1.0
1040
1.0
1040
0.0
1040
0.0
1070
     0
1002
{
1002
}
1002
}
  0
ENDSEC
  0
SECTION
  2
OBJECTS
  0
DICTIONARY
  5
C
100
AcDbDictionary
  3
ACAD_GROUP
350
D
  3
ACAD_MLINESTYLE
350
E
  0
DICTIONARY
  5
D
102
{ACAD_REACTORS
330
C
102
}
100
AcDbDictionary
  0
DICTIONARY
  5
E
102
{ACAD_REACTORS
330
C
102
}
100
AcDbDictionary
  3
STANDARD
350
1B
  0
MLINESTYLE
  5
1B
102
{ACAD_REACTORS
330
E
102
}
100
AcDbMlineStyle
  2
STANDARD
 70
     0
  3

 62
     0
 51
90.0
 52
90.0
 71
     2
 49
0.5
 62
   256
  6
BYLAYER
 49
-0.5
 62
   256
  6
BYLAYER
  0
ENDSEC
  0
EOF
