  0
SECTION
  2
HEADER
  9
$ACADVER
  1
AC1012
  9
$DWGCODEPAGE
  3
dos932
  9
$INSBASE
 10
0.0
 20
0.0
 30
0.0
  9
$EXTMIN
 10
99.0
 20
45.0
 30
0.0
  9
$EXTMAX
 10
2574.0
 20
1719.0
 30
0.0
  9
$LIMMIN
 10
0.0
 20
0.0
  9
$LIMMAX
 10
2673.0
 20
1890.0
  9
$ORTHOMODE
 70
     0
  9
$REGENMODE
 70
     1
  9
$FILLMODE
 70
     1
  9
$QTEXTMODE
 70
     0
  9
$MIRRTEXT
 70
     1
  9
$DRAGMODE
 70
     2
  9
$LTSCALE
 40
36.0
  9
$OSMODE
 70
   163
  9
$ATTMODE
 70
     1
  9
$TEXTSIZE
 40
36.0
  9
$TRACEWID
 40
0.05
  9
$TEXTSTYLE
  7
STANDARD
  9
$CLAYER
  8
0
  9
$CELTYPE
  6
BYLAYER
  9
$CECOLOR
 62
   256
  9
$CELTSCALE
 40
1.0
  9
$DELOBJ
 70
     1
  9
$DISPSILH
 70
     0
  9
$DIMSCALE
 40
9.0
  9
$DIMASZ
 40
2.8
  9
$DIMEXO
 40
1.0
  9
$DIMDLI
 40
5.0
  9
$DIMRND
 40
0.1
  9
$DIMDLE
 40
0.0
  9
$DIMEXE
 40
1.0
  9
$DIMTP
 40
0.0
  9
$DIMTM
 40
0.0
  9
$DIMTXT
 40
2.5
  9
$DIMCEN
 40
0.0
  9
$DIMTSZ
 40
0.0
  9
$DIMTOL
 70
     0
  9
$DIMLIM
 70
     0
  9
$DIMTIH
 70
     0
  9
$DIMTOH
 70
     0
  9
$DIMSE1
 70
     0
  9
$DIMSE2
 70
     0
  9
$DIMTAD
 70
     3
  9
$DIMZIN
 70
     8
  9
$DIMBLK
  1

  9
$DIMASO
 70
     1
  9
$DIMSHO
 70
     1
  9
$DIMPOST
  1

  9
$DIMAPOST
  1

  9
$DIMALT
 70
     0
  9
$DIMALTD
 70
     2
  9
$DIMALTF
 40
1.0
  9
$DIMLFAC
 40
1.0
  9
$DIMTOFL
 70
     1
  9
$DIMTVP
 40
0.0
  9
$DIMTIX
 70
     0
  9
$DIMSOXD
 70
     0
  9
$DIMSAH
 70
     1
  9
$DIMBLK1
  1
_OPEN
  9
$DIMBLK2
  1
_OPEN
  9
$DIMSTYLE
  2
DIM1
  9
$DIMCLRD
 70
     2
  9
$DIMCLRE
 70
     2
  9
$DIMCLRT
 70
     2
  9
$DIMTFAC
 40
0.7
  9
$DIMGAP
 40
0.85
  9
$DIMJUST
 70
     0
  9
$DIMSD1
 70
     0
  9
$DIMSD2
 70
     0
  9
$DIMTOLJ
 70
     1
  9
$DIMTZIN
 70
     8
  9
$DIMALTZ
 70
     8
  9
$DIMALTTZ
 70
     8
  9
$DIMFIT
 70
     3
  9
$DIMUPT
 70
     0
  9
$DIMUNIT
 70
     2
  9
$DIMDEC
 70
     2
  9
$DIMTDEC
 70
     3
  9
$DIMALTU
 70
     2
  9
$DIMALTTD
 70
     3
  9
$DIMTXSTY
  7
DIM
  9
$DIMAUNIT
 70
     0
  9
$LUNITS
 70
     2
  9
$LUPREC
 70
     4
  9
$SKETCHINC
 40
0.1
  9
$FILLETRAD
 40
0.0
  9
$AUNITS
 70
     0
  9
$AUPREC
 70
     0
  9
$MENU
  1
C:\ACADR13\WIN\SUPPORT\ACAD.mnc
  9
$ELEVATION
 40
0.0
  9
$PELEVATION
 40
0.0
  9
$THICKNESS
 40
0.0
  9
$LIMCHECK
 70
     0
  9
$BLIPMODE
 70
     1
  9
$CHAMFERA
 40
0.0
  9
$CHAMFERB
 40
0.0
  9
$CHAMFERC
 40
0.0
  9
$CHAMFERD
 40
0.0
  9
$SKPOLY
 70
     0
  9
$TDCREATE
 40
2451597.554726863
  9
$TDUPDATE
 40
2451967.665766597
  9
$TDINDWG
 40
0.0199026736
  9
$TDUSRTIMER
 40
0.0199026736
  9
$USRTIMER
 70
     1
  9
$ANGBASE
 50
0.0
  9
$ANGDIR
 70
     0
  9
$PDMODE
 70
     0
  9
$PDSIZE
 40
0.0
  9
$PLINEWID
 40
0.0
  9
$COORDS
 70
     1
  9
$SPLFRAME
 70
     0
  9
$SPLINETYPE
 70
     6
  9
$SPLINESEGS
 70
     8
  9
$ATTDIA
 70
     0
  9
$ATTREQ
 70
     1
  9
$HANDLING
 70
     1
  9
$HANDSEED
  5
4E7F
  9
$SURFTAB1
 70
     6
  9
$SURFTAB2
 70
     6
  9
$SURFTYPE
 70
     6
  9
$SURFU
 70
     6
  9
$SURFV
 70
     6
  9
$UCSNAME
  2

  9
$UCSORG
 10
0.0
 20
0.0
 30
0.0
  9
$UCSXDIR
 10
1.0
 20
0.0
 30
0.0
  9
$UCSYDIR
 10
0.0
 20
1.0
 30
0.0
  9
$PUCSNAME
  2

  9
$PUCSORG
 10
0.0
 20
0.0
 30
0.0
  9
$PUCSXDIR
 10
1.0
 20
0.0
 30
0.0
  9
$PUCSYDIR
 10
0.0
 20
1.0
 30
0.0
  9
$USERI1
 70
     0
  9
$USERI2
 70
     0
  9
$USERI3
 70
     0
  9
$USERI4
 70
     0
  9
$USERI5
 70
     0
  9
$USERR1
 40
0.0
  9
$USERR2
 40
0.0
  9
$USERR3
 40
0.0
  9
$USERR4
 40
0.0
  9
$USERR5
 40
0.0
  9
$WORLDVIEW
 70
     1
  9
$SHADEDGE
 70
     3
  9
$SHADEDIF
 70
    70
  9
$TILEMODE
 70
     1
  9
$MAXACTVP
 70
    16
  9
$PINSBASE
 10
0.0
 20
0.0
 30
0.0
  9
$PLIMCHECK
 70
     0
  9
$PEXTMIN
 10
1.000000E+20
 20
1.000000E+20
 30
1.000000E+20
  9
$PEXTMAX
 10
-1.000000E+20
 20
-1.000000E+20
 30
-1.000000E+20
  9
$PLIMMIN
 10
0.0
 20
0.0
  9
$PLIMMAX
 10
20.0
 20
147.0
  9
$UNITMODE
 70
     0
  9
$VISRETAIN
 70
     0
  9
$PLINEGEN
 70
     0
  9
$PSLTSCALE
 70
     1
  9
$TREEDEPTH
 70
  3020
  9
$PICKSTYLE
 70
     1
  9
$CMLSTYLE
  2
STANDARD
  9
$CMLJUST
 70
     0
  9
$CMLSCALE
 40
1.0
  9
$SAVEIMAGES
 70
     1
  0
ENDSEC
  0
SECTION
  2
CLASSES
  0
CLASS
  1
LWPOLYLINE
  2
AcDbPolyline
  3
"AutoCAD"
 90
    32768
280
     0
281
     1
  0
ENDSEC
  0
SECTION
  2
TABLES
  0
TABLE
  2
VPORT
  5
8
100
AcDbSymbolTable
 70
     2
  0
VPORT
  5
4E7E
100
AcDbSymbolTableRecord
100
AcDbViewportTableRecord
  2
*ACTIVE
 70
     0
 10
0.0
 20
0.0
 11
1.0
 21
1.0
 12
1381.623591
 22
979.901171
 13
0.0
 23
0.0
 14
1.0
 24
1.0
 15
0.0
 25
0.0
 16
0.0
 26
0.0
 36
1.0
 17
0.0
 27
0.0
 37
0.0
 40
1959.80234
 41
1.762063
 42
50.0
 43
0.0
 44
0.0
 50
0.0
 51
0.0
 71
     0
 72
   100
 73
     1
 74
     1
 75
     0
 76
     0
 77
     0
 78
     0
  0
ENDTAB
  0
TABLE
  2
LTYPE
  5
5
100
AcDbSymbolTable
 70
     5
  0
LTYPE
  5
12
100
AcDbSymbolTableRecord
100
AcDbLinetypeTableRecord
  2
BYBLOCK
 70
     0
  3

 72
    65
 73
     0
 40
0.0
  0
LTYPE
  5
13
100
AcDbSymbolTableRecord
100
AcDbLinetypeTableRecord
  2
BYLAYER
 70
     0
  3

 72
    65
 73
     0
 40
0.0
  0
LTYPE
  5
14
100
AcDbSymbolTableRecord
100
AcDbLinetypeTableRecord
  2
CONTINUOUS
 70
     0
  3
Solid line
 72
    65
 73
     0
 40
0.0
  0
ENDTAB
  0
TABLE
  2
LAYER
  5
2
100
AcDbSymbolTable
 70
     3
  0
LAYER
  5
F
100
AcDbSymbolTableRecord
100
AcDbLayerTableRecord
  2
0
 70
     0
 62
     7
  6
CONTINUOUS
  0
ENDTAB
  0
TABLE
  2
STYLE
  5
3
100
AcDbSymbolTable
 70
     3
  0
STYLE
  5
10
100
AcDbSymbolTableRecord
100
AcDbTextStyleTableRecord
  2
STANDARD
 70
     0
 40
0.0
 41
0.8
 50
0.0
 71
     0
 42
36.0
  3
simplex
  4
extfont
  0
STYLE
  5
237C
100
AcDbSymbolTableRecord
100
AcDbTextStyleTableRecord
  2
PTSH
 70
     0
 40
0.0
 41
0.9
 50
0.0
 71
     0
 42
4.0
  3
SIMPLEX
  4
EXTFONT
  0
STYLE
  5
2592
100
AcDbSymbolTableRecord
100
AcDbTextStyleTableRecord
  2
DIM
 70
     0
 40
0.0
 41
0.8
 50
0.0
 71
     0
 42
4.0
  3
simplex
  4
extfont
  0
ENDTAB
  0
TABLE
  2
VIEW
  5
6
100
AcDbSymbolTable
 70
     0
  0
ENDTAB
  0
TABLE
  2
UCS
  5
7
100
AcDbSymbolTable
 70
     0
  0
ENDTAB
  0
TABLE
  2
APPID
  5
9
100
AcDbSymbolTable
 70
     1
  0
APPID
  5
11
100
AcDbSymbolTableRecord
100
AcDbRegAppTableRecord
  2
ACAD
 70
     0
  0
ENDTAB
  0
TABLE
  2
DIMSTYLE
  5
A
100
AcDbSymbolTable
 70
     1
  0
DIMSTYLE
105
2237
100
AcDbSymbolTableRecord
100
AcDbDimStyleTableRecord
  2
DIM1
 70
     0
  3

  4

  5

  6
_OPEN
  7
_OPEN
 40
9.0
 41
2.8
 42
1.0
 43
5.0
 44
1.0
 45
0.1
 46
0.0
 47
0.0
 48
0.0
140
2.5
141
0.0
142
0.0
143
1.0
144
1.0
145
0.0
146
0.7
147
0.85
 71
     0
 72
     0
 73
     0
 74
     0
 75
     0
 76
     0
 77
     3
 78
     8
170
     0
171
     2
172
     1
173
     1
174
     0
175
     0
176
     2
177
     2
178
     2
270
     2
271
     2
272
     3
273
     2
274
     3
340
2592
275
     0
280
     0
281
     0
282
     0
283
     1
284
     8
285
     8
286
     8
287
     3
288
     0
  0
ENDTAB
  0
TABLE
  2
BLOCK_RECORD
  5
1
100
AcDbSymbolTable
 70
     4
  0
BLOCK_RECORD
  5
18
100
AcDbSymbolTableRecord
100
AcDbBlockTableRecord
  2
*MODEL_SPACE
  0
BLOCK_RECORD
  5
15
100
AcDbSymbolTableRecord
100
AcDbBlockTableRecord
  2
*PAPER_SPACE
  0
BLOCK_RECORD
  5
2448
100
AcDbSymbolTableRecord
100
AcDbBlockTableRecord
  2
_OPEN
  0
ENDTAB
  0
ENDSEC
  0
SECTION
  2
BLOCKS
  0
BLOCK
  5
3C
100
AcDbEntity
  8
0
100
AcDbBlockBegin
  2
*MODEL_SPACE
 70
     0
 10
0.0
 20
0.0
 30
0.0
  3
*MODEL_SPACE
  1

  0
ENDBLK
  5
3D
100
AcDbEntity
  8
0
100
AcDbBlockEnd
  0
BLOCK
  5
3A
100
AcDbEntity
 67
     1
  8
0
100
AcDbBlockBegin
  2
*PAPER_SPACE
 70
     0
 10
0.0
 20
0.0
 30
0.0
  3
*PAPER_SPACE
  1

  0
ENDBLK
  5
3B
100
AcDbEntity
 67
     1
  8
0
100
AcDbBlockEnd
  0
BLOCK
  5
2449
100
AcDbEntity
  8
0
 48
4.0
100
AcDbBlockBegin
  2
_OPEN
 70
     0
 10
0.0
 20
0.0
 30
0.0
  3
_OPEN
  1
H1111.DWG
  0
LINE
  5
244A
100
AcDbEntity
  8
0
  6
BYBLOCK
 62
     0
 48
4.0
100
AcDbLine
 10
-1.0
 20
0.166667
 30
0.0
 11
0.0
 21
0.0
 31
0.0
  0
LINE
  5
244B
100
AcDbEntity
  8
0
  6
BYBLOCK
 62
     0
 48
4.0
100
AcDbLine
 10
0.0
 20
0.0
 30
0.0
 11
-1.0
 21
-0.166667
 31
0.0
  0
LINE
  5
244C
100
AcDbEntity
  8
0
  6
BYBLOCK
 62
     0
 48
4.0
100
AcDbLine
 10
0.0
 20
0.0
 30
0.0
 11
-1.0
 21
0.0
 31
0.0
  0
ENDBLK
  5
244D
100
AcDbEntity
  8
0
 48
4.0
100
AcDbBlockEnd
  0
ENDSEC
  0
SECTION
  2
ENTITIES
  0
MTEXT
  5
ADA
100
AcDbEntity
  8
0
100
AcDbMText
 10
3421.253518
 20
448.6168
 30
0.0
 40
1.8
 41
425.038184
 71
     1
 72
     1
  1

  0
MTEXT
  5
ADB
100
AcDbEntity
  8
0
100
AcDbMText
 10
3501.449399
 20
520.657144
 30
0.0
 40
1.8
 41
408.999008
 71
     1
 72
     1
  1

  0
MTEXT
  5
ADC
100
AcDbEntity
  8
0
100
AcDbMText
 10
3453.33187
 20
-431.876218
 30
0.0
 40
1.8
 41
465.136124
 71
     1
 72
     1
  1

  0
TEXT
  5
2529
100
AcDbEntity
  8
0
  6
CONTINUOUS
100
AcDbText
 10
2466.009909
 20
67.080646
 30
0.0
 40
20.0
  1
BBF1N
 41
0.9
  7
PTSH
 72
     1
 11
2504.581338
 21
77.080646
 31
0.0
100
AcDbText
 73
     2
  0
POLYLINE
  5
2563
100
AcDbEntity
  8
0
100
AcDb2dPolyline
 66
     1
 10
0.0
 20
0.0
 30
0.0
 70
     1
  0
VERTEX
  5
4E79
100
AcDbEntity
  8
0
100
AcDbVertex
100
AcDb2dVertex
 10
99.0
 20
45.0
 30
0.0
  0
VERTEX
  5
4E7A
100
AcDbEntity
  8
0
100
AcDbVertex
100
AcDb2dVertex
 10
2574.0
 20
45.0
 30
0.0
  0
VERTEX
  5
4E7B
100
AcDbEntity
  8
0
100
AcDbVertex
100
AcDb2dVertex
 10
2574.0
 20
1719.0
 30
0.0
  0
VERTEX
  5
4E7C
100
AcDbEntity
  8
0
100
AcDbVertex
100
AcDb2dVertex
 10
99.0
 20
1719.0
 30
0.0
  0
SEQEND
  5
4E7D
100
AcDbEntity
  8
0
  0
LINE
  5
408B
100
AcDbEntity
  8
0
100
AcDbLine
 10
485.102673
 20
401.431006
 30
0.0
 11
546.77859
 21
401.431006
 31
0.0
  0
LINE
  5
408C
100
AcDbEntity
  8
0
100
AcDbLine
 10
507.33159
 20
347.775938
 30
0.0
 11
501.27859
 21
347.775938
 31
0.0
  0
LINE
  5
408D
100
AcDbEntity
  8
0
100
AcDbLine
 10
501.27859
 20
359.775938
 30
0.0
 11
507.33159
 21
359.775938
 31
0.0
  0
LINE
  5
408E
100
AcDbEntity
  8
0
100
AcDbLine
 10
490.77859
 20
372.431006
 30
0.0
 11
540.77859
 21
372.431006
 31
0.0
  0
LINE
  5
408F
100
AcDbEntity
  8
0
100
AcDbLine
 10
484.77859
 20
373.431006
 30
0.0
 11
546.77859
 21
373.431006
 31
0.0
  0
ARC
  5
4090
100
AcDbEntity
  8
0
100
AcDbCircle
 10
720.842258
 20
6.971281
 30
0.0
 40
460.0
100
AcDbArc
 50
110.995575
 51
120.662907
  0
LINE
  5
4091
100
AcDbEntity
  8
0
100
AcDbLine
 10
501.27859
 20
289.086075
 30
0.0
 11
507.33159
 21
289.086075
 31
0.0
  0
LINE
  5
4092
100
AcDbEntity
  8
0
100
AcDbLine
 10
507.33159
 20
301.086075
 30
0.0
 11
501.27859
 21
301.086075
 31
0.0
  0
ARC
  5
4093
100
AcDbEntity
  8
0
100
AcDbCircle
 10
505.216965
 20
282.609984
 30
0.0
 40
4.0
100
AcDbArc
 50
26.565051
 51
171.414986
  0
LINE
  5
4095
100
AcDbEntity
  8
0
100
AcDbLine
 10
501.27859
 20
650.891068
 30
0.0
 11
507.33159
 21
650.891068
 31
0.0
  0
CIRCLE
  5
4096
100
AcDbEntity
  8
0
100
AcDbCircle
 10
515.77859
 20
615.546136
 30
0.0
 40
9.75
  0
LINE
  5
4097
100
AcDbEntity
  8
0
100
AcDbLine
 10
501.27859
 20
580.201205
 30
0.0
 11
507.33159
 21
580.201205
 31
0.0
  0
LINE
  5
4098
100
AcDbEntity
  8
0
100
AcDbLine
 10
489.211772
 20
627.546136
 30
0.0
 11
544.361802
 21
627.546136
 31
0.0
  0
LINE
  5
4099
100
AcDbEntity
  8
0
100
AcDbLine
 10
489.211772
 20
603.546136
 30
0.0
 11
544.361802
 21
603.546136
 31
0.0
  0
ARC
  5
409A
100
AcDbEntity
  8
0
100
AcDbCircle
 10
515.77859
 20
615.546136
 30
0.0
 40
31.0
100
AcDbArc
 50
22.773972
 51
337.226028
  0
LINE
  5
409B
100
AcDbEntity
  8
0
100
AcDbLine
 10
489.508968
 20
627.511903
 30
0.0
 11
554.77859
 21
626.546136
 31
0.0
  0
LINE
  5
409C
100
AcDbEntity
  8
0
100
AcDbLine
 10
489.508968
 20
603.58037
 30
0.0
 11
554.77859
 21
604.546136
 31
0.0
  0
LINE
  5
409D
100
AcDbEntity
  8
0
100
AcDbLine
 10
516.454507
 20
935.332916
 30
0.0
 11
454.77859
 21
935.332916
 31
0.0
  0
ARC
  5
409E
100
AcDbEntity
  8
0
100
AcDbCircle
 10
280.714922
 20
540.873191
 30
0.0
 40
460.0
100
AcDbArc
 50
59.337093
 51
69.004425
  0
LINE
  5
409F
100
AcDbEntity
  8
0
100
AcDbLine
 10
501.77859
 20
815.832916
 30
0.0
 11
514.27859
 21
815.832916
 31
0.0
  0
LINE
  5
40A0
100
AcDbEntity
  8
0
100
AcDbLine
 10
510.77859
 20
906.332916
 30
0.0
 11
460.77859
 21
906.332916
 31
0.0
  0
LINE
  5
40A1
100
AcDbEntity
  8
0
100
AcDbLine
 10
516.77859
 20
907.332916
 30
0.0
 11
454.77859
 21
907.332916
 31
0.0
  0
LINE
  5
40A2
100
AcDbEntity
  8
0
100
AcDbLine
 10
501.77859
 20
900.832916
 30
0.0
 11
514.27859
 21
900.832916
 31
0.0
  0
TEXT
  5
40A3
100
AcDbEntity
  8
0
100
AcDbText
 10
508.770069
 20
202.428777
 30
0.0
 40
20.0
  1
32A
 41
0.8
 72
     4
 11
530.103403
 21
212.428777
 31
0.0
100
AcDbText
  0
CIRCLE
  5
40A4
100
AcDbEntity
  8
0
100
AcDbCircle
 10
254.906611
 20
359.786345
 30
0.0
 40
9.5
  0
CIRCLE
  5
40A5
100
AcDbEntity
  8
0
100
AcDbCircle
 10
325.617289
 20
359.786345
 30
0.0
 40
9.5
  0
CIRCLE
  5
40A6
100
AcDbEntity
  8
0
100
AcDbCircle
 10
290.26195
 20
324.431006
 30
0.0
 40
67.5
  0
ARC
  5
40A7
100
AcDbEntity
  8
0
100
AcDbCircle
 10
485.018359
 20
353.775938
 30
0.0
 40
19.516109
100
AcDbArc
 50
163.680185
 51
196.319815
  0
LINE
  5
40A8
100
AcDbEntity
  8
0
100
AcDbLine
 10
465.27859
 20
362.996938
 30
0.0
 11
465.27859
 21
344.554938
 31
0.0
  0
LINE
  5
40A9
100
AcDbEntity
  8
0
100
AcDbLine
 10
415.77859
 20
391.931006
 30
0.0
 11
415.77859
 21
324.431006
 31
0.0
  0
LINE
  5
40AA
100
AcDbEntity
  8
0
100
AcDbLine
 10
473.27859
 20
283.431006
 30
0.0
 11
473.27859
 21
365.431006
 31
0.0
  0
LINE
  5
40AB
100
AcDbEntity
  8
0
100
AcDbLine
 10
487.27859
 20
281.931006
 30
0.0
 11
487.27859
 21
366.931006
 31
0.0
  0
LINE
  5
40AC
100
AcDbEntity
  8
0
100
AcDbLine
 10
431.77859
 20
256.931006
 30
0.0
 11
431.77859
 21
391.931006
 31
0.0
  0
LINE
  5
40AD
100
AcDbEntity
  8
0
100
AcDbLine
 10
501.27859
 20
283.431006
 30
0.0
 11
501.27859
 21
365.431006
 31
0.0
  0
CIRCLE
  5
40AE
100
AcDbEntity
  8
0
100
AcDbCircle
 10
1804.74554
 20
1217.687092
 30
0.0
 40
62.5
  0
CIRCLE
  5
40AF
100
AcDbEntity
  8
0
100
AcDbCircle
 10
1836.565346
 20
1249.506898
 30
0.0
 40
9.5
  0
CIRCLE
  5
40B0
100
AcDbEntity
  8
0
100
AcDbCircle
 10
1772.925735
 20
1249.506898
 30
0.0
 40
9.5
  0
CIRCLE
  5
40B1
100
AcDbEntity
  8
0
100
AcDbCircle
 10
2307.514509
 20
1249.506898
 30
0.0
 40
9.5
  0
CIRCLE
  5
40B2
100
AcDbEntity
  8
0
100
AcDbCircle
 10
2243.874898
 20
1249.506898
 30
0.0
 40
9.5
  0
CIRCLE
  5
40B3
100
AcDbEntity
  8
0
100
AcDbCircle
 10
2275.694703
 20
1217.687092
 30
0.0
 40
62.5
  0
LINE
  5
40B4
100
AcDbEntity
  8
0
100
AcDbLine
 10
2085.316068
 20
1155.187092
 30
0.0
 11
2085.316068
 21
1280.187092
 31
0.0
  0
LINE
  5
40B5
100
AcDbEntity
  8
0
100
AcDbLine
 10
2099.316068
 20
1217.687092
 30
0.0
 11
2099.316068
 21
1280.187092
 31
0.0
  0
LINE
  5
40B6
100
AcDbEntity
  8
0
100
AcDbLine
 10
1954.314068
 20
1280.187092
 30
0.0
 11
1954.314068
 21
1217.687092
 31
0.0
  0
LINE
  5
40B7
100
AcDbEntity
  8
0
100
AcDbLine
 10
1968.314068
 20
1155.187092
 30
0.0
 11
1968.314068
 21
1280.187092
 31
0.0
  0
LINE
  5
40B8
100
AcDbEntity
  8
0
100
AcDbLine
 10
1968.314068
 20
1155.187092
 30
0.0
 11
1968.314068
 21
1280.187092
 31
0.0
  0
LINE
  5
40B9
100
AcDbEntity
  8
0
100
AcDbLine
 10
2028.314068
 20
1179.187092
 30
0.0
 11
2028.314068
 21
1256.187092
 31
0.0
  0
ARC
  5
40BA
100
AcDbEntity
  8
0
100
AcDbCircle
 10
2001.713864
 20
1251.369937
 30
0.0
 40
5.176327
100
AcDbArc
 50
148.000464
 51
211.999536
  0
LINE
  5
40BB
100
AcDbEntity
  8
0
100
AcDbLine
 10
1997.324068
 20
1254.112937
 30
0.0
 11
1996.314068
 21
1252.363937
 31
0.0
  0
LINE
  5
40BC
100
AcDbEntity
  8
0
100
AcDbLine
 10
2016.314068
 20
1179.187092
 30
0.0
 11
2016.314068
 21
1256.187092
 31
0.0
  0
LINE
  5
40BD
100
AcDbEntity
  8
0
100
AcDbLine
 10
2004.314068
 20
1179.187092
 30
0.0
 11
2004.314068
 21
1256.187092
 31
0.0
  0
LINE
  5
40BE
100
AcDbEntity
  8
0
100
AcDbLine
 10
2058.314068
 20
1282.188214
 30
0.0
 11
2058.314068
 21
1243.187092
 31
0.0
  0
CIRCLE
  5
40BF
100
AcDbEntity
  8
0
100
AcDbCircle
 10
1018.912245
 20
1217.687092
 30
0.0
 40
50.0
  0
CIRCLE
  5
40C0
100
AcDbEntity
  8
0
100
AcDbCircle
 10
1450.049299
 20
1217.687092
 30
0.0
 40
50.0
  0
LINE
  5
40C1
100
AcDbEntity
  8
0
100
AcDbLine
 10
1303.480772
 20
1217.687092
 30
0.0
 11
1303.480772
 21
1267.687092
 31
0.0
  0
LINE
  5
40C2
100
AcDbEntity
  8
0
100
AcDbLine
 10
1289.480772
 20
1267.687092
 30
0.0
 11
1289.480772
 21
1167.687092
 31
0.0
  0
LINE
  5
40C3
100
AcDbEntity
  8
0
100
AcDbLine
 10
1168.480772
 20
1217.687092
 30
0.0
 11
1168.480772
 21
1267.687092
 31
0.0
  0
LINE
  5
40C4
100
AcDbEntity
  8
0
100
AcDbLine
 10
1182.480772
 20
1267.687092
 30
0.0
 11
1182.480772
 21
1167.687092
 31
0.0
  0
LINE
  5
40C5
100
AcDbEntity
  8
0
100
AcDbLine
 10
1260.480772
 20
1242.687092
 30
0.0
 11
1260.480772
 21
1254.687092
 31
0.0
  0
ARC
  5
40C6
100
AcDbEntity
  8
0
100
AcDbCircle
 10
1231.980772
 20
1250.687092
 30
0.0
 40
1.5
100
AcDbArc
 50
0.0
 51
90.0
  0
ARC
  5
40C7
100
AcDbEntity
  8
0
100
AcDbCircle
 10
1224.480772
 20
1254.187092
 30
0.0
 40
2.0
100
AcDbArc
 50
270.0
 51
0.0
  0
CIRCLE
  5
40C8
100
AcDbEntity
  8
0
100
AcDbCircle
 10
294.091243
 20
1217.687092
 30
0.0
 40
47.5
  0
CIRCLE
  5
40C9
100
AcDbEntity
  8
0
100
AcDbCircle
 10
725.228297
 20
1217.687092
 30
0.0
 40
47.5
  0
LINE
  5
40CA
100
AcDbEntity
  8
0
100
AcDbLine
 10
551.65977
 20
1265.187092
 30
0.0
 11
551.65977
 21
1170.187092
 31
0.0
  0
LINE
  5
40CB
100
AcDbEntity
  8
0
100
AcDbLine
 10
563.65977
 20
1265.187092
 30
0.0
 11
563.65977
 21
1217.687092
 31
0.0
  0
LINE
  5
40CC
100
AcDbEntity
  8
0
100
AcDbLine
 10
443.65977
 20
1265.187092
 30
0.0
 11
443.65977
 21
1217.687092
 31
0.0
  0
LINE
  5
40CD
100
AcDbEntity
  8
0
100
AcDbLine
 10
455.65977
 20
1265.187092
 30
0.0
 11
455.65977
 21
1170.187092
 31
0.0
  0
LINE
  5
40CE
100
AcDbEntity
  8
0
100
AcDbLine
 10
528.65977
 20
1275.444452
 30
0.0
 11
528.65977
 21
1251.687092
 31
0.0
  0
LINE
  5
40CF
100
AcDbEntity
  8
0
100
AcDbLine
 10
490.65977
 20
1272.011322
 30
0.0
 11
490.65977
 21
1251.687092
 31
0.0
  0
TEXT
  5
40D0
100
AcDbEntity
  8
0
100
AcDbText
 10
483.098938
 20
1120.319192
 30
0.0
 40
20.0
  1
15A
 41
0.8
 72
     4
 11
502.908462
 21
1130.319192
 31
0.0
100
AcDbText
  0
LINE
  5
40D1
100
AcDbEntity
  8
0
100
AcDbLine
 10
443.65977
 20
1170.187092
 30
0.0
 11
455.65977
 21
1170.187092
 31
0.0
  0
CIRCLE
  5
40D3
100
AcDbEntity
  8
0
100
AcDbCircle
 10
269.391243
 20
1192.889714
 30
0.0
 40
7.5
  0
CIRCLE
  5
40D4
100
AcDbEntity
  8
0
100
AcDbCircle
 10
318.791243
 20
1192.889714
 30
0.0
 40
7.5
  0
CIRCLE
  5
40D5
100
AcDbEntity
  8
0
100
AcDbCircle
 10
269.391243
 20
1242.484471
 30
0.0
 40
7.5
  0
CIRCLE
  5
40D6
100
AcDbEntity
  8
0
100
AcDbCircle
 10
318.791243
 20
1242.484471
 30
0.0
 40
7.5
  0
LINE
  5
40D7
100
AcDbEntity
  8
0
100
AcDbLine
 10
443.65977
 20
1217.687092
 30
0.0
 11
443.65977
 21
1170.187092
 31
0.0
  0
LINE
  5
40D8
100
AcDbEntity
  8
0
100
AcDbLine
 10
563.65977
 20
1170.187092
 30
0.0
 11
551.65977
 21
1170.187092
 31
0.0
  0
LINE
  5
40D9
100
AcDbEntity
  8
0
100
AcDbLine
 10
506.98277
 20
1233.839636
 30
0.0
 11
500.65977
 21
1233.839636
 31
0.0
  0
LINE
  5
40DA
100
AcDbEntity
  8
0
100
AcDbLine
 10
500.65977
 20
1241.839636
 30
0.0
 11
506.98277
 21
1241.839636
 31
0.0
  0
LINE
  5
40DB
100
AcDbEntity
  8
0
100
AcDbLine
 10
490.65977
 20
1251.687092
 30
0.0
 11
528.65977
 21
1251.687092
 31
0.0
  0
LINE
  5
40DC
100
AcDbEntity
  8
0
100
AcDbLine
 10
525.65977
 20
1250.187092
 30
0.0
 11
493.65977
 21
1250.187092
 31
0.0
  0
LINE
  5
40DD
100
AcDbEntity
  8
0
100
AcDbLine
 10
505.15977
 20
1190.687092
 30
0.0
 11
504.515163
 21
1192.459761
 31
0.0
  0
LINE
  5
40DE
100
AcDbEntity
  8
0
100
AcDbLine
 10
500.65977
 20
1193.534549
 30
0.0
 11
506.98277
 21
1193.534549
 31
0.0
  0
LINE
  5
40DF
100
AcDbEntity
  8
0
100
AcDbLine
 10
506.98277
 20
1201.534549
 30
0.0
 11
500.65977
 21
1201.534549
 31
0.0
  0
LINE
  5
40E0
100
AcDbEntity
  8
0
100
AcDbLine
 10
465.45977
 20
1229.187092
 30
0.0
 11
458.875305
 21
1230.503985
 31
0.0
  0
ARC
  5
40E1
100
AcDbEntity
  8
0
100
AcDbCircle
 10
459.65977
 20
1234.426308
 30
0.0
 40
4.0
100
AcDbArc
 50
180.0
 51
258.690068
  0
ARC
  5
40E2
100
AcDbEntity
  8
0
100
AcDbCircle
 10
459.65977
 20
1200.947877
 30
0.0
 40
4.0
100
AcDbArc
 50
101.309932
 51
180.0
  0
LINE
  5
40E3
100
AcDbEntity
  8
0
100
AcDbLine
 10
465.45977
 20
1206.187092
 30
0.0
 11
458.875305
 21
1204.8702
 31
0.0
  0
ARC
  5
40E4
100
AcDbEntity
  8
0
100
AcDbCircle
 10
502.635576
 20
1191.776275
 30
0.0
 40
2.0
100
AcDbArc
 50
118.461569
 51
173.259292
  0
ARC
  5
40E5
100
AcDbEntity
  8
0
100
AcDbCircle
 10
499.15977
 20
1246.187092
 30
0.0
 40
1.5
100
AcDbArc
 50
0.0
 51
90.0
  0
LINE
  5
40E6
100
AcDbEntity
  8
0
100
AcDbLine
 10
484.15977
 20
1247.687092
 30
0.0
 11
491.65977
 21
1247.687092
 31
0.0
  0
LINE
  5
40E7
100
AcDbEntity
  8
0
100
AcDbLine
 10
482.65977
 20
1245.345136
 30
0.0
 11
476.85077
 21
1245.345136
 31
0.0
  0
ARC
  5
40E8
100
AcDbEntity
  8
0
100
AcDbCircle
 10
484.15977
 20
1246.187092
 30
0.0
 40
1.5
100
AcDbArc
 50
90.0
 51
180.0
  0
LINE
  5
40E9
100
AcDbEntity
  8
0
100
AcDbLine
 10
493.65977
 20
1251.687092
 30
0.0
 11
493.65977
 21
1247.687092
 31
0.0
  0
LINE
  5
40EA
100
AcDbEntity
  8
0
100
AcDbLine
 10
499.15977
 20
1247.687092
 30
0.0
 11
491.65977
 21
1247.687092
 31
0.0
  0
LINE
  5
40EB
100
AcDbEntity
  8
0
100
AcDbLine
 10
476.85077
 20
1205.040049
 30
0.0
 11
482.65977
 21
1205.040049
 31
0.0
  0
LINE
  5
40EC
100
AcDbEntity
  8
0
100
AcDbLine
 10
476.85077
 20
1230.334136
 30
0.0
 11
482.65977
 21
1230.334136
 31
0.0
  0
LINE
  5
40ED
100
AcDbEntity
  8
0
100
AcDbLine
 10
476.85077
 20
1234.087136
 30
0.0
 11
482.65977
 21
1234.087136
 31
0.0
  0
LINE
  5
40EE
100
AcDbEntity
  8
0
100
AcDbLine
 10
476.85077
 20
1241.591136
 30
0.0
 11
482.65977
 21
1241.591136
 31
0.0
  0
LINE
  5
40EF
100
AcDbEntity
  8
0
100
AcDbLine
 10
465.45977
 20
1206.187092
 30
0.0
 11
472.65977
 21
1206.187092
 31
0.0
  0
LINE
  5
40F0
100
AcDbEntity
  8
0
100
AcDbLine
 10
465.45977
 20
1229.187092
 30
0.0
 11
472.65977
 21
1229.187092
 31
0.0
  0
LINE
  5
40F1
100
AcDbEntity
  8
0
100
AcDbLine
 10
476.15977
 20
1244.148136
 30
0.0
 11
476.15977
 21
1231.530136
 31
0.0
  0
ARC
  5
40F2
100
AcDbEntity
  8
0
100
AcDbCircle
 10
489.665249
 20
1237.839136
 30
0.0
 40
13.352467
100
AcDbArc
 50
163.680297
 51
196.319703
  0
LINE
  5
40F3
100
AcDbEntity
  8
0
100
AcDbLine
 10
476.15977
 20
1203.844049
 30
0.0
 11
476.85077
 21
1205.040049
 31
0.0
  0
LINE
  5
40F4
100
AcDbEntity
  8
0
100
AcDbLine
 10
472.65977
 20
1206.187092
 30
0.0
 11
478.394986
 21
1205.040049
 31
0.0
  0
LINE
  5
40F5
100
AcDbEntity
  8
0
100
AcDbLine
 10
476.15977
 20
1231.530136
 30
0.0
 11
476.85077
 21
1230.334136
 31
0.0
  0
ARC
  5
40F6
100
AcDbEntity
  8
0
100
AcDbCircle
 10
479.853728
 20
1232.210636
 30
0.0
 40
3.541047
100
AcDbArc
 50
147.999406
 51
212.000594
  0
LINE
  5
40F7
100
AcDbEntity
  8
0
100
AcDbLine
 10
472.65977
 20
1229.187092
 30
0.0
 11
478.394986
 21
1230.334136
 31
0.0
  0
LINE
  5
40F8
100
AcDbEntity
  8
0
100
AcDbLine
 10
476.85077
 20
1245.345136
 30
0.0
 11
476.15977
 21
1244.148136
 31
0.0
  0
ARC
  5
40F9
100
AcDbEntity
  8
0
100
AcDbCircle
 10
479.853728
 20
1243.467636
 30
0.0
 40
3.541047
100
AcDbArc
 50
147.999406
 51
212.000594
  0
ARC
  5
40FA
100
AcDbEntity
  8
0
100
AcDbCircle
 10
499.15977
 20
1189.187092
 30
0.0
 40
1.5
100
AcDbArc
 50
270.0
 51
0.0
  0
ARC
  5
40FB
100
AcDbEntity
  8
0
100
AcDbCircle
 10
502.635576
 20
1191.776275
 30
0.0
 40
2.0
100
AcDbArc
 50
19.983107
 51
61.538431
  0
LINE
  5
40FC
100
AcDbEntity
  8
0
100
AcDbLine
 10
484.15977
 20
1187.687092
 30
0.0
 11
491.65977
 21
1187.687092
 31
0.0
  0
LINE
  5
40FD
100
AcDbEntity
  8
0
100
AcDbLine
 10
476.85077
 20
1193.783049
 30
0.0
 11
482.65977
 21
1193.783049
 31
0.0
  0
LINE
  5
40FE
100
AcDbEntity
  8
0
100
AcDbLine
 10
482.65977
 20
1190.029049
 30
0.0
 11
476.85077
 21
1190.029049
 31
0.0
  0
ARC
  5
40FF
100
AcDbEntity
  8
0
100
AcDbCircle
 10
484.15977
 20
1189.187092
 30
0.0
 40
1.5
100
AcDbArc
 50
180.0
 51
270.0
  0
LINE
  5
4100
100
AcDbEntity
  8
0
100
AcDbLine
 10
476.85077
 20
1201.287049
 30
0.0
 11
482.65977
 21
1201.287049
 31
0.0
  0
LINE
  5
4101
100
AcDbEntity
  8
0
100
AcDbLine
 10
499.15977
 20
1187.687092
 30
0.0
 11
491.65977
 21
1187.687092
 31
0.0
  0
ARC
  5
4102
100
AcDbEntity
  8
0
100
AcDbCircle
 10
489.665249
 20
1197.535049
 30
0.0
 40
13.352467
100
AcDbArc
 50
163.680297
 51
196.319703
  0
ARC
  5
4103
100
AcDbEntity
  8
0
100
AcDbCircle
 10
479.853728
 20
1191.906549
 30
0.0
 40
3.541047
100
AcDbArc
 50
147.999406
 51
212.000594
  0
LINE
  5
4104
100
AcDbEntity
  8
0
100
AcDbLine
 10
476.85077
 20
1190.029049
 30
0.0
 11
476.15977
 21
1191.226049
 31
0.0
  0
LINE
  5
4105
100
AcDbEntity
  8
0
100
AcDbLine
 10
500.65977
 20
1246.187092
 30
0.0
 11
500.65977
 21
1189.187092
 31
0.0
  0
LINE
  5
4106
100
AcDbEntity
  8
0
100
AcDbLine
 10
482.65977
 20
1246.187092
 30
0.0
 11
482.65977
 21
1189.187092
 31
0.0
  0
LINE
  5
4107
100
AcDbEntity
  8
0
100
AcDbLine
 10
491.65977
 20
1247.687092
 30
0.0
 11
491.65977
 21
1187.687092
 31
0.0
  0
LINE
  5
4108
100
AcDbEntity
  8
0
100
AcDbLine
 10
476.15977
 20
1191.226049
 30
0.0
 11
476.15977
 21
1203.844049
 31
0.0
  0
ARC
  5
4109
100
AcDbEntity
  8
0
100
AcDbCircle
 10
479.853728
 20
1203.163549
 30
0.0
 40
3.541047
100
AcDbArc
 50
147.999406
 51
212.000594
  0
ARC
  5
410A
100
AcDbEntity
  8
0
100
AcDbCircle
 10
547.65977
 20
1200.947877
 30
0.0
 40
4.0
100
AcDbArc
 50
0.0
 51
78.690068
  0
ARC
  5
410B
100
AcDbEntity
  8
0
100
AcDbCircle
 10
547.65977
 20
1234.426308
 30
0.0
 40
4.0
100
AcDbArc
 50
281.309932
 51
360.0
  0
ARC
  5
410C
100
AcDbEntity
  8
0
100
AcDbCircle
 10
522.15977
 20
1196.187092
 30
0.0
 40
3.0
100
AcDbArc
 50
90.0
 51
120.0
  0
ARC
  5
410D
100
AcDbEntity
  8
0
100
AcDbCircle
 10
518.605826
 20
1194.135222
 30
0.0
 40
3.0
100
AcDbArc
 50
120.0
 51
160.016893
  0
LINE
  5
410E
100
AcDbEntity
  8
0
100
AcDbLine
 10
515.786446
 20
1195.160451
 30
0.0
 11
514.15977
 21
1190.687092
 31
0.0
  0
LINE
  5
410F
100
AcDbEntity
  8
0
100
AcDbLine
 10
505.15977
 20
1190.687092
 30
0.0
 11
514.15977
 21
1190.687092
 31
0.0
  0
ARC
  5
4110
100
AcDbEntity
  8
0
100
AcDbCircle
 10
534.65977
 20
1203.187092
 30
0.0
 40
3.0
100
AcDbArc
 50
90.0
 51
180.0
  0
ARC
  5
4111
100
AcDbEntity
  8
0
100
AcDbCircle
 10
534.65977
 20
1232.187092
 30
0.0
 40
3.0
100
AcDbArc
 50
180.0
 51
270.0
  0
LINE
  5
4112
100
AcDbEntity
  8
0
100
AcDbLine
 10
531.65977
 20
1233.187092
 30
0.0
 11
531.65977
 21
1202.187092
 31
0.0
  0
ARC
  5
4113
100
AcDbEntity
  8
0
100
AcDbCircle
 10
528.65977
 20
1213.187092
 30
0.0
 40
3.0
100
AcDbArc
 50
270.0
 51
0.0
  0
ARC
  5
4114
100
AcDbEntity
  8
0
100
AcDbCircle
 10
528.65977
 20
1233.187092
 30
0.0
 40
3.0
100
AcDbArc
 50
0.0
 51
90.0
  0
ARC
  5
4115
100
AcDbEntity
  8
0
100
AcDbCircle
 10
528.65977
 20
1222.187092
 30
0.0
 40
3.0
100
AcDbArc
 50
0.0
 51
90.0
  0
LINE
  5
4116
100
AcDbEntity
  8
0
100
AcDbLine
 10
521.651262
 20
1232.523797
 30
0.0
 11
521.651262
 21
1228.187092
 31
0.0
  0
ARC
  5
4117
100
AcDbEntity
  8
0
100
AcDbCircle
 10
528.65977
 20
1239.187092
 30
0.0
 40
3.0
100
AcDbArc
 50
180.0
 51
270.0
  0
ARC
  5
4118
100
AcDbEntity
  8
0
100
AcDbCircle
 10
522.962123
 20
1237.661053
 30
0.0
 40
4.692762
100
AcDbArc
 50
256.55983
 51
333.087452
  0
LINE
  5
4119
100
AcDbEntity
  8
0
100
AcDbLine
 10
541.85977
 20
1206.187092
 30
0.0
 11
534.65977
 21
1206.187092
 31
0.0
  0
LINE
  5
411A
100
AcDbEntity
  8
0
100
AcDbLine
 10
541.85977
 20
1229.187092
 30
0.0
 11
534.65977
 21
1229.187092
 31
0.0
  0
LINE
  5
411B
100
AcDbEntity
  8
0
100
AcDbLine
 10
541.85977
 20
1206.187092
 30
0.0
 11
548.444234
 21
1204.8702
 31
0.0
  0
LINE
  5
411C
100
AcDbEntity
  8
0
100
AcDbLine
 10
541.85977
 20
1229.187092
 30
0.0
 11
548.444234
 21
1230.503985
 31
0.0
  0
LINE
  5
411D
100
AcDbEntity
  8
0
100
AcDbLine
 10
525.65977
 20
1251.687092
 30
0.0
 11
525.65977
 21
1239.187092
 31
0.0
  0
ARC
  5
411E
100
AcDbEntity
  8
0
100
AcDbCircle
 10
512.999507
 20
1250.984761
 30
0.0
 40
17.758844
100
AcDbArc
 50
251.301893
 51
281.397534
  0
LINE
  5
411F
100
AcDbEntity
  8
0
100
AcDbLine
 10
506.98277
 20
1233.839636
 30
0.0
 11
506.98277
 21
1241.839636
 31
0.0
  0
LINE
  5
4120
100
AcDbEntity
  8
0
100
AcDbLine
 10
507.65977
 20
1241.162636
 30
0.0
 11
507.65977
 21
1234.516636
 31
0.0
  0
LINE
  5
4121
100
AcDbEntity
  8
0
100
AcDbLine
 10
507.65977
 20
1234.516636
 30
0.0
 11
506.98277
 21
1233.839636
 31
0.0
  0
LINE
  5
4122
100
AcDbEntity
  8
0
100
AcDbLine
 10
506.98277
 20
1241.839636
 30
0.0
 11
507.65977
 21
1241.162636
 31
0.0
  0
ARC
  5
4123
100
AcDbEntity
  8
0
100
AcDbCircle
 10
520.617007
 20
1207.187092
 30
0.0
 40
3.0
100
AcDbArc
 50
90.0
 51
180.0
  0
LINE
  5
4124
100
AcDbEntity
  8
0
100
AcDbLine
 10
517.617007
 20
1232.523797
 30
0.0
 11
517.617007
 21
1228.187092
 31
0.0
  0
ARC
  5
4125
100
AcDbEntity
  8
0
100
AcDbCircle
 10
520.617007
 20
1228.187092
 30
0.0
 40
3.0
100
AcDbArc
 50
180.0
 51
270.0
  0
ARC
  5
4126
100
AcDbEntity
  8
0
100
AcDbCircle
 10
524.651262
 20
1207.187092
 30
0.0
 40
3.0
100
AcDbArc
 50
90.0
 51
180.0
  0
LINE
  5
4127
100
AcDbEntity
  8
0
100
AcDbLine
 10
528.65977
 20
1210.187092
 30
0.0
 11
520.617007
 21
1210.187092
 31
0.0
  0
ARC
  5
4128
100
AcDbEntity
  8
0
100
AcDbCircle
 10
524.651262
 20
1228.187092
 30
0.0
 40
3.0
100
AcDbArc
 50
180.0
 51
270.0
  0
ARC
  5
4129
100
AcDbEntity
  8
0
100
AcDbCircle
 10
518.803452
 20
1229.010144
 30
0.0
 40
5.110093
100
AcDbArc
 50
53.103793
 51
116.680753
  0
LINE
  5
412A
100
AcDbEntity
  8
0
100
AcDbLine
 10
528.65977
 20
1225.187092
 30
0.0
 11
520.617007
 21
1225.187092
 31
0.0
  0
LINE
  5
412B
100
AcDbEntity
  8
0
100
AcDbLine
 10
528.65977
 20
1199.187092
 30
0.0
 11
522.15977
 21
1199.187092
 31
0.0
  0
LINE
  5
412C
100
AcDbEntity
  8
0
100
AcDbLine
 10
507.65977
 20
1194.211549
 30
0.0
 11
507.65977
 21
1200.857549
 31
0.0
  0
LINE
  5
412D
100
AcDbEntity
  8
0
100
AcDbLine
 10
506.98277
 20
1201.534549
 30
0.0
 11
506.98277
 21
1193.534549
 31
0.0
  0
LINE
  5
412E
100
AcDbEntity
  8
0
100
AcDbLine
 10
520.65977
 20
1198.785169
 30
0.0
 11
517.105826
 21
1196.733298
 31
0.0
  0
ARC
  5
412F
100
AcDbEntity
  8
0
100
AcDbCircle
 10
509.203867
 20
1187.211542
 30
0.0
 40
11.133419
100
AcDbArc
 50
61.121673
 51
97.972069
  0
LINE
  5
4130
100
AcDbEntity
  8
0
100
AcDbLine
 10
506.98277
 20
1193.534549
 30
0.0
 11
507.65977
 21
1194.211549
 31
0.0
  0
LINE
  5
4131
100
AcDbEntity
  8
0
100
AcDbLine
 10
507.65977
 20
1200.857549
 30
0.0
 11
506.98277
 21
1201.534549
 31
0.0
  0
ARC
  5
4132
100
AcDbEntity
  8
0
100
AcDbCircle
 10
528.65977
 20
1202.187092
 30
0.0
 40
3.0
100
AcDbArc
 50
270.0
 51
0.0
  0
LINE
  5
4133
100
AcDbEntity
  8
0
100
AcDbLine
 10
517.617007
 20
1198.769133
 30
0.0
 11
517.617007
 21
1207.187092
 31
0.0
  0
LINE
  5
4134
100
AcDbEntity
  8
0
100
AcDbLine
 10
521.651262
 20
1200.705314
 30
0.0
 11
521.651262
 21
1207.187092
 31
0.0
  0
LINE
  5
4135
100
AcDbEntity
  8
0
100
AcDbLine
 10
563.65977
 20
1217.687092
 30
0.0
 11
563.65977
 21
1170.187092
 31
0.0
  0
CIRCLE
  5
4136
100
AcDbEntity
  8
0
100
AcDbCircle
 10
749.928297
 20
1192.889714
 30
0.0
 40
7.5
  0
CIRCLE
  5
4137
100
AcDbEntity
  8
0
100
AcDbCircle
 10
700.528297
 20
1192.889714
 30
0.0
 40
7.5
  0
CIRCLE
  5
4138
100
AcDbEntity
  8
0
100
AcDbCircle
 10
700.528297
 20
1242.484471
 30
0.0
 40
7.5
  0
CIRCLE
  5
4139
100
AcDbEntity
  8
0
100
AcDbCircle
 10
749.928297
 20
1242.484471
 30
0.0
 40
7.5
  0
CIRCLE
  5
413A
100
AcDbEntity
  8
0
100
AcDbCircle
 10
1045.428749
 20
1191.170588
 30
0.0
 40
7.5
  0
CIRCLE
  5
413B
100
AcDbEntity
  8
0
100
AcDbCircle
 10
992.395741
 20
1191.170588
 30
0.0
 40
7.5
  0
CIRCLE
  5
413C
100
AcDbEntity
  8
0
100
AcDbCircle
 10
992.395741
 20
1244.203597
 30
0.0
 40
7.5
  0
CIRCLE
  5
413D
100
AcDbEntity
  8
0
100
AcDbCircle
 10
1045.428749
 20
1244.203597
 30
0.0
 40
7.5
  0
CIRCLE
  5
413F
100
AcDbEntity
  8
0
100
AcDbCircle
 10
1476.565804
 20
1244.203597
 30
0.0
 40
7.5
  0
CIRCLE
  5
4140
100
AcDbEntity
  8
0
100
AcDbCircle
 10
1476.565804
 20
1191.170588
 30
0.0
 40
7.5
  0
TEXT
  5
4141
100
AcDbEntity
  8
0
100
AcDbText
 10
1221.574562
 20
1120.510249
 30
0.0
 40
20.0
  1
20A
 41
0.8
 72
     4
 11
1242.907896
 21
1130.510249
 31
0.0
100
AcDbText
  0
LINE
  5
4142
100
AcDbEntity
  8
0
100
AcDbLine
 10
1279.480772
 20
1202.687092
 30
0.0
 11
1272.618026
 21
1202.687092
 31
0.0
  0
LINE
  5
4143
100
AcDbEntity
  8
0
100
AcDbLine
 10
1279.480772
 20
1232.687092
 30
0.0
 11
1272.618026
 21
1232.687092
 31
0.0
  0
LINE
  5
4145
100
AcDbEntity
  8
0
100
AcDbLine
 10
1182.480772
 20
1167.687092
 30
0.0
 11
1168.480772
 21
1167.687092
 31
0.0
  0
LINE
  5
4146
100
AcDbEntity
  8
0
100
AcDbLine
 10
1168.480772
 20
1217.687092
 30
0.0
 11
1168.480772
 21
1167.687092
 31
0.0
  0
ARC
  5
4147
100
AcDbEntity
  8
0
100
AcDbCircle
 10
1211.311096
 20
1188.052229
 30
0.0
 40
4.630982
100
AcDbArc
 50
148.000676
 51
211.999324
  0
LINE
  5
4148
100
AcDbEntity
  8
0
100
AcDbLine
 10
1207.383772
 20
1185.598229
 30
0.0
 11
1206.479772
 21
1187.163229
 31
0.0
  0
LINE
  5
4149
100
AcDbEntity
  8
0
100
AcDbLine
 10
1233.480772
 20
1184.687092
 30
0.0
 11
1233.480772
 21
1250.687092
 31
0.0
  0
LINE
  5
414A
100
AcDbEntity
  8
0
100
AcDbLine
 10
1213.480772
 20
1183.187092
 30
0.0
 11
1213.480772
 21
1252.187092
 31
0.0
  0
LINE
  5
414B
100
AcDbEntity
  8
0
100
AcDbLine
 10
1223.480772
 20
1183.187092
 30
0.0
 11
1223.480772
 21
1252.187092
 31
0.0
  0
LINE
  5
414C
100
AcDbEntity
  8
0
100
AcDbLine
 10
1213.480772
 20
1183.187092
 30
0.0
 11
1223.480772
 21
1183.187092
 31
0.0
  0
LINE
  5
414D
100
AcDbEntity
  8
0
100
AcDbLine
 10
1213.480772
 20
1185.598229
 30
0.0
 11
1207.383772
 21
1185.598229
 31
0.0
  0
ARC
  5
414E
100
AcDbEntity
  8
0
100
AcDbCircle
 10
1231.980772
 20
1184.687092
 30
0.0
 40
1.5
100
AcDbArc
 50
270.0
 51
0.0
  0
LINE
  5
414F
100
AcDbEntity
  8
0
100
AcDbLine
 10
1231.980772
 20
1183.187092
 30
0.0
 11
1223.480772
 21
1183.187092
 31
0.0
  0
LINE
  5
4150
100
AcDbEntity
  8
0
100
AcDbLine
 10
1213.480772
 20
1252.187092
 30
0.0
 11
1223.480772
 21
1252.187092
 31
0.0
  0
LINE
  5
4151
100
AcDbEntity
  8
0
100
AcDbLine
 10
1207.383772
 20
1249.775956
 30
0.0
 11
1206.479772
 21
1248.210956
 31
0.0
  0
ARC
  5
4152
100
AcDbEntity
  8
0
100
AcDbCircle
 10
1211.311096
 20
1247.321956
 30
0.0
 40
4.630982
100
AcDbArc
 50
148.000676
 51
211.999324
  0
LINE
  5
4153
100
AcDbEntity
  8
0
100
AcDbLine
 10
1213.480772
 20
1249.775956
 30
0.0
 11
1207.383772
 21
1249.775956
 31
0.0
  0
LINE
  5
4154
100
AcDbEntity
  8
0
100
AcDbLine
 10
1207.383772
 20
1244.867956
 30
0.0
 11
1213.480772
 21
1244.867956
 31
0.0
  0
LINE
  5
4155
100
AcDbEntity
  8
0
100
AcDbLine
 10
1192.480772
 20
1232.687092
 30
0.0
 11
1203.480772
 21
1232.687092
 31
0.0
  0
LINE
  5
4156
100
AcDbEntity
  8
0
100
AcDbLine
 10
1192.480772
 20
1202.687092
 30
0.0
 11
1203.480772
 21
1202.687092
 31
0.0
  0
LINE
  5
4157
100
AcDbEntity
  8
0
100
AcDbLine
 10
1206.479772
 20
1203.663229
 30
0.0
 11
1207.383772
 21
1205.228229
 31
0.0
  0
ARC
  5
4158
100
AcDbEntity
  8
0
100
AcDbCircle
 10
1211.311096
 20
1202.774229
 30
0.0
 40
4.630982
100
AcDbArc
 50
148.000676
 51
211.999324
  0
LINE
  5
4159
100
AcDbEntity
  8
0
100
AcDbLine
 10
1206.479772
 20
1202.087292
 30
0.0
 11
1203.480772
 21
1202.687092
 31
0.0
  0
ARC
  5
415A
100
AcDbEntity
  8
0
100
AcDbCircle
 10
1211.311096
 20
1232.599956
 30
0.0
 40
4.630982
100
AcDbArc
 50
148.000676
 51
211.999324
  0
LINE
  5
415B
100
AcDbEntity
  8
0
100
AcDbLine
 10
1206.479772
 20
1231.710956
 30
0.0
 11
1207.383772
 21
1230.145956
 31
0.0
  0
LINE
  5
415C
100
AcDbEntity
  8
0
100
AcDbLine
 10
1206.479772
 20
1233.286892
 30
0.0
 11
1203.480772
 21
1232.687092
 31
0.0
  0
LINE
  5
415D
100
AcDbEntity
  8
0
100
AcDbLine
 10
1207.383772
 20
1205.228229
 30
0.0
 11
1213.480772
 21
1205.228229
 31
0.0
  0
LINE
  5
415E
100
AcDbEntity
  8
0
100
AcDbLine
 10
1207.383772
 20
1200.320229
 30
0.0
 11
1213.480772
 21
1200.320229
 31
0.0
  0
LINE
  5
415F
100
AcDbEntity
  8
0
100
AcDbLine
 10
1207.383772
 20
1235.053956
 30
0.0
 11
1213.480772
 21
1235.053956
 31
0.0
  0
LINE
  5
4160
100
AcDbEntity
  8
0
100
AcDbLine
 10
1207.383772
 20
1230.145956
 30
0.0
 11
1213.480772
 21
1230.145956
 31
0.0
  0
LINE
  5
4161
100
AcDbEntity
  8
0
100
AcDbLine
 10
1206.479772
 20
1248.210956
 30
0.0
 11
1206.479772
 21
1231.710956
 31
0.0
  0
ARC
  5
4162
100
AcDbEntity
  8
0
100
AcDbCircle
 10
1224.142764
 20
1239.960956
 30
0.0
 40
17.462601
100
AcDbArc
 50
163.680072
 51
196.319928
  0
ARC
  5
4163
100
AcDbEntity
  8
0
100
AcDbCircle
 10
1186.480772
 20
1237.966308
 30
0.0
 40
4.0
100
AcDbArc
 50
180.0
 51
258.690068
  0
LINE
  5
4164
100
AcDbEntity
  8
0
100
AcDbLine
 10
1192.480772
 20
1202.687092
 30
0.0
 11
1185.696308
 21
1201.3302
 31
0.0
  0
LINE
  5
4165
100
AcDbEntity
  8
0
100
AcDbLine
 10
1192.480772
 20
1232.687092
 30
0.0
 11
1185.696308
 21
1234.043985
 31
0.0
  0
LINE
  5
4166
100
AcDbEntity
  8
0
100
AcDbLine
 10
1207.383772
 20
1190.506229
 30
0.0
 11
1213.480772
 21
1190.506229
 31
0.0
  0
ARC
  5
4167
100
AcDbEntity
  8
0
100
AcDbCircle
 10
1186.480772
 20
1197.407877
 30
0.0
 40
4.0
100
AcDbArc
 50
101.309932
 51
180.0
  0
ARC
  5
4168
100
AcDbEntity
  8
0
100
AcDbCircle
 10
1224.142764
 20
1195.413229
 30
0.0
 40
17.462601
100
AcDbArc
 50
163.680072
 51
196.319928
  0
LINE
  5
4169
100
AcDbEntity
  8
0
100
AcDbLine
 10
1206.479772
 20
1187.163229
 30
0.0
 11
1206.479772
 21
1203.663229
 31
0.0
  0
LINE
  5
416A
100
AcDbEntity
  8
0
100
AcDbLine
 10
1237.668772
 20
1244.960956
 30
0.0
 11
1238.480772
 21
1244.148956
 31
0.0
  0
LINE
  5
416B
100
AcDbEntity
  8
0
100
AcDbLine
 10
1233.480772
 20
1244.960956
 30
0.0
 11
1237.668772
 21
1244.960956
 31
0.0
  0
ARC
  5
416C
100
AcDbEntity
  8
0
100
AcDbCircle
 10
1256.992464
 20
1241.09522
 30
0.0
 40
5.468086
100
AcDbArc
 50
271.337017
 51
331.47791
  0
LINE
  5
416D
100
AcDbEntity
  8
0
100
AcDbLine
 10
1265.680772
 20
1208.687092
 30
0.0
 11
1256.653382
 21
1208.687092
 31
0.0
  0
LINE
  5
416E
100
AcDbEntity
  8
0
100
AcDbLine
 10
1265.680772
 20
1226.687092
 30
0.0
 11
1256.653382
 21
1226.687092
 31
0.0
  0
ARC
  5
416F
100
AcDbEntity
  8
0
100
AcDbCircle
 10
1260.172264
 20
1205.687092
 30
0.0
 40
3.0
100
AcDbArc
 50
90.0
 51
180.0
  0
LINE
  5
4170
100
AcDbEntity
  8
0
100
AcDbLine
 10
1257.172264
 20
1232.546937
 30
0.0
 11
1257.172264
 21
1229.687092
 31
0.0
  0
ARC
  5
4171
100
AcDbEntity
  8
0
100
AcDbCircle
 10
1260.172264
 20
1229.687092
 30
0.0
 40
3.0
100
AcDbArc
 50
180.0
 51
270.0
  0
LINE
  5
4172
100
AcDbEntity
  8
0
100
AcDbLine
 10
1268.680772
 20
1199.392806
 30
0.0
 11
1268.680772
 21
1235.981379
 31
0.0
  0
ARC
  5
4173
100
AcDbEntity
  8
0
100
AcDbCircle
 10
1272.618026
 20
1198.687092
 30
0.0
 40
4.0
100
AcDbArc
 50
90.0
 51
172.819244
  0
ARC
  5
4174
100
AcDbEntity
  8
0
100
AcDbCircle
 10
1265.680772
 20
1211.687092
 30
0.0
 40
3.0
100
AcDbArc
 50
270.0
 51
0.0
  0
ARC
  5
4175
100
AcDbEntity
  8
0
100
AcDbCircle
 10
1272.618026
 20
1236.687092
 30
0.0
 40
4.0
100
AcDbArc
 50
187.180756
 51
270.0
  0
ARC
  5
4176
100
AcDbEntity
  8
0
100
AcDbCircle
 10
1265.680772
 20
1223.687092
 30
0.0
 40
3.0
100
AcDbArc
 50
0.0
 51
90.0
  0
LINE
  5
4177
100
AcDbEntity
  8
0
100
AcDbLine
 10
1264.680772
 20
1239.687092
 30
0.0
 11
1263.480772
 21
1239.687092
 31
0.0
  0
ARC
  5
4178
100
AcDbEntity
  8
0
100
AcDbCircle
 10
1246.753896
 20
1246.065152
 30
0.0
 40
11.591492
100
AcDbArc
 50
224.46129
 51
291.284954
  0
LINE
  5
4179
100
AcDbEntity
  8
0
100
AcDbLine
 10
1238.480772
 20
1199.601229
 30
0.0
 11
1237.668772
 21
1200.413229
 31
0.0
  0
LINE
  5
417A
100
AcDbEntity
  8
0
100
AcDbLine
 10
1237.668772
 20
1200.413229
 30
0.0
 11
1233.480772
 21
1200.413229
 31
0.0
  0
LINE
  5
417B
100
AcDbEntity
  8
0
100
AcDbLine
 10
1238.480772
 20
1235.772956
 30
0.0
 11
1237.668772
 21
1234.960956
 31
0.0
  0
LINE
  5
417C
100
AcDbEntity
  8
0
100
AcDbLine
 10
1237.668772
 20
1234.960956
 30
0.0
 11
1233.480772
 21
1234.960956
 31
0.0
  0
LINE
  5
417D
100
AcDbEntity
  8
0
100
AcDbLine
 10
1253.653382
 20
1232.546937
 30
0.0
 11
1253.653382
 21
1229.687092
 31
0.0
  0
ARC
  5
417E
100
AcDbEntity
  8
0
100
AcDbCircle
 10
1256.653382
 20
1205.687092
 30
0.0
 40
3.0
100
AcDbArc
 50
90.0
 51
180.0
  0
ARC
  5
417F
100
AcDbEntity
  8
0
100
AcDbCircle
 10
1254.66717
 20
1224.858139
 30
0.0
 40
11.046265
100
AcDbArc
 50
77.170218
 51
109.599995
  0
ARC
  5
4180
100
AcDbEntity
  8
0
100
AcDbCircle
 10
1256.653382
 20
1229.687092
 30
0.0
 40
3.0
100
AcDbArc
 50
180.0
 51
270.0
  0
LINE
  5
4181
100
AcDbEntity
  8
0
100
AcDbLine
 10
1238.480772
 20
1244.148956
 30
0.0
 11
1238.480772
 21
1235.772956
 31
0.0
  0
LINE
  5
4182
100
AcDbEntity
  8
0
100
AcDbLine
 10
1237.668772
 20
1234.960956
 30
0.0
 11
1237.668772
 21
1244.960956
 31
0.0
  0
ARC
  5
4183
100
AcDbEntity
  8
0
100
AcDbCircle
 10
1264.680772
 20
1235.687092
 30
0.0
 40
4.0
100
AcDbArc
 50
7.180756
 51
90.0
  0
ARC
  5
4184
100
AcDbEntity
  8
0
100
AcDbCircle
 10
1263.480772
 20
1242.687092
 30
0.0
 40
3.0
100
AcDbArc
 50
180.0
 51
270.0
  0
LINE
  5
4185
100
AcDbEntity
  8
0
100
AcDbLine
 10
1231.980772
 20
1252.187092
 30
0.0
 11
1223.480772
 21
1252.187092
 31
0.0
  0
LINE
  5
4186
100
AcDbEntity
  8
0
100
AcDbLine
 10
1264.680772
 20
1195.687092
 30
0.0
 11
1257.948721
 21
1195.687092
 31
0.0
  0
LINE
  5
4187
100
AcDbEntity
  8
0
100
AcDbLine
 10
1254.376925
 20
1194.089016
 30
0.0
 11
1256.448721
 21
1195.285169
 31
0.0
  0
ARC
  5
4188
100
AcDbEntity
  8
0
100
AcDbCircle
 10
1257.948721
 20
1192.687092
 30
0.0
 40
3.0
100
AcDbArc
 50
90.0
 51
120.0
  0
LINE
  5
4189
100
AcDbEntity
  8
0
100
AcDbLine
 10
1248.952777
 20
1193.239045
 30
0.0
 11
1238.480772
 21
1193.239045
 31
0.0
  0
LINE
  5
418A
100
AcDbEntity
  8
0
100
AcDbLine
 10
1247.980772
 20
1187.687092
 30
0.0
 11
1238.980772
 21
1187.687092
 31
0.0
  0
ARC
  5
418B
100
AcDbEntity
  8
0
100
AcDbCircle
 10
1235.980772
 20
1188.096923
 30
0.0
 40
2.5
100
AcDbArc
 50
112.100928
 51
180.0
  0
LINE
  5
418C
100
AcDbEntity
  8
0
100
AcDbLine
 10
1237.668772
 20
1190.413229
 30
0.0
 11
1238.480772
 21
1191.225229
 31
0.0
  0
LINE
  5
418D
100
AcDbEntity
  8
0
100
AcDbLine
 10
1233.480772
 20
1190.413229
 30
0.0
 11
1237.668772
 21
1190.413229
 31
0.0
  0
ARC
  5
418E
100
AcDbEntity
  8
0
100
AcDbCircle
 10
1235.980772
 20
1188.096923
 30
0.0
 40
2.5
100
AcDbArc
 50
26.565051
 51
67.899072
  0
LINE
  5
418F
100
AcDbEntity
  8
0
100
AcDbLine
 10
1238.980772
 20
1187.687092
 30
0.0
 11
1238.21684
 21
1189.214957
 31
0.0
  0
LINE
  5
4190
100
AcDbEntity
  8
0
100
AcDbLine
 10
1252.876925
 20
1193.687092
 30
0.0
 11
1252.834874
 21
1193.687092
 31
0.0
  0
LINE
  5
4191
100
AcDbEntity
  8
0
100
AcDbLine
 10
1247.980772
 20
1187.687092
 30
0.0
 11
1250.151593
 21
1192.028733
 31
0.0
  0
ARC
  5
4192
100
AcDbEntity
  8
0
100
AcDbCircle
 10
1252.834874
 20
1190.687092
 30
0.0
 40
3.0
100
AcDbArc
 50
90.0
 51
153.434949
  0
ARC
  5
4193
100
AcDbEntity
  8
0
100
AcDbCircle
 10
1252.876925
 20
1196.687092
 30
0.0
 40
3.0
100
AcDbArc
 50
270.0
 51
300.0
  0
LINE
  5
4194
100
AcDbEntity
  8
0
100
AcDbLine
 10
1237.668772
 20
1200.413229
 30
0.0
 11
1237.668772
 21
1190.413229
 31
0.0
  0
LINE
  5
4195
100
AcDbEntity
  8
0
100
AcDbLine
 10
1238.480772
 20
1191.225229
 30
0.0
 11
1238.480772
 21
1199.601229
 31
0.0
  0
ARC
  5
4196
100
AcDbEntity
  8
0
100
AcDbCircle
 10
1264.680772
 20
1199.687092
 30
0.0
 40
4.0
100
AcDbArc
 50
270.0
 51
352.819244
  0
LINE
  5
4197
100
AcDbEntity
  8
0
100
AcDbLine
 10
1257.172264
 20
1197.605314
 30
0.0
 11
1257.172264
 21
1205.687092
 31
0.0
  0
LINE
  5
4198
100
AcDbEntity
  8
0
100
AcDbLine
 10
1253.653382
 20
1196.16887
 30
0.0
 11
1253.653382
 21
1205.687092
 31
0.0
  0
LINE
  5
4199
100
AcDbEntity
  8
0
100
AcDbLine
 10
1303.480772
 20
1217.687092
 30
0.0
 11
1303.480772
 21
1167.687092
 31
0.0
  0
LINE
  5
419A
100
AcDbEntity
  8
0
100
AcDbLine
 10
1289.480772
 20
1167.687092
 30
0.0
 11
1303.480772
 21
1167.687092
 31
0.0
  0
LINE
  5
419B
100
AcDbEntity
  8
0
100
AcDbLine
 10
1279.480772
 20
1202.687092
 30
0.0
 11
1286.265237
 21
1201.3302
 31
0.0
  0
LINE
  5
419C
100
AcDbEntity
  8
0
100
AcDbLine
 10
1279.480772
 20
1232.687092
 30
0.0
 11
1286.265237
 21
1234.043985
 31
0.0
  0
ARC
  5
419D
100
AcDbEntity
  8
0
100
AcDbCircle
 10
1285.480772
 20
1237.966308
 30
0.0
 40
4.0
100
AcDbArc
 50
281.309932
 51
0.0
  0
ARC
  5
419E
100
AcDbEntity
  8
0
100
AcDbCircle
 10
1285.480772
 20
1197.407877
 30
0.0
 40
4.0
100
AcDbArc
 50
0.0
 51
78.690068
  0
CIRCLE
  5
419F
100
AcDbEntity
  8
0
100
AcDbCircle
 10
1423.532795
 20
1191.170588
 30
0.0
 40
7.5
  0
CIRCLE
  5
41A0
100
AcDbEntity
  8
0
100
AcDbCircle
 10
1423.532795
 20
1244.203597
 30
0.0
 40
7.5
  0
CIRCLE
  5
41A1
100
AcDbEntity
  8
0
100
AcDbCircle
 10
1836.565346
 20
1185.867287
 30
0.0
 40
9.5
  0
CIRCLE
  5
41A2
100
AcDbEntity
  8
0
100
AcDbCircle
 10
1772.925735
 20
1185.867287
 30
0.0
 40
9.5
  0
TEXT
  5
41A3
100
AcDbEntity
  8
0
100
AcDbText
 10
2003.951294
 20
1120.701306
 30
0.0
 40
20.0
  1
25A
 41
0.8
 72
     4
 11
2025.284627
 21
1130.701306
 31
0.0
100
AcDbText
  0
LINE
  5
41A4
100
AcDbEntity
  8
0
100
AcDbLine
 10
2053.779068
 20
1239.967092
 30
0.0
 11
2050.314068
 21
1239.857092
 31
0.0
  0
LINE
  5
41A5
100
AcDbEntity
  8
0
100
AcDbLine
 10
2050.314068
 20
1227.687092
 30
0.0
 11
2064.314068
 21
1227.687092
 31
0.0
  0
LINE
  5
41A6
100
AcDbEntity
  8
0
100
AcDbLine
 10
2064.314068
 20
1207.687092
 30
0.0
 11
2050.314068
 21
1207.687092
 31
0.0
  0
LINE
  5
41A7
100
AcDbEntity
  8
0
100
AcDbLine
 10
2053.083068
 20
1191.777092
 30
0.0
 11
2051.011068
 21
1190.587092
 31
0.0
  0
LINE
  5
41A8
100
AcDbEntity
  8
0
100
AcDbLine
 10
1954.314068
 20
1217.687092
 30
0.0
 11
1954.314068
 21
1155.187092
 31
0.0
  0
LINE
  5
41A9
100
AcDbEntity
  8
0
100
AcDbLine
 10
2047.781734
 20
1190.187092
 30
0.0
 11
2043.815068
 21
1181.687092
 31
0.0
  0
LINE
  5
41AA
100
AcDbEntity
  8
0
100
AcDbLine
 10
2034.314068
 20
1187.178248
 30
0.0
 11
2033.367068
 21
1186.231248
 31
0.0
  0
LINE
  5
41AB
100
AcDbEntity
  8
0
100
AcDbLine
 10
1996.314068
 20
1201.452248
 30
0.0
 11
1996.314068
 21
1183.010248
 31
0.0
  0
ARC
  5
41AC
100
AcDbEntity
  8
0
100
AcDbCircle
 10
2016.053837
 20
1192.231248
 30
0.0
 40
19.516109
100
AcDbArc
 50
163.680185
 51
196.319815
  0
LINE
  5
41AD
100
AcDbEntity
  8
0
100
AcDbLine
 10
1997.324068
 20
1186.747248
 30
0.0
 11
2004.314068
 21
1186.747248
 31
0.0
  0
LINE
  5
41AE
100
AcDbEntity
  8
0
100
AcDbLine
 10
1997.324068
 20
1181.261248
 30
0.0
 11
2004.314068
 21
1181.261248
 31
0.0
  0
LINE
  5
41AF
100
AcDbEntity
  8
0
100
AcDbLine
 10
1954.314068
 20
1155.187092
 30
0.0
 11
1968.314068
 21
1155.187092
 31
0.0
  0
LINE
  5
41B0
100
AcDbEntity
  8
0
100
AcDbLine
 10
1996.314068
 20
1183.010248
 30
0.0
 11
1997.324068
 21
1181.261248
 31
0.0
  0
ARC
  5
41B1
100
AcDbEntity
  8
0
100
AcDbCircle
 10
2001.713864
 20
1184.004248
 30
0.0
 40
5.176327
100
AcDbArc
 50
148.000464
 51
211.999536
  0
LINE
  5
41B2
100
AcDbEntity
  8
0
100
AcDbLine
 10
2034.815068
 20
1181.687092
 30
0.0
 11
2033.080068
 21
1185.397092
 31
0.0
  0
ARC
  5
41B3
100
AcDbEntity
  8
0
100
AcDbCircle
 10
2030.822639
 20
1184.30212
 30
0.0
 40
2.508974
100
AcDbArc
 50
25.875838
 51
50.254434
  0
ARC
  5
41B4
100
AcDbEntity
  8
0
100
AcDbCircle
 10
2030.822639
 20
1184.30212
 30
0.0
 40
2.508974
100
AcDbArc
 50
129.745566
 51
178.972939
  0
LINE
  5
41B5
100
AcDbEntity
  8
0
100
AcDbLine
 10
2033.367068
 20
1186.231248
 30
0.0
 11
2028.314068
 21
1186.231248
 31
0.0
  0
LINE
  5
41B6
100
AcDbEntity
  8
0
100
AcDbLine
 10
2043.815068
 20
1181.687092
 30
0.0
 11
2034.815068
 21
1181.687092
 31
0.0
  0
LINE
  5
41B7
100
AcDbEntity
  8
0
100
AcDbLine
 10
2028.314068
 20
1179.187092
 30
0.0
 11
2004.314068
 21
1179.187092
 31
0.0
  0
LINE
  5
41B8
100
AcDbEntity
  8
0
100
AcDbLine
 10
1997.324068
 20
1248.626937
 30
0.0
 11
2004.314068
 21
1248.626937
 31
0.0
  0
LINE
  5
41B9
100
AcDbEntity
  8
0
100
AcDbLine
 10
1997.324068
 20
1237.658937
 30
0.0
 11
2004.314068
 21
1237.658937
 31
0.0
  0
LINE
  5
41BA
100
AcDbEntity
  8
0
100
AcDbLine
 10
1997.324068
 20
1232.172937
 30
0.0
 11
2004.314068
 21
1232.172937
 31
0.0
  0
LINE
  5
41BB
100
AcDbEntity
  8
0
100
AcDbLine
 10
1997.324068
 20
1197.715248
 30
0.0
 11
2004.314068
 21
1197.715248
 31
0.0
  0
LINE
  5
41BC
100
AcDbEntity
  8
0
100
AcDbLine
 10
2004.314068
 20
1203.201248
 30
0.0
 11
1997.324068
 21
1203.201248
 31
0.0
  0
LINE
  5
41BD
100
AcDbEntity
  8
0
100
AcDbLine
 10
1989.314068
 20
1235.187092
 30
0.0
 11
1996.314068
 21
1236.582935
 31
0.0
  0
LINE
  5
41BE
100
AcDbEntity
  8
0
100
AcDbLine
 10
1983.314068
 20
1235.187092
 30
0.0
 11
1989.314068
 21
1235.187092
 31
0.0
  0
LINE
  5
41BF
100
AcDbEntity
  8
0
100
AcDbLine
 10
1996.314068
 20
1252.363937
 30
0.0
 11
1996.314068
 21
1233.921937
 31
0.0
  0
ARC
  5
41C0
100
AcDbEntity
  8
0
100
AcDbCircle
 10
2016.053837
 20
1243.142937
 30
0.0
 40
19.516109
100
AcDbArc
 50
163.680185
 51
196.319815
  0
LINE
  5
41C1
100
AcDbEntity
  8
0
100
AcDbLine
 10
1996.314068
 20
1233.921937
 30
0.0
 11
1997.324068
 21
1232.172937
 31
0.0
  0
ARC
  5
41C2
100
AcDbEntity
  8
0
100
AcDbCircle
 10
2001.713864
 20
1234.915937
 30
0.0
 40
5.176327
100
AcDbArc
 50
148.000464
 51
211.999536
  0
LINE
  5
41C3
100
AcDbEntity
  8
0
100
AcDbLine
 10
1996.314068
 20
1198.785308
 30
0.0
 11
1989.314056
 21
1200.187092
 31
0.0
  0
LINE
  5
41C4
100
AcDbEntity
  8
0
100
AcDbLine
 10
1989.314068
 20
1200.187092
 30
0.0
 11
1983.314068
 21
1200.187092
 31
0.0
  0
ARC
  5
41C5
100
AcDbEntity
  8
0
100
AcDbCircle
 10
2001.713864
 20
1200.458248
 30
0.0
 40
5.176327
100
AcDbArc
 50
148.000464
 51
211.999536
  0
LINE
  5
41C6
100
AcDbEntity
  8
0
100
AcDbLine
 10
1997.324068
 20
1203.201248
 30
0.0
 11
1996.314068
 21
1201.452248
 31
0.0
  0
LINE
  5
41C7
100
AcDbEntity
  8
0
100
AcDbLine
 10
1989.314068
 20
1204.017092
 30
0.0
 11
1989.314068
 21
1231.347092
 31
0.0
  0
LINE
  5
41C8
100
AcDbEntity
  8
0
100
AcDbLine
 10
1983.314068
 20
1204.017092
 30
0.0
 11
1983.314068
 21
1231.347092
 31
0.0
  0
ARC
  5
41C9
100
AcDbEntity
  8
0
100
AcDbCircle
 10
1972.314068
 20
1241.459508
 30
0.0
 40
4.0
100
AcDbArc
 50
180.0
 51
258.721862
  0
ARC
  5
41CA
100
AcDbEntity
  8
0
100
AcDbCircle
 10
1972.314068
 20
1193.904677
 30
0.0
 40
4.0
100
AcDbArc
 50
101.278138
 51
180.0
  0
LINE
  5
41CB
100
AcDbEntity
  8
0
100
AcDbLine
 10
1971.53178
 20
1237.536751
 30
0.0
 11
1983.314068
 21
1235.187092
 31
0.0
  0
LINE
  5
41CC
100
AcDbEntity
  8
0
100
AcDbLine
 10
1983.314068
 20
1200.187092
 30
0.0
 11
1971.53178
 21
1197.827434
 31
0.0
  0
LINE
  5
41CD
100
AcDbEntity
  8
0
100
AcDbLine
 10
2050.314068
 20
1238.967092
 30
0.0
 11
2050.314068
 21
1227.687092
 31
0.0
  0
LINE
  5
41CE
100
AcDbEntity
  8
0
100
AcDbLine
 10
2033.367068
 20
1249.142937
 30
0.0
 11
2034.314068
 21
1248.195937
 31
0.0
  0
LINE
  5
41CF
100
AcDbEntity
  8
0
100
AcDbLine
 10
2028.314068
 20
1249.142937
 30
0.0
 11
2033.367068
 21
1249.142937
 31
0.0
  0
LINE
  5
41D0
100
AcDbEntity
  8
0
100
AcDbLine
 10
2034.314068
 20
1238.089937
 30
0.0
 11
2033.367068
 21
1237.142937
 31
0.0
  0
LINE
  5
41D1
100
AcDbEntity
  8
0
100
AcDbLine
 10
2033.367068
 20
1237.142937
 30
0.0
 11
2028.314068
 21
1237.142937
 31
0.0
  0
LINE
  5
41D2
100
AcDbEntity
  8
0
100
AcDbLine
 10
2034.314068
 20
1248.195937
 30
0.0
 11
2034.314068
 21
1238.089937
 31
0.0
  0
ARC
  5
41D3
100
AcDbEntity
  8
0
100
AcDbCircle
 10
2039.312278
 20
1265.159169
 30
0.0
 40
27.590477
100
AcDbArc
 50
259.447481
 51
293.500256
  0
LINE
  5
41D4
100
AcDbEntity
  8
0
100
AcDbLine
 10
2049.511068
 20
1190.187092
 30
0.0
 11
2047.781734
 21
1190.187092
 31
0.0
  0
ARC
  5
41D5
100
AcDbEntity
  8
0
100
AcDbCircle
 10
2049.523132
 20
1193.154349
 30
0.0
 40
2.967281
100
AcDbArc
 50
269.767037
 51
300.095797
  0
LINE
  5
41D6
100
AcDbEntity
  8
0
100
AcDbLine
 10
2050.314068
 20
1207.687092
 30
0.0
 11
2050.314068
 21
1192.567092
 31
0.0
  0
LINE
  5
41D7
100
AcDbEntity
  8
0
100
AcDbLine
 10
2033.367068
 20
1198.231248
 30
0.0
 11
2034.314068
 21
1197.284248
 31
0.0
  0
LINE
  5
41D8
100
AcDbEntity
  8
0
100
AcDbLine
 10
2028.314068
 20
1198.231248
 30
0.0
 11
2033.367068
 21
1198.231248
 31
0.0
  0
LINE
  5
41D9
100
AcDbEntity
  8
0
100
AcDbLine
 10
2034.314068
 20
1197.284248
 30
0.0
 11
2034.314068
 21
1187.178248
 31
0.0
  0
LINE
  5
41DA
100
AcDbEntity
  8
0
100
AcDbLine
 10
2044.326224
 20
1190.187092
 30
0.0
 11
2034.314068
 21
1190.187092
 31
0.0
  0
LINE
  5
41DB
100
AcDbEntity
  8
0
100
AcDbLine
 10
2099.316068
 20
1217.687092
 30
0.0
 11
2099.316068
 21
1155.187092
 31
0.0
  0
LINE
  5
41DC
100
AcDbEntity
  8
0
100
AcDbLine
 10
2099.316068
 20
1155.187092
 30
0.0
 11
2085.316068
 21
1155.187092
 31
0.0
  0
ARC
  5
41DD
100
AcDbEntity
  8
0
100
AcDbCircle
 10
2081.316068
 20
1241.575663
 30
0.0
 40
4.0
100
AcDbArc
 50
279.46129
 51
0.0
  0
ARC
  5
41DE
100
AcDbEntity
  8
0
100
AcDbCircle
 10
2071.410068
 20
1239.924846
 30
0.0
 40
4.0
100
AcDbArc
 50
180.0
 51
279.46129
  0
LINE
  5
41DF
100
AcDbEntity
  8
0
100
AcDbLine
 10
2081.973593
 20
1237.630075
 30
0.0
 11
2072.067593
 21
1235.979259
 31
0.0
  0
ARC
  5
41E0
100
AcDbEntity
  8
0
100
AcDbCircle
 10
2081.316068
 20
1193.798522
 30
0.0
 40
4.0
100
AcDbArc
 50
0.0
 51
80.53871
  0
ARC
  5
41E1
100
AcDbEntity
  8
0
100
AcDbCircle
 10
2071.410068
 20
1195.449339
 30
0.0
 40
4.0
100
AcDbArc
 50
80.53871
 51
180.0
  0
LINE
  5
41E2
100
AcDbEntity
  8
0
100
AcDbLine
 10
2081.973593
 20
1197.74411
 30
0.0
 11
2072.067593
 21
1199.394926
 31
0.0
  0
LINE
  5
41E3
100
AcDbEntity
  8
0
100
AcDbLine
 10
2067.314068
 20
1224.687092
 30
0.0
 11
2067.314068
 21
1210.687092
 31
0.0
  0
LINE
  5
41E4
100
AcDbEntity
  8
0
100
AcDbLine
 10
2067.410068
 20
1243.187092
 30
0.0
 11
2067.410068
 21
1192.187092
 31
0.0
  0
LINE
  5
41E5
100
AcDbEntity
  8
0
100
AcDbLine
 10
2053.779068
 20
1238.967092
 30
0.0
 11
2053.779068
 21
1227.687092
 31
0.0
  0
ARC
  5
41E6
100
AcDbEntity
  8
0
100
AcDbCircle
 10
2039.266956
 20
1257.175899
 30
0.0
 40
22.510984
100
AcDbArc
 50
310.140789
 51
323.186661
  0
LINE
  5
41E7
100
AcDbEntity
  8
0
100
AcDbLine
 10
2053.779068
 20
1194.147092
 30
0.0
 11
2053.779068
 21
1207.687092
 31
0.0
  0
ARC
  5
41E8
100
AcDbEntity
  8
0
100
AcDbCircle
 10
2054.584369
 20
1189.23343
 30
0.0
 40
2.953662
100
AcDbArc
 50
90.025237
 51
120.549632
  0
LINE
  5
41E9
100
AcDbEntity
  8
0
100
AcDbLine
 10
2058.314068
 20
1243.187092
 30
0.0
 11
2067.410068
 21
1243.187092
 31
0.0
  0
LINE
  5
41EA
100
AcDbEntity
  8
0
100
AcDbLine
 10
2067.410068
 20
1192.187092
 30
0.0
 11
2054.583068
 21
1192.187092
 31
0.0
  0
ARC
  5
41EB
100
AcDbEntity
  8
0
100
AcDbCircle
 10
2064.28619
 20
1210.71497
 30
0.0
 40
3.028006
100
AcDbArc
 50
270.527511
 51
359.472489
  0
ARC
  5
41EC
100
AcDbEntity
  8
0
100
AcDbCircle
 10
2064.28619
 20
1224.659215
 30
0.0
 40
3.028006
100
AcDbArc
 50
0.527511
 51
89.472489
  0
CIRCLE
  5
41ED
100
AcDbEntity
  8
0
100
AcDbCircle
 10
2243.874898
 20
1185.867287
 30
0.0
 40
9.5
  0
CIRCLE
  5
41EE
100
AcDbEntity
  8
0
100
AcDbCircle
 10
2307.514509
 20
1185.867287
 30
0.0
 40
9.5
  0
CIRCLE
  5
41EF
100
AcDbEntity
  8
0
100
AcDbCircle
 10
325.617289
 20
289.075667
 30
0.0
 40
9.5
  0
CIRCLE
  5
41F0
100
AcDbEntity
  8
0
100
AcDbCircle
 10
254.906611
 20
289.075667
 30
0.0
 40
9.5
  0
LINE
  5
41F1
100
AcDbEntity
  8
0
100
AcDbLine
 10
465.27859
 20
285.865075
 30
0.0
 11
465.27859
 21
304.307075
 31
0.0
  0
ARC
  5
41F2
100
AcDbEntity
  8
0
100
AcDbCircle
 10
485.018359
 20
295.086075
 30
0.0
 40
19.516109
100
AcDbArc
 50
163.680185
 51
196.319815
  0
LINE
  5
41F3
100
AcDbEntity
  8
0
100
AcDbLine
 10
415.77859
 20
256.931006
 30
0.0
 11
415.77859
 21
324.431006
 31
0.0
  0
LINE
  5
41F4
100
AcDbEntity
  8
0
100
AcDbLine
 10
415.77859
 20
256.931006
 30
0.0
 11
431.77859
 21
256.931006
 31
0.0
  0
LINE
  5
41F5
100
AcDbEntity
  8
0
100
AcDbLine
 10
499.77859
 20
281.931006
 30
0.0
 11
487.27859
 21
281.931006
 31
0.0
  0
ARC
  5
41F6
100
AcDbEntity
  8
0
100
AcDbCircle
 10
499.77859
 20
283.431006
 30
0.0
 40
1.5
100
AcDbArc
 50
270.0
 51
0.0
  0
LINE
  5
41F7
100
AcDbEntity
  8
0
100
AcDbLine
 10
466.28859
 20
289.602075
 30
0.0
 11
473.27859
 21
289.602075
 31
0.0
  0
LINE
  5
41F8
100
AcDbEntity
  8
0
100
AcDbLine
 10
473.27859
 20
284.116075
 30
0.0
 11
466.28859
 21
284.116075
 31
0.0
  0
ARC
  5
41F9
100
AcDbEntity
  8
0
100
AcDbCircle
 10
470.678387
 20
286.859075
 30
0.0
 40
5.176327
100
AcDbArc
 50
148.000464
 51
211.999536
  0
LINE
  5
41FA
100
AcDbEntity
  8
0
100
AcDbLine
 10
466.28859
 20
284.116075
 30
0.0
 11
465.27859
 21
285.865075
 31
0.0
  0
ARC
  5
41FB
100
AcDbEntity
  8
0
100
AcDbCircle
 10
474.77859
 20
283.431006
 30
0.0
 40
1.5
100
AcDbArc
 50
180.0
 51
270.0
  0
LINE
  5
41FC
100
AcDbEntity
  8
0
100
AcDbLine
 10
474.77859
 20
281.931006
 30
0.0
 11
487.27859
 21
281.931006
 31
0.0
  0
LINE
  5
41FD
100
AcDbEntity
  8
0
100
AcDbLine
 10
446.77859
 20
346.431006
 30
0.0
 11
458.27859
 21
346.431006
 31
0.0
  0
LINE
  5
41FE
100
AcDbEntity
  8
0
100
AcDbLine
 10
446.77859
 20
302.431006
 30
0.0
 11
458.27859
 21
302.431006
 31
0.0
  0
ARC
  5
41FF
100
AcDbEntity
  8
0
100
AcDbCircle
 10
436.77859
 20
353.530026
 30
0.0
 40
5.0
100
AcDbArc
 50
180.0
 51
258.690068
  0
LINE
  5
4200
100
AcDbEntity
  8
0
100
AcDbLine
 10
435.798009
 20
348.627122
 30
0.0
 11
446.77859
 21
346.431006
 31
0.0
  0
ARC
  5
4201
100
AcDbEntity
  8
0
100
AcDbCircle
 10
436.77859
 20
295.331987
 30
0.0
 40
5.0
100
AcDbArc
 50
101.309932
 51
180.0
  0
LINE
  5
4202
100
AcDbEntity
  8
0
100
AcDbLine
 10
435.798009
 20
300.23489
 30
0.0
 11
446.77859
 21
302.431006
 31
0.0
  0
LINE
  5
4203
100
AcDbEntity
  8
0
100
AcDbLine
 10
466.28859
 20
348.291938
 30
0.0
 11
473.27859
 21
348.291938
 31
0.0
  0
LINE
  5
4204
100
AcDbEntity
  8
0
100
AcDbLine
 10
466.28859
 20
306.056075
 30
0.0
 11
473.27859
 21
306.056075
 31
0.0
  0
LINE
  5
4205
100
AcDbEntity
  8
0
100
AcDbLine
 10
466.28859
 20
342.805938
 30
0.0
 11
473.27859
 21
342.805938
 31
0.0
  0
LINE
  5
4206
100
AcDbEntity
  8
0
100
AcDbLine
 10
465.27859
 20
344.554938
 30
0.0
 11
466.28859
 21
342.805938
 31
0.0
  0
ARC
  5
4207
100
AcDbEntity
  8
0
100
AcDbCircle
 10
470.678387
 20
345.548938
 30
0.0
 40
5.176327
100
AcDbArc
 50
148.000464
 51
211.999536
  0
LINE
  5
4208
100
AcDbEntity
  8
0
100
AcDbLine
 10
465.27859
 20
347.831006
 30
0.0
 11
458.27859
 21
346.431006
 31
0.0
  0
LINE
  5
4209
100
AcDbEntity
  8
0
100
AcDbLine
 10
466.28859
 20
300.570075
 30
0.0
 11
473.27859
 21
300.570075
 31
0.0
  0
LINE
  5
420A
100
AcDbEntity
  8
0
100
AcDbLine
 10
465.27859
 20
301.031006
 30
0.0
 11
458.27859
 21
302.431006
 31
0.0
  0
ARC
  5
420B
100
AcDbEntity
  8
0
100
AcDbCircle
 10
470.678387
 20
303.313075
 30
0.0
 40
5.176327
100
AcDbArc
 50
148.000464
 51
211.999536
  0
LINE
  5
420C
100
AcDbEntity
  8
0
100
AcDbLine
 10
465.27859
 20
304.307075
 30
0.0
 11
466.28859
 21
306.056075
 31
0.0
  0
LINE
  5
420D
100
AcDbEntity
  8
0
100
AcDbLine
 10
443.65977
 20
1479.426875
 30
0.0
 11
455.65977
 21
1479.426875
 31
0.0
  0
LINE
  5
420E
100
AcDbEntity
  8
0
100
AcDbLine
 10
443.65977
 20
1384.426875
 30
0.0
 11
455.65977
 21
1384.426875
 31
0.0
  0
LINE
  5
420F
100
AcDbEntity
  8
0
100
AcDbLine
 10
443.65977
 20
1265.187092
 30
0.0
 11
455.65977
 21
1265.187092
 31
0.0
  0
LINE
  5
4210
100
AcDbEntity
  8
0
100
AcDbLine
 10
302.426243
 20
1293.687092
 30
0.0
 11
285.756243
 21
1293.687092
 31
0.0
  0
LINE
  5
4211
100
AcDbEntity
  8
0
100
AcDbLine
 10
302.426243
 20
1285.187092
 30
0.0
 11
300.086243
 21
1285.187092
 31
0.0
  0
LINE
  5
4212
100
AcDbEntity
  8
0
100
AcDbLine
 10
313.091243
 20
1273.187092
 30
0.0
 11
275.091243
 21
1273.187092
 31
0.0
  0
LINE
  5
4213
100
AcDbEntity
  8
0
100
AcDbLine
 10
288.086243
 20
1285.187092
 30
0.0
 11
285.756243
 21
1285.187092
 31
0.0
  0
ELLIPSE
  5
4214
100
AcDbEntity
  8
0
100
AcDbEllipse
 10
294.086243
 20
1282.780018
 30
0.0
 11
-4.75
 21
0.0
 31
0.0
210
0.0
220
0.0
230
1.0
 40
0.440295
 41
0.0
 42
6.283185307179586
  0
LINE
  5
4215
100
AcDbEntity
  8
0
100
AcDbLine
 10
288.086243
 20
1273.187092
 30
0.0
 11
288.086243
 21
1292.187092
 31
0.0
  0
LINE
  5
4216
100
AcDbEntity
  8
0
100
AcDbLine
 10
300.086243
 20
1273.187092
 30
0.0
 11
300.086243
 21
1292.187092
 31
0.0
  0
LINE
  5
4217
100
AcDbEntity
  8
0
100
AcDbLine
 10
300.086243
 20
1292.187092
 30
0.0
 11
288.086243
 21
1292.187092
 31
0.0
  0
LINE
  5
4218
100
AcDbEntity
  8
0
100
AcDbLine
 10
285.756243
 20
1293.687092
 30
0.0
 11
285.756243
 21
1285.187092
 31
0.0
  0
LINE
  5
4219
100
AcDbEntity
  8
0
100
AcDbLine
 10
275.091243
 20
1273.187092
 30
0.0
 11
275.091243
 21
1261.221562
 31
0.0
  0
LINE
  5
421A
100
AcDbEntity
  8
0
100
AcDbLine
 10
302.426243
 20
1293.687092
 30
0.0
 11
302.426243
 21
1285.187092
 31
0.0
  0
LINE
  5
421B
100
AcDbEntity
  8
0
100
AcDbLine
 10
313.091243
 20
1273.187092
 30
0.0
 11
313.091243
 21
1261.221562
 31
0.0
  0
LINE
  5
421C
100
AcDbEntity
  8
0
100
AcDbLine
 10
443.65977
 20
1479.426875
 30
0.0
 11
443.65977
 21
1431.926875
 31
0.0
  0
LINE
  5
421D
100
AcDbEntity
  8
0
100
AcDbLine
 10
443.65977
 20
1431.926875
 30
0.0
 11
443.65977
 21
1384.426875
 31
0.0
  0
LINE
  5
421E
100
AcDbEntity
  8
0
100
AcDbLine
 10
563.65977
 20
1265.187092
 30
0.0
 11
551.65977
 21
1265.187092
 31
0.0
  0
LINE
  5
421F
100
AcDbEntity
  8
0
100
AcDbLine
 10
537.15977
 20
1285.187092
 30
0.0
 11
613.239347
 21
1287.610009
 31
0.0
  0
LINE
  5
4220
100
AcDbEntity
  8
0
100
AcDbLine
 10
545.65977
 20
1293.687092
 30
0.0
 11
613.15977
 21
1293.687092
 31
0.0
  0
LINE
  5
4221
100
AcDbEntity
  8
0
100
AcDbLine
 10
491.041881
 20
1273.187092
 30
0.0
 11
528.65977
 21
1273.187092
 31
0.0
  0
ARC
  5
4222
100
AcDbEntity
  8
0
100
AcDbCircle
 10
612.753139
 20
1055.028414
 30
0.0
 40
250.0
100
AcDbArc
 50
108.443749
 51
118.96318
  0
ARC
  5
4223
100
AcDbEntity
  8
0
100
AcDbCircle
 10
492.65977
 20
1272.011322
 30
0.0
 40
2.0
100
AcDbArc
 50
118.96318
 51
180.0
  0
LINE
  5
4224
100
AcDbEntity
  8
0
100
AcDbLine
 10
533.65977
 20
1292.187092
 30
0.0
 11
544.15977
 21
1292.187092
 31
0.0
  0
ARC
  5
4225
100
AcDbEntity
  8
0
100
AcDbCircle
 10
531.65977
 20
1275.444452
 30
0.0
 40
3.0
100
AcDbArc
 50
135.0
 51
180.0
  0
LINE
  5
4226
100
AcDbEntity
  8
0
100
AcDbLine
 10
529.538449
 20
1277.565772
 30
0.0
 11
545.65977
 21
1293.687092
 31
0.0
  0
ARC
  5
4227
100
AcDbEntity
  8
0
100
AcDbCircle
 10
613.15977
 20
1291.187092
 30
0.0
 40
2.5
100
AcDbArc
 50
0.0
 51
90.0
  0
LINE
  5
4228
100
AcDbEntity
  8
0
100
AcDbLine
 10
615.65977
 20
1290.108742
 30
0.0
 11
615.65977
 21
1291.187092
 31
0.0
  0
ARC
  5
4229
100
AcDbEntity
  8
0
100
AcDbCircle
 10
613.15977
 20
1290.108742
 30
0.0
 40
2.5
100
AcDbArc
 50
271.82409
 51
0.0
  0
LINE
  5
422A
100
AcDbEntity
  8
0
100
AcDbLine
 10
563.65977
 20
1479.426875
 30
0.0
 11
551.65977
 21
1479.426875
 31
0.0
  0
LINE
  5
422B
100
AcDbEntity
  8
0
100
AcDbLine
 10
563.65977
 20
1384.426875
 30
0.0
 11
551.65977
 21
1384.426875
 31
0.0
  0
LINE
  5
422C
100
AcDbEntity
  8
0
100
AcDbLine
 10
533.65977
 20
1426.426875
 30
0.0
 11
609.799391
 21
1423.641279
 31
0.0
  0
LINE
  5
422D
100
AcDbEntity
  8
0
100
AcDbLine
 10
533.65977
 20
1437.426875
 30
0.0
 11
609.799391
 21
1440.212471
 31
0.0
  0
LINE
  5
422E
100
AcDbEntity
  8
0
100
AcDbLine
 10
551.65977
 20
1479.426875
 30
0.0
 11
551.65977
 21
1438.078094
 31
0.0
  0
LINE
  5
422F
100
AcDbEntity
  8
0
100
AcDbLine
 10
455.65977
 20
1479.426875
 30
0.0
 11
455.65977
 21
1384.426875
 31
0.0
  0
LINE
  5
4230
100
AcDbEntity
  8
0
100
AcDbLine
 10
531.65977
 20
1449.426875
 30
0.0
 11
531.65977
 21
1437.926875
 31
0.0
  0
ARC
  5
4231
100
AcDbEntity
  8
0
100
AcDbCircle
 10
528.65977
 20
1447.426875
 30
0.0
 40
3.0
100
AcDbArc
 50
0.0
 51
90.0
  0
ARC
  5
4232
100
AcDbEntity
  8
0
100
AcDbCircle
 10
520.617007
 20
1447.426875
 30
0.0
 40
3.0
100
AcDbArc
 50
90.0
 51
148.927602
  0
LINE
  5
4233
100
AcDbEntity
  8
0
100
AcDbLine
 10
491.65977
 20
1461.926875
 30
0.0
 11
491.65977
 21
1438.009637
 31
0.0
  0
LINE
  5
4234
100
AcDbEntity
  8
0
100
AcDbLine
 10
500.65977
 20
1460.426875
 30
0.0
 11
500.65977
 21
1448.660075
 31
0.0
  0
ARC
  5
4235
100
AcDbEntity
  8
0
100
AcDbCircle
 10
509.65977
 20
1431.926875
 30
0.0
 40
19.0
100
AcDbArc
 50
18.40848
 51
341.59152
  0
LINE
  5
4236
100
AcDbEntity
  8
0
100
AcDbLine
 10
482.65977
 20
1460.426875
 30
0.0
 11
482.65977
 21
1403.426875
 31
0.0
  0
LINE
  5
4237
100
AcDbEntity
  8
0
100
AcDbLine
 10
476.15977
 20
1458.387918
 30
0.0
 11
476.15977
 21
1445.769918
 31
0.0
  0
ARC
  5
4238
100
AcDbEntity
  8
0
100
AcDbCircle
 10
489.665249
 20
1452.078918
 30
0.0
 40
13.352467
100
AcDbArc
 50
163.680297
 51
196.319703
  0
LINE
  5
4239
100
AcDbEntity
  8
0
100
AcDbLine
 10
492.885699
 20
1425.926875
 30
0.0
 11
546.625412
 21
1425.926875
 31
0.0
  0
LINE
  5
423A
100
AcDbEntity
  8
0
100
AcDbLine
 10
533.65977
 20
1426.426875
 30
0.0
 11
493.057571
 21
1425.943834
 31
0.0
  0
LINE
  5
423B
100
AcDbEntity
  8
0
100
AcDbLine
 10
533.65977
 20
1437.426875
 30
0.0
 11
493.057571
 21
1437.909915
 31
0.0
  0
LINE
  5
423C
100
AcDbEntity
  8
0
100
AcDbLine
 10
492.885699
 20
1437.926875
 30
0.0
 11
547.326436
 21
1437.926875
 31
0.0
  0
LINE
  5
423D
100
AcDbEntity
  8
0
100
AcDbLine
 10
500.65977
 20
1407.774331
 30
0.0
 11
506.98277
 21
1407.774331
 31
0.0
  0
LINE
  5
423E
100
AcDbEntity
  8
0
100
AcDbLine
 10
465.45977
 20
1420.426875
 30
0.0
 11
472.65977
 21
1420.426875
 31
0.0
  0
LINE
  5
423F
100
AcDbEntity
  8
0
100
AcDbLine
 10
465.45977
 20
1443.426875
 30
0.0
 11
472.65977
 21
1443.426875
 31
0.0
  0
LINE
  5
4240
100
AcDbEntity
  8
0
100
AcDbLine
 10
465.45977
 20
1420.426875
 30
0.0
 11
458.875305
 21
1419.109982
 31
0.0
  0
ARC
  5
4241
100
AcDbEntity
  8
0
100
AcDbCircle
 10
459.65977
 20
1415.187659
 30
0.0
 40
4.0
100
AcDbArc
 50
101.309932
 51
180.0
  0
ARC
  5
4242
100
AcDbEntity
  8
0
100
AcDbCircle
 10
459.65977
 20
1448.66609
 30
0.0
 40
4.0
100
AcDbArc
 50
180.0
 51
258.690068
  0
LINE
  5
4243
100
AcDbEntity
  8
0
100
AcDbLine
 10
465.45977
 20
1443.426875
 30
0.0
 11
458.875305
 21
1444.743768
 31
0.0
  0
ARC
  5
4244
100
AcDbEntity
  8
0
100
AcDbCircle
 10
493.069467
 20
1424.943905
 30
0.0
 40
1.0
100
AcDbArc
 50
90.68161
 51
202.826552
  0
ARC
  5
4245
100
AcDbEntity
  8
0
100
AcDbCircle
 10
493.069467
 20
1438.909844
 30
0.0
 40
1.0
100
AcDbArc
 50
157.173448
 51
269.31839
  0
LINE
  5
4246
100
AcDbEntity
  8
0
100
AcDbLine
 10
476.85077
 20
1415.526831
 30
0.0
 11
482.65977
 21
1415.526831
 31
0.0
  0
LINE
  5
4247
100
AcDbEntity
  8
0
100
AcDbLine
 10
476.85077
 20
1419.279831
 30
0.0
 11
482.65977
 21
1419.279831
 31
0.0
  0
LINE
  5
4248
100
AcDbEntity
  8
0
100
AcDbLine
 10
476.85077
 20
1444.573918
 30
0.0
 11
482.65977
 21
1444.573918
 31
0.0
  0
LINE
  5
4249
100
AcDbEntity
  8
0
100
AcDbLine
 10
476.85077
 20
1448.326918
 30
0.0
 11
482.65977
 21
1448.326918
 31
0.0
  0
ARC
  5
424A
100
AcDbEntity
  8
0
100
AcDbCircle
 10
499.15977
 20
1403.426875
 30
0.0
 40
1.5
100
AcDbArc
 50
270.0
 51
0.0
  0
LINE
  5
424B
100
AcDbEntity
  8
0
100
AcDbLine
 10
476.85077
 20
1408.022831
 30
0.0
 11
482.65977
 21
1408.022831
 31
0.0
  0
LINE
  5
424C
100
AcDbEntity
  8
0
100
AcDbLine
 10
482.65977
 20
1404.268831
 30
0.0
 11
476.85077
 21
1404.268831
 31
0.0
  0
ARC
  5
424D
100
AcDbEntity
  8
0
100
AcDbCircle
 10
484.15977
 20
1403.426875
 30
0.0
 40
1.5
100
AcDbArc
 50
180.0
 51
270.0
  0
LINE
  5
424E
100
AcDbEntity
  8
0
100
AcDbLine
 10
484.15977
 20
1401.926875
 30
0.0
 11
491.65977
 21
1401.926875
 31
0.0
  0
LINE
  5
424F
100
AcDbEntity
  8
0
100
AcDbLine
 10
499.15977
 20
1401.926875
 30
0.0
 11
491.65977
 21
1401.926875
 31
0.0
  0
LINE
  5
4250
100
AcDbEntity
  8
0
100
AcDbLine
 10
491.65977
 20
1425.844112
 30
0.0
 11
491.65977
 21
1401.926875
 31
0.0
  0
LINE
  5
4251
100
AcDbEntity
  8
0
100
AcDbLine
 10
500.65977
 20
1415.193674
 30
0.0
 11
500.65977
 21
1403.426875
 31
0.0
  0
LINE
  5
4252
100
AcDbEntity
  8
0
100
AcDbLine
 10
476.15977
 20
1405.465831
 30
0.0
 11
476.15977
 21
1418.083831
 31
0.0
  0
LINE
  5
4253
100
AcDbEntity
  8
0
100
AcDbLine
 10
476.15977
 20
1418.083831
 30
0.0
 11
476.85077
 21
1419.279831
 31
0.0
  0
ARC
  5
4254
100
AcDbEntity
  8
0
100
AcDbCircle
 10
479.853728
 20
1417.403331
 30
0.0
 40
3.541047
100
AcDbArc
 50
147.999406
 51
212.000594
  0
LINE
  5
4255
100
AcDbEntity
  8
0
100
AcDbLine
 10
472.65977
 20
1420.426875
 30
0.0
 11
478.394986
 21
1419.279831
 31
0.0
  0
LINE
  5
4256
100
AcDbEntity
  8
0
100
AcDbLine
 10
476.15977
 20
1445.769918
 30
0.0
 11
476.85077
 21
1444.573918
 31
0.0
  0
ARC
  5
4257
100
AcDbEntity
  8
0
100
AcDbCircle
 10
479.853728
 20
1446.450418
 30
0.0
 40
3.541047
100
AcDbArc
 50
147.999406
 51
212.000594
  0
LINE
  5
4258
100
AcDbEntity
  8
0
100
AcDbLine
 10
472.65977
 20
1443.426875
 30
0.0
 11
478.394986
 21
1444.573918
 31
0.0
  0
ARC
  5
4259
100
AcDbEntity
  8
0
100
AcDbCircle
 10
489.665249
 20
1411.774831
 30
0.0
 40
13.352467
100
AcDbArc
 50
163.680297
 51
196.319703
  0
LINE
  5
425A
100
AcDbEntity
  8
0
100
AcDbLine
 10
476.85077
 20
1404.268831
 30
0.0
 11
476.15977
 21
1405.465831
 31
0.0
  0
ARC
  5
425B
100
AcDbEntity
  8
0
100
AcDbCircle
 10
479.853728
 20
1406.146331
 30
0.0
 40
3.541047
100
AcDbArc
 50
147.999406
 51
212.000594
  0
LINE
  5
425C
100
AcDbEntity
  8
0
100
AcDbLine
 10
541.85977
 20
1420.426875
 30
0.0
 11
534.65977
 21
1420.426875
 31
0.0
  0
LINE
  5
425D
100
AcDbEntity
  8
0
100
AcDbLine
 10
541.85977
 20
1443.426875
 30
0.0
 11
534.65977
 21
1443.426875
 31
0.0
  0
LINE
  5
425E
100
AcDbEntity
  8
0
100
AcDbLine
 10
541.85977
 20
1443.426875
 30
0.0
 11
548.444234
 21
1444.743768
 31
0.0
  0
ARC
  5
425F
100
AcDbEntity
  8
0
100
AcDbCircle
 10
547.65977
 20
1448.66609
 30
0.0
 40
4.0
100
AcDbArc
 50
281.309932
 51
360.0
  0
ARC
  5
4260
100
AcDbEntity
  8
0
100
AcDbCircle
 10
547.65977
 20
1415.187659
 30
0.0
 40
4.0
100
AcDbArc
 50
0.0
 51
78.690068
  0
LINE
  5
4261
100
AcDbEntity
  8
0
100
AcDbLine
 10
541.85977
 20
1420.426875
 30
0.0
 11
548.444234
 21
1419.109982
 31
0.0
  0
LINE
  5
4262
100
AcDbEntity
  8
0
100
AcDbLine
 10
551.65977
 20
1425.775655
 30
0.0
 11
551.65977
 21
1384.426875
 31
0.0
  0
LINE
  5
4263
100
AcDbEntity
  8
0
100
AcDbLine
 10
548.125412
 20
1426.934898
 30
0.0
 11
548.125412
 21
1436.918851
 31
0.0
  0
LINE
  5
4264
100
AcDbEntity
  8
0
100
AcDbLine
 10
546.625412
 20
1425.952522
 30
0.0
 11
546.625412
 21
1437.901227
 31
0.0
  0
ARC
  5
4265
100
AcDbEntity
  8
0
100
AcDbCircle
 10
547.125412
 20
1426.934898
 30
0.0
 40
1.0
100
AcDbArc
 50
267.904747
 51
0.0
  0
ARC
  5
4266
100
AcDbEntity
  8
0
100
AcDbCircle
 10
547.125412
 20
1436.918851
 30
0.0
 40
1.0
100
AcDbArc
 50
0.0
 51
92.095253
  0
LINE
  5
4267
100
AcDbEntity
  8
0
100
AcDbLine
 10
546.686604
 20
1437.903466
 30
0.0
 11
546.686604
 21
1437.903466
 31
0.0
  0
LINE
  5
4268
100
AcDbEntity
  8
0
100
AcDbLine
 10
541.85977
 20
1420.426875
 30
0.0
 11
534.65977
 21
1420.426875
 31
0.0
  0
LINE
  5
4269
100
AcDbEntity
  8
0
100
AcDbLine
 10
541.85977
 20
1443.426875
 30
0.0
 11
534.65977
 21
1443.426875
 31
0.0
  0
ARC
  5
426A
100
AcDbEntity
  8
0
100
AcDbCircle
 10
528.65977
 20
1444.926875
 30
0.0
 40
3.0
100
AcDbArc
 50
0.0
 51
90.0
  0
LINE
  5
426B
100
AcDbEntity
  8
0
100
AcDbLine
 10
524.651262
 20
1447.926875
 30
0.0
 11
528.65977
 21
1447.926875
 31
0.0
  0
LINE
  5
426C
100
AcDbEntity
  8
0
100
AcDbLine
 10
524.651262
 20
1415.926875
 30
0.0
 11
528.65977
 21
1415.926875
 31
0.0
  0
ARC
  5
426D
100
AcDbEntity
  8
0
100
AcDbCircle
 10
528.65977
 20
1418.926875
 30
0.0
 40
3.0
100
AcDbArc
 50
270.0
 51
0.0
  0
ARC
  5
426E
100
AcDbEntity
  8
0
100
AcDbCircle
 10
528.65977
 20
1416.426875
 30
0.0
 40
3.0
100
AcDbArc
 50
270.0
 51
0.0
  0
LINE
  5
426F
100
AcDbEntity
  8
0
100
AcDbLine
 10
528.65977
 20
1413.426875
 30
0.0
 11
522.427719
 21
1413.426875
 31
0.0
  0
LINE
  5
4270
100
AcDbEntity
  8
0
100
AcDbLine
 10
533.65977
 20
1427.526875
 30
0.0
 11
533.65977
 21
1436.326875
 31
0.0
  0
LINE
  5
4271
100
AcDbEntity
  8
0
100
AcDbLine
 10
531.65977
 20
1425.926875
 30
0.0
 11
531.65977
 21
1414.426875
 31
0.0
  0
ARC
  5
4272
100
AcDbEntity
  8
0
100
AcDbCircle
 10
524.651262
 20
1418.926875
 30
0.0
 40
3.0
100
AcDbArc
 50
208.543922
 51
270.0
  0
ARC
  5
4273
100
AcDbEntity
  8
0
100
AcDbCircle
 10
524.651262
 20
1444.926875
 30
0.0
 40
3.0
100
AcDbArc
 50
90.0
 51
151.456078
  0
ARC
  5
4274
100
AcDbEntity
  8
0
100
AcDbCircle
 10
534.65977
 20
1417.426875
 30
0.0
 40
3.0
100
AcDbArc
 50
90.0
 51
180.0
  0
ARC
  5
4275
100
AcDbEntity
  8
0
100
AcDbCircle
 10
534.65977
 20
1446.426875
 30
0.0
 40
3.0
100
AcDbArc
 50
180.0
 51
270.0
  0
ARC
  5
4276
100
AcDbEntity
  8
0
100
AcDbCircle
 10
520.617007
 20
1416.426875
 30
0.0
 40
3.0
100
AcDbArc
 50
211.072398
 51
270.0
  0
CIRCLE
  5
4277
100
AcDbEntity
  8
0
100
AcDbCircle
 10
509.65977
 20
1431.926875
 30
0.0
 40
4.75
  0
LINE
  5
4278
100
AcDbEntity
  8
0
100
AcDbLine
 10
520.617007
 20
1413.426875
 30
0.0
 11
528.65977
 21
1413.426875
 31
0.0
  0
LINE
  5
4279
100
AcDbEntity
  8
0
100
AcDbLine
 10
506.98277
 20
1407.774331
 30
0.0
 11
507.65977
 21
1408.451331
 31
0.0
  0
LINE
  5
427A
100
AcDbEntity
  8
0
100
AcDbLine
 10
507.65977
 20
1411.426875
 30
0.0
 11
528.65977
 21
1411.426875
 31
0.0
  0
ARC
  5
427B
100
AcDbEntity
  8
0
100
AcDbCircle
 10
528.65977
 20
1414.426875
 30
0.0
 40
3.0
100
AcDbArc
 50
270.0
 51
0.0
  0
LINE
  5
427C
100
AcDbEntity
  8
0
100
AcDbLine
 10
507.65977
 20
1408.451331
 30
0.0
 11
507.65977
 21
1413.032431
 31
0.0
  0
LINE
  5
427D
100
AcDbEntity
  8
0
100
AcDbLine
 10
506.98277
 20
1413.116408
 30
0.0
 11
506.98277
 21
1407.774331
 31
0.0
  0
LINE
  5
427E
100
AcDbEntity
  8
0
100
AcDbLine
 10
500.65977
 20
1456.079418
 30
0.0
 11
506.98277
 21
1456.079418
 31
0.0
  0
ARC
  5
427F
100
AcDbEntity
  8
0
100
AcDbCircle
 10
499.15977
 20
1460.426875
 30
0.0
 40
1.5
100
AcDbArc
 50
0.0
 51
90.0
  0
LINE
  5
4280
100
AcDbEntity
  8
0
100
AcDbLine
 10
482.65977
 20
1459.584918
 30
0.0
 11
476.85077
 21
1459.584918
 31
0.0
  0
LINE
  5
4281
100
AcDbEntity
  8
0
100
AcDbLine
 10
476.85077
 20
1455.830918
 30
0.0
 11
482.65977
 21
1455.830918
 31
0.0
  0
ARC
  5
4282
100
AcDbEntity
  8
0
100
AcDbCircle
 10
484.15977
 20
1460.426875
 30
0.0
 40
1.5
100
AcDbArc
 50
90.0
 51
180.0
  0
LINE
  5
4283
100
AcDbEntity
  8
0
100
AcDbLine
 10
484.15977
 20
1461.926875
 30
0.0
 11
491.65977
 21
1461.926875
 31
0.0
  0
LINE
  5
4284
100
AcDbEntity
  8
0
100
AcDbLine
 10
499.15977
 20
1461.926875
 30
0.0
 11
491.65977
 21
1461.926875
 31
0.0
  0
LINE
  5
4285
100
AcDbEntity
  8
0
100
AcDbLine
 10
476.85077
 20
1459.584918
 30
0.0
 11
476.15977
 21
1458.387918
 31
0.0
  0
ARC
  5
4286
100
AcDbEntity
  8
0
100
AcDbCircle
 10
479.853728
 20
1457.707418
 30
0.0
 40
3.541047
100
AcDbArc
 50
147.999406
 51
212.000594
  0
LINE
  5
4287
100
AcDbEntity
  8
0
100
AcDbLine
 10
528.65977
 20
1450.426875
 30
0.0
 11
522.427719
 21
1450.426875
 31
0.0
  0
ARC
  5
4288
100
AcDbEntity
  8
0
100
AcDbCircle
 10
528.65977
 20
1449.426875
 30
0.0
 40
3.0
100
AcDbArc
 50
0.0
 51
90.0
  0
LINE
  5
4289
100
AcDbEntity
  8
0
100
AcDbLine
 10
506.98277
 20
1456.079418
 30
0.0
 11
507.65977
 21
1455.402418
 31
0.0
  0
LINE
  5
428A
100
AcDbEntity
  8
0
100
AcDbLine
 10
507.65977
 20
1455.402418
 30
0.0
 11
507.65977
 21
1450.821318
 31
0.0
  0
LINE
  5
428B
100
AcDbEntity
  8
0
100
AcDbLine
 10
506.98277
 20
1450.737342
 30
0.0
 11
506.98277
 21
1456.079418
 31
0.0
  0
LINE
  5
428C
100
AcDbEntity
  8
0
100
AcDbLine
 10
520.617007
 20
1450.426875
 30
0.0
 11
528.65977
 21
1450.426875
 31
0.0
  0
LINE
  5
428D
100
AcDbEntity
  8
0
100
AcDbLine
 10
507.65977
 20
1452.426875
 30
0.0
 11
528.65977
 21
1452.426875
 31
0.0
  0
LINE
  5
428E
100
AcDbEntity
  8
0
100
AcDbLine
 10
563.65977
 20
1479.426875
 30
0.0
 11
563.65977
 21
1438.517119
 31
0.0
  0
LINE
  5
428F
100
AcDbEntity
  8
0
100
AcDbLine
 10
563.65977
 20
1425.336631
 30
0.0
 11
563.65977
 21
1384.426875
 31
0.0
  0
ARC
  5
4291
100
AcDbEntity
  8
0
100
AcDbCircle
 10
585.65977
 20
1431.926875
 30
0.0
 40
30.0
100
AcDbArc
 50
353.462823
 51
6.537177
  0
ARC
  5
4292
100
AcDbEntity
  8
0
100
AcDbCircle
 10
610.000476
 20
1434.716148
 30
0.0
 40
5.5
100
AcDbArc
 50
6.537177
 51
92.095253
  0
ARC
  5
4293
100
AcDbEntity
  8
0
100
AcDbCircle
 10
610.000476
 20
1429.137602
 30
0.0
 40
5.5
100
AcDbArc
 50
267.904747
 51
353.462823
  0
LINE
  5
4294
100
AcDbEntity
  8
0
100
AcDbLine
 10
443.65977
 20
1643.260595
 30
0.0
 11
455.65977
 21
1643.260595
 31
0.0
  0
LINE
  5
4295
100
AcDbEntity
  8
0
100
AcDbLine
 10
461.65977
 20
1671.760595
 30
0.0
 11
394.15977
 21
1671.760595
 31
0.0
  0
LINE
  5
4296
100
AcDbEntity
  8
0
100
AcDbLine
 10
470.15977
 20
1663.260595
 30
0.0
 11
394.080192
 21
1665.683512
 31
0.0
  0
LINE
  5
4297
100
AcDbEntity
  8
0
100
AcDbLine
 10
443.65977
 20
1548.260595
 30
0.0
 11
455.65977
 21
1548.260595
 31
0.0
  0
LINE
  5
4298
100
AcDbEntity
  8
0
100
AcDbLine
 10
443.65977
 20
1595.760595
 30
0.0
 11
443.65977
 21
1548.260595
 31
0.0
  0
LINE
  5
4299
100
AcDbEntity
  8
0
100
AcDbLine
 10
443.65977
 20
1643.260595
 30
0.0
 11
443.65977
 21
1595.760595
 31
0.0
  0
ARC
  5
429A
100
AcDbEntity
  8
0
100
AcDbCircle
 10
394.15977
 20
1668.182245
 30
0.0
 40
2.5
100
AcDbArc
 50
180.0
 51
268.17591
  0
LINE
  5
429B
100
AcDbEntity
  8
0
100
AcDbLine
 10
391.65977
 20
1668.182245
 30
0.0
 11
391.65977
 21
1669.260595
 31
0.0
  0
ARC
  5
429C
100
AcDbEntity
  8
0
100
AcDbCircle
 10
394.15977
 20
1669.260595
 30
0.0
 40
2.5
100
AcDbArc
 50
90.0
 51
180.0
  0
LINE
  5
429D
100
AcDbEntity
  8
0
100
AcDbLine
 10
478.65977
 20
1653.517954
 30
0.0
 11
478.65977
 21
1629.760595
 31
0.0
  0
LINE
  5
429E
100
AcDbEntity
  8
0
100
AcDbLine
 10
516.65977
 20
1650.084825
 30
0.0
 11
516.65977
 21
1629.760595
 31
0.0
  0
LINE
  5
429F
100
AcDbEntity
  8
0
100
AcDbLine
 10
563.65977
 20
1643.260595
 30
0.0
 11
551.65977
 21
1643.260595
 31
0.0
  0
LINE
  5
42A0
100
AcDbEntity
  8
0
100
AcDbLine
 10
563.65977
 20
1548.260595
 30
0.0
 11
551.65977
 21
1548.260595
 31
0.0
  0
ARC
  5
42A1
100
AcDbEntity
  8
0
100
AcDbCircle
 10
478.65977
 20
1580.260595
 30
0.0
 40
3.0
100
AcDbArc
 50
180.0
 51
270.0
  0
LINE
  5
42A2
100
AcDbEntity
  8
0
100
AcDbLine
 10
489.702532
 20
1576.842635
 30
0.0
 11
489.702532
 21
1585.260595
 31
0.0
  0
LINE
  5
42A3
100
AcDbEntity
  8
0
100
AcDbLine
 10
485.668278
 20
1578.778817
 30
0.0
 11
485.668278
 21
1585.260595
 31
0.0
  0
ARC
  5
42A4
100
AcDbEntity
  8
0
100
AcDbCircle
 10
459.65977
 20
1579.02138
 30
0.0
 40
4.0
100
AcDbArc
 50
101.309932
 51
180.0
  0
LINE
  5
42A5
100
AcDbEntity
  8
0
100
AcDbLine
 10
531.15977
 20
1569.299552
 30
0.0
 11
531.15977
 21
1581.917552
 31
0.0
  0
ARC
  5
42A6
100
AcDbEntity
  8
0
100
AcDbCircle
 10
527.465811
 20
1581.237052
 30
0.0
 40
3.541047
100
AcDbArc
 50
327.999406
 51
32.000594
  0
ARC
  5
42A7
100
AcDbEntity
  8
0
100
AcDbCircle
 10
547.65977
 20
1579.02138
 30
0.0
 40
4.0
100
AcDbArc
 50
0.0
 51
78.690068
  0
LINE
  5
42A8
100
AcDbEntity
  8
0
100
AcDbLine
 10
506.65977
 20
1624.260595
 30
0.0
 11
506.65977
 21
1567.260595
 31
0.0
  0
LINE
  5
42A9
100
AcDbEntity
  8
0
100
AcDbLine
 10
524.65977
 20
1624.260595
 30
0.0
 11
524.65977
 21
1567.260595
 31
0.0
  0
LINE
  5
42AA
100
AcDbEntity
  8
0
100
AcDbLine
 10
515.65977
 20
1625.760595
 30
0.0
 11
515.65977
 21
1565.760595
 31
0.0
  0
LINE
  5
42AB
100
AcDbEntity
  8
0
100
AcDbLine
 10
551.65977
 20
1643.260595
 30
0.0
 11
551.65977
 21
1548.260595
 31
0.0
  0
LINE
  5
42AC
100
AcDbEntity
  8
0
100
AcDbLine
 10
455.65977
 20
1643.260595
 30
0.0
 11
455.65977
 21
1548.260595
 31
0.0
  0
LINE
  5
42AD
100
AcDbEntity
  8
0
100
AcDbLine
 10
506.65977
 20
1571.608052
 30
0.0
 11
500.33677
 21
1571.608052
 31
0.0
  0
LINE
  5
42AE
100
AcDbEntity
  8
0
100
AcDbLine
 10
500.33677
 20
1579.608052
 30
0.0
 11
506.65977
 21
1579.608052
 31
0.0
  0
ARC
  5
42AF
100
AcDbEntity
  8
0
100
AcDbCircle
 10
488.713714
 20
1572.208725
 30
0.0
 40
3.0
100
AcDbArc
 50
19.983107
 51
60.0
  0
LINE
  5
42B0
100
AcDbEntity
  8
0
100
AcDbLine
 10
486.65977
 20
1576.858671
 30
0.0
 11
490.213714
 21
1574.806801
 31
0.0
  0
ARC
  5
42B1
100
AcDbEntity
  8
0
100
AcDbCircle
 10
485.15977
 20
1574.260595
 30
0.0
 40
3.0
100
AcDbArc
 50
60.0
 51
90.0
  0
LINE
  5
42B2
100
AcDbEntity
  8
0
100
AcDbLine
 10
478.65977
 20
1577.260595
 30
0.0
 11
485.15977
 21
1577.260595
 31
0.0
  0
LINE
  5
42B3
100
AcDbEntity
  8
0
100
AcDbLine
 10
499.65977
 20
1572.285052
 30
0.0
 11
499.65977
 21
1578.931052
 31
0.0
  0
LINE
  5
42B4
100
AcDbEntity
  8
0
100
AcDbLine
 10
500.33677
 20
1579.608052
 30
0.0
 11
500.33677
 21
1571.608052
 31
0.0
  0
LINE
  5
42B5
100
AcDbEntity
  8
0
100
AcDbLine
 10
500.33677
 20
1571.608052
 30
0.0
 11
499.65977
 21
1572.285052
 31
0.0
  0
LINE
  5
42B6
100
AcDbEntity
  8
0
100
AcDbLine
 10
499.65977
 20
1578.931052
 30
0.0
 11
500.33677
 21
1579.608052
 31
0.0
  0
ARC
  5
42B7
100
AcDbEntity
  8
0
100
AcDbCircle
 10
504.683964
 20
1569.849778
 30
0.0
 40
2.0
100
AcDbArc
 50
118.461569
 51
160.016893
  0
ARC
  5
42B8
100
AcDbEntity
  8
0
100
AcDbCircle
 10
498.115672
 20
1565.285045
 30
0.0
 40
11.133419
100
AcDbArc
 50
82.027931
 51
118.878327
  0
LINE
  5
42B9
100
AcDbEntity
  8
0
100
AcDbLine
 10
502.15977
 20
1568.760595
 30
0.0
 11
493.15977
 21
1568.760595
 31
0.0
  0
LINE
  5
42BA
100
AcDbEntity
  8
0
100
AcDbLine
 10
502.15977
 20
1568.760595
 30
0.0
 11
502.804377
 21
1570.533264
 31
0.0
  0
LINE
  5
42BB
100
AcDbEntity
  8
0
100
AcDbLine
 10
491.533094
 20
1573.233954
 30
0.0
 11
493.15977
 21
1568.760595
 31
0.0
  0
LINE
  5
42BC
100
AcDbEntity
  8
0
100
AcDbLine
 10
530.46877
 20
1571.856552
 30
0.0
 11
524.65977
 21
1571.856552
 31
0.0
  0
LINE
  5
42BD
100
AcDbEntity
  8
0
100
AcDbLine
 10
530.46877
 20
1579.360552
 30
0.0
 11
524.65977
 21
1579.360552
 31
0.0
  0
ARC
  5
42BE
100
AcDbEntity
  8
0
100
AcDbCircle
 10
517.65429
 20
1575.608552
 30
0.0
 40
13.352467
100
AcDbArc
 50
343.680297
 51
16.319703
  0
ARC
  5
42BF
100
AcDbEntity
  8
0
100
AcDbCircle
 10
504.683964
 20
1569.849778
 30
0.0
 40
2.0
100
AcDbArc
 50
6.740708
 51
61.538431
  0
LINE
  5
42C0
100
AcDbEntity
  8
0
100
AcDbLine
 10
523.15977
 20
1565.760595
 30
0.0
 11
515.65977
 21
1565.760595
 31
0.0
  0
LINE
  5
42C1
100
AcDbEntity
  8
0
100
AcDbLine
 10
524.65977
 20
1568.102552
 30
0.0
 11
530.46877
 21
1568.102552
 31
0.0
  0
ARC
  5
42C2
100
AcDbEntity
  8
0
100
AcDbCircle
 10
523.15977
 20
1567.260595
 30
0.0
 40
1.5
100
AcDbArc
 50
270.0
 51
0.0
  0
LINE
  5
42C3
100
AcDbEntity
  8
0
100
AcDbLine
 10
508.15977
 20
1565.760595
 30
0.0
 11
515.65977
 21
1565.760595
 31
0.0
  0
ARC
  5
42C4
100
AcDbEntity
  8
0
100
AcDbCircle
 10
508.15977
 20
1567.260595
 30
0.0
 40
1.5
100
AcDbArc
 50
180.0
 51
270.0
  0
ARC
  5
42C5
100
AcDbEntity
  8
0
100
AcDbCircle
 10
527.465811
 20
1569.980052
 30
0.0
 40
3.541047
100
AcDbArc
 50
327.999406
 51
32.000594
  0
LINE
  5
42C6
100
AcDbEntity
  8
0
100
AcDbLine
 10
530.46877
 20
1568.102552
 30
0.0
 11
531.15977
 21
1569.299552
 31
0.0
  0
LINE
  5
42C7
100
AcDbEntity
  8
0
100
AcDbLine
 10
500.33677
 20
1611.913138
 30
0.0
 11
506.65977
 21
1611.913138
 31
0.0
  0
LINE
  5
42C8
100
AcDbEntity
  8
0
100
AcDbLine
 10
506.65977
 20
1619.913138
 30
0.0
 11
500.33677
 21
1619.913138
 31
0.0
  0
LINE
  5
42C9
100
AcDbEntity
  8
0
100
AcDbLine
 10
516.65977
 20
1629.760595
 30
0.0
 11
478.65977
 21
1629.760595
 31
0.0
  0
LINE
  5
42CA
100
AcDbEntity
  8
0
100
AcDbLine
 10
481.65977
 20
1628.260595
 30
0.0
 11
513.65977
 21
1628.260595
 31
0.0
  0
ARC
  5
42CB
100
AcDbEntity
  8
0
100
AcDbCircle
 10
472.65977
 20
1581.260595
 30
0.0
 40
3.0
100
AcDbArc
 50
0.0
 51
90.0
  0
ARC
  5
42CC
100
AcDbEntity
  8
0
100
AcDbCircle
 10
472.65977
 20
1610.260595
 30
0.0
 40
3.0
100
AcDbArc
 50
270.0
 51
0.0
  0
LINE
  5
42CD
100
AcDbEntity
  8
0
100
AcDbLine
 10
475.65977
 20
1611.260595
 30
0.0
 11
475.65977
 21
1580.260595
 31
0.0
  0
ARC
  5
42CE
100
AcDbEntity
  8
0
100
AcDbCircle
 10
478.65977
 20
1591.260595
 30
0.0
 40
3.0
100
AcDbArc
 50
180.0
 51
270.0
  0
ARC
  5
42CF
100
AcDbEntity
  8
0
100
AcDbCircle
 10
478.65977
 20
1611.260595
 30
0.0
 40
3.0
100
AcDbArc
 50
90.0
 51
180.0
  0
ARC
  5
42D0
100
AcDbEntity
  8
0
100
AcDbCircle
 10
478.65977
 20
1600.260595
 30
0.0
 40
3.0
100
AcDbArc
 50
90.0
 51
180.0
  0
LINE
  5
42D1
100
AcDbEntity
  8
0
100
AcDbLine
 10
485.668278
 20
1610.5973
 30
0.0
 11
485.668278
 21
1606.260595
 31
0.0
  0
ARC
  5
42D2
100
AcDbEntity
  8
0
100
AcDbCircle
 10
478.65977
 20
1617.260595
 30
0.0
 40
3.0
100
AcDbArc
 50
270.0
 51
0.0
  0
ARC
  5
42D3
100
AcDbEntity
  8
0
100
AcDbCircle
 10
484.357416
 20
1615.734556
 30
0.0
 40
4.692762
100
AcDbArc
 50
206.912548
 51
283.44017
  0
LINE
  5
42D4
100
AcDbEntity
  8
0
100
AcDbLine
 10
481.65977
 20
1629.760595
 30
0.0
 11
481.65977
 21
1617.260595
 31
0.0
  0
ARC
  5
42D5
100
AcDbEntity
  8
0
100
AcDbCircle
 10
486.702532
 20
1585.260595
 30
0.0
 40
3.0
100
AcDbArc
 50
360.0
 51
90.0
  0
LINE
  5
42D6
100
AcDbEntity
  8
0
100
AcDbLine
 10
489.702532
 20
1610.5973
 30
0.0
 11
489.702532
 21
1606.260595
 31
0.0
  0
ARC
  5
42D7
100
AcDbEntity
  8
0
100
AcDbCircle
 10
486.702532
 20
1606.260595
 30
0.0
 40
3.0
100
AcDbArc
 50
270.0
 51
0.0
  0
ARC
  5
42D8
100
AcDbEntity
  8
0
100
AcDbCircle
 10
482.668278
 20
1585.260595
 30
0.0
 40
3.0
100
AcDbArc
 50
360.0
 51
90.0
  0
LINE
  5
42D9
100
AcDbEntity
  8
0
100
AcDbLine
 10
478.65977
 20
1588.260595
 30
0.0
 11
486.702532
 21
1588.260595
 31
0.0
  0
ARC
  5
42DA
100
AcDbEntity
  8
0
100
AcDbCircle
 10
482.668278
 20
1606.260595
 30
0.0
 40
3.0
100
AcDbArc
 50
270.0
 51
0.0
  0
ARC
  5
42DB
100
AcDbEntity
  8
0
100
AcDbCircle
 10
488.516087
 20
1607.083647
 30
0.0
 40
5.110093
100
AcDbArc
 50
63.319247
 51
126.896207
  0
LINE
  5
42DC
100
AcDbEntity
  8
0
100
AcDbLine
 10
478.65977
 20
1603.260595
 30
0.0
 11
486.702532
 21
1603.260595
 31
0.0
  0
LINE
  5
42DD
100
AcDbEntity
  8
0
100
AcDbLine
 10
465.45977
 20
1584.260595
 30
0.0
 11
472.65977
 21
1584.260595
 31
0.0
  0
LINE
  5
42DE
100
AcDbEntity
  8
0
100
AcDbLine
 10
465.45977
 20
1607.260595
 30
0.0
 11
458.875305
 21
1608.577488
 31
0.0
  0
ARC
  5
42DF
100
AcDbEntity
  8
0
100
AcDbCircle
 10
459.65977
 20
1612.499811
 30
0.0
 40
4.0
100
AcDbArc
 50
180.0
 51
258.690068
  0
LINE
  5
42E0
100
AcDbEntity
  8
0
100
AcDbLine
 10
465.45977
 20
1584.260595
 30
0.0
 11
458.875305
 21
1582.943702
 31
0.0
  0
LINE
  5
42E1
100
AcDbEntity
  8
0
100
AcDbLine
 10
465.45977
 20
1607.260595
 30
0.0
 11
472.65977
 21
1607.260595
 31
0.0
  0
LINE
  5
42E2
100
AcDbEntity
  8
0
100
AcDbLine
 10
500.33677
 20
1611.913138
 30
0.0
 11
500.33677
 21
1619.913138
 31
0.0
  0
LINE
  5
42E3
100
AcDbEntity
  8
0
100
AcDbLine
 10
499.65977
 20
1619.236138
 30
0.0
 11
499.65977
 21
1612.590138
 31
0.0
  0
LINE
  5
42E4
100
AcDbEntity
  8
0
100
AcDbLine
 10
499.65977
 20
1612.590138
 30
0.0
 11
500.33677
 21
1611.913138
 31
0.0
  0
LINE
  5
42E5
100
AcDbEntity
  8
0
100
AcDbLine
 10
500.33677
 20
1619.913138
 30
0.0
 11
499.65977
 21
1619.236138
 31
0.0
  0
ARC
  5
42E6
100
AcDbEntity
  8
0
100
AcDbCircle
 10
494.320032
 20
1629.058263
 30
0.0
 40
17.758844
100
AcDbArc
 50
258.602466
 51
288.698107
  0
ARC
  5
42E7
100
AcDbEntity
  8
0
100
AcDbCircle
 10
508.15977
 20
1624.260595
 30
0.0
 40
1.5
100
AcDbArc
 50
90.0
 51
180.0
  0
LINE
  5
42E8
100
AcDbEntity
  8
0
100
AcDbLine
 10
523.15977
 20
1625.760595
 30
0.0
 11
515.65977
 21
1625.760595
 31
0.0
  0
LINE
  5
42E9
100
AcDbEntity
  8
0
100
AcDbLine
 10
524.65977
 20
1623.418638
 30
0.0
 11
530.46877
 21
1623.418638
 31
0.0
  0
ARC
  5
42EA
100
AcDbEntity
  8
0
100
AcDbCircle
 10
523.15977
 20
1624.260595
 30
0.0
 40
1.5
100
AcDbArc
 50
0.0
 51
90.0
  0
LINE
  5
42EB
100
AcDbEntity
  8
0
100
AcDbLine
 10
513.65977
 20
1629.760595
 30
0.0
 11
513.65977
 21
1625.760595
 31
0.0
  0
LINE
  5
42EC
100
AcDbEntity
  8
0
100
AcDbLine
 10
508.15977
 20
1625.760595
 30
0.0
 11
515.65977
 21
1625.760595
 31
0.0
  0
LINE
  5
42ED
100
AcDbEntity
  8
0
100
AcDbLine
 10
530.46877
 20
1583.113552
 30
0.0
 11
524.65977
 21
1583.113552
 31
0.0
  0
LINE
  5
42EE
100
AcDbEntity
  8
0
100
AcDbLine
 10
530.46877
 20
1608.407638
 30
0.0
 11
524.65977
 21
1608.407638
 31
0.0
  0
LINE
  5
42EF
100
AcDbEntity
  8
0
100
AcDbLine
 10
530.46877
 20
1612.160638
 30
0.0
 11
524.65977
 21
1612.160638
 31
0.0
  0
LINE
  5
42F0
100
AcDbEntity
  8
0
100
AcDbLine
 10
530.46877
 20
1619.664638
 30
0.0
 11
524.65977
 21
1619.664638
 31
0.0
  0
LINE
  5
42F1
100
AcDbEntity
  8
0
100
AcDbLine
 10
531.15977
 20
1622.221638
 30
0.0
 11
531.15977
 21
1609.603638
 31
0.0
  0
ARC
  5
42F2
100
AcDbEntity
  8
0
100
AcDbCircle
 10
517.65429
 20
1615.912638
 30
0.0
 40
13.352467
100
AcDbArc
 50
343.680297
 51
16.319703
  0
LINE
  5
42F3
100
AcDbEntity
  8
0
100
AcDbLine
 10
531.15977
 20
1581.917552
 30
0.0
 11
530.46877
 21
1583.113552
 31
0.0
  0
LINE
  5
42F4
100
AcDbEntity
  8
0
100
AcDbLine
 10
534.65977
 20
1584.260595
 30
0.0
 11
528.924553
 21
1583.113552
 31
0.0
  0
LINE
  5
42F5
100
AcDbEntity
  8
0
100
AcDbLine
 10
531.15977
 20
1609.603638
 30
0.0
 11
530.46877
 21
1608.407638
 31
0.0
  0
ARC
  5
42F6
100
AcDbEntity
  8
0
100
AcDbCircle
 10
527.465811
 20
1610.284138
 30
0.0
 40
3.541047
100
AcDbArc
 50
327.999406
 51
32.000594
  0
LINE
  5
42F7
100
AcDbEntity
  8
0
100
AcDbLine
 10
534.65977
 20
1607.260595
 30
0.0
 11
528.924553
 21
1608.407638
 31
0.0
  0
LINE
  5
42F8
100
AcDbEntity
  8
0
100
AcDbLine
 10
530.46877
 20
1623.418638
 30
0.0
 11
531.15977
 21
1622.221638
 31
0.0
  0
ARC
  5
42F9
100
AcDbEntity
  8
0
100
AcDbCircle
 10
527.465811
 20
1621.541138
 30
0.0
 40
3.541047
100
AcDbArc
 50
327.999406
 51
32.000594
  0
LINE
  5
42FA
100
AcDbEntity
  8
0
100
AcDbLine
 10
541.85977
 20
1584.260595
 30
0.0
 11
548.444234
 21
1582.943702
 31
0.0
  0
ARC
  5
42FB
100
AcDbEntity
  8
0
100
AcDbCircle
 10
547.65977
 20
1612.499811
 30
0.0
 40
4.0
100
AcDbArc
 50
281.309932
 51
360.0
  0
LINE
  5
42FC
100
AcDbEntity
  8
0
100
AcDbLine
 10
541.85977
 20
1607.260595
 30
0.0
 11
548.444234
 21
1608.577488
 31
0.0
  0
LINE
  5
42FD
100
AcDbEntity
  8
0
100
AcDbLine
 10
541.85977
 20
1584.260595
 30
0.0
 11
534.65977
 21
1584.260595
 31
0.0
  0
LINE
  5
42FE
100
AcDbEntity
  8
0
100
AcDbLine
 10
541.85977
 20
1607.260595
 30
0.0
 11
534.65977
 21
1607.260595
 31
0.0
  0
LINE
  5
42FF
100
AcDbEntity
  8
0
100
AcDbLine
 10
563.65977
 20
1595.760595
 30
0.0
 11
563.65977
 21
1548.260595
 31
0.0
  0
LINE
  5
4300
100
AcDbEntity
  8
0
100
AcDbLine
 10
563.65977
 20
1643.260595
 30
0.0
 11
563.65977
 21
1595.760595
 31
0.0
  0
ARC
  5
4301
100
AcDbEntity
  8
0
100
AcDbCircle
 10
394.5664
 20
1433.101916
 30
0.0
 40
250.0
100
AcDbArc
 50
61.03682
 51
71.556251
  0
LINE
  5
4302
100
AcDbEntity
  8
0
100
AcDbLine
 10
516.277659
 20
1651.260595
 30
0.0
 11
478.65977
 21
1651.260595
 31
0.0
  0
LINE
  5
4303
100
AcDbEntity
  8
0
100
AcDbLine
 10
477.78109
 20
1655.639275
 30
0.0
 11
461.65977
 21
1671.760595
 31
0.0
  0
ARC
  5
4304
100
AcDbEntity
  8
0
100
AcDbCircle
 10
475.65977
 20
1653.517954
 30
0.0
 40
3.0
100
AcDbArc
 50
0.0
 51
45.0
  0
LINE
  5
4305
100
AcDbEntity
  8
0
100
AcDbLine
 10
473.65977
 20
1670.260595
 30
0.0
 11
463.15977
 21
1670.260595
 31
0.0
  0
ARC
  5
4306
100
AcDbEntity
  8
0
100
AcDbCircle
 10
514.65977
 20
1650.084825
 30
0.0
 40
2.0
100
AcDbArc
 50
0.0
 51
61.03682
  0
LINE
  5
4307
100
AcDbEntity
  8
0
100
AcDbLine
 10
706.228297
 20
1273.187092
 30
0.0
 11
744.228297
 21
1273.187092
 31
0.0
  0
LINE
  5
4308
100
AcDbEntity
  8
0
100
AcDbLine
 10
706.228297
 20
1273.187092
 30
0.0
 11
706.228297
 21
1261.221562
 31
0.0
  0
LINE
  5
4309
100
AcDbEntity
  8
0
100
AcDbLine
 10
731.223297
 20
1273.187092
 30
0.0
 11
731.223297
 21
1285.187092
 31
0.0
  0
LINE
  5
430A
100
AcDbEntity
  8
0
100
AcDbLine
 10
719.223297
 20
1273.187092
 30
0.0
 11
719.223297
 21
1285.187092
 31
0.0
  0
LINE
  5
430B
100
AcDbEntity
  8
0
100
AcDbLine
 10
733.563297
 20
1293.687092
 30
0.0
 11
733.563297
 21
1285.187092
 31
0.0
  0
LINE
  5
430C
100
AcDbEntity
  8
0
100
AcDbLine
 10
716.893297
 20
1285.187092
 30
0.0
 11
733.563297
 21
1285.187092
 31
0.0
  0
LINE
  5
430D
100
AcDbEntity
  8
0
100
AcDbLine
 10
716.893297
 20
1293.687092
 30
0.0
 11
716.893297
 21
1285.187092
 31
0.0
  0
LINE
  5
430E
100
AcDbEntity
  8
0
100
AcDbLine
 10
719.994391
 20
1276.689201
 30
0.0
 11
730.452203
 21
1276.689201
 31
0.0
  0
LINE
  5
430F
100
AcDbEntity
  8
0
100
AcDbLine
 10
716.893297
 20
1293.687092
 30
0.0
 11
733.563297
 21
1293.687092
 31
0.0
  0
LINE
  5
4310
100
AcDbEntity
  8
0
100
AcDbLine
 10
744.228297
 20
1273.187092
 30
0.0
 11
744.228297
 21
1261.221562
 31
0.0
  0
LINE
  5
4311
100
AcDbEntity
  8
0
100
AcDbLine
 10
1025.912245
 20
1298.187092
 30
0.0
 11
1011.912245
 21
1298.187092
 31
0.0
  0
ELLIPSE
  5
4312
100
AcDbEntity
  8
0
100
AcDbEllipse
 10
1018.912245
 20
1287.519741
 30
0.0
 11
-4.75
 21
0.0
 31
0.0
210
0.0
220
0.0
230
1.0
 40
0.487122
 41
0.0
 42
6.283185307179586
  0
LINE
  5
4313
100
AcDbEntity
  8
0
100
AcDbLine
 10
999.916713
 20
1277.187092
 30
0.0
 11
1037.912245
 21
1277.187092
 31
0.0
  0
LINE
  5
4314
100
AcDbEntity
  8
0
100
AcDbLine
 10
1009.562245
 20
1299.687092
 30
0.0
 11
1028.262245
 21
1299.687092
 31
0.0
  0
LINE
  5
4315
100
AcDbEntity
  8
0
100
AcDbLine
 10
1011.912245
 20
1277.187092
 30
0.0
 11
1011.912245
 21
1298.187092
 31
0.0
  0
LINE
  5
4316
100
AcDbEntity
  8
0
100
AcDbLine
 10
1009.562245
 20
1289.184233
 30
0.0
 11
1009.562245
 21
1299.687092
 31
0.0
  0
LINE
  5
4317
100
AcDbEntity
  8
0
100
AcDbLine
 10
999.913894
 20
1263.937094
 30
0.0
 11
999.916713
 21
1277.187092
 31
0.0
  0
LINE
  5
4318
100
AcDbEntity
  8
0
100
AcDbLine
 10
1009.562245
 20
1289.184233
 30
0.0
 11
1011.912245
 21
1289.184233
 31
0.0
  0
LINE
  5
4319
100
AcDbEntity
  8
0
100
AcDbLine
 10
1028.262245
 20
1289.184233
 30
0.0
 11
1028.262245
 21
1299.687092
 31
0.0
  0
LINE
  5
431A
100
AcDbEntity
  8
0
100
AcDbLine
 10
1025.912245
 20
1277.187092
 30
0.0
 11
1025.912245
 21
1298.187092
 31
0.0
  0
LINE
  5
431B
100
AcDbEntity
  8
0
100
AcDbLine
 10
1025.912245
 20
1289.184233
 30
0.0
 11
1028.262245
 21
1289.184233
 31
0.0
  0
LINE
  5
431C
100
AcDbEntity
  8
0
100
AcDbLine
 10
1037.912245
 20
1277.187092
 30
0.0
 11
1037.912245
 21
1263.936417
 31
0.0
  0
LINE
  5
431D
100
AcDbEntity
  8
0
100
AcDbLine
 10
1972.814068
 20
1682.760595
 30
0.0
 11
1884.314068
 21
1682.760595
 31
0.0
  0
LINE
  5
431E
100
AcDbEntity
  8
0
100
AcDbLine
 10
1884.314068
 20
1676.254839
 30
0.0
 11
1982.316068
 21
1673.260595
 31
0.0
  0
LINE
  5
431F
100
AcDbEntity
  8
0
100
AcDbLine
 10
1263.359452
 20
1279.565772
 30
0.0
 11
1283.480772
 21
1299.687092
 31
0.0
  0
LINE
  5
4320
100
AcDbEntity
  8
0
100
AcDbLine
 10
1267.480772
 20
1298.187092
 30
0.0
 11
1281.980772
 21
1298.187092
 31
0.0
  0
LINE
  5
4321
100
AcDbEntity
  8
0
100
AcDbLine
 10
1279.480772
 20
1446.926875
 30
0.0
 11
1272.618026
 21
1446.926875
 31
0.0
  0
LINE
  5
4322
100
AcDbEntity
  8
0
100
AcDbLine
 10
1279.480772
 20
1416.926875
 30
0.0
 11
1272.618026
 21
1416.926875
 31
0.0
  0
LINE
  5
4323
100
AcDbEntity
  8
0
100
AcDbLine
 10
1267.480772
 20
1425.426875
 30
0.0
 11
1367.120086
 21
1422.606894
 31
0.0
  0
LINE
  5
4324
100
AcDbEntity
  8
0
100
AcDbLine
 10
1267.480772
 20
1438.426875
 30
0.0
 11
1367.120086
 21
1441.246855
 31
0.0
  0
LINE
  5
4325
100
AcDbEntity
  8
0
100
AcDbLine
 10
1168.480772
 20
1431.926875
 30
0.0
 11
1168.480772
 21
1381.926875
 31
0.0
  0
LINE
  5
4326
100
AcDbEntity
  8
0
100
AcDbLine
 10
1182.480772
 20
1481.926875
 30
0.0
 11
1182.480772
 21
1381.926875
 31
0.0
  0
LINE
  5
4327
100
AcDbEntity
  8
0
100
AcDbLine
 10
1182.480772
 20
1381.926875
 30
0.0
 11
1168.480772
 21
1381.926875
 31
0.0
  0
LINE
  5
4328
100
AcDbEntity
  8
0
100
AcDbLine
 10
1182.480772
 20
1267.687092
 30
0.0
 11
1168.480772
 21
1267.687092
 31
0.0
  0
LINE
  5
4329
100
AcDbEntity
  8
0
100
AcDbLine
 10
1259.480772
 20
1255.687092
 30
0.0
 11
1259.480772
 21
1256.187092
 31
0.0
  0
ARC
  5
432A
100
AcDbEntity
  8
0
100
AcDbCircle
 10
1260.480772
 20
1255.687092
 30
0.0
 40
1.0
100
AcDbArc
 50
180.0
 51
270.0
  0
LINE
  5
432B
100
AcDbEntity
  8
0
100
AcDbLine
 10
1262.480772
 20
1277.444452
 30
0.0
 11
1262.480772
 21
1256.187092
 31
0.0
  0
ARC
  5
432C
100
AcDbEntity
  8
0
100
AcDbCircle
 10
1265.480772
 20
1277.444452
 30
0.0
 40
3.0
100
AcDbArc
 50
135.0
 51
180.0
  0
ARC
  5
432D
100
AcDbEntity
  8
0
100
AcDbCircle
 10
1226.480772
 20
1276.039952
 30
0.0
 40
2.0
100
AcDbArc
 50
120.2153
 51
180.0
  0
LINE
  5
432E
100
AcDbEntity
  8
0
100
AcDbLine
 10
1224.480772
 20
1276.039952
 30
0.0
 11
1224.480772
 21
1256.187092
 31
0.0
  0
LINE
  5
432F
100
AcDbEntity
  8
0
100
AcDbLine
 10
1227.480772
 20
1255.687092
 30
0.0
 11
1227.480772
 21
1256.187092
 31
0.0
  0
LINE
  5
4330
100
AcDbEntity
  8
0
100
AcDbLine
 10
1226.480772
 20
1254.187092
 30
0.0
 11
1226.480772
 21
1254.687092
 31
0.0
  0
ARC
  5
4331
100
AcDbEntity
  8
0
100
AcDbCircle
 10
1226.480772
 20
1255.687092
 30
0.0
 40
1.0
100
AcDbArc
 50
270.0
 51
0.0
  0
LINE
  5
4332
100
AcDbEntity
  8
0
100
AcDbLine
 10
1224.480772
 20
1256.187092
 30
0.0
 11
1262.480772
 21
1256.187092
 31
0.0
  0
LINE
  5
4333
100
AcDbEntity
  8
0
100
AcDbLine
 10
1224.842459
 20
1277.187092
 30
0.0
 11
1262.480772
 21
1277.187092
 31
0.0
  0
LINE
  5
4334
100
AcDbEntity
  8
0
100
AcDbLine
 10
1260.480772
 20
1254.687092
 30
0.0
 11
1226.480772
 21
1254.687092
 31
0.0
  0
ARC
  5
4335
100
AcDbEntity
  8
0
100
AcDbCircle
 10
1376.449485
 20
1018.526098
 30
0.0
 40
300.0
100
AcDbArc
 50
111.298636
 51
120.2153
  0
LINE
  5
4336
100
AcDbEntity
  8
0
100
AcDbLine
 10
1182.480772
 20
1481.926875
 30
0.0
 11
1168.480772
 21
1481.926875
 31
0.0
  0
LINE
  5
4337
100
AcDbEntity
  8
0
100
AcDbLine
 10
1168.480772
 20
1431.926875
 30
0.0
 11
1168.480772
 21
1481.926875
 31
0.0
  0
ARC
  5
4338
100
AcDbEntity
  8
0
100
AcDbCircle
 10
1186.480772
 20
1452.20609
 30
0.0
 40
4.0
100
AcDbArc
 50
180.0
 51
258.690068
  0
ARC
  5
4339
100
AcDbEntity
  8
0
100
AcDbCircle
 10
1260.172264
 20
1445.926875
 30
0.0
 40
3.0
100
AcDbArc
 50
90.0
 51
180.0
  0
ARC
  5
433A
100
AcDbEntity
  8
0
100
AcDbCircle
 10
1264.680772
 20
1444.926875
 30
0.0
 40
4.0
100
AcDbArc
 50
0.0
 51
90.0
  0
LINE
  5
433B
100
AcDbEntity
  8
0
100
AcDbLine
 10
1233.480772
 20
1448.082369
 30
0.0
 11
1233.480772
 21
1464.926875
 31
0.0
  0
LINE
  5
433C
100
AcDbEntity
  8
0
100
AcDbLine
 10
1268.680772
 20
1438.460837
 30
0.0
 11
1268.680772
 21
1451.926875
 31
0.0
  0
LINE
  5
433D
100
AcDbEntity
  8
0
100
AcDbLine
 10
1253.653382
 20
1450.926875
 30
0.0
 11
1253.653382
 21
1447.974243
 31
0.0
  0
ARC
  5
433E
100
AcDbEntity
  8
0
100
AcDbCircle
 10
1272.618026
 20
1450.926875
 30
0.0
 40
4.0
100
AcDbArc
 50
187.180756
 51
270.0
  0
ARC
  5
433F
100
AcDbEntity
  8
0
100
AcDbCircle
 10
1211.311096
 20
1446.839738
 30
0.0
 40
4.630982
100
AcDbArc
 50
148.000676
 51
211.999324
  0
LINE
  5
4340
100
AcDbEntity
  8
0
100
AcDbLine
 10
1206.479772
 20
1462.450738
 30
0.0
 11
1206.479772
 21
1445.950738
 31
0.0
  0
ARC
  5
4341
100
AcDbEntity
  8
0
100
AcDbCircle
 10
1243.480772
 20
1431.926875
 30
0.0
 40
19.0
100
AcDbArc
 50
21.618272
 51
338.381728
  0
LINE
  5
4342
100
AcDbEntity
  8
0
100
AcDbLine
 10
1223.480772
 20
1397.426875
 30
0.0
 11
1223.480772
 21
1466.426875
 31
0.0
  0
LINE
  5
4343
100
AcDbEntity
  8
0
100
AcDbLine
 10
1213.480772
 20
1397.426875
 30
0.0
 11
1213.480772
 21
1466.426875
 31
0.0
  0
LINE
  5
4344
100
AcDbEntity
  8
0
100
AcDbLine
 10
1213.480772
 20
1397.426875
 30
0.0
 11
1223.480772
 21
1397.426875
 31
0.0
  0
LINE
  5
4345
100
AcDbEntity
  8
0
100
AcDbLine
 10
1192.480772
 20
1446.926875
 30
0.0
 11
1185.696308
 21
1448.283768
 31
0.0
  0
ARC
  5
4346
100
AcDbEntity
  8
0
100
AcDbCircle
 10
1186.480772
 20
1411.647659
 30
0.0
 40
4.0
100
AcDbArc
 50
101.309932
 51
180.0
  0
LINE
  5
4347
100
AcDbEntity
  8
0
100
AcDbLine
 10
1192.480772
 20
1416.926875
 30
0.0
 11
1185.696308
 21
1415.569982
 31
0.0
  0
LINE
  5
4348
100
AcDbEntity
  8
0
100
AcDbLine
 10
1192.480772
 20
1416.926875
 30
0.0
 11
1203.480772
 21
1416.926875
 31
0.0
  0
LINE
  5
4349
100
AcDbEntity
  8
0
100
AcDbLine
 10
1192.480772
 20
1446.926875
 30
0.0
 11
1203.480772
 21
1446.926875
 31
0.0
  0
LINE
  5
434A
100
AcDbEntity
  8
0
100
AcDbLine
 10
1206.479772
 20
1447.526675
 30
0.0
 11
1203.480772
 21
1446.926875
 31
0.0
  0
LINE
  5
434B
100
AcDbEntity
  8
0
100
AcDbLine
 10
1206.479772
 20
1445.950738
 30
0.0
 11
1207.383772
 21
1444.385738
 31
0.0
  0
LINE
  5
434C
100
AcDbEntity
  8
0
100
AcDbLine
 10
1206.479772
 20
1416.327075
 30
0.0
 11
1203.480772
 21
1416.926875
 31
0.0
  0
ARC
  5
434D
100
AcDbEntity
  8
0
100
AcDbCircle
 10
1211.311096
 20
1417.014011
 30
0.0
 40
4.630982
100
AcDbArc
 50
148.000676
 51
211.999324
  0
LINE
  5
434E
100
AcDbEntity
  8
0
100
AcDbLine
 10
1206.479772
 20
1417.903011
 30
0.0
 11
1207.383772
 21
1419.468011
 31
0.0
  0
LINE
  5
434F
100
AcDbEntity
  8
0
100
AcDbLine
 10
1207.383772
 20
1444.385738
 30
0.0
 11
1213.480772
 21
1444.385738
 31
0.0
  0
LINE
  5
4350
100
AcDbEntity
  8
0
100
AcDbLine
 10
1207.383772
 20
1414.560011
 30
0.0
 11
1213.480772
 21
1414.560011
 31
0.0
  0
LINE
  5
4351
100
AcDbEntity
  8
0
100
AcDbLine
 10
1207.383772
 20
1419.468011
 30
0.0
 11
1213.480772
 21
1419.468011
 31
0.0
  0
LINE
  5
4352
100
AcDbEntity
  8
0
100
AcDbLine
 10
1207.383772
 20
1399.838011
 30
0.0
 11
1206.479772
 21
1401.403011
 31
0.0
  0
ARC
  5
4353
100
AcDbEntity
  8
0
100
AcDbCircle
 10
1211.311096
 20
1402.292011
 30
0.0
 40
4.630982
100
AcDbArc
 50
148.000676
 51
211.999324
  0
LINE
  5
4354
100
AcDbEntity
  8
0
100
AcDbLine
 10
1213.480772
 20
1399.838011
 30
0.0
 11
1207.383772
 21
1399.838011
 31
0.0
  0
LINE
  5
4355
100
AcDbEntity
  8
0
100
AcDbLine
 10
1207.383772
 20
1404.746011
 30
0.0
 11
1213.480772
 21
1404.746011
 31
0.0
  0
LINE
  5
4356
100
AcDbEntity
  8
0
100
AcDbLine
 10
1206.479772
 20
1401.403011
 30
0.0
 11
1206.479772
 21
1417.903011
 31
0.0
  0
ARC
  5
4357
100
AcDbEntity
  8
0
100
AcDbCircle
 10
1224.142764
 20
1409.653011
 30
0.0
 40
17.462601
100
AcDbArc
 50
163.680072
 51
196.319928
  0
LINE
  5
4358
100
AcDbEntity
  8
0
100
AcDbLine
 10
1261.144294
 20
1438.926875
 30
0.0
 11
1267.480772
 21
1438.426875
 31
0.0
  0
LINE
  5
4359
100
AcDbEntity
  8
0
100
AcDbLine
 10
1261.144294
 20
1424.926875
 30
0.0
 11
1267.480772
 21
1425.426875
 31
0.0
  0
LINE
  5
435A
100
AcDbEntity
  8
0
100
AcDbLine
 10
1264.680772
 20
1409.926875
 30
0.0
 11
1256.653382
 21
1409.926875
 31
0.0
  0
LINE
  5
435B
100
AcDbEntity
  8
0
100
AcDbLine
 10
1260.172264
 20
1448.926875
 30
0.0
 11
1264.680772
 21
1448.926875
 31
0.0
  0
LINE
  5
435C
100
AcDbEntity
  8
0
100
AcDbLine
 10
1260.172264
 20
1414.926875
 30
0.0
 11
1264.680772
 21
1414.926875
 31
0.0
  0
LINE
  5
435D
100
AcDbEntity
  8
0
100
AcDbLine
 10
1257.172264
 20
1445.926875
 30
0.0
 11
1257.172264
 21
1445.100448
 31
0.0
  0
LINE
  5
435E
100
AcDbEntity
  8
0
100
AcDbLine
 10
1257.172264
 20
1417.926875
 30
0.0
 11
1257.172264
 21
1418.753301
 31
0.0
  0
ARC
  5
435F
100
AcDbEntity
  8
0
100
AcDbCircle
 10
1260.172264
 20
1417.926875
 30
0.0
 40
3.0
100
AcDbArc
 50
180.0
 51
270.0
  0
LINE
  5
4360
100
AcDbEntity
  8
0
100
AcDbLine
 10
1268.680772
 20
1411.926875
 30
0.0
 11
1268.680772
 21
1425.392912
 31
0.0
  0
LINE
  5
4361
100
AcDbEntity
  8
0
100
AcDbLine
 10
1267.480772
 20
1427.376875
 30
0.0
 11
1267.480772
 21
1436.476875
 31
0.0
  0
ARC
  5
4362
100
AcDbEntity
  8
0
100
AcDbCircle
 10
1272.618026
 20
1412.926875
 30
0.0
 40
4.0
100
AcDbArc
 50
90.0
 51
172.819244
  0
ARC
  5
4363
100
AcDbEntity
  8
0
100
AcDbCircle
 10
1264.680772
 20
1413.926875
 30
0.0
 40
4.0
100
AcDbArc
 50
270.0
 51
352.819244
  0
ARC
  5
4364
100
AcDbEntity
  8
0
100
AcDbCircle
 10
1264.680772
 20
1418.926875
 30
0.0
 40
4.0
100
AcDbArc
 50
270.0
 51
0.0
  0
CIRCLE
  5
4365
100
AcDbEntity
  8
0
100
AcDbCircle
 10
1243.480772
 20
1431.926875
 30
0.0
 40
4.75
  0
CIRCLE
  5
4366
100
AcDbEntity
  8
0
100
AcDbCircle
 10
1243.480772
 20
1431.926875
 30
0.0
 40
6.0
  0
LINE
  5
4367
100
AcDbEntity
  8
0
100
AcDbLine
 10
1235.567894
 20
1414.653011
 30
0.0
 11
1233.480772
 21
1414.653011
 31
0.0
  0
LINE
  5
4368
100
AcDbEntity
  8
0
100
AcDbLine
 10
1253.653382
 20
1412.926875
 30
0.0
 11
1253.653382
 21
1415.879507
 31
0.0
  0
LINE
  5
4369
100
AcDbEntity
  8
0
100
AcDbLine
 10
1264.680772
 20
1407.926875
 30
0.0
 11
1238.480772
 21
1407.926875
 31
0.0
  0
ARC
  5
436A
100
AcDbEntity
  8
0
100
AcDbCircle
 10
1256.653382
 20
1412.926875
 30
0.0
 40
3.0
100
AcDbArc
 50
180.0
 51
270.0
  0
ARC
  5
436B
100
AcDbEntity
  8
0
100
AcDbCircle
 10
1227.117704
 20
1439.426875
 30
0.0
 40
1.0
100
AcDbArc
 50
155.375682
 51
270.0
  0
ARC
  5
436C
100
AcDbEntity
  8
0
100
AcDbCircle
 10
1227.117704
 20
1424.426875
 30
0.0
 40
1.0
100
AcDbArc
 50
90.0
 51
204.624318
  0
LINE
  5
436D
100
AcDbEntity
  8
0
100
AcDbLine
 10
1227.117704
 20
1438.426875
 30
0.0
 11
1267.480772
 21
1438.426875
 31
0.0
  0
LINE
  5
436E
100
AcDbEntity
  8
0
100
AcDbLine
 10
1226.92726
 20
1438.445177
 30
0.0
 11
1261.144294
 21
1438.926875
 31
0.0
  0
LINE
  5
436F
100
AcDbEntity
  8
0
100
AcDbLine
 10
1227.117704
 20
1425.426875
 30
0.0
 11
1267.480772
 21
1425.426875
 31
0.0
  0
LINE
  5
4370
100
AcDbEntity
  8
0
100
AcDbLine
 10
1226.92726
 20
1425.408573
 30
0.0
 11
1261.144294
 21
1424.926875
 31
0.0
  0
ARC
  5
4371
100
AcDbEntity
  8
0
100
AcDbCircle
 10
1231.980772
 20
1398.926875
 30
0.0
 40
1.5
100
AcDbArc
 50
270.0
 51
0.0
  0
LINE
  5
4372
100
AcDbEntity
  8
0
100
AcDbLine
 10
1233.480772
 20
1404.653011
 30
0.0
 11
1237.668772
 21
1404.653011
 31
0.0
  0
LINE
  5
4373
100
AcDbEntity
  8
0
100
AcDbLine
 10
1237.668772
 20
1404.653011
 30
0.0
 11
1238.480772
 21
1405.465011
 31
0.0
  0
LINE
  5
4374
100
AcDbEntity
  8
0
100
AcDbLine
 10
1231.980772
 20
1397.426875
 30
0.0
 11
1223.480772
 21
1397.426875
 31
0.0
  0
LINE
  5
4375
100
AcDbEntity
  8
0
100
AcDbLine
 10
1238.480772
 20
1405.465011
 30
0.0
 11
1238.480772
 21
1413.596572
 31
0.0
  0
LINE
  5
4376
100
AcDbEntity
  8
0
100
AcDbLine
 10
1233.480772
 20
1398.926875
 30
0.0
 11
1233.480772
 21
1415.77138
 31
0.0
  0
LINE
  5
4377
100
AcDbEntity
  8
0
100
AcDbLine
 10
1237.668772
 20
1413.837633
 30
0.0
 11
1237.668772
 21
1404.653011
 31
0.0
  0
ARC
  5
4378
100
AcDbEntity
  8
0
100
AcDbCircle
 10
1264.680772
 20
1411.926875
 30
0.0
 40
4.0
100
AcDbArc
 50
270.0
 51
0.0
  0
LINE
  5
4379
100
AcDbEntity
  8
0
100
AcDbLine
 10
1213.480772
 20
1466.426875
 30
0.0
 11
1223.480772
 21
1466.426875
 31
0.0
  0
ARC
  5
437A
100
AcDbEntity
  8
0
100
AcDbCircle
 10
1211.311096
 20
1461.561738
 30
0.0
 40
4.630982
100
AcDbArc
 50
148.000676
 51
211.999324
  0
LINE
  5
437B
100
AcDbEntity
  8
0
100
AcDbLine
 10
1207.383772
 20
1464.015738
 30
0.0
 11
1206.479772
 21
1462.450738
 31
0.0
  0
LINE
  5
437C
100
AcDbEntity
  8
0
100
AcDbLine
 10
1207.383772
 20
1459.107738
 30
0.0
 11
1213.480772
 21
1459.107738
 31
0.0
  0
LINE
  5
437D
100
AcDbEntity
  8
0
100
AcDbLine
 10
1213.480772
 20
1464.015738
 30
0.0
 11
1207.383772
 21
1464.015738
 31
0.0
  0
LINE
  5
437E
100
AcDbEntity
  8
0
100
AcDbLine
 10
1207.383772
 20
1449.293738
 30
0.0
 11
1213.480772
 21
1449.293738
 31
0.0
  0
ARC
  5
437F
100
AcDbEntity
  8
0
100
AcDbCircle
 10
1224.142764
 20
1454.200738
 30
0.0
 40
17.462601
100
AcDbArc
 50
163.680072
 51
196.319928
  0
LINE
  5
4380
100
AcDbEntity
  8
0
100
AcDbLine
 10
1264.680772
 20
1453.926875
 30
0.0
 11
1256.653382
 21
1453.926875
 31
0.0
  0
ARC
  5
4381
100
AcDbEntity
  8
0
100
AcDbCircle
 10
1264.680772
 20
1449.926875
 30
0.0
 40
4.0
100
AcDbArc
 50
7.180756
 51
90.0
  0
ARC
  5
4382
100
AcDbEntity
  8
0
100
AcDbCircle
 10
1264.680772
 20
1451.926875
 30
0.0
 40
4.0
100
AcDbArc
 50
0.0
 51
90.0
  0
ARC
  5
4383
100
AcDbEntity
  8
0
100
AcDbCircle
 10
1231.980772
 20
1464.926875
 30
0.0
 40
1.5
100
AcDbArc
 50
0.0
 51
90.0
  0
LINE
  5
4384
100
AcDbEntity
  8
0
100
AcDbLine
 10
1233.480772
 20
1459.200738
 30
0.0
 11
1237.668772
 21
1459.200738
 31
0.0
  0
LINE
  5
4385
100
AcDbEntity
  8
0
100
AcDbLine
 10
1237.668772
 20
1459.200738
 30
0.0
 11
1238.480772
 21
1458.388738
 31
0.0
  0
LINE
  5
4386
100
AcDbEntity
  8
0
100
AcDbLine
 10
1264.680772
 20
1455.926875
 30
0.0
 11
1238.480772
 21
1455.926875
 31
0.0
  0
ARC
  5
4387
100
AcDbEntity
  8
0
100
AcDbCircle
 10
1256.653382
 20
1450.926875
 30
0.0
 40
3.0
100
AcDbArc
 50
90.0
 51
180.0
  0
LINE
  5
4388
100
AcDbEntity
  8
0
100
AcDbLine
 10
1235.567894
 20
1449.200738
 30
0.0
 11
1233.480772
 21
1449.200738
 31
0.0
  0
LINE
  5
4389
100
AcDbEntity
  8
0
100
AcDbLine
 10
1238.480772
 20
1458.388738
 30
0.0
 11
1238.480772
 21
1450.257177
 31
0.0
  0
LINE
  5
438A
100
AcDbEntity
  8
0
100
AcDbLine
 10
1237.668772
 20
1450.016116
 30
0.0
 11
1237.668772
 21
1459.200738
 31
0.0
  0
LINE
  5
438B
100
AcDbEntity
  8
0
100
AcDbLine
 10
1231.980772
 20
1466.426875
 30
0.0
 11
1223.480772
 21
1466.426875
 31
0.0
  0
LINE
  5
438C
100
AcDbEntity
  8
0
100
AcDbLine
 10
1289.480772
 20
1424.809894
 30
0.0
 11
1289.480772
 21
1381.926875
 31
0.0
  0
LINE
  5
438D
100
AcDbEntity
  8
0
100
AcDbLine
 10
1303.480772
 20
1424.413667
 30
0.0
 11
1303.480772
 21
1381.926875
 31
0.0
  0
LINE
  5
438E
100
AcDbEntity
  8
0
100
AcDbLine
 10
1283.480772
 20
1299.687092
 30
0.0
 11
1370.980772
 21
1299.687092
 31
0.0
  0
LINE
  5
438F
100
AcDbEntity
  8
0
100
AcDbLine
 10
1273.980772
 20
1290.187092
 30
0.0
 11
1371.056115
 21
1293.113987
 31
0.0
  0
LINE
  5
4390
100
AcDbEntity
  8
0
100
AcDbLine
 10
1289.480772
 20
1267.687092
 30
0.0
 11
1303.480772
 21
1267.687092
 31
0.0
  0
ARC
  5
4391
100
AcDbEntity
  8
0
100
AcDbCircle
 10
1370.980772
 20
1295.612852
 30
0.0
 40
2.5
100
AcDbArc
 50
271.726988
 51
0.0
  0
ARC
  5
4392
100
AcDbEntity
  8
0
100
AcDbCircle
 10
1370.980772
 20
1297.187092
 30
0.0
 40
2.5
100
AcDbArc
 50
0.0
 51
90.0
  0
LINE
  5
4393
100
AcDbEntity
  8
0
100
AcDbLine
 10
1373.480772
 20
1295.612852
 30
0.0
 11
1373.480772
 21
1297.187092
 31
0.0
  0
LINE
  5
4394
100
AcDbEntity
  8
0
100
AcDbLine
 10
1289.480772
 20
1381.926875
 30
0.0
 11
1303.480772
 21
1381.926875
 31
0.0
  0
LINE
  5
4395
100
AcDbEntity
  8
0
100
AcDbLine
 10
1431.053768
 20
1277.187092
 30
0.0
 11
1469.049299
 21
1277.187092
 31
0.0
  0
LINE
  5
4396
100
AcDbEntity
  8
0
100
AcDbLine
 10
1440.699299
 20
1289.184233
 30
0.0
 11
1440.699299
 21
1299.687092
 31
0.0
  0
LINE
  5
4397
100
AcDbEntity
  8
0
100
AcDbLine
 10
1440.699299
 20
1289.184233
 30
0.0
 11
1459.399299
 21
1289.184233
 31
0.0
  0
LINE
  5
4398
100
AcDbEntity
  8
0
100
AcDbLine
 10
1440.699299
 20
1299.687092
 30
0.0
 11
1459.399299
 21
1299.687092
 31
0.0
  0
LINE
  5
4399
100
AcDbEntity
  8
0
100
AcDbLine
 10
1459.399299
 20
1289.184233
 30
0.0
 11
1459.399299
 21
1299.687092
 31
0.0
  0
LINE
  5
439A
100
AcDbEntity
  8
0
100
AcDbLine
 10
1457.049299
 20
1277.187092
 30
0.0
 11
1457.049299
 21
1289.184233
 31
0.0
  0
LINE
  5
439B
100
AcDbEntity
  8
0
100
AcDbLine
 10
1443.049299
 20
1277.187092
 30
0.0
 11
1443.049299
 21
1289.184233
 31
0.0
  0
LINE
  5
439C
100
AcDbEntity
  8
0
100
AcDbLine
 10
1443.756711
 20
1278.681375
 30
0.0
 11
1456.341888
 21
1278.681375
 31
0.0
  0
LINE
  5
439D
100
AcDbEntity
  8
0
100
AcDbLine
 10
1431.050948
 20
1263.937094
 30
0.0
 11
1431.053768
 21
1277.187092
 31
0.0
  0
LINE
  5
439E
100
AcDbEntity
  8
0
100
AcDbLine
 10
1469.049299
 20
1277.187092
 30
0.0
 11
1469.049299
 21
1263.936417
 31
0.0
  0
LINE
  5
439F
100
AcDbEntity
  8
0
100
AcDbLine
 10
1303.480772
 20
1439.440082
 30
0.0
 11
1303.480772
 21
1481.926875
 31
0.0
  0
LINE
  5
43A0
100
AcDbEntity
  8
0
100
AcDbLine
 10
1289.480772
 20
1481.926875
 30
0.0
 11
1289.480772
 21
1439.043856
 31
0.0
  0
ARC
  5
43A1
100
AcDbEntity
  8
0
100
AcDbCircle
 10
1285.480772
 20
1452.20609
 30
0.0
 40
4.0
100
AcDbArc
 50
281.309932
 51
0.0
  0
LINE
  5
43A2
100
AcDbEntity
  8
0
100
AcDbLine
 10
1279.480772
 20
1446.926875
 30
0.0
 11
1286.265237
 21
1448.283768
 31
0.0
  0
LINE
  5
43A3
100
AcDbEntity
  8
0
100
AcDbLine
 10
1279.480772
 20
1416.926875
 30
0.0
 11
1286.265237
 21
1415.569982
 31
0.0
  0
ARC
  5
43A4
100
AcDbEntity
  8
0
100
AcDbCircle
 10
1281.289868
 20
1436.816897
 30
0.0
 40
2.0
100
AcDbArc
 50
0.0
 51
91.621146
  0
ARC
  5
43A5
100
AcDbEntity
  8
0
100
AcDbCircle
 10
1279.789868
 20
1436.774445
 30
0.0
 40
2.0
100
AcDbArc
 50
0.0
 51
91.621146
  0
ARC
  5
43A6
100
AcDbEntity
  8
0
100
AcDbCircle
 10
1281.289868
 20
1427.036852
 30
0.0
 40
2.0
100
AcDbArc
 50
268.378854
 51
0.0
  0
ARC
  5
43A7
100
AcDbEntity
  8
0
100
AcDbCircle
 10
1279.789868
 20
1427.079305
 30
0.0
 40
2.0
100
AcDbArc
 50
268.378854
 51
0.0
  0
LINE
  5
43A8
100
AcDbEntity
  8
0
100
AcDbLine
 10
1283.289868
 20
1427.036852
 30
0.0
 11
1283.289868
 21
1436.816897
 31
0.0
  0
LINE
  5
43A9
100
AcDbEntity
  8
0
100
AcDbLine
 10
1281.789868
 20
1427.079305
 30
0.0
 11
1281.789868
 21
1436.774445
 31
0.0
  0
ARC
  5
43AA
100
AcDbEntity
  8
0
100
AcDbCircle
 10
1285.480772
 20
1411.647659
 30
0.0
 40
4.0
100
AcDbArc
 50
0.0
 51
78.690068
  0
ARC
  5
43AB
100
AcDbEntity
  8
0
100
AcDbCircle
 10
1367.289829
 20
1428.604493
 30
0.0
 40
6.0
100
AcDbArc
 50
268.378854
 51
353.42147
  0
ARC
  5
43AC
100
AcDbEntity
  8
0
100
AcDbCircle
 10
1367.289829
 20
1435.249257
 30
0.0
 40
6.0
100
AcDbArc
 50
6.57853
 51
91.621146
  0
ARC
  5
43AD
100
AcDbEntity
  8
0
100
AcDbCircle
 10
1338.480772
 20
1431.926875
 30
0.0
 40
35.0
100
AcDbArc
 50
353.42147
 51
6.57853
  0
LINE
  5
43AE
100
AcDbEntity
  8
0
100
AcDbLine
 10
1289.480772
 20
1481.926875
 30
0.0
 11
1303.480772
 21
1481.926875
 31
0.0
  0
LINE
  5
43AF
100
AcDbEntity
  8
0
100
AcDbLine
 10
1279.480772
 20
1580.760595
 30
0.0
 11
1268.480772
 21
1580.760595
 31
0.0
  0
LINE
  5
43B0
100
AcDbEntity
  8
0
100
AcDbLine
 10
1279.480772
 20
1610.760595
 30
0.0
 11
1268.480772
 21
1610.760595
 31
0.0
  0
LINE
  5
43B1
100
AcDbEntity
  8
0
100
AcDbLine
 10
1182.480772
 20
1645.760595
 30
0.0
 11
1182.480772
 21
1545.760595
 31
0.0
  0
LINE
  5
43B2
100
AcDbEntity
  8
0
100
AcDbLine
 10
1168.480772
 20
1595.760595
 30
0.0
 11
1168.480772
 21
1645.760595
 31
0.0
  0
LINE
  5
43B3
100
AcDbEntity
  8
0
100
AcDbLine
 10
1209.480772
 20
1655.517954
 30
0.0
 11
1209.480772
 21
1634.260595
 31
0.0
  0
LINE
  5
43B4
100
AcDbEntity
  8
0
100
AcDbLine
 10
1247.480772
 20
1654.113454
 30
0.0
 11
1247.480772
 21
1634.260595
 31
0.0
  0
LINE
  5
43B5
100
AcDbEntity
  8
0
100
AcDbLine
 10
1182.480772
 20
1545.760595
 30
0.0
 11
1168.480772
 21
1545.760595
 31
0.0
  0
LINE
  5
43B6
100
AcDbEntity
  8
0
100
AcDbLine
 10
1168.480772
 20
1595.760595
 30
0.0
 11
1168.480772
 21
1545.760595
 31
0.0
  0
ARC
  5
43B7
100
AcDbEntity
  8
0
100
AcDbCircle
 10
1260.650448
 20
1580.847732
 30
0.0
 40
4.630982
100
AcDbArc
 50
328.000676
 51
31.999324
  0
LINE
  5
43B8
100
AcDbEntity
  8
0
100
AcDbLine
 10
1218.308163
 20
1574.242373
 30
0.0
 11
1218.308163
 21
1583.760595
 31
0.0
  0
LINE
  5
43B9
100
AcDbEntity
  8
0
100
AcDbLine
 10
1214.78928
 20
1575.678817
 30
0.0
 11
1214.78928
 21
1583.760595
 31
0.0
  0
LINE
  5
43BA
100
AcDbEntity
  8
0
100
AcDbLine
 10
1192.480772
 20
1580.760595
 30
0.0
 11
1185.696308
 21
1579.403702
 31
0.0
  0
ARC
  5
43BB
100
AcDbEntity
  8
0
100
AcDbCircle
 10
1199.343518
 20
1576.760595
 30
0.0
 40
4.0
100
AcDbArc
 50
7.180756
 51
90.0
  0
LINE
  5
43BC
100
AcDbEntity
  8
0
100
AcDbLine
 10
1203.280772
 20
1577.466309
 30
0.0
 11
1203.280772
 21
1614.054882
 31
0.0
  0
LINE
  5
43BD
100
AcDbEntity
  8
0
100
AcDbLine
 10
1265.481772
 20
1565.236732
 30
0.0
 11
1265.481772
 21
1581.736732
 31
0.0
  0
LINE
  5
43BE
100
AcDbEntity
  8
0
100
AcDbLine
 10
1248.480772
 20
1561.260595
 30
0.0
 11
1248.480772
 21
1630.260595
 31
0.0
  0
LINE
  5
43BF
100
AcDbEntity
  8
0
100
AcDbLine
 10
1258.480772
 20
1561.260595
 30
0.0
 11
1258.480772
 21
1630.260595
 31
0.0
  0
LINE
  5
43C0
100
AcDbEntity
  8
0
100
AcDbLine
 10
1238.480772
 20
1562.760595
 30
0.0
 11
1238.480772
 21
1628.760595
 31
0.0
  0
LINE
  5
43C1
100
AcDbEntity
  8
0
100
AcDbLine
 10
1223.980772
 20
1565.760595
 30
0.0
 11
1221.809952
 21
1570.102236
 31
0.0
  0
ARC
  5
43C2
100
AcDbEntity
  8
0
100
AcDbCircle
 10
1219.12667
 20
1568.760595
 30
0.0
 40
3.0
100
AcDbArc
 50
26.565051
 51
90.0
  0
LINE
  5
43C3
100
AcDbEntity
  8
0
100
AcDbLine
 10
1219.08462
 20
1571.760595
 30
0.0
 11
1219.12667
 21
1571.760595
 31
0.0
  0
ARC
  5
43C4
100
AcDbEntity
  8
0
100
AcDbCircle
 10
1214.012823
 20
1570.760595
 30
0.0
 40
3.0
100
AcDbArc
 50
60.0
 51
90.0
  0
LINE
  5
43C5
100
AcDbEntity
  8
0
100
AcDbLine
 10
1217.58462
 20
1572.162519
 30
0.0
 11
1215.512823
 21
1573.358671
 31
0.0
  0
ARC
  5
43C6
100
AcDbEntity
  8
0
100
AcDbCircle
 10
1219.08462
 20
1574.760595
 30
0.0
 40
3.0
100
AcDbArc
 50
240.0
 51
270.0
  0
LINE
  5
43C7
100
AcDbEntity
  8
0
100
AcDbLine
 10
1207.280772
 20
1573.760595
 30
0.0
 11
1214.012823
 21
1573.760595
 31
0.0
  0
ARC
  5
43C8
100
AcDbEntity
  8
0
100
AcDbCircle
 10
1186.480772
 20
1575.48138
 30
0.0
 40
4.0
100
AcDbArc
 50
101.309932
 51
180.0
  0
ARC
  5
43C9
100
AcDbEntity
  8
0
100
AcDbCircle
 10
1207.280772
 20
1577.760595
 30
0.0
 40
4.0
100
AcDbArc
 50
187.180756
 51
270.0
  0
LINE
  5
43CA
100
AcDbEntity
  8
0
100
AcDbLine
 10
1264.577772
 20
1578.393732
 30
0.0
 11
1258.480772
 21
1578.393732
 31
0.0
  0
LINE
  5
43CB
100
AcDbEntity
  8
0
100
AcDbLine
 10
1233.480772
 20
1569.298732
 30
0.0
 11
1233.480772
 21
1577.674732
 31
0.0
  0
LINE
  5
43CC
100
AcDbEntity
  8
0
100
AcDbLine
 10
1234.292772
 20
1578.486732
 30
0.0
 11
1238.480772
 21
1578.486732
 31
0.0
  0
LINE
  5
43CD
100
AcDbEntity
  8
0
100
AcDbLine
 10
1233.480772
 20
1577.674732
 30
0.0
 11
1234.292772
 21
1578.486732
 31
0.0
  0
LINE
  5
43CE
100
AcDbEntity
  8
0
100
AcDbLine
 10
1223.008767
 20
1571.312548
 30
0.0
 11
1233.480772
 21
1571.312548
 31
0.0
  0
LINE
  5
43CF
100
AcDbEntity
  8
0
100
AcDbLine
 10
1258.480772
 20
1563.671732
 30
0.0
 11
1264.577772
 21
1563.671732
 31
0.0
  0
LINE
  5
43D0
100
AcDbEntity
  8
0
100
AcDbLine
 10
1264.577772
 20
1568.579732
 30
0.0
 11
1258.480772
 21
1568.579732
 31
0.0
  0
LINE
  5
43D1
100
AcDbEntity
  8
0
100
AcDbLine
 10
1264.577772
 20
1563.671732
 30
0.0
 11
1265.481772
 21
1565.236732
 31
0.0
  0
ARC
  5
43D2
100
AcDbEntity
  8
0
100
AcDbCircle
 10
1260.650448
 20
1566.125732
 30
0.0
 40
4.630982
100
AcDbArc
 50
328.000676
 51
31.999324
  0
LINE
  5
43D3
100
AcDbEntity
  8
0
100
AcDbLine
 10
1258.480772
 20
1561.260595
 30
0.0
 11
1248.480772
 21
1561.260595
 31
0.0
  0
ARC
  5
43D4
100
AcDbEntity
  8
0
100
AcDbCircle
 10
1239.980772
 20
1562.760595
 30
0.0
 40
1.5
100
AcDbArc
 50
180.0
 51
270.0
  0
LINE
  5
43D5
100
AcDbEntity
  8
0
100
AcDbLine
 10
1232.980772
 20
1565.760595
 30
0.0
 11
1233.744704
 21
1567.288459
 31
0.0
  0
ARC
  5
43D6
100
AcDbEntity
  8
0
100
AcDbCircle
 10
1235.980772
 20
1566.170425
 30
0.0
 40
2.5
100
AcDbArc
 50
112.100928
 51
153.434949
  0
LINE
  5
43D7
100
AcDbEntity
  8
0
100
AcDbLine
 10
1238.480772
 20
1568.486732
 30
0.0
 11
1234.292772
 21
1568.486732
 31
0.0
  0
ARC
  5
43D8
100
AcDbEntity
  8
0
100
AcDbCircle
 10
1235.980772
 20
1566.170425
 30
0.0
 40
2.5
100
AcDbArc
 50
0.0
 51
67.899072
  0
LINE
  5
43D9
100
AcDbEntity
  8
0
100
AcDbLine
 10
1239.980772
 20
1561.260595
 30
0.0
 11
1248.480772
 21
1561.260595
 31
0.0
  0
LINE
  5
43DA
100
AcDbEntity
  8
0
100
AcDbLine
 10
1223.980772
 20
1565.760595
 30
0.0
 11
1232.980772
 21
1565.760595
 31
0.0
  0
LINE
  5
43DB
100
AcDbEntity
  8
0
100
AcDbLine
 10
1234.292772
 20
1578.486732
 30
0.0
 11
1234.292772
 21
1568.486732
 31
0.0
  0
ARC
  5
43DC
100
AcDbEntity
  8
0
100
AcDbCircle
 10
1247.818781
 20
1573.486732
 30
0.0
 40
17.462601
100
AcDbArc
 50
343.680072
 51
16.319928
  0
LINE
  5
43DD
100
AcDbEntity
  8
0
100
AcDbLine
 10
1234.292772
 20
1568.486732
 30
0.0
 11
1233.480772
 21
1569.298732
 31
0.0
  0
ARC
  5
43DE
100
AcDbEntity
  8
0
100
AcDbCircle
 10
1225.207648
 20
1624.138654
 30
0.0
 40
11.591492
100
AcDbArc
 50
248.715046
 51
315.53871
  0
LINE
  5
43DF
100
AcDbEntity
  8
0
100
AcDbLine
 10
1211.480772
 20
1632.760595
 30
0.0
 11
1245.480772
 21
1632.760595
 31
0.0
  0
LINE
  5
43E0
100
AcDbEntity
  8
0
100
AcDbLine
 10
1247.480772
 20
1634.260595
 30
0.0
 11
1209.480772
 21
1634.260595
 31
0.0
  0
ARC
  5
43E1
100
AcDbEntity
  8
0
100
AcDbCircle
 10
1208.480772
 20
1620.760595
 30
0.0
 40
3.0
100
AcDbArc
 50
270.0
 51
0.0
  0
LINE
  5
43E2
100
AcDbEntity
  8
0
100
AcDbLine
 10
1207.280772
 20
1617.760595
 30
0.0
 11
1208.480772
 21
1617.760595
 31
0.0
  0
ARC
  5
43E3
100
AcDbEntity
  8
0
100
AcDbCircle
 10
1217.294374
 20
1602.931641
 30
0.0
 40
11.046265
100
AcDbArc
 50
70.400005
 51
102.829782
  0
ARC
  5
43E4
100
AcDbEntity
  8
0
100
AcDbCircle
 10
1214.96908
 20
1619.168722
 30
0.0
 40
5.468086
100
AcDbArc
 50
208.52209
 51
268.662983
  0
ARC
  5
43E5
100
AcDbEntity
  8
0
100
AcDbCircle
 10
1211.480772
 20
1633.760595
 30
0.0
 40
1.0
100
AcDbArc
 50
270.0
 51
0.0
  0
LINE
  5
43E6
100
AcDbEntity
  8
0
100
AcDbLine
 10
1211.480772
 20
1620.760595
 30
0.0
 11
1211.480772
 21
1632.760595
 31
0.0
  0
LINE
  5
43E7
100
AcDbEntity
  8
0
100
AcDbLine
 10
1212.480772
 20
1633.760595
 30
0.0
 11
1212.480772
 21
1634.260595
 31
0.0
  0
ARC
  5
43E8
100
AcDbEntity
  8
0
100
AcDbCircle
 10
1186.480772
 20
1616.039811
 30
0.0
 40
4.0
100
AcDbArc
 50
180.0
 51
258.690068
  0
ARC
  5
43E9
100
AcDbEntity
  8
0
100
AcDbCircle
 10
1207.280772
 20
1613.760595
 30
0.0
 40
4.0
100
AcDbArc
 50
90.0
 51
172.819244
  0
ARC
  5
43EA
100
AcDbEntity
  8
0
100
AcDbCircle
 10
1211.78928
 20
1607.760595
 30
0.0
 40
3.0
100
AcDbArc
 50
270.0
 51
0.0
  0
LINE
  5
43EB
100
AcDbEntity
  8
0
100
AcDbLine
 10
1218.308163
 20
1610.62044
 30
0.0
 11
1218.308163
 21
1607.760595
 31
0.0
  0
LINE
  5
43EC
100
AcDbEntity
  8
0
100
AcDbLine
 10
1214.78928
 20
1610.62044
 30
0.0
 11
1214.78928
 21
1607.760595
 31
0.0
  0
ARC
  5
43ED
100
AcDbEntity
  8
0
100
AcDbCircle
 10
1215.308163
 20
1607.760595
 30
0.0
 40
3.0
100
AcDbArc
 50
270.0
 51
0.0
  0
ARC
  5
43EE
100
AcDbEntity
  8
0
100
AcDbCircle
 10
1211.78928
 20
1583.760595
 30
0.0
 40
3.0
100
AcDbArc
 50
0.0
 51
90.0
  0
ARC
  5
43EF
100
AcDbEntity
  8
0
100
AcDbCircle
 10
1215.308163
 20
1583.760595
 30
0.0
 40
3.0
100
AcDbArc
 50
0.0
 51
90.0
  0
LINE
  5
43F0
100
AcDbEntity
  8
0
100
AcDbLine
 10
1206.280772
 20
1604.760595
 30
0.0
 11
1215.308163
 21
1604.760595
 31
0.0
  0
LINE
  5
43F1
100
AcDbEntity
  8
0
100
AcDbLine
 10
1206.280772
 20
1586.760595
 30
0.0
 11
1215.308163
 21
1586.760595
 31
0.0
  0
LINE
  5
43F2
100
AcDbEntity
  8
0
100
AcDbLine
 10
1192.480772
 20
1610.760595
 30
0.0
 11
1199.343518
 21
1610.760595
 31
0.0
  0
LINE
  5
43F3
100
AcDbEntity
  8
0
100
AcDbLine
 10
1192.480772
 20
1580.760595
 30
0.0
 11
1199.343518
 21
1580.760595
 31
0.0
  0
ARC
  5
43F4
100
AcDbEntity
  8
0
100
AcDbCircle
 10
1206.280772
 20
1601.760595
 30
0.0
 40
3.0
100
AcDbArc
 50
90.0
 51
180.0
  0
ARC
  5
43F5
100
AcDbEntity
  8
0
100
AcDbCircle
 10
1206.280772
 20
1589.760595
 30
0.0
 40
3.0
100
AcDbArc
 50
180.0
 51
270.0
  0
ARC
  5
43F6
100
AcDbEntity
  8
0
100
AcDbCircle
 10
1199.343518
 20
1614.760595
 30
0.0
 40
4.0
100
AcDbArc
 50
270.0
 51
352.819244
  0
LINE
  5
43F7
100
AcDbEntity
  8
0
100
AcDbLine
 10
1192.480772
 20
1610.760595
 30
0.0
 11
1185.696308
 21
1612.117488
 31
0.0
  0
ARC
  5
43F8
100
AcDbEntity
  8
0
100
AcDbCircle
 10
1247.818781
 20
1618.034459
 30
0.0
 40
17.462601
100
AcDbArc
 50
343.680072
 51
16.319928
  0
LINE
  5
43F9
100
AcDbEntity
  8
0
100
AcDbLine
 10
1264.577772
 20
1613.127459
 30
0.0
 11
1258.480772
 21
1613.127459
 31
0.0
  0
LINE
  5
43FA
100
AcDbEntity
  8
0
100
AcDbLine
 10
1264.577772
 20
1622.941459
 30
0.0
 11
1258.480772
 21
1622.941459
 31
0.0
  0
LINE
  5
43FB
100
AcDbEntity
  8
0
100
AcDbLine
 10
1258.480772
 20
1627.849459
 30
0.0
 11
1264.577772
 21
1627.849459
 31
0.0
  0
ARC
  5
43FC
100
AcDbEntity
  8
0
100
AcDbCircle
 10
1260.650448
 20
1625.395459
 30
0.0
 40
4.630982
100
AcDbArc
 50
328.000676
 51
31.999324
  0
LINE
  5
43FD
100
AcDbEntity
  8
0
100
AcDbLine
 10
1264.577772
 20
1627.849459
 30
0.0
 11
1265.481772
 21
1626.284459
 31
0.0
  0
LINE
  5
43FE
100
AcDbEntity
  8
0
100
AcDbLine
 10
1258.480772
 20
1630.260595
 30
0.0
 11
1248.480772
 21
1630.260595
 31
0.0
  0
LINE
  5
43FF
100
AcDbEntity
  8
0
100
AcDbLine
 10
1234.292772
 20
1613.034459
 30
0.0
 11
1234.292772
 21
1623.034459
 31
0.0
  0
LINE
  5
4400
100
AcDbEntity
  8
0
100
AcDbLine
 10
1233.480772
 20
1622.222459
 30
0.0
 11
1233.480772
 21
1613.846459
 31
0.0
  0
LINE
  5
4401
100
AcDbEntity
  8
0
100
AcDbLine
 10
1234.292772
 20
1613.034459
 30
0.0
 11
1238.480772
 21
1613.034459
 31
0.0
  0
LINE
  5
4402
100
AcDbEntity
  8
0
100
AcDbLine
 10
1233.480772
 20
1613.846459
 30
0.0
 11
1234.292772
 21
1613.034459
 31
0.0
  0
ARC
  5
4403
100
AcDbEntity
  8
0
100
AcDbCircle
 10
1245.480772
 20
1633.760595
 30
0.0
 40
1.0
100
AcDbArc
 50
180.0
 51
270.0
  0
LINE
  5
4404
100
AcDbEntity
  8
0
100
AcDbLine
 10
1245.480772
 20
1632.260595
 30
0.0
 11
1245.480772
 21
1632.760595
 31
0.0
  0
ARC
  5
4405
100
AcDbEntity
  8
0
100
AcDbCircle
 10
1239.980772
 20
1628.760595
 30
0.0
 40
1.5
100
AcDbArc
 50
90.0
 51
180.0
  0
LINE
  5
4406
100
AcDbEntity
  8
0
100
AcDbLine
 10
1238.480772
 20
1623.034459
 30
0.0
 11
1234.292772
 21
1623.034459
 31
0.0
  0
LINE
  5
4407
100
AcDbEntity
  8
0
100
AcDbLine
 10
1234.292772
 20
1623.034459
 30
0.0
 11
1233.480772
 21
1622.222459
 31
0.0
  0
LINE
  5
4408
100
AcDbEntity
  8
0
100
AcDbLine
 10
1244.480772
 20
1633.760595
 30
0.0
 11
1244.480772
 21
1634.260595
 31
0.0
  0
LINE
  5
4409
100
AcDbEntity
  8
0
100
AcDbLine
 10
1239.980772
 20
1630.260595
 30
0.0
 11
1248.480772
 21
1630.260595
 31
0.0
  0
ARC
  5
440A
100
AcDbEntity
  8
0
100
AcDbCircle
 10
1247.480772
 20
1632.260595
 30
0.0
 40
2.0
100
AcDbArc
 50
180.0
 51
270.0
  0
LINE
  5
440B
100
AcDbEntity
  8
0
100
AcDbLine
 10
1264.577772
 20
1608.219459
 30
0.0
 11
1258.480772
 21
1608.219459
 31
0.0
  0
LINE
  5
440C
100
AcDbEntity
  8
0
100
AcDbLine
 10
1265.481772
 20
1609.784459
 30
0.0
 11
1264.577772
 21
1608.219459
 31
0.0
  0
LINE
  5
440D
100
AcDbEntity
  8
0
100
AcDbLine
 10
1264.577772
 20
1583.301732
 30
0.0
 11
1258.480772
 21
1583.301732
 31
0.0
  0
LINE
  5
440E
100
AcDbEntity
  8
0
100
AcDbLine
 10
1265.481772
 20
1580.160795
 30
0.0
 11
1268.480772
 21
1580.760595
 31
0.0
  0
LINE
  5
440F
100
AcDbEntity
  8
0
100
AcDbLine
 10
1265.481772
 20
1581.736732
 30
0.0
 11
1264.577772
 21
1583.301732
 31
0.0
  0
LINE
  5
4410
100
AcDbEntity
  8
0
100
AcDbLine
 10
1265.481772
 20
1626.284459
 30
0.0
 11
1265.481772
 21
1609.784459
 31
0.0
  0
LINE
  5
4411
100
AcDbEntity
  8
0
100
AcDbLine
 10
1265.481772
 20
1611.360395
 30
0.0
 11
1268.480772
 21
1610.760595
 31
0.0
  0
ARC
  5
4412
100
AcDbEntity
  8
0
100
AcDbCircle
 10
1260.650448
 20
1610.673459
 30
0.0
 40
4.630982
100
AcDbArc
 50
328.000676
 51
31.999324
  0
LINE
  5
4413
100
AcDbEntity
  8
0
100
AcDbLine
 10
1182.480772
 20
1645.760595
 30
0.0
 11
1168.480772
 21
1645.760595
 31
0.0
  0
LINE
  5
4414
100
AcDbEntity
  8
0
100
AcDbLine
 10
1197.980772
 20
1668.260595
 30
0.0
 11
1100.905429
 21
1671.18749
 31
0.0
  0
LINE
  5
4415
100
AcDbEntity
  8
0
100
AcDbLine
 10
1188.480772
 20
1677.760595
 30
0.0
 11
1100.980772
 21
1677.760595
 31
0.0
  0
LINE
  5
4416
100
AcDbEntity
  8
0
100
AcDbLine
 10
1098.480772
 20
1673.686354
 30
0.0
 11
1098.480772
 21
1675.260595
 31
0.0
  0
ARC
  5
4417
100
AcDbEntity
  8
0
100
AcDbCircle
 10
1100.980772
 20
1675.260595
 30
0.0
 40
2.5
100
AcDbArc
 50
90.0
 51
180.0
  0
ARC
  5
4418
100
AcDbEntity
  8
0
100
AcDbCircle
 10
1100.980772
 20
1673.686354
 30
0.0
 40
2.5
100
AcDbArc
 50
180.0
 51
268.273012
  0
LINE
  5
4419
100
AcDbEntity
  8
0
100
AcDbLine
 10
1247.119085
 20
1655.260595
 30
0.0
 11
1209.480772
 21
1655.260595
 31
0.0
  0
ARC
  5
441A
100
AcDbEntity
  8
0
100
AcDbCircle
 10
1095.512059
 20
1396.5996
 30
0.0
 40
300.0
100
AcDbArc
 50
59.7847
 51
68.701364
  0
ARC
  5
441B
100
AcDbEntity
  8
0
100
AcDbCircle
 10
1206.480772
 20
1655.517954
 30
0.0
 40
3.0
100
AcDbArc
 50
0.0
 51
45.0
  0
LINE
  5
441C
100
AcDbEntity
  8
0
100
AcDbLine
 10
1208.602092
 20
1657.639275
 30
0.0
 11
1188.480772
 21
1677.760595
 31
0.0
  0
LINE
  5
441D
100
AcDbEntity
  8
0
100
AcDbLine
 10
1204.480772
 20
1676.260595
 30
0.0
 11
1189.980772
 21
1676.260595
 31
0.0
  0
ARC
  5
441E
100
AcDbEntity
  8
0
100
AcDbCircle
 10
1245.480772
 20
1654.113454
 30
0.0
 40
2.0
100
AcDbArc
 50
0.0
 51
59.7847
  0
LINE
  5
441F
100
AcDbEntity
  8
0
100
AcDbLine
 10
1303.480772
 20
1595.760595
 30
0.0
 11
1303.480772
 21
1645.760595
 31
0.0
  0
LINE
  5
4420
100
AcDbEntity
  8
0
100
AcDbLine
 10
1289.480772
 20
1645.760595
 30
0.0
 11
1289.480772
 21
1545.760595
 31
0.0
  0
LINE
  5
4421
100
AcDbEntity
  8
0
100
AcDbLine
 10
1303.480772
 20
1595.760595
 30
0.0
 11
1303.480772
 21
1545.760595
 31
0.0
  0
LINE
  5
4422
100
AcDbEntity
  8
0
100
AcDbLine
 10
1279.480772
 20
1580.760595
 30
0.0
 11
1286.265237
 21
1579.403702
 31
0.0
  0
LINE
  5
4423
100
AcDbEntity
  8
0
100
AcDbLine
 10
1289.480772
 20
1545.760595
 30
0.0
 11
1303.480772
 21
1545.760595
 31
0.0
  0
ARC
  5
4424
100
AcDbEntity
  8
0
100
AcDbCircle
 10
1285.480772
 20
1575.48138
 30
0.0
 40
4.0
100
AcDbArc
 50
0.0
 51
78.690068
  0
ARC
  5
4425
100
AcDbEntity
  8
0
100
AcDbCircle
 10
1285.480772
 20
1616.039811
 30
0.0
 40
4.0
100
AcDbArc
 50
281.309932
 51
0.0
  0
LINE
  5
4426
100
AcDbEntity
  8
0
100
AcDbLine
 10
1279.480772
 20
1610.760595
 30
0.0
 11
1286.265237
 21
1612.117488
 31
0.0
  0
LINE
  5
4427
100
AcDbEntity
  8
0
100
AcDbLine
 10
1289.480772
 20
1645.760595
 30
0.0
 11
1303.480772
 21
1645.760595
 31
0.0
  0
LINE
  5
4428
100
AcDbEntity
  8
0
100
AcDbLine
 10
1795.39554
 20
1294.184233
 30
0.0
 11
1797.74554
 21
1294.184233
 31
0.0
  0
LINE
  5
4429
100
AcDbEntity
  8
0
100
AcDbLine
 10
1785.750009
 20
1282.187092
 30
0.0
 11
1823.74554
 21
1282.187092
 31
0.0
  0
LINE
  5
442A
100
AcDbEntity
  8
0
100
AcDbLine
 10
1795.39554
 20
1304.687092
 30
0.0
 11
1814.09554
 21
1304.687092
 31
0.0
  0
LINE
  5
442B
100
AcDbEntity
  8
0
100
AcDbLine
 10
1795.39554
 20
1294.184233
 30
0.0
 11
1795.39554
 21
1304.687092
 31
0.0
  0
LINE
  5
442C
100
AcDbEntity
  8
0
100
AcDbLine
 10
1785.748954
 20
1277.230184
 30
0.0
 11
1785.750009
 21
1282.187092
 31
0.0
  0
ELLIPSE
  5
442D
100
AcDbEntity
  8
0
100
AcDbEllipse
 10
1804.74554
 20
1292.519741
 30
0.0
 11
-4.75
 21
0.0
 31
0.0
210
0.0
220
0.0
230
1.0
 40
0.487122
 41
0.0
 42
6.283185307179586
  0
LINE
  5
442E
100
AcDbEntity
  8
0
100
AcDbLine
 10
1811.74554
 20
1294.184233
 30
0.0
 11
1814.09554
 21
1294.184233
 31
0.0
  0
LINE
  5
442F
100
AcDbEntity
  8
0
100
AcDbLine
 10
1811.74554
 20
1282.187092
 30
0.0
 11
1811.74554
 21
1303.187092
 31
0.0
  0
LINE
  5
4430
100
AcDbEntity
  8
0
100
AcDbLine
 10
1811.74554
 20
1303.187092
 30
0.0
 11
1797.74554
 21
1303.187092
 31
0.0
  0
LINE
  5
4431
100
AcDbEntity
  8
0
100
AcDbLine
 10
1797.74554
 20
1282.187092
 30
0.0
 11
1797.74554
 21
1303.187092
 31
0.0
  0
LINE
  5
4432
100
AcDbEntity
  8
0
100
AcDbLine
 10
1814.09554
 20
1294.184233
 30
0.0
 11
1814.09554
 21
1304.687092
 31
0.0
  0
LINE
  5
4433
100
AcDbEntity
  8
0
100
AcDbLine
 10
1823.74554
 20
1282.187092
 30
0.0
 11
1823.74554
 21
1277.229094
 31
0.0
  0
LINE
  5
4434
100
AcDbEntity
  8
0
100
AcDbLine
 10
1884.314068
 20
1682.760595
 30
0.0
 11
1884.314068
 21
1676.254839
 31
0.0
  0
LINE
  5
4435
100
AcDbEntity
  8
0
100
AcDbLine
 10
1886.814068
 20
1682.760595
 30
0.0
 11
1886.814068
 21
1682.760595
 31
0.0
  0
LINE
  5
4436
100
AcDbEntity
  8
0
100
AcDbLine
 10
494.22559
 20
881.677848
 30
0.0
 11
494.22559
 21
893.677848
 31
0.0
  0
LINE
  5
4437
100
AcDbEntity
  8
0
100
AcDbLine
 10
493.27859
 20
892.730848
 30
0.0
 11
493.27859
 21
882.624848
 31
0.0
  0
LINE
  5
4438
100
AcDbEntity
  8
0
100
AcDbLine
 10
464.681815
 20
886.241954
 30
0.0
 11
464.681815
 21
877.332916
 31
0.0
  0
LINE
  5
4439
100
AcDbEntity
  8
0
100
AcDbLine
 10
473.37859
 20
883.570073
 30
0.0
 11
473.37859
 21
877.332916
 31
0.0
  0
ARC
  5
443A
100
AcDbEntity
  8
0
100
AcDbCircle
 10
447.37859
 20
884.991745
 30
0.0
 40
4.0
100
AcDbArc
 50
261.297776
 51
349.37884
  0
ARC
  5
443B
100
AcDbEntity
  8
0
100
AcDbCircle
 10
435.77859
 20
886.767256
 30
0.0
 40
4.0
100
AcDbArc
 50
180.0
 51
261.297776
  0
ARC
  5
443C
100
AcDbEntity
  8
0
100
AcDbCircle
 10
483.722116
 20
934.290397
 30
0.0
 40
50.865662
100
AcDbArc
 50
241.699631
 51
280.828898
  0
LINE
  5
443D
100
AcDbEntity
  8
0
100
AcDbLine
 10
451.310059
 20
832.411345
 30
0.0
 11
451.310059
 21
884.254488
 31
0.0
  0
LINE
  5
443E
100
AcDbEntity
  8
0
100
AcDbLine
 10
500.27859
 20
817.332916
 30
0.0
 11
500.27859
 21
899.332916
 31
0.0
  0
LINE
  5
443F
100
AcDbEntity
  8
0
100
AcDbLine
 10
431.77859
 20
790.832916
 30
0.0
 11
431.77859
 21
925.832916
 31
0.0
  0
LINE
  5
4440
100
AcDbEntity
  8
0
100
AcDbLine
 10
415.77859
 20
925.832916
 30
0.0
 11
415.77859
 21
858.332916
 31
0.0
  0
LINE
  5
4441
100
AcDbEntity
  8
0
100
AcDbLine
 10
2080.816068
 20
1304.687092
 30
0.0
 11
2169.316068
 21
1304.687092
 31
0.0
  0
LINE
  5
4442
100
AcDbEntity
  8
0
100
AcDbLine
 10
2169.316068
 20
1298.181336
 30
0.0
 11
2071.314068
 21
1295.187092
 31
0.0
  0
LINE
  5
4443
100
AcDbEntity
  8
0
100
AcDbLine
 10
2056.977266
 20
1424.926706
 30
0.0
 11
2162.943266
 21
1422.566706
 31
0.0
  0
LINE
  5
4444
100
AcDbEntity
  8
0
100
AcDbLine
 10
2162.943266
 20
1441.276706
 30
0.0
 11
2056.977266
 21
1438.926706
 31
0.0
  0
LINE
  5
4445
100
AcDbEntity
  8
0
100
AcDbLine
 10
2099.31556
 20
1423.983777
 30
0.0
 11
2099.31556
 21
1369.426375
 31
0.0
  0
LINE
  5
4446
100
AcDbEntity
  8
0
100
AcDbLine
 10
2085.31556
 20
1369.426375
 30
0.0
 11
2085.31556
 21
1424.295576
 31
0.0
  0
LINE
  5
4447
100
AcDbEntity
  8
0
100
AcDbLine
 10
1954.31356
 20
1431.926375
 30
0.0
 11
1954.31356
 21
1369.426375
 31
0.0
  0
LINE
  5
4448
100
AcDbEntity
  8
0
100
AcDbLine
 10
1968.31356
 20
1369.426375
 30
0.0
 11
1968.31356
 21
1494.426375
 31
0.0
  0
LINE
  5
4449
100
AcDbEntity
  8
0
100
AcDbLine
 10
1968.31356
 20
1369.426375
 30
0.0
 11
1968.31356
 21
1494.426375
 31
0.0
  0
LINE
  5
444A
100
AcDbEntity
  8
0
100
AcDbLine
 10
2022.666068
 20
1282.187092
 30
0.0
 11
2055.963068
 21
1282.187092
 31
0.0
  0
ARC
  5
444B
100
AcDbEntity
  8
0
100
AcDbCircle
 10
2173.060714
 20
1023.974722
 30
0.0
 40
300.006457
100
AcDbArc
 50
111.457703
 51
120.606864
  0
LINE
  5
444C
100
AcDbEntity
  8
0
100
AcDbLine
 10
2020.315068
 20
1261.187092
 30
0.0
 11
2058.314068
 21
1261.187092
 31
0.0
  0
LINE
  5
444D
100
AcDbEntity
  8
0
100
AcDbLine
 10
2004.314068
 20
1254.112937
 30
0.0
 11
1997.324068
 21
1254.112937
 31
0.0
  0
LINE
  5
444E
100
AcDbEntity
  8
0
100
AcDbLine
 10
1954.314068
 20
1280.187092
 30
0.0
 11
1968.314068
 21
1280.187092
 31
0.0
  0
LINE
  5
444F
100
AcDbEntity
  8
0
100
AcDbLine
 10
2020.314068
 20
1258.187092
 30
0.0
 11
2020.314068
 21
1261.187092
 31
0.0
  0
LINE
  5
4450
100
AcDbEntity
  8
0
100
AcDbLine
 10
2028.314068
 20
1256.187092
 30
0.0
 11
2004.314068
 21
1256.187092
 31
0.0
  0
LINE
  5
4451
100
AcDbEntity
  8
0
100
AcDbLine
 10
2020.314068
 20
1256.187092
 30
0.0
 11
2020.314068
 21
1282.184591
 31
0.0
  0
LINE
  5
4452
100
AcDbEntity
  8
0
100
AcDbLine
 10
1954.31356
 20
1369.426375
 30
0.0
 11
1968.31356
 21
1369.426375
 31
0.0
  0
LINE
  5
4453
100
AcDbEntity
  8
0
100
AcDbLine
 10
2085.316068
 20
1280.187092
 30
0.0
 11
2099.316068
 21
1280.187092
 31
0.0
  0
LINE
  5
4454
100
AcDbEntity
  8
0
100
AcDbLine
 10
2063.314068
 20
1303.187092
 30
0.0
 11
2079.316068
 21
1303.187092
 31
0.0
  0
LINE
  5
4455
100
AcDbEntity
  8
0
100
AcDbLine
 10
2080.816068
 20
1304.687092
 30
0.0
 11
2058.314068
 21
1282.188214
 31
0.0
  0
LINE
  5
4456
100
AcDbEntity
  8
0
100
AcDbLine
 10
2099.31556
 20
1369.426375
 30
0.0
 11
2085.31556
 21
1369.426375
 31
0.0
  0
LINE
  5
4457
100
AcDbEntity
  8
0
100
AcDbLine
 10
2050.219068
 20
1457.426875
 30
0.0
 11
2064.410068
 21
1457.426875
 31
0.0
  0
LINE
  5
4458
100
AcDbEntity
  8
0
100
AcDbLine
 10
2063.410068
 20
1459.426875
 30
0.0
 11
2034.314068
 21
1459.426875
 31
0.0
  0
LINE
  5
4459
100
AcDbEntity
  8
0
100
AcDbLine
 10
2050.219071
 20
1406.426875
 30
0.0
 11
2064.410068
 21
1406.426875
 31
0.0
  0
LINE
  5
445A
100
AcDbEntity
  8
0
100
AcDbLine
 10
2034.314068
 20
1404.426875
 30
0.0
 11
2063.410068
 21
1404.426875
 31
0.0
  0
ARC
  5
445B
100
AcDbEntity
  8
0
100
AcDbCircle
 10
2039.313999
 20
1431.926786
 30
0.0
 40
18.999733
100
AcDbArc
 50
21.618332
 51
180.000241
  0
LINE
  5
445C
100
AcDbEntity
  8
0
100
AcDbLine
 10
2021.650853
 20
1424.926706
 30
0.0
 11
2056.977266
 21
1424.926706
 31
0.0
  0
ARC
  5
445D
100
AcDbEntity
  8
0
100
AcDbCircle
 10
2039.31406
 20
1431.926942
 30
0.0
 40
18.999794
100
AcDbArc
 50
180.000711
 51
338.380716
  0
LINE
  5
445E
100
AcDbEntity
  8
0
100
AcDbLine
 10
2021.650733
 20
1438.926706
 30
0.0
 11
2056.977266
 21
1438.926706
 31
0.0
  0
LINE
  5
445F
100
AcDbEntity
  8
0
100
AcDbLine
 10
1954.31356
 20
1494.426375
 30
0.0
 11
1954.31356
 21
1431.926375
 31
0.0
  0
LINE
  5
4460
100
AcDbEntity
  8
0
100
AcDbLine
 10
2050.219068
 20
1447.496875
 30
0.0
 11
2050.219068
 21
1457.426875
 31
0.0
  0
LINE
  5
4461
100
AcDbEntity
  8
0
100
AcDbLine
 10
2028.314068
 20
1447.664875
 30
0.0
 11
2028.314068
 21
1470.426875
 31
0.0
  0
LINE
  5
4462
100
AcDbEntity
  8
0
100
AcDbLine
 10
1996.314068
 20
1466.603719
 30
0.0
 11
1996.314068
 21
1448.161719
 31
0.0
  0
ARC
  5
4463
100
AcDbEntity
  8
0
100
AcDbCircle
 10
2001.713864
 20
1449.155719
 30
0.0
 40
5.176327
100
AcDbArc
 50
148.000464
 51
211.999536
  0
LINE
  5
4464
100
AcDbEntity
  8
0
100
AcDbLine
 10
2016.314068
 20
1470.426875
 30
0.0
 11
2016.314068
 21
1393.426875
 31
0.0
  0
LINE
  5
4465
100
AcDbEntity
  8
0
100
AcDbLine
 10
2004.313729
 20
1470.426875
 30
0.0
 11
2004.313391
 21
1393.425875
 31
0.0
  0
LINE
  5
4466
100
AcDbEntity
  8
0
100
AcDbLine
 10
1997.324068
 20
1446.412719
 30
0.0
 11
2004.314068
 21
1446.412719
 31
0.0
  0
LINE
  5
4467
100
AcDbEntity
  8
0
100
AcDbLine
 10
1997.324068
 20
1400.987031
 30
0.0
 11
2004.314068
 21
1400.987031
 31
0.0
  0
LINE
  5
4468
100
AcDbEntity
  8
0
100
AcDbLine
 10
1997.324068
 20
1395.501031
 30
0.0
 11
2004.314068
 21
1395.501031
 31
0.0
  0
LINE
  5
4469
100
AcDbEntity
  8
0
100
AcDbLine
 10
1997.324068
 20
1411.955031
 30
0.0
 11
2004.314068
 21
1411.955031
 31
0.0
  0
LINE
  5
446A
100
AcDbEntity
  8
0
100
AcDbLine
 10
2004.314068
 20
1417.441031
 30
0.0
 11
1997.324068
 21
1417.441031
 31
0.0
  0
LINE
  5
446B
100
AcDbEntity
  8
0
100
AcDbLine
 10
1996.314068
 20
1448.161719
 30
0.0
 11
1997.324068
 21
1446.412719
 31
0.0
  0
ARC
  5
446C
100
AcDbEntity
  8
0
100
AcDbCircle
 10
2001.713864
 20
1414.698031
 30
0.0
 40
5.176327
100
AcDbArc
 50
148.000464
 51
211.999536
  0
LINE
  5
446D
100
AcDbEntity
  8
0
100
AcDbLine
 10
1997.324068
 20
1417.441031
 30
0.0
 11
1996.314068
 21
1415.692031
 31
0.0
  0
LINE
  5
446E
100
AcDbEntity
  8
0
100
AcDbLine
 10
1996.314068
 20
1415.692031
 30
0.0
 11
1996.314068
 21
1397.250031
 31
0.0
  0
ARC
  5
446F
100
AcDbEntity
  8
0
100
AcDbCircle
 10
2016.053837
 20
1406.471031
 30
0.0
 40
19.516109
100
AcDbArc
 50
163.680185
 51
196.319815
  0
LINE
  5
4470
100
AcDbEntity
  8
0
100
AcDbLine
 10
1996.314068
 20
1397.250031
 30
0.0
 11
1997.324068
 21
1395.501031
 31
0.0
  0
ARC
  5
4471
100
AcDbEntity
  8
0
100
AcDbCircle
 10
2001.713864
 20
1398.244031
 30
0.0
 40
5.176327
100
AcDbArc
 50
148.000464
 51
211.999536
  0
LINE
  5
4472
100
AcDbEntity
  8
0
100
AcDbLine
 10
1989.314068
 20
1414.426875
 30
0.0
 11
1983.314068
 21
1414.426875
 31
0.0
  0
LINE
  5
4473
100
AcDbEntity
  8
0
100
AcDbLine
 10
1996.314068
 20
1413.02509
 30
0.0
 11
1989.314056
 21
1414.426875
 31
0.0
  0
LINE
  5
4474
100
AcDbEntity
  8
0
100
AcDbLine
 10
1983.314068
 20
1417.061875
 30
0.0
 11
1983.314068
 21
1446.791875
 31
0.0
  0
LINE
  5
4475
100
AcDbEntity
  8
0
100
AcDbLine
 10
1989.314068
 20
1417.061875
 30
0.0
 11
1989.314068
 21
1446.791875
 31
0.0
  0
ARC
  5
4476
100
AcDbEntity
  8
0
100
AcDbCircle
 10
1972.314068
 20
1408.144459
 30
0.0
 40
4.0
100
AcDbArc
 50
101.278138
 51
180.0
  0
LINE
  5
4477
100
AcDbEntity
  8
0
100
AcDbLine
 10
1983.314068
 20
1414.426875
 30
0.0
 11
1971.53178
 21
1412.067216
 31
0.0
  0
CIRCLE
  5
4478
100
AcDbEntity
  8
0
100
AcDbCircle
 10
2039.314266
 20
1431.926706
 30
0.0
 40
5.0
  0
LINE
  5
4479
100
AcDbEntity
  8
0
100
AcDbLine
 10
2050.219071
 20
1416.368251
 30
0.0
 11
2050.219071
 21
1406.426875
 31
0.0
  0
LINE
  5
447A
100
AcDbEntity
  8
0
100
AcDbLine
 10
2034.314068
 20
1401.418031
 30
0.0
 11
2033.367068
 21
1400.471031
 31
0.0
  0
LINE
  5
447B
100
AcDbEntity
  8
0
100
AcDbLine
 10
2033.367068
 20
1412.471031
 30
0.0
 11
2034.314068
 21
1411.524031
 31
0.0
  0
LINE
  5
447C
100
AcDbEntity
  8
0
100
AcDbLine
 10
2034.314068
 20
1411.524031
 30
0.0
 11
2034.314068
 21
1401.418031
 31
0.0
  0
LINE
  5
447D
100
AcDbEntity
  8
0
100
AcDbLine
 10
2033.367068
 20
1400.471031
 30
0.0
 11
2028.314068
 21
1400.471031
 31
0.0
  0
LINE
  5
447E
100
AcDbEntity
  8
0
100
AcDbLine
 10
2028.314068
 20
1412.471031
 30
0.0
 11
2033.367068
 21
1412.471031
 31
0.0
  0
LINE
  5
447F
100
AcDbEntity
  8
0
100
AcDbLine
 10
2028.314068
 20
1393.425875
 30
0.0
 11
2028.314068
 21
1416.187875
 31
0.0
  0
LINE
  5
4480
100
AcDbEntity
  8
0
100
AcDbLine
 10
2004.313391
 20
1393.425875
 30
0.0
 11
2028.314068
 21
1393.425875
 31
0.0
  0
LINE
  5
4481
100
AcDbEntity
  8
0
100
AcDbLine
 10
1997.324068
 20
1451.898719
 30
0.0
 11
2004.314068
 21
1451.898719
 31
0.0
  0
LINE
  5
4482
100
AcDbEntity
  8
0
100
AcDbLine
 10
1997.324068
 20
1462.866719
 30
0.0
 11
2004.314068
 21
1462.866719
 31
0.0
  0
LINE
  5
4483
100
AcDbEntity
  8
0
100
AcDbLine
 10
2004.314068
 20
1468.352719
 30
0.0
 11
1997.324068
 21
1468.352719
 31
0.0
  0
LINE
  5
4484
100
AcDbEntity
  8
0
100
AcDbLine
 10
1954.31356
 20
1494.426375
 30
0.0
 11
1968.31356
 21
1494.426375
 31
0.0
  0
ARC
  5
4485
100
AcDbEntity
  8
0
100
AcDbCircle
 10
2001.713864
 20
1465.609719
 30
0.0
 40
5.176327
100
AcDbArc
 50
148.000464
 51
211.999536
  0
LINE
  5
4486
100
AcDbEntity
  8
0
100
AcDbLine
 10
1997.324068
 20
1468.352719
 30
0.0
 11
1996.314068
 21
1466.603719
 31
0.0
  0
ARC
  5
4487
100
AcDbEntity
  8
0
100
AcDbCircle
 10
2016.053837
 20
1457.382719
 30
0.0
 40
19.516109
100
AcDbArc
 50
163.680185
 51
196.319815
  0
LINE
  5
4488
100
AcDbEntity
  8
0
100
AcDbLine
 10
1983.314068
 20
1449.426875
 30
0.0
 11
1989.314068
 21
1449.426875
 31
0.0
  0
LINE
  5
4489
100
AcDbEntity
  8
0
100
AcDbLine
 10
1989.314068
 20
1449.426875
 30
0.0
 11
1996.314068
 21
1450.822717
 31
0.0
  0
ARC
  5
448A
100
AcDbEntity
  8
0
100
AcDbCircle
 10
1972.314068
 20
1455.699291
 30
0.0
 40
4.0
100
AcDbArc
 50
180.0
 51
258.721862
  0
LINE
  5
448B
100
AcDbEntity
  8
0
100
AcDbLine
 10
1971.53178
 20
1451.776533
 30
0.0
 11
1983.314068
 21
1449.426875
 31
0.0
  0
LINE
  5
448C
100
AcDbEntity
  8
0
100
AcDbLine
 10
2034.314068
 20
1452.329719
 30
0.0
 11
2033.367068
 21
1451.382719
 31
0.0
  0
LINE
  5
448D
100
AcDbEntity
  8
0
100
AcDbLine
 10
2033.367068
 20
1463.382719
 30
0.0
 11
2034.314068
 21
1462.435719
 31
0.0
  0
LINE
  5
448E
100
AcDbEntity
  8
0
100
AcDbLine
 10
2034.314068
 20
1462.435719
 30
0.0
 11
2034.314068
 21
1452.329719
 31
0.0
  0
LINE
  5
448F
100
AcDbEntity
  8
0
100
AcDbLine
 10
2033.367068
 20
1451.382719
 30
0.0
 11
2028.314068
 21
1451.382719
 31
0.0
  0
LINE
  5
4490
100
AcDbEntity
  8
0
100
AcDbLine
 10
2028.314068
 20
1463.382719
 30
0.0
 11
2033.367068
 21
1463.382719
 31
0.0
  0
LINE
  5
4491
100
AcDbEntity
  8
0
100
AcDbLine
 10
2004.313729
 20
1470.426875
 30
0.0
 11
2028.314406
 21
1470.426875
 31
0.0
  0
LINE
  5
4492
100
AcDbEntity
  8
0
100
AcDbLine
 10
2085.31556
 20
1439.555162
 30
0.0
 11
2085.31556
 21
1494.426375
 31
0.0
  0
LINE
  5
4493
100
AcDbEntity
  8
0
100
AcDbLine
 10
2099.31556
 20
1439.865639
 30
0.0
 11
2099.31556
 21
1494.426375
 31
0.0
  0
LINE
  5
4494
100
AcDbEntity
  8
0
100
AcDbLine
 10
2067.410068
 20
1455.426875
 30
0.0
 11
2067.410068
 21
1439.023875
 31
0.0
  0
ARC
  5
4495
100
AcDbEntity
  8
0
100
AcDbCircle
 10
2081.316068
 20
1408.038304
 30
0.0
 40
4.0
100
AcDbArc
 50
0.0
 51
80.53871
  0
LINE
  5
4496
100
AcDbEntity
  8
0
100
AcDbLine
 10
2081.973593
 20
1411.983892
 30
0.0
 11
2072.067593
 21
1413.634709
 31
0.0
  0
LINE
  5
4497
100
AcDbEntity
  8
0
100
AcDbLine
 10
2063.314266
 20
1438.426706
 30
0.0
 11
2063.314266
 21
1425.426706
 31
0.0
  0
ARC
  5
4498
100
AcDbEntity
  8
0
100
AcDbCircle
 10
2063.410068
 20
1408.426875
 30
0.0
 40
4.0
100
AcDbArc
 50
270.0
 51
0.0
  0
ARC
  5
4499
100
AcDbEntity
  8
0
100
AcDbCircle
 10
2064.410068
 20
1409.426875
 30
0.0
 40
3.0
100
AcDbArc
 50
270.0
 51
0.0
  0
LINE
  5
449A
100
AcDbEntity
  8
0
100
AcDbLine
 10
2067.410068
 20
1408.426875
 30
0.0
 11
2067.410068
 21
1424.829537
 31
0.0
  0
ARC
  5
449B
100
AcDbEntity
  8
0
100
AcDbCircle
 10
2071.410068
 20
1409.689121
 30
0.0
 40
4.0
100
AcDbArc
 50
80.53871
 51
180.0
  0
LINE
  5
449C
100
AcDbEntity
  8
0
100
AcDbLine
 10
2085.31556
 20
1494.426375
 30
0.0
 11
2099.31556
 21
1494.426375
 31
0.0
  0
ARC
  5
449D
100
AcDbEntity
  8
0
100
AcDbCircle
 10
2081.316068
 20
1455.815445
 30
0.0
 40
4.0
100
AcDbArc
 50
279.46129
 51
0.0
  0
LINE
  5
449E
100
AcDbEntity
  8
0
100
AcDbLine
 10
2081.973593
 20
1451.869857
 30
0.0
 11
2072.067593
 21
1450.219041
 31
0.0
  0
ARC
  5
449F
100
AcDbEntity
  8
0
100
AcDbCircle
 10
2063.410068
 20
1455.426875
 30
0.0
 40
4.0
100
AcDbArc
 50
0.0
 51
90.0
  0
ARC
  5
44A0
100
AcDbEntity
  8
0
100
AcDbCircle
 10
2064.410068
 20
1454.426875
 30
0.0
 40
3.0
100
AcDbArc
 50
0.0
 51
90.0
  0
ARC
  5
44A1
100
AcDbEntity
  8
0
100
AcDbCircle
 10
2071.410068
 20
1454.164628
 30
0.0
 40
4.0
100
AcDbArc
 50
180.0
 51
279.46129
  0
LINE
  5
44A2
100
AcDbEntity
  8
0
100
AcDbLine
 10
2256.699172
 20
1282.187092
 30
0.0
 11
2294.694703
 21
1282.187092
 31
0.0
  0
LINE
  5
44A3
100
AcDbEntity
  8
0
100
AcDbLine
 10
2169.316068
 20
1304.687092
 30
0.0
 11
2169.316068
 21
1298.181336
 31
0.0
  0
LINE
  5
44A4
100
AcDbEntity
  8
0
100
AcDbLine
 10
2166.816068
 20
1304.687092
 30
0.0
 11
2166.816068
 21
1304.687092
 31
0.0
  0
LINE
  5
44A5
100
AcDbEntity
  8
0
100
AcDbLine
 10
2256.694703
 20
1277.229094
 30
0.0
 11
2256.694703
 21
1282.185192
 31
0.0
  0
LINE
  5
44A6
100
AcDbEntity
  8
0
100
AcDbLine
 10
2294.694703
 20
1282.187092
 30
0.0
 11
2294.694703
 21
1277.229094
 31
0.0
  0
LINE
  5
44A7
100
AcDbEntity
  8
0
100
AcDbLine
 10
2269.402115
 20
1283.681375
 30
0.0
 11
2281.987292
 21
1283.681375
 31
0.0
  0
LINE
  5
44A8
100
AcDbEntity
  8
0
100
AcDbLine
 10
2268.694703
 20
1282.187092
 30
0.0
 11
2268.694703
 21
1294.184233
 31
0.0
  0
LINE
  5
44A9
100
AcDbEntity
  8
0
100
AcDbLine
 10
2282.694703
 20
1282.187092
 30
0.0
 11
2282.694703
 21
1294.184233
 31
0.0
  0
LINE
  5
44AA
100
AcDbEntity
  8
0
100
AcDbLine
 10
2285.044703
 20
1294.184233
 30
0.0
 11
2285.044703
 21
1304.687092
 31
0.0
  0
LINE
  5
44AB
100
AcDbEntity
  8
0
100
AcDbLine
 10
2266.344703
 20
1304.687092
 30
0.0
 11
2285.044703
 21
1304.687092
 31
0.0
  0
LINE
  5
44AC
100
AcDbEntity
  8
0
100
AcDbLine
 10
2266.344703
 20
1294.184233
 30
0.0
 11
2285.044703
 21
1294.184233
 31
0.0
  0
LINE
  5
44AD
100
AcDbEntity
  8
0
100
AcDbLine
 10
2266.344703
 20
1294.184233
 30
0.0
 11
2266.344703
 21
1304.687092
 31
0.0
  0
ARC
  5
44AE
100
AcDbEntity
  8
0
100
AcDbCircle
 10
2163.120776
 20
1435.275784
 30
0.0
 40
6.003547
100
AcDbArc
 50
6.704646
 51
91.694347
  0
ARC
  5
44AF
100
AcDbEntity
  8
0
100
AcDbCircle
 10
2163.120908
 20
1428.567476
 30
0.0
 40
6.003399
100
AcDbArc
 50
268.304359
 51
353.296648
  0
ARC
  5
44B0
100
AcDbEntity
  8
0
100
AcDbCircle
 10
2134.295292
 20
1431.921706
 30
0.0
 40
35.023509
100
AcDbArc
 50
353.35142
 51
6.64858
  0
LINE
  5
44B1
100
AcDbEntity
  8
0
100
AcDbLine
 10
2099.316068
 20
1595.760595
 30
0.0
 11
2099.316068
 21
1658.260595
 31
0.0
  0
LINE
  5
44B2
100
AcDbEntity
  8
0
100
AcDbLine
 10
2085.316068
 20
1533.260595
 30
0.0
 11
2085.316068
 21
1658.260595
 31
0.0
  0
LINE
  5
44B3
100
AcDbEntity
  8
0
100
AcDbLine
 10
1954.314068
 20
1595.760595
 30
0.0
 11
1954.314068
 21
1658.260595
 31
0.0
  0
LINE
  5
44B4
100
AcDbEntity
  8
0
100
AcDbLine
 10
1968.314068
 20
1533.260595
 30
0.0
 11
1968.314068
 21
1658.260595
 31
0.0
  0
LINE
  5
44B5
100
AcDbEntity
  8
0
100
AcDbLine
 10
2033.316068
 20
1634.260595
 30
0.0
 11
2033.316068
 21
1660.258093
 31
0.0
  0
LINE
  5
44B6
100
AcDbEntity
  8
0
100
AcDbLine
 10
1995.316068
 20
1660.261717
 30
0.0
 11
1995.316068
 21
1621.260595
 31
0.0
  0
LINE
  5
44B7
100
AcDbEntity
  8
0
100
AcDbLine
 10
2049.316068
 20
1632.186439
 30
0.0
 11
2056.306068
 21
1632.186439
 31
0.0
  0
LINE
  5
44B8
100
AcDbEntity
  8
0
100
AcDbLine
 10
2056.306068
 20
1626.700439
 30
0.0
 11
2049.316068
 21
1626.700439
 31
0.0
  0
LINE
  5
44B9
100
AcDbEntity
  8
0
100
AcDbLine
 10
2056.306068
 20
1610.246439
 30
0.0
 11
2049.316068
 21
1610.246439
 31
0.0
  0
LINE
  5
44BA
100
AcDbEntity
  8
0
100
AcDbLine
 10
2056.306068
 20
1615.732439
 30
0.0
 11
2049.316068
 21
1615.732439
 31
0.0
  0
LINE
  5
44BB
100
AcDbEntity
  8
0
100
AcDbLine
 10
2049.316068
 20
1581.274751
 30
0.0
 11
2056.306068
 21
1581.274751
 31
0.0
  0
LINE
  5
44BC
100
AcDbEntity
  8
0
100
AcDbLine
 10
2056.306068
 20
1575.788751
 30
0.0
 11
2049.316068
 21
1575.788751
 31
0.0
  0
LINE
  5
44BD
100
AcDbEntity
  8
0
100
AcDbLine
 10
2056.306068
 20
1559.334751
 30
0.0
 11
2049.316068
 21
1559.334751
 31
0.0
  0
LINE
  5
44BE
100
AcDbEntity
  8
0
100
AcDbLine
 10
2056.306068
 20
1564.820751
 30
0.0
 11
2049.316068
 21
1564.820751
 31
0.0
  0
LINE
  5
44BF
100
AcDbEntity
  8
0
100
AcDbLine
 10
1954.314068
 20
1595.760595
 30
0.0
 11
1954.314068
 21
1533.260595
 31
0.0
  0
LINE
  5
44C0
100
AcDbEntity
  8
0
100
AcDbLine
 10
2049.316068
 20
1557.260595
 30
0.0
 11
2049.316068
 21
1634.260595
 31
0.0
  0
LINE
  5
44C1
100
AcDbEntity
  8
0
100
AcDbLine
 10
2037.316068
 20
1557.260595
 30
0.0
 11
2037.316068
 21
1634.260595
 31
0.0
  0
LINE
  5
44C2
100
AcDbEntity
  8
0
100
AcDbLine
 10
1999.851068
 20
1572.220595
 30
0.0
 11
1999.851068
 21
1585.760595
 31
0.0
  0
LINE
  5
44C3
100
AcDbEntity
  8
0
100
AcDbLine
 10
2003.316068
 20
1585.760595
 30
0.0
 11
2003.316068
 21
1570.640595
 31
0.0
  0
LINE
  5
44C4
100
AcDbEntity
  8
0
100
AcDbLine
 10
2025.316068
 20
1557.260595
 30
0.0
 11
2025.316068
 21
1634.260595
 31
0.0
  0
LINE
  5
44C5
100
AcDbEntity
  8
0
100
AcDbLine
 10
1986.220068
 20
1621.260595
 30
0.0
 11
1986.220068
 21
1570.260595
 31
0.0
  0
LINE
  5
44C6
100
AcDbEntity
  8
0
100
AcDbLine
 10
2000.547068
 20
1569.850595
 30
0.0
 11
2002.619068
 21
1568.660595
 31
0.0
  0
ARC
  5
44C7
100
AcDbEntity
  8
0
100
AcDbCircle
 10
1972.314068
 20
1571.872025
 30
0.0
 40
4.0
100
AcDbArc
 50
99.46129
 51
180.0
  0
LINE
  5
44C8
100
AcDbEntity
  8
0
100
AcDbLine
 10
1954.314068
 20
1533.260595
 30
0.0
 11
1968.314068
 21
1533.260595
 31
0.0
  0
ARC
  5
44C9
100
AcDbEntity
  8
0
100
AcDbCircle
 10
1999.045767
 20
1567.306933
 30
0.0
 40
2.953662
100
AcDbArc
 50
59.450368
 51
89.974763
  0
LINE
  5
44CA
100
AcDbEntity
  8
0
100
AcDbLine
 10
1986.220068
 20
1570.260595
 30
0.0
 11
1999.047068
 21
1570.260595
 31
0.0
  0
LINE
  5
44CB
100
AcDbEntity
  8
0
100
AcDbLine
 10
1971.656543
 20
1575.817612
 30
0.0
 11
1981.562543
 21
1577.468429
 31
0.0
  0
ARC
  5
44CC
100
AcDbEntity
  8
0
100
AcDbCircle
 10
1972.314068
 20
1571.872025
 30
0.0
 40
4.0
100
AcDbArc
 50
99.46129
 51
180.0
  0
ARC
  5
44CD
100
AcDbEntity
  8
0
100
AcDbCircle
 10
1982.220068
 20
1573.522841
 30
0.0
 40
4.0
100
AcDbArc
 50
0.0
 51
99.46129
  0
LINE
  5
44CE
100
AcDbEntity
  8
0
100
AcDbLine
 10
2020.263068
 20
1576.304751
 30
0.0
 11
2019.316068
 21
1575.357751
 31
0.0
  0
LINE
  5
44CF
100
AcDbEntity
  8
0
100
AcDbLine
 10
2025.316068
 20
1576.304751
 30
0.0
 11
2020.263068
 21
1576.304751
 31
0.0
  0
LINE
  5
44D0
100
AcDbEntity
  8
0
100
AcDbLine
 10
2018.815068
 20
1559.760595
 30
0.0
 11
2020.550068
 21
1563.470595
 31
0.0
  0
LINE
  5
44D1
100
AcDbEntity
  8
0
100
AcDbLine
 10
2019.316068
 20
1565.251751
 30
0.0
 11
2020.263068
 21
1564.304751
 31
0.0
  0
LINE
  5
44D2
100
AcDbEntity
  8
0
100
AcDbLine
 10
2020.263068
 20
1564.304751
 30
0.0
 11
2025.316068
 21
1564.304751
 31
0.0
  0
ARC
  5
44D3
100
AcDbEntity
  8
0
100
AcDbCircle
 10
2022.807497
 20
1562.375623
 30
0.0
 40
2.508974
100
AcDbArc
 50
1.027061
 51
50.254434
  0
ARC
  5
44D4
100
AcDbEntity
  8
0
100
AcDbCircle
 10
2022.807497
 20
1562.375623
 30
0.0
 40
2.508974
100
AcDbArc
 50
129.745566
 51
154.124162
  0
LINE
  5
44D5
100
AcDbEntity
  8
0
100
AcDbLine
 10
2005.848401
 20
1568.260595
 30
0.0
 11
2009.815068
 21
1559.760595
 31
0.0
  0
LINE
  5
44D6
100
AcDbEntity
  8
0
100
AcDbLine
 10
2009.815068
 20
1559.760595
 30
0.0
 11
2018.815068
 21
1559.760595
 31
0.0
  0
LINE
  5
44D7
100
AcDbEntity
  8
0
100
AcDbLine
 10
2009.303911
 20
1568.260595
 30
0.0
 11
2019.316068
 21
1568.260595
 31
0.0
  0
LINE
  5
44D8
100
AcDbEntity
  8
0
100
AcDbLine
 10
2019.316068
 20
1575.357751
 30
0.0
 11
2019.316068
 21
1565.251751
 31
0.0
  0
ARC
  5
44D9
100
AcDbEntity
  8
0
100
AcDbCircle
 10
2004.107003
 20
1571.227852
 30
0.0
 40
2.967281
100
AcDbArc
 50
239.904203
 51
270.232963
  0
LINE
  5
44DA
100
AcDbEntity
  8
0
100
AcDbLine
 10
2004.119068
 20
1568.260595
 30
0.0
 11
2005.848401
 21
1568.260595
 31
0.0
  0
LINE
  5
44DB
100
AcDbEntity
  8
0
100
AcDbLine
 10
2025.316068
 20
1557.260595
 30
0.0
 11
2049.316068
 21
1557.260595
 31
0.0
  0
LINE
  5
44DC
100
AcDbEntity
  8
0
100
AcDbLine
 10
1999.851068
 20
1618.040595
 30
0.0
 11
2003.316068
 21
1617.930595
 31
0.0
  0
LINE
  5
44DD
100
AcDbEntity
  8
0
100
AcDbLine
 10
2003.316068
 20
1605.760595
 30
0.0
 11
1989.316068
 21
1605.760595
 31
0.0
  0
LINE
  5
44DE
100
AcDbEntity
  8
0
100
AcDbLine
 10
1989.316068
 20
1585.760595
 30
0.0
 11
2003.316068
 21
1585.760595
 31
0.0
  0
LINE
  5
44DF
100
AcDbEntity
  8
0
100
AcDbLine
 10
2033.315068
 20
1639.260595
 30
0.0
 11
1995.316068
 21
1639.260595
 31
0.0
  0
ARC
  5
44E0
100
AcDbEntity
  8
0
100
AcDbCircle
 10
1972.314068
 20
1619.649165
 30
0.0
 40
4.0
100
AcDbArc
 50
180.0
 51
260.53871
  0
LINE
  5
44E1
100
AcDbEntity
  8
0
100
AcDbLine
 10
1999.851068
 20
1617.040595
 30
0.0
 11
1999.851068
 21
1605.760595
 31
0.0
  0
ARC
  5
44E2
100
AcDbEntity
  8
0
100
AcDbCircle
 10
1989.343946
 20
1602.732717
 30
0.0
 40
3.028006
100
AcDbArc
 50
90.527511
 51
179.472489
  0
LINE
  5
44E3
100
AcDbEntity
  8
0
100
AcDbLine
 10
1995.316068
 20
1621.260595
 30
0.0
 11
1986.220068
 21
1621.260595
 31
0.0
  0
ARC
  5
44E4
100
AcDbEntity
  8
0
100
AcDbCircle
 10
2014.363179
 20
1635.249402
 30
0.0
 40
22.510984
100
AcDbArc
 50
216.813339
 51
229.859211
  0
ARC
  5
44E5
100
AcDbEntity
  8
0
100
AcDbCircle
 10
1989.343946
 20
1588.788473
 30
0.0
 40
3.028006
100
AcDbArc
 50
180.527511
 51
269.472489
  0
LINE
  5
44E6
100
AcDbEntity
  8
0
100
AcDbLine
 10
1986.316068
 20
1602.760595
 30
0.0
 11
1986.316068
 21
1588.760595
 31
0.0
  0
LINE
  5
44E7
100
AcDbEntity
  8
0
100
AcDbLine
 10
1971.656543
 20
1615.703578
 30
0.0
 11
1981.562543
 21
1614.052761
 31
0.0
  0
ARC
  5
44E8
100
AcDbEntity
  8
0
100
AcDbCircle
 10
1972.314068
 20
1619.649165
 30
0.0
 40
4.0
100
AcDbArc
 50
180.0
 51
260.53871
  0
ARC
  5
44E9
100
AcDbEntity
  8
0
100
AcDbCircle
 10
1982.220068
 20
1617.998349
 30
0.0
 40
4.0
100
AcDbArc
 50
260.53871
 51
0.0
  0
LINE
  5
44EA
100
AcDbEntity
  8
0
100
AcDbLine
 10
2033.316068
 20
1636.260595
 30
0.0
 11
2033.316068
 21
1639.260595
 31
0.0
  0
LINE
  5
44EB
100
AcDbEntity
  8
0
100
AcDbLine
 10
2020.263068
 20
1627.216439
 30
0.0
 11
2019.316068
 21
1626.269439
 31
0.0
  0
LINE
  5
44EC
100
AcDbEntity
  8
0
100
AcDbLine
 10
2025.316068
 20
1627.216439
 30
0.0
 11
2020.263068
 21
1627.216439
 31
0.0
  0
LINE
  5
44ED
100
AcDbEntity
  8
0
100
AcDbLine
 10
2019.316068
 20
1616.163439
 30
0.0
 11
2020.263068
 21
1615.216439
 31
0.0
  0
LINE
  5
44EE
100
AcDbEntity
  8
0
100
AcDbLine
 10
2020.263068
 20
1615.216439
 30
0.0
 11
2025.316068
 21
1615.216439
 31
0.0
  0
LINE
  5
44EF
100
AcDbEntity
  8
0
100
AcDbLine
 10
2019.316068
 20
1626.269439
 30
0.0
 11
2019.316068
 21
1616.163439
 31
0.0
  0
LINE
  5
44F0
100
AcDbEntity
  8
0
100
AcDbLine
 10
2003.316068
 20
1617.040595
 30
0.0
 11
2003.316068
 21
1605.760595
 31
0.0
  0
ARC
  5
44F1
100
AcDbEntity
  8
0
100
AcDbCircle
 10
2014.317858
 20
1643.232671
 30
0.0
 40
27.590477
100
AcDbArc
 50
246.499744
 51
280.552519
  0
LINE
  5
44F2
100
AcDbEntity
  8
0
100
AcDbLine
 10
2025.316068
 20
1634.260595
 30
0.0
 11
2049.316068
 21
1634.260595
 31
0.0
  0
LINE
  5
44F3
100
AcDbEntity
  8
0
100
AcDbLine
 10
2099.316068
 20
1595.760595
 30
0.0
 11
2099.316068
 21
1533.260595
 31
0.0
  0
LINE
  5
44F4
100
AcDbEntity
  8
0
100
AcDbLine
 10
2056.306068
 20
1581.274751
 30
0.0
 11
2057.316068
 21
1579.525751
 31
0.0
  0
ARC
  5
44F5
100
AcDbEntity
  8
0
100
AcDbCircle
 10
2051.916271
 20
1578.531751
 30
0.0
 40
5.176327
100
AcDbArc
 50
328.000464
 51
31.999536
  0
ARC
  5
44F6
100
AcDbEntity
  8
0
100
AcDbCircle
 10
2081.316068
 20
1571.978179
 30
0.0
 40
4.0
100
AcDbArc
 50
0.0
 51
78.721862
  0
LINE
  5
44F7
100
AcDbEntity
  8
0
100
AcDbLine
 10
2085.316068
 20
1533.260595
 30
0.0
 11
2099.316068
 21
1533.260595
 31
0.0
  0
ARC
  5
44F8
100
AcDbEntity
  8
0
100
AcDbCircle
 10
2081.316068
 20
1571.978179
 30
0.0
 40
4.0
100
AcDbArc
 50
0.0
 51
78.721862
  0
LINE
  5
44F9
100
AcDbEntity
  8
0
100
AcDbLine
 10
2064.316068
 20
1578.260595
 30
0.0
 11
2070.316068
 21
1578.260595
 31
0.0
  0
LINE
  5
44FA
100
AcDbEntity
  8
0
100
AcDbLine
 10
2057.316068
 20
1576.858811
 30
0.0
 11
2064.316079
 21
1578.260595
 31
0.0
  0
ARC
  5
44FB
100
AcDbEntity
  8
0
100
AcDbCircle
 10
2051.916271
 20
1562.077751
 30
0.0
 40
5.176327
100
AcDbArc
 50
328.000464
 51
31.999536
  0
LINE
  5
44FC
100
AcDbEntity
  8
0
100
AcDbLine
 10
2057.316068
 20
1561.083751
 30
0.0
 11
2056.306068
 21
1559.334751
 31
0.0
  0
ARC
  5
44FD
100
AcDbEntity
  8
0
100
AcDbCircle
 10
2037.576298
 20
1570.304751
 30
0.0
 40
19.516109
100
AcDbArc
 50
343.680185
 51
16.319815
  0
LINE
  5
44FE
100
AcDbEntity
  8
0
100
AcDbLine
 10
2057.316068
 20
1579.525751
 30
0.0
 11
2057.316068
 21
1561.083751
 31
0.0
  0
LINE
  5
44FF
100
AcDbEntity
  8
0
100
AcDbLine
 10
2070.316068
 20
1578.260595
 30
0.0
 11
2082.098355
 21
1575.900937
 31
0.0
  0
ARC
  5
4500
100
AcDbEntity
  8
0
100
AcDbCircle
 10
2081.316068
 20
1619.533011
 30
0.0
 40
4.0
100
AcDbArc
 50
281.278138
 51
0.0
  0
ARC
  5
4501
100
AcDbEntity
  8
0
100
AcDbCircle
 10
2081.316068
 20
1619.533011
 30
0.0
 40
4.0
100
AcDbArc
 50
281.278138
 51
0.0
  0
LINE
  5
4502
100
AcDbEntity
  8
0
100
AcDbLine
 10
2056.306068
 20
1632.186439
 30
0.0
 11
2057.316068
 21
1630.437439
 31
0.0
  0
ARC
  5
4503
100
AcDbEntity
  8
0
100
AcDbCircle
 10
2051.916271
 20
1629.443439
 30
0.0
 40
5.176327
100
AcDbArc
 50
328.000464
 51
31.999536
  0
LINE
  5
4504
100
AcDbEntity
  8
0
100
AcDbLine
 10
2070.316068
 20
1613.260595
 30
0.0
 11
2064.316068
 21
1613.260595
 31
0.0
  0
ARC
  5
4505
100
AcDbEntity
  8
0
100
AcDbCircle
 10
2051.916271
 20
1612.989439
 30
0.0
 40
5.176327
100
AcDbArc
 50
328.000464
 51
31.999536
  0
LINE
  5
4506
100
AcDbEntity
  8
0
100
AcDbLine
 10
2057.316068
 20
1611.995439
 30
0.0
 11
2056.306068
 21
1610.246439
 31
0.0
  0
LINE
  5
4507
100
AcDbEntity
  8
0
100
AcDbLine
 10
2064.316068
 20
1613.260595
 30
0.0
 11
2057.316068
 21
1614.656437
 31
0.0
  0
ARC
  5
4508
100
AcDbEntity
  8
0
100
AcDbCircle
 10
2037.576298
 20
1621.216439
 30
0.0
 40
19.516109
100
AcDbArc
 50
343.680185
 51
16.319815
  0
LINE
  5
4509
100
AcDbEntity
  8
0
100
AcDbLine
 10
2057.316068
 20
1630.437439
 30
0.0
 11
2057.316068
 21
1611.995439
 31
0.0
  0
LINE
  5
450A
100
AcDbEntity
  8
0
100
AcDbLine
 10
2070.316068
 20
1582.090595
 30
0.0
 11
2070.316068
 21
1609.420595
 31
0.0
  0
LINE
  5
450B
100
AcDbEntity
  8
0
100
AcDbLine
 10
2064.316068
 20
1582.090595
 30
0.0
 11
2064.316068
 21
1609.420595
 31
0.0
  0
LINE
  5
450C
100
AcDbEntity
  8
0
100
AcDbLine
 10
2082.098355
 20
1615.610254
 30
0.0
 11
2070.316068
 21
1613.260595
 31
0.0
  0
LINE
  5
450D
100
AcDbEntity
  8
0
100
AcDbLine
 10
2030.964068
 20
1660.260595
 30
0.0
 11
1997.667068
 21
1660.260595
 31
0.0
  0
ARC
  5
450E
100
AcDbEntity
  8
0
100
AcDbCircle
 10
1880.569422
 20
1402.048224
 30
0.0
 40
300.006457
100
AcDbArc
 50
59.393136
 51
68.542297
  0
LINE
  5
450F
100
AcDbEntity
  8
0
100
AcDbLine
 10
1968.314068
 20
1658.260595
 30
0.0
 11
1954.314068
 21
1658.260595
 31
0.0
  0
LINE
  5
4510
100
AcDbEntity
  8
0
100
AcDbLine
 10
1990.316068
 20
1681.260595
 30
0.0
 11
1974.314068
 21
1681.260595
 31
0.0
  0
LINE
  5
4511
100
AcDbEntity
  8
0
100
AcDbLine
 10
1972.814068
 20
1682.760595
 30
0.0
 11
1995.316068
 21
1660.261717
 31
0.0
  0
LINE
  5
4512
100
AcDbEntity
  8
0
100
AcDbLine
 10
2099.316068
 20
1658.260595
 30
0.0
 11
2085.316068
 21
1658.260595
 31
0.0
  0
LINE
  5
4513
100
AcDbEntity
  8
0
100
AcDbLine
 10
473.27859
 20
574.546136
 30
0.0
 11
473.27859
 21
656.546136
 31
0.0
  0
LINE
  5
4514
100
AcDbEntity
  8
0
100
AcDbLine
 10
431.77859
 20
548.046136
 30
0.0
 11
431.77859
 21
683.046136
 31
0.0
  0
LINE
  5
4515
100
AcDbEntity
  8
0
100
AcDbLine
 10
415.77859
 20
683.046136
 30
0.0
 11
415.77859
 21
615.546136
 31
0.0
  0
LINE
  5
4516
100
AcDbEntity
  8
0
100
AcDbLine
 10
303.623582
 20
421.844424
 30
0.0
 11
303.623582
 21
438.431006
 31
0.0
  0
LINE
  5
4517
100
AcDbEntity
  8
0
100
AcDbLine
 10
276.900318
 20
421.844424
 30
0.0
 11
276.900318
 21
438.431006
 31
0.0
  0
LINE
  5
4518
100
AcDbEntity
  8
0
100
AcDbLine
 10
278.26195
 20
403.431006
 30
0.0
 11
278.26195
 21
436.431006
 31
0.0
  0
LINE
  5
4519
100
AcDbEntity
  8
0
100
AcDbLine
 10
302.26195
 20
403.431006
 30
0.0
 11
302.26195
 21
436.431006
 31
0.0
  0
LINE
  5
451A
100
AcDbEntity
  8
0
100
AcDbLine
 10
259.26195
 20
403.431006
 30
0.0
 11
321.26195
 21
403.431006
 31
0.0
  0
LINE
  5
451B
100
AcDbEntity
  8
0
100
AcDbLine
 10
259.26195
 20
403.431006
 30
0.0
 11
259.26195
 21
384.39141
 31
0.0
  0
LINE
  5
451C
100
AcDbEntity
  8
0
100
AcDbLine
 10
321.26195
 20
403.431006
 30
0.0
 11
321.26195
 21
384.39141
 31
0.0
  0
LINE
  5
451D
100
AcDbEntity
  8
0
100
AcDbLine
 10
302.26195
 20
421.844424
 30
0.0
 11
303.623582
 21
421.844424
 31
0.0
  0
LINE
  5
451E
100
AcDbEntity
  8
0
100
AcDbLine
 10
276.900318
 20
421.844424
 30
0.0
 11
278.26195
 21
421.844424
 31
0.0
  0
ELLIPSE
  5
451F
100
AcDbEntity
  8
0
100
AcDbEllipse
 10
290.26195
 20
419.662127
 30
0.0
 11
-9.75
 21
0.0
 31
0.0
210
0.0
220
0.0
230
1.0
 40
0.466646
 41
0.0
 42
6.283185307179586
  0
LINE
  5
4520
100
AcDbEntity
  8
0
100
AcDbLine
 10
302.26195
 20
436.431006
 30
0.0
 11
278.26195
 21
436.431006
 31
0.0
  0
LINE
  5
4521
100
AcDbEntity
  8
0
100
AcDbLine
 10
276.900318
 20
438.431006
 30
0.0
 11
303.623582
 21
438.431006
 31
0.0
  0
LINE
  5
4522
100
AcDbEntity
  8
0
100
AcDbLine
 10
415.77859
 20
391.931006
 30
0.0
 11
431.77859
 21
391.931006
 31
0.0
  0
ARC
  5
4523
100
AcDbEntity
  8
0
100
AcDbCircle
 10
487.77859
 20
400.074736
 30
0.0
 40
3.0
100
AcDbArc
 50
120.662907
 51
180.0
  0
LINE
  5
4524
100
AcDbEntity
  8
0
100
AcDbLine
 10
499.77859
 20
366.931006
 30
0.0
 11
487.27859
 21
366.931006
 31
0.0
  0
ARC
  5
4525
100
AcDbEntity
  8
0
100
AcDbCircle
 10
487.77859
 20
369.931006
 30
0.0
 40
3.0
100
AcDbArc
 50
270.0
 51
0.0
  0
ARC
  5
4526
100
AcDbEntity
  8
0
100
AcDbCircle
 10
499.77859
 20
365.431006
 30
0.0
 40
1.5
100
AcDbArc
 50
0.0
 51
90.0
  0
LINE
  5
4527
100
AcDbEntity
  8
0
100
AcDbLine
 10
490.77859
 20
369.931006
 30
0.0
 11
490.77859
 21
373.431006
 31
0.0
  0
LINE
  5
4528
100
AcDbEntity
  8
0
100
AcDbLine
 10
466.28859
 20
359.259938
 30
0.0
 11
473.27859
 21
359.259938
 31
0.0
  0
LINE
  5
4529
100
AcDbEntity
  8
0
100
AcDbLine
 10
473.27859
 20
364.745938
 30
0.0
 11
466.28859
 21
364.745938
 31
0.0
  0
ARC
  5
452A
100
AcDbEntity
  8
0
100
AcDbCircle
 10
470.678387
 20
362.002938
 30
0.0
 40
5.176327
100
AcDbArc
 50
148.000464
 51
211.999536
  0
LINE
  5
452B
100
AcDbEntity
  8
0
100
AcDbLine
 10
466.28859
 20
364.745938
 30
0.0
 11
465.27859
 21
362.996938
 31
0.0
  0
ARC
  5
452C
100
AcDbEntity
  8
0
100
AcDbCircle
 10
474.77859
 20
365.431006
 30
0.0
 40
1.5
100
AcDbArc
 50
90.0
 51
180.0
  0
LINE
  5
452D
100
AcDbEntity
  8
0
100
AcDbLine
 10
474.77859
 20
366.931006
 30
0.0
 11
487.27859
 21
366.931006
 31
0.0
  0
LINE
  5
452E
100
AcDbEntity
  8
0
100
AcDbLine
 10
484.77859
 20
400.074736
 30
0.0
 11
484.77859
 21
373.431006
 31
0.0
  0
LINE
  5
452F
100
AcDbEntity
  8
0
100
AcDbLine
 10
415.77859
 20
548.046136
 30
0.0
 11
415.77859
 21
615.546136
 31
0.0
  0
LINE
  5
4530
100
AcDbEntity
  8
0
100
AcDbLine
 10
415.77859
 20
548.046136
 30
0.0
 11
431.77859
 21
548.046136
 31
0.0
  0
LINE
  5
4531
100
AcDbEntity
  8
0
100
AcDbLine
 10
446.77859
 20
593.546136
 30
0.0
 11
458.27859
 21
593.546136
 31
0.0
  0
LINE
  5
4532
100
AcDbEntity
  8
0
100
AcDbLine
 10
435.798009
 20
591.35002
 30
0.0
 11
446.77859
 21
593.546136
 31
0.0
  0
ARC
  5
4533
100
AcDbEntity
  8
0
100
AcDbCircle
 10
436.77859
 20
586.447117
 30
0.0
 40
5.0
100
AcDbArc
 50
101.309932
 51
180.0
  0
ARC
  5
4534
100
AcDbEntity
  8
0
100
AcDbCircle
 10
499.77859
 20
574.546136
 30
0.0
 40
1.5
100
AcDbArc
 50
270.0
 51
0.0
  0
LINE
  5
4535
100
AcDbEntity
  8
0
100
AcDbLine
 10
501.27859
 20
574.546136
 30
0.0
 11
501.27859
 21
588.146319
 31
0.0
  0
ARC
  5
4536
100
AcDbEntity
  8
0
100
AcDbCircle
 10
489.531161
 20
602.080534
 30
0.0
 40
1.5
100
AcDbArc
 50
90.847719
 51
207.158984
  0
LINE
  5
4537
100
AcDbEntity
  8
0
100
AcDbLine
 10
465.27859
 20
595.422205
 30
0.0
 11
466.28859
 21
597.171205
 31
0.0
  0
ARC
  5
4538
100
AcDbEntity
  8
0
100
AcDbCircle
 10
470.678387
 20
594.428205
 30
0.0
 40
5.176327
100
AcDbArc
 50
148.000464
 51
211.999536
  0
LINE
  5
4539
100
AcDbEntity
  8
0
100
AcDbLine
 10
465.27859
 20
592.146136
 30
0.0
 11
458.27859
 21
593.546136
 31
0.0
  0
LINE
  5
453A
100
AcDbEntity
  8
0
100
AcDbLine
 10
466.28859
 20
597.171205
 30
0.0
 11
473.27859
 21
597.171205
 31
0.0
  0
LINE
  5
453B
100
AcDbEntity
  8
0
100
AcDbLine
 10
466.28859
 20
591.685205
 30
0.0
 11
473.27859
 21
591.685205
 31
0.0
  0
ARC
  5
453C
100
AcDbEntity
  8
0
100
AcDbCircle
 10
474.77859
 20
574.546136
 30
0.0
 40
1.5
100
AcDbArc
 50
180.0
 51
270.0
  0
LINE
  5
453D
100
AcDbEntity
  8
0
100
AcDbLine
 10
474.77859
 20
573.046136
 30
0.0
 11
487.27859
 21
573.046136
 31
0.0
  0
LINE
  5
453E
100
AcDbEntity
  8
0
100
AcDbLine
 10
466.28859
 20
575.231205
 30
0.0
 11
465.27859
 21
576.980205
 31
0.0
  0
ARC
  5
453F
100
AcDbEntity
  8
0
100
AcDbCircle
 10
470.678387
 20
577.974205
 30
0.0
 40
5.176327
100
AcDbArc
 50
148.000464
 51
211.999536
  0
LINE
  5
4540
100
AcDbEntity
  8
0
100
AcDbLine
 10
473.27859
 20
575.231205
 30
0.0
 11
466.28859
 21
575.231205
 31
0.0
  0
LINE
  5
4541
100
AcDbEntity
  8
0
100
AcDbLine
 10
466.28859
 20
580.717205
 30
0.0
 11
473.27859
 21
580.717205
 31
0.0
  0
ARC
  5
4542
100
AcDbEntity
  8
0
100
AcDbCircle
 10
485.018359
 20
586.201205
 30
0.0
 40
19.516109
100
AcDbArc
 50
163.680185
 51
196.319815
  0
LINE
  5
4543
100
AcDbEntity
  8
0
100
AcDbLine
 10
465.27859
 20
576.980205
 30
0.0
 11
465.27859
 21
595.422205
 31
0.0
  0
LINE
  5
4544
100
AcDbEntity
  8
0
100
AcDbLine
 10
487.27859
 20
573.046136
 30
0.0
 11
487.27859
 21
603.349826
 31
0.0
  0
LINE
  5
4545
100
AcDbEntity
  8
0
100
AcDbLine
 10
499.77859
 20
573.046136
 30
0.0
 11
487.27859
 21
573.046136
 31
0.0
  0
LINE
  5
4546
100
AcDbEntity
  8
0
100
AcDbLine
 10
446.77859
 20
637.546136
 30
0.0
 11
458.27859
 21
637.546136
 31
0.0
  0
LINE
  5
4547
100
AcDbEntity
  8
0
100
AcDbLine
 10
415.77859
 20
683.046136
 30
0.0
 11
431.77859
 21
683.046136
 31
0.0
  0
ARC
  5
4548
100
AcDbEntity
  8
0
100
AcDbCircle
 10
436.77859
 20
644.645156
 30
0.0
 40
5.0
100
AcDbArc
 50
180.0
 51
258.690068
  0
LINE
  5
4549
100
AcDbEntity
  8
0
100
AcDbLine
 10
435.798009
 20
639.742253
 30
0.0
 11
446.77859
 21
637.546136
 31
0.0
  0
ARC
  5
454A
100
AcDbEntity
  8
0
100
AcDbCircle
 10
499.77859
 20
656.546136
 30
0.0
 40
1.5
100
AcDbArc
 50
0.0
 51
90.0
  0
LINE
  5
454B
100
AcDbEntity
  8
0
100
AcDbLine
 10
501.27859
 20
642.945954
 30
0.0
 11
501.27859
 21
656.546136
 31
0.0
  0
ARC
  5
454C
100
AcDbEntity
  8
0
100
AcDbCircle
 10
474.77859
 20
656.546136
 30
0.0
 40
1.5
100
AcDbArc
 50
90.0
 51
180.0
  0
LINE
  5
454D
100
AcDbEntity
  8
0
100
AcDbLine
 10
474.77859
 20
658.046136
 30
0.0
 11
487.27859
 21
658.046136
 31
0.0
  0
LINE
  5
454E
100
AcDbEntity
  8
0
100
AcDbLine
 10
466.28859
 20
655.861068
 30
0.0
 11
465.27859
 21
654.112068
 31
0.0
  0
ARC
  5
454F
100
AcDbEntity
  8
0
100
AcDbCircle
 10
470.678387
 20
653.118068
 30
0.0
 40
5.176327
100
AcDbArc
 50
148.000464
 51
211.999536
  0
ARC
  5
4550
100
AcDbEntity
  8
0
100
AcDbCircle
 10
485.018359
 20
644.891068
 30
0.0
 40
19.516109
100
AcDbArc
 50
163.680185
 51
196.319815
  0
LINE
  5
4551
100
AcDbEntity
  8
0
100
AcDbLine
 10
465.27859
 20
654.112068
 30
0.0
 11
465.27859
 21
635.670068
 31
0.0
  0
LINE
  5
4552
100
AcDbEntity
  8
0
100
AcDbLine
 10
465.27859
 20
635.670068
 30
0.0
 11
466.28859
 21
633.921068
 31
0.0
  0
ARC
  5
4553
100
AcDbEntity
  8
0
100
AcDbCircle
 10
470.678387
 20
636.664068
 30
0.0
 40
5.176327
100
AcDbArc
 50
148.000464
 51
211.999536
  0
LINE
  5
4554
100
AcDbEntity
  8
0
100
AcDbLine
 10
465.27859
 20
638.946136
 30
0.0
 11
458.27859
 21
637.546136
 31
0.0
  0
LINE
  5
4555
100
AcDbEntity
  8
0
100
AcDbLine
 10
473.27859
 20
655.861068
 30
0.0
 11
466.28859
 21
655.861068
 31
0.0
  0
LINE
  5
4556
100
AcDbEntity
  8
0
100
AcDbLine
 10
466.28859
 20
650.375068
 30
0.0
 11
473.27859
 21
650.375068
 31
0.0
  0
LINE
  5
4557
100
AcDbEntity
  8
0
100
AcDbLine
 10
466.28859
 20
639.407068
 30
0.0
 11
473.27859
 21
639.407068
 31
0.0
  0
LINE
  5
4558
100
AcDbEntity
  8
0
100
AcDbLine
 10
466.28859
 20
633.921068
 30
0.0
 11
473.27859
 21
633.921068
 31
0.0
  0
LINE
  5
4559
100
AcDbEntity
  8
0
100
AcDbLine
 10
487.27859
 20
627.742447
 30
0.0
 11
487.27859
 21
658.046136
 31
0.0
  0
ARC
  5
455A
100
AcDbEntity
  8
0
100
AcDbCircle
 10
489.531161
 20
629.011739
 30
0.0
 40
1.5
100
AcDbArc
 50
152.841016
 51
269.152281
  0
LINE
  5
455B
100
AcDbEntity
  8
0
100
AcDbLine
 10
499.77859
 20
658.046136
 30
0.0
 11
487.27859
 21
658.046136
 31
0.0
  0
ARC
  5
455C
100
AcDbEntity
  8
0
100
AcDbCircle
 10
496.340215
 20
816.511894
 30
0.0
 40
4.0
100
AcDbArc
 50
8.585014
 51
153.434949
  0
LINE
  5
455D
100
AcDbEntity
  8
0
100
AcDbLine
 10
491.27859
 20
815.332916
 30
0.0
 11
492.762506
 21
818.300749
 31
0.0
  0
LINE
  5
455E
100
AcDbEntity
  8
0
100
AcDbLine
 10
477.384163
 20
821.121771
 30
0.0
 11
480.27859
 21
815.332916
 31
0.0
  0
LINE
  5
455F
100
AcDbEntity
  8
0
100
AcDbLine
 10
415.77859
 20
790.832916
 30
0.0
 11
415.77859
 21
858.332916
 31
0.0
  0
LINE
  5
4560
100
AcDbEntity
  8
0
100
AcDbLine
 10
415.77859
 20
790.832916
 30
0.0
 11
431.77859
 21
790.832916
 31
0.0
  0
ARC
  5
4561
100
AcDbEntity
  8
0
100
AcDbCircle
 10
501.77859
 20
817.332916
 30
0.0
 40
1.5
100
AcDbArc
 50
180.0
 51
270.0
  0
LINE
  5
4562
100
AcDbEntity
  8
0
100
AcDbLine
 10
491.27859
 20
815.332916
 30
0.0
 11
480.27859
 21
815.332916
 31
0.0
  0
ARC
  5
4563
100
AcDbEntity
  8
0
100
AcDbCircle
 10
456.310059
 20
867.332916
 30
0.0
 40
5.0
100
AcDbArc
 50
90.0
 51
180.0
  0
ARC
  5
4564
100
AcDbEntity
  8
0
100
AcDbCircle
 10
456.310059
 20
849.332916
 30
0.0
 40
5.0
100
AcDbArc
 50
180.0
 51
270.0
  0
ARC
  5
4565
100
AcDbEntity
  8
0
100
AcDbCircle
 10
456.224396
 20
833.332916
 30
0.0
 40
5.0
100
AcDbArc
 50
190.62116
 51
270.0
  0
LINE
  5
4566
100
AcDbEntity
  8
0
100
AcDbLine
 10
435.173393
 20
882.813304
 30
0.0
 11
446.773393
 21
881.037793
 31
0.0
  0
ARC
  5
4567
100
AcDbEntity
  8
0
100
AcDbCircle
 10
435.77859
 20
829.898577
 30
0.0
 40
4.0
100
AcDbArc
 50
98.702224
 51
180.0
  0
LINE
  5
4568
100
AcDbEntity
  8
0
100
AcDbLine
 10
435.173393
 20
833.852529
 30
0.0
 11
446.773393
 21
835.628039
 31
0.0
  0
ARC
  5
4569
100
AcDbEntity
  8
0
100
AcDbCircle
 10
447.37859
 20
831.674087
 30
0.0
 40
4.0
100
AcDbArc
 50
10.62116
 51
98.702224
  0
LINE
  5
456A
100
AcDbEntity
  8
0
100
AcDbLine
 10
494.22559
 20
881.677848
 30
0.0
 11
500.27859
 21
881.677848
 31
0.0
  0
LINE
  5
456B
100
AcDbEntity
  8
0
100
AcDbLine
 10
493.27859
 20
882.624848
 30
0.0
 11
494.22559
 21
881.677848
 31
0.0
  0
ARC
  5
456C
100
AcDbEntity
  8
0
100
AcDbCircle
 10
468.37859
 20
877.332916
 30
0.0
 40
5.0
100
AcDbArc
 50
270.0
 51
0.0
  0
ARC
  5
456D
100
AcDbEntity
  8
0
100
AcDbCircle
 10
468.37859
 20
839.332916
 30
0.0
 40
5.0
100
AcDbArc
 50
0.0
 51
90.0
  0
LINE
  5
456E
100
AcDbEntity
  8
0
100
AcDbLine
 10
468.37859
 20
872.332916
 30
0.0
 11
456.310059
 21
872.332916
 31
0.0
  0
LINE
  5
456F
100
AcDbEntity
  8
0
100
AcDbLine
 10
468.37859
 20
844.332916
 30
0.0
 11
456.310059
 21
844.332916
 31
0.0
  0
ARC
  5
4570
100
AcDbEntity
  8
0
100
AcDbCircle
 10
459.681815
 20
877.332916
 30
0.0
 40
5.0
100
AcDbArc
 50
270.0
 51
0.0
  0
ARC
  5
4571
100
AcDbEntity
  8
0
100
AcDbCircle
 10
459.681815
 20
839.332916
 30
0.0
 40
5.0
100
AcDbArc
 50
0.0
 51
90.0
  0
ARC
  5
4572
100
AcDbEntity
  8
0
100
AcDbCircle
 10
490.153395
 20
819.370734
 30
0.0
 40
1.754441
100
AcDbArc
 50
41.912114
 51
86.430021
  0
ARC
  5
4573
100
AcDbEntity
  8
0
100
AcDbCircle
 10
492.736866
 20
823.197957
 30
0.0
 40
1.018466
100
AcDbArc
 50
57.865953
 51
79.137292
  0
LINE
  5
4574
100
AcDbEntity
  8
0
100
AcDbLine
 10
500.27859
 20
822.987985
 30
0.0
 11
494.22559
 21
822.987985
 31
0.0
  0
LINE
  5
4575
100
AcDbEntity
  8
0
100
AcDbLine
 10
494.22559
 20
834.987985
 30
0.0
 11
500.27859
 21
834.987985
 31
0.0
  0
LINE
  5
4576
100
AcDbEntity
  8
0
100
AcDbLine
 10
494.22559
 20
822.987985
 30
0.0
 11
493.27859
 21
823.934985
 31
0.0
  0
LINE
  5
4577
100
AcDbEntity
  8
0
100
AcDbLine
 10
493.27859
 20
834.040985
 30
0.0
 11
494.22559
 21
834.987985
 31
0.0
  0
LINE
  5
4578
100
AcDbEntity
  8
0
100
AcDbLine
 10
493.27859
 20
823.934985
 30
0.0
 11
493.27859
 21
834.040985
 31
0.0
  0
LINE
  5
4579
100
AcDbEntity
  8
0
100
AcDbLine
 10
494.22559
 20
834.987985
 30
0.0
 11
494.22559
 21
822.987985
 31
0.0
  0
ARC
  5
457A
100
AcDbEntity
  8
0
100
AcDbCircle
 10
463.646539
 20
824.332916
 30
0.0
 40
4.0
100
AcDbArc
 50
60.0
 51
90.0
  0
ARC
  5
457B
100
AcDbEntity
  8
0
100
AcDbCircle
 10
473.806454
 20
819.332916
 30
0.0
 40
4.0
100
AcDbArc
 50
26.565051
 51
90.0
  0
LINE
  5
457C
100
AcDbEntity
  8
0
100
AcDbLine
 10
473.806454
 20
823.332916
 30
0.0
 11
473.37859
 21
823.332916
 31
0.0
  0
LINE
  5
457D
100
AcDbEntity
  8
0
100
AcDbLine
 10
473.37859
 20
823.332916
 30
0.0
 11
465.646539
 21
827.797018
 31
0.0
  0
LINE
  5
457E
100
AcDbEntity
  8
0
100
AcDbLine
 10
490.262639
 20
821.121771
 30
0.0
 11
477.384163
 21
821.121771
 31
0.0
  0
ARC
  5
457F
100
AcDbEntity
  8
0
100
AcDbCircle
 10
486.417197
 20
802.726726
 30
0.0
 40
22.437113
100
AcDbArc
 50
73.129123
 51
114.527837
  0
LINE
  5
4580
100
AcDbEntity
  8
0
100
AcDbLine
 10
463.646539
 20
828.332916
 30
0.0
 11
456.224396
 21
828.332916
 31
0.0
  0
LINE
  5
4581
100
AcDbEntity
  8
0
100
AcDbLine
 10
464.681815
 20
830.423879
 30
0.0
 11
464.681815
 21
839.332916
 31
0.0
  0
LINE
  5
4582
100
AcDbEntity
  8
0
100
AcDbLine
 10
473.37859
 20
826.532916
 30
0.0
 11
473.37859
 21
839.332916
 31
0.0
  0
LINE
  5
4583
100
AcDbEntity
  8
0
100
AcDbLine
 10
421.531014
 20
972.332916
 30
0.0
 11
301.531014
 21
972.332916
 31
0.0
  0
LINE
  5
4584
100
AcDbEntity
  8
0
100
AcDbLine
 10
431.531014
 20
962.332916
 30
0.0
 11
301.485906
 21
964.288482
 31
0.0
  0
ARC
  5
4585
100
AcDbEntity
  8
0
100
AcDbCircle
 10
301.531014
 20
967.288143
 30
0.0
 40
3.0
100
AcDbArc
 50
180.0
 51
269.138474
  0
LINE
  5
4586
100
AcDbEntity
  8
0
100
AcDbLine
 10
298.531014
 20
967.288143
 30
0.0
 11
298.531014
 21
969.332916
 31
0.0
  0
ARC
  5
4587
100
AcDbEntity
  8
0
100
AcDbCircle
 10
301.531014
 20
969.332916
 30
0.0
 40
3.0
100
AcDbArc
 50
90.0
 51
180.0
  0
LINE
  5
4588
100
AcDbEntity
  8
0
100
AcDbLine
 10
453.89991
 20
939.96402
 30
0.0
 11
421.531014
 21
972.332916
 31
0.0
  0
ARC
  5
4589
100
AcDbEntity
  8
0
100
AcDbCircle
 10
456.224396
 20
883.332916
 30
0.0
 40
5.0
100
AcDbArc
 50
90.0
 51
169.37884
  0
ARC
  5
458A
100
AcDbEntity
  8
0
100
AcDbCircle
 10
451.77859
 20
937.842699
 30
0.0
 40
3.0
100
AcDbArc
 50
0.0
 51
45.0
  0
LINE
  5
458B
100
AcDbEntity
  8
0
100
AcDbLine
 10
454.77859
 20
937.842699
 30
0.0
 11
454.77859
 21
907.332916
 31
0.0
  0
LINE
  5
458C
100
AcDbEntity
  8
0
100
AcDbLine
 10
415.77859
 20
925.832916
 30
0.0
 11
431.77859
 21
925.832916
 31
0.0
  0
ARC
  5
458D
100
AcDbEntity
  8
0
100
AcDbCircle
 10
501.77859
 20
899.332916
 30
0.0
 40
1.5
100
AcDbArc
 50
90.0
 51
180.0
  0
LINE
  5
458E
100
AcDbEntity
  8
0
100
AcDbLine
 10
500.27859
 20
893.677848
 30
0.0
 11
494.22559
 21
893.677848
 31
0.0
  0
LINE
  5
458F
100
AcDbEntity
  8
0
100
AcDbLine
 10
494.22559
 20
893.677848
 30
0.0
 11
493.27859
 21
892.730848
 31
0.0
  0
LINE
  5
4590
100
AcDbEntity
  8
0
100
AcDbLine
 10
460.77859
 20
892.332916
 30
0.0
 11
460.77859
 21
907.332916
 31
0.0
  0
LINE
  5
4591
100
AcDbEntity
  8
0
100
AcDbLine
 10
456.77859
 20
888.332916
 30
0.0
 11
456.224396
 21
888.332916
 31
0.0
  0
ARC
  5
4592
100
AcDbEntity
  8
0
100
AcDbCircle
 10
456.77859
 20
892.332916
 30
0.0
 40
4.0
100
AcDbArc
 50
270.0
 51
0.0
  0
LINE
  5
4593
100
AcDbEntity
  8
0
100
AcDbLine
 10
445.531014
 20
970.332916
 30
0.0
 11
423.531014
 21
970.332916
 31
0.0
  0
CIRCLE
  5
4594
100
AcDbEntity
  8
0
100
AcDbCircle
 10
2419.367862
 20
366.883803
 30
0.0
 40
9.5
  0
CIRCLE
  5
4595
100
AcDbEntity
  8
0
100
AcDbCircle
 10
2504.167862
 20
366.883803
 30
0.0
 40
9.5
  0
CIRCLE
  5
4596
100
AcDbEntity
  8
0
100
AcDbCircle
 10
2461.767862
 20
324.431006
 30
0.0
 40
77.5
  0
CIRCLE
  5
4597
100
AcDbEntity
  8
0
100
AcDbCircle
 10
1893.403434
 20
324.431006
 30
0.0
 40
77.5
  0
CIRCLE
  5
4598
100
AcDbEntity
  8
0
100
AcDbCircle
 10
1935.803434
 20
366.883803
 30
0.0
 40
9.5
  0
CIRCLE
  5
4599
100
AcDbEntity
  8
0
100
AcDbCircle
 10
1851.003434
 20
366.883803
 30
0.0
 40
9.5
  0
LINE
  5
459A
100
AcDbEntity
  8
0
100
AcDbLine
 10
2252.971961
 20
324.431006
 30
0.0
 11
2252.971961
 21
401.931006
 31
0.0
  0
ARC
  5
459B
100
AcDbEntity
  8
0
100
AcDbCircle
 10
2231.971961
 20
362.530026
 30
0.0
 40
5.0
100
AcDbArc
 50
281.309932
 51
0.0
  0
LINE
  5
459C
100
AcDbEntity
  8
0
100
AcDbLine
 10
2191.729611
 20
361.079518
 30
0.0
 11
2191.729611
 21
348.431006
 31
0.0
  0
LINE
  5
459D
100
AcDbEntity
  8
0
100
AcDbLine
 10
2182.91431
 20
363.266393
 30
0.0
 11
2182.91431
 21
348.431006
 31
0.0
  0
ARC
  5
459E
100
AcDbEntity
  8
0
100
AcDbCircle
 10
2205.197841
 20
357.931006
 30
0.0
 40
5.0
100
AcDbArc
 50
9.594068
 51
90.0
  0
LINE
  5
459F
100
AcDbEntity
  8
0
100
AcDbLine
 10
2139.888961
 20
358.647873
 30
0.0
 11
2139.888961
 21
374.647873
 31
0.0
  0
LINE
  5
45A0
100
AcDbEntity
  8
0
100
AcDbLine
 10
2140.971961
 20
359.730873
 30
0.0
 11
2139.888961
 21
358.647873
 31
0.0
  0
LINE
  5
45A1
100
AcDbEntity
  8
0
100
AcDbLine
 10
2121.971961
 20
382.431006
 30
0.0
 11
2121.971961
 21
324.431006
 31
0.0
  0
ARC
  5
45A2
100
AcDbEntity
  8
0
100
AcDbCircle
 10
2102.791814
 20
356.256373
 30
0.0
 40
6.537699
100
AcDbArc
 50
147.999511
 51
212.000489
  0
LINE
  5
45A3
100
AcDbEntity
  8
0
100
AcDbLine
 10
2095.971961
 20
378.294873
 30
0.0
 11
2095.971961
 21
355.000873
 31
0.0
  0
ARC
  5
45A4
100
AcDbEntity
  8
0
100
AcDbCircle
 10
2063.971961
 20
362.530026
 30
0.0
 40
5.0
100
AcDbArc
 50
180.0
 51
258.690068
  0
LINE
  5
45A5
100
AcDbEntity
  8
0
100
AcDbLine
 10
2042.971961
 20
324.431006
 30
0.0
 11
2042.971961
 21
401.931006
 31
0.0
  0
LINE
  5
45A6
100
AcDbEntity
  8
0
100
AcDbLine
 10
2058.971961
 20
401.931006
 30
0.0
 11
2058.971961
 21
246.931006
 31
0.0
  0
LINE
  5
45A7
100
AcDbEntity
  8
0
100
AcDbLine
 10
2236.971961
 20
401.931006
 30
0.0
 11
2236.971961
 21
246.931006
 31
0.0
  0
LINE
  5
45A8
100
AcDbEntity
  8
0
100
AcDbLine
 10
2137.971961
 20
268.431006
 30
0.0
 11
2137.971961
 21
380.431006
 31
0.0
  0
LINE
  5
45A9
100
AcDbEntity
  8
0
100
AcDbLine
 10
2105.971961
 20
380.931006
 30
0.0
 11
2105.971961
 21
267.931006
 31
0.0
  0
CIRCLE
  5
45AA
100
AcDbEntity
  8
0
100
AcDbCircle
 10
1095.708198
 20
361.554112
 30
0.0
 40
9.5
  0
CIRCLE
  5
45AB
100
AcDbEntity
  8
0
100
AcDbCircle
 10
1021.461986
 20
361.554112
 30
0.0
 40
9.5
  0
CIRCLE
  5
45AC
100
AcDbEntity
  8
0
100
AcDbCircle
 10
1058.585092
 20
324.431006
 30
0.0
 40
70.0
  0
ARC
  5
45AD
100
AcDbEntity
  8
0
100
AcDbCircle
 10
1347.65362
 20
362.931006
 30
0.0
 40
5.0
100
AcDbArc
 50
180.0
 51
270.0
  0
LINE
  5
45AE
100
AcDbEntity
  8
0
100
AcDbLine
 10
1398.15362
 20
324.431006
 30
0.0
 11
1398.15362
 21
394.431006
 31
0.0
  0
LINE
  5
45AF
100
AcDbEntity
  8
0
100
AcDbLine
 10
1302.65362
 20
366.703345
 30
0.0
 11
1302.65362
 21
352.869345
 31
0.0
  0
LINE
  5
45B0
100
AcDbEntity
  8
0
100
AcDbLine
 10
1301.57062
 20
351.786345
 30
0.0
 11
1301.57062
 21
367.786345
 31
0.0
  0
LINE
  5
45B1
100
AcDbEntity
  8
0
100
AcDbLine
 10
1257.65362
 20
371.433345
 30
0.0
 11
1257.65362
 21
348.139345
 31
0.0
  0
ARC
  5
45B2
100
AcDbEntity
  8
0
100
AcDbCircle
 10
1282.589044
 20
359.786845
 30
0.0
 40
24.653145
100
AcDbArc
 50
163.680185
 51
196.319815
  0
LINE
  5
45B3
100
AcDbEntity
  8
0
100
AcDbLine
 10
1208.15362
 20
324.431006
 30
0.0
 11
1208.15362
 21
394.431006
 31
0.0
  0
LINE
  5
45B4
100
AcDbEntity
  8
0
100
AcDbLine
 10
1295.65362
 20
273.931006
 30
0.0
 11
1295.65362
 21
374.931006
 31
0.0
  0
LINE
  5
45B5
100
AcDbEntity
  8
0
100
AcDbLine
 10
1382.15362
 20
394.431006
 30
0.0
 11
1382.15362
 21
254.431006
 31
0.0
  0
LINE
  5
45B6
100
AcDbEntity
  8
0
100
AcDbLine
 10
1281.65362
 20
271.931006
 30
0.0
 11
1281.65362
 21
376.931006
 31
0.0
  0
LINE
  5
45B7
100
AcDbEntity
  8
0
100
AcDbLine
 10
1267.65362
 20
273.431006
 30
0.0
 11
1267.65362
 21
375.431006
 31
0.0
  0
LINE
  5
45B8
100
AcDbEntity
  8
0
100
AcDbLine
 10
1224.15362
 20
394.431006
 30
0.0
 11
1224.15362
 21
254.431006
 31
0.0
  0
CIRCLE
  5
45B9
100
AcDbEntity
  8
0
100
AcDbCircle
 10
820.238129
 20
359.786345
 30
0.0
 40
9.5
  0
CIRCLE
  5
45BA
100
AcDbEntity
  8
0
100
AcDbCircle
 10
749.527451
 20
359.786345
 30
0.0
 40
9.5
  0
CIRCLE
  5
45BB
100
AcDbEntity
  8
0
100
AcDbCircle
 10
784.88279
 20
324.431006
 30
0.0
 40
67.5
  0
LINE
  5
45BC
100
AcDbEntity
  8
0
100
AcDbLine
 10
585.77859
 20
391.931006
 30
0.0
 11
585.77859
 21
324.431006
 31
0.0
  0
LINE
  5
45BD
100
AcDbEntity
  8
0
100
AcDbLine
 10
540.77859
 20
358.431006
 30
0.0
 11
540.77859
 21
373.431006
 31
0.0
  0
LINE
  5
45BE
100
AcDbEntity
  8
0
100
AcDbLine
 10
507.33159
 20
347.775938
 30
0.0
 11
507.33159
 21
359.775938
 31
0.0
  0
LINE
  5
45BF
100
AcDbEntity
  8
0
100
AcDbLine
 10
507.33159
 20
359.775938
 30
0.0
 11
508.27859
 21
358.828938
 31
0.0
  0
LINE
  5
45C0
100
AcDbEntity
  8
0
100
AcDbLine
 10
569.77859
 20
256.931006
 30
0.0
 11
569.77859
 21
391.931006
 31
0.0
  0
CIRCLE
  5
45C1
100
AcDbEntity
  8
0
100
AcDbCircle
 10
1626.583389
 20
361.554112
 30
0.0
 40
9.5
  0
CIRCLE
  5
45C2
100
AcDbEntity
  8
0
100
AcDbCircle
 10
1552.337177
 20
361.554112
 30
0.0
 40
9.5
  0
CIRCLE
  5
45C3
100
AcDbEntity
  8
0
100
AcDbCircle
 10
1589.460283
 20
324.431006
 30
0.0
 40
70.0
  0
LINE
  5
45C4
100
AcDbEntity
  8
0
100
AcDbLine
 10
1228.173039
 20
352.627122
 30
0.0
 11
1239.15362
 21
350.431006
 31
0.0
  0
LINE
  5
45C5
100
AcDbEntity
  8
0
100
AcDbLine
 10
1228.173039
 20
296.23489
 30
0.0
 11
1239.15362
 21
298.431006
 31
0.0
  0
ARC
  5
45C6
100
AcDbEntity
  8
0
100
AcDbCircle
 10
545.332784
 20
299.431006
 30
0.0
 40
5.0
100
AcDbArc
 50
270.0
 51
349.37884
  0
LINE
  5
45C7
100
AcDbEntity
  8
0
100
AcDbLine
 10
528.17859
 20
289.431006
 30
0.0
 11
535.910641
 21
293.895108
 31
0.0
  0
LINE
  5
45C8
100
AcDbEntity
  8
0
100
AcDbLine
 10
508.27859
 20
290.033075
 30
0.0
 11
508.27859
 21
300.139075
 31
0.0
  0
LINE
  5
45C9
100
AcDbEntity
  8
0
100
AcDbLine
 10
507.33159
 20
301.086075
 30
0.0
 11
507.33159
 21
289.086075
 31
0.0
  0
LINE
  5
45CA
100
AcDbEntity
  8
0
100
AcDbLine
 10
528.17859
 20
292.631006
 30
0.0
 11
528.17859
 21
305.431006
 31
0.0
  0
LINE
  5
45CB
100
AcDbEntity
  8
0
100
AcDbLine
 10
585.77859
 20
256.931006
 30
0.0
 11
585.77859
 21
324.431006
 31
0.0
  0
LINE
  5
45CC
100
AcDbEntity
  8
0
100
AcDbLine
 10
511.294541
 20
287.21986
 30
0.0
 11
524.173017
 21
287.21986
 31
0.0
  0
LINE
  5
45CD
100
AcDbEntity
  8
0
100
AcDbLine
 10
510.27859
 20
281.431006
 30
0.0
 11
521.27859
 21
281.431006
 31
0.0
  0
ARC
  5
45CE
100
AcDbEntity
  8
0
100
AcDbCircle
 10
511.403786
 20
285.468824
 30
0.0
 40
1.754441
100
AcDbArc
 50
93.569979
 51
138.087886
  0
ARC
  5
45CF
100
AcDbEntity
  8
0
100
AcDbCircle
 10
527.750726
 20
285.431006
 30
0.0
 40
4.0
100
AcDbArc
 50
90.0
 51
153.434949
  0
LINE
  5
45D0
100
AcDbEntity
  8
0
100
AcDbLine
 10
527.750726
 20
289.431006
 30
0.0
 11
528.17859
 21
289.431006
 31
0.0
  0
LINE
  5
45D1
100
AcDbEntity
  8
0
100
AcDbLine
 10
524.173017
 20
287.21986
 30
0.0
 11
521.27859
 21
281.431006
 31
0.0
  0
ARC
  5
45D2
100
AcDbEntity
  8
0
100
AcDbCircle
 10
508.820314
 20
289.296047
 30
0.0
 40
1.018466
100
AcDbArc
 50
100.862708
 51
122.134047
  0
LINE
  5
45D3
100
AcDbEntity
  8
0
100
AcDbLine
 10
507.33159
 20
289.086075
 30
0.0
 11
508.27859
 21
290.033075
 31
0.0
  0
ARC
  5
45D4
100
AcDbEntity
  8
0
100
AcDbCircle
 10
515.139983
 20
268.824816
 30
0.0
 40
22.437113
100
AcDbArc
 50
65.472163
 51
106.870877
  0
LINE
  5
45D5
100
AcDbEntity
  8
0
100
AcDbLine
 10
510.27859
 20
281.431006
 30
0.0
 11
508.794674
 21
284.398839
 31
0.0
  0
LINE
  5
45D6
100
AcDbEntity
  8
0
100
AcDbLine
 10
585.77859
 20
256.931006
 30
0.0
 11
569.77859
 21
256.931006
 31
0.0
  0
LINE
  5
45D7
100
AcDbEntity
  8
0
100
AcDbLine
 10
566.383787
 20
348.911393
 30
0.0
 11
554.783787
 21
347.135883
 31
0.0
  0
LINE
  5
45D8
100
AcDbEntity
  8
0
100
AcDbLine
 10
566.383787
 20
299.950619
 30
0.0
 11
554.783787
 21
301.726129
 31
0.0
  0
ARC
  5
45D9
100
AcDbEntity
  8
0
100
AcDbCircle
 10
544.77859
 20
358.431006
 30
0.0
 40
4.0
100
AcDbArc
 50
180.0
 51
270.0
  0
LINE
  5
45DA
100
AcDbEntity
  8
0
100
AcDbLine
 10
544.77859
 20
354.431006
 30
0.0
 11
545.332784
 21
354.431006
 31
0.0
  0
ARC
  5
45DB
100
AcDbEntity
  8
0
100
AcDbCircle
 10
545.332784
 20
349.431006
 30
0.0
 40
5.0
100
AcDbArc
 50
10.62116
 51
90.0
  0
LINE
  5
45DC
100
AcDbEntity
  8
0
100
AcDbLine
 10
533.17859
 20
338.431006
 30
0.0
 11
545.247121
 21
338.431006
 31
0.0
  0
LINE
  5
45DD
100
AcDbEntity
  8
0
100
AcDbLine
 10
533.17859
 20
310.431006
 30
0.0
 11
545.247121
 21
310.431006
 31
0.0
  0
ARC
  5
45DE
100
AcDbEntity
  8
0
100
AcDbCircle
 10
541.875365
 20
343.431006
 30
0.0
 40
5.0
100
AcDbArc
 50
180.0
 51
270.0
  0
ARC
  5
45DF
100
AcDbEntity
  8
0
100
AcDbCircle
 10
545.247121
 20
333.431006
 30
0.0
 40
5.0
100
AcDbArc
 50
0.0
 51
90.0
  0
ARC
  5
45E0
100
AcDbEntity
  8
0
100
AcDbCircle
 10
541.875365
 20
305.431006
 30
0.0
 40
5.0
100
AcDbArc
 50
90.0
 51
180.0
  0
ARC
  5
45E1
100
AcDbEntity
  8
0
100
AcDbCircle
 10
545.247121
 20
315.431006
 30
0.0
 40
5.0
100
AcDbArc
 50
270.0
 51
0.0
  0
ARC
  5
45E2
100
AcDbEntity
  8
0
100
AcDbCircle
 10
533.17859
 20
343.431006
 30
0.0
 40
5.0
100
AcDbArc
 50
180.0
 51
270.0
  0
ARC
  5
45E3
100
AcDbEntity
  8
0
100
AcDbCircle
 10
533.17859
 20
305.431006
 30
0.0
 40
5.0
100
AcDbArc
 50
90.0
 51
180.0
  0
LINE
  5
45E4
100
AcDbEntity
  8
0
100
AcDbLine
 10
536.875365
 20
352.340043
 30
0.0
 11
536.875365
 21
343.431006
 31
0.0
  0
LINE
  5
45E5
100
AcDbEntity
  8
0
100
AcDbLine
 10
528.17859
 20
349.668163
 30
0.0
 11
528.17859
 21
343.431006
 31
0.0
  0
LINE
  5
45E6
100
AcDbEntity
  8
0
100
AcDbLine
 10
508.27859
 20
358.828938
 30
0.0
 11
508.27859
 21
348.722938
 31
0.0
  0
LINE
  5
45E7
100
AcDbEntity
  8
0
100
AcDbLine
 10
508.27859
 20
348.722938
 30
0.0
 11
507.33159
 21
347.775938
 31
0.0
  0
ARC
  5
45E8
100
AcDbEntity
  8
0
100
AcDbCircle
 10
517.835064
 20
400.388487
 30
0.0
 40
50.865662
100
AcDbArc
 50
259.171102
 51
298.300369
  0
ARC
  5
45E9
100
AcDbEntity
  8
0
100
AcDbCircle
 10
554.17859
 20
351.089835
 30
0.0
 40
4.0
100
AcDbArc
 50
190.62116
 51
278.702224
  0
LINE
  5
45EA
100
AcDbEntity
  8
0
100
AcDbLine
 10
537.910641
 20
294.431006
 30
0.0
 11
545.332784
 21
294.431006
 31
0.0
  0
ARC
  5
45EB
100
AcDbEntity
  8
0
100
AcDbCircle
 10
537.910641
 20
290.431006
 30
0.0
 40
4.0
100
AcDbArc
 50
90.0
 51
120.0
  0
LINE
  5
45EC
100
AcDbEntity
  8
0
100
AcDbLine
 10
508.27859
 20
300.139075
 30
0.0
 11
507.33159
 21
301.086075
 31
0.0
  0
ARC
  5
45ED
100
AcDbEntity
  8
0
100
AcDbCircle
 10
554.17859
 20
297.772177
 30
0.0
 40
4.0
100
AcDbArc
 50
81.297776
 51
169.37884
  0
LINE
  5
45EE
100
AcDbEntity
  8
0
100
AcDbLine
 10
536.875365
 20
296.521969
 30
0.0
 11
536.875365
 21
305.431006
 31
0.0
  0
LINE
  5
45EF
100
AcDbEntity
  8
0
100
AcDbLine
 10
550.247121
 20
298.509434
 30
0.0
 11
550.247121
 21
350.352578
 31
0.0
  0
ARC
  5
45F0
100
AcDbEntity
  8
0
100
AcDbCircle
 10
565.77859
 20
352.865345
 30
0.0
 40
4.0
100
AcDbArc
 50
278.702224
 51
0.0
  0
ARC
  5
45F1
100
AcDbEntity
  8
0
100
AcDbCircle
 10
565.77859
 20
295.996667
 30
0.0
 40
4.0
100
AcDbArc
 50
0.0
 51
81.297776
  0
CIRCLE
  5
45F2
100
AcDbEntity
  8
0
100
AcDbCircle
 10
749.527451
 20
289.075667
 30
0.0
 40
9.5
  0
CIRCLE
  5
45F3
100
AcDbEntity
  8
0
100
AcDbCircle
 10
820.238129
 20
289.075667
 30
0.0
 40
9.5
  0
CIRCLE
  5
45F4
100
AcDbEntity
  8
0
100
AcDbCircle
 10
1021.461986
 20
287.3079
 30
0.0
 40
9.5
  0
CIRCLE
  5
45F5
100
AcDbEntity
  8
0
100
AcDbCircle
 10
1095.708198
 20
287.3079
 30
0.0
 40
9.5
  0
ARC
  5
45F6
100
AcDbEntity
  8
0
100
AcDbCircle
 10
1229.15362
 20
291.331987
 30
0.0
 40
5.0
100
AcDbArc
 50
101.309932
 51
180.0
  0
LINE
  5
45F7
100
AcDbEntity
  8
0
100
AcDbLine
 10
1208.15362
 20
254.431006
 30
0.0
 11
1208.15362
 21
324.431006
 31
0.0
  0
LINE
  5
45F8
100
AcDbEntity
  8
0
100
AcDbLine
 10
1208.15362
 20
254.431006
 30
0.0
 11
1224.15362
 21
254.431006
 31
0.0
  0
ARC
  5
45F9
100
AcDbEntity
  8
0
100
AcDbCircle
 10
1229.15362
 20
357.530026
 30
0.0
 40
5.0
100
AcDbArc
 50
180.0
 51
258.690068
  0
TEXT
  5
45FA
100
AcDbEntity
  8
0
100
AcDbText
 10
1301.145099
 20
202.428777
 30
0.0
 40
20.0
  1
40A
 41
0.8
 72
     4
 11
1322.478432
 21
212.428777
 31
0.0
100
AcDbText
  0
TEXT
  5
45FB
100
AcDbEntity
  8
0
100
AcDbText
 10
1074.811988
 20
112.866676
 30
0.0
 40
35.0
  1
TLV  BBF1N (JIS10K)
100
AcDbText
  0
ARC
  5
45FC
100
AcDbEntity
  8
0
100
AcDbCircle
 10
1314.856908
 20
420.160555
 30
0.0
 40
65.5423
100
AcDbArc
 50
259.269509
 51
290.514229
  0
ARC
  5
45FD
100
AcDbEntity
  8
0
100
AcDbCircle
 10
1333.877899
 20
345.431006
 30
0.0
 40
5.0
100
AcDbArc
 50
180.0
 51
270.0
  0
LINE
  5
45FE
100
AcDbEntity
  8
0
100
AcDbLine
 10
1329.413874
 20
286.100879
 30
0.0
 11
1336.619645
 21
290.261133
 31
0.0
  0
ARC
  5
45FF
100
AcDbEntity
  8
0
100
AcDbCircle
 10
1333.877899
 20
303.431006
 30
0.0
 40
5.0
100
AcDbArc
 50
90.0
 51
180.0
  0
LINE
  5
4600
100
AcDbEntity
  8
0
100
AcDbLine
 10
1328.877899
 20
289.352519
 30
0.0
 11
1328.877899
 21
303.431006
 31
0.0
  0
LINE
  5
4601
100
AcDbEntity
  8
0
100
AcDbLine
 10
1301.57062
 20
297.075667
 30
0.0
 11
1301.57062
 21
281.075667
 31
0.0
  0
LINE
  5
4602
100
AcDbEntity
  8
0
100
AcDbLine
 10
1302.65362
 20
282.158667
 30
0.0
 11
1302.65362
 21
295.992667
 31
0.0
  0
LINE
  5
4603
100
AcDbEntity
  8
0
100
AcDbLine
 10
1257.65362
 20
277.428667
 30
0.0
 11
1257.65362
 21
300.722667
 31
0.0
  0
ARC
  5
4604
100
AcDbEntity
  8
0
100
AcDbCircle
 10
1282.589044
 20
289.075167
 30
0.0
 40
24.653145
100
AcDbArc
 50
163.680185
 51
196.319815
  0
LINE
  5
4605
100
AcDbEntity
  8
0
100
AcDbLine
 10
1269.15362
 20
271.931006
 30
0.0
 11
1281.65362
 21
271.931006
 31
0.0
  0
ARC
  5
4606
100
AcDbEntity
  8
0
100
AcDbCircle
 10
1269.15362
 20
273.431006
 30
0.0
 40
1.5
100
AcDbArc
 50
180.0
 51
270.0
  0
LINE
  5
4607
100
AcDbEntity
  8
0
100
AcDbLine
 10
1258.92922
 20
275.219667
 30
0.0
 11
1257.65362
 21
277.428667
 31
0.0
  0
ARC
  5
4608
100
AcDbEntity
  8
0
100
AcDbCircle
 10
1264.473496
 20
278.683167
 30
0.0
 40
6.537718
100
AcDbArc
 50
147.999617
 51
212.000383
  0
LINE
  5
4609
100
AcDbEntity
  8
0
100
AcDbLine
 10
1267.65362
 20
275.219667
 30
0.0
 11
1258.92922
 21
275.219667
 31
0.0
  0
LINE
  5
460A
100
AcDbEntity
  8
0
100
AcDbLine
 10
1258.92922
 20
282.147667
 30
0.0
 11
1267.65362
 21
282.147667
 31
0.0
  0
LINE
  5
460B
100
AcDbEntity
  8
0
100
AcDbLine
 10
1322.15362
 20
273.431006
 30
0.0
 11
1326.15362
 21
282.431006
 31
0.0
  0
LINE
  5
460C
100
AcDbEntity
  8
0
100
AcDbLine
 10
1322.15362
 20
273.431006
 30
0.0
 11
1310.15362
 21
273.431006
 31
0.0
  0
ARC
  5
460D
100
AcDbEntity
  8
0
100
AcDbCircle
 10
1329.15362
 20
282.750932
 30
0.0
 40
3.0
100
AcDbArc
 50
106.258309
 51
180.0
  0
LINE
  5
460E
100
AcDbEntity
  8
0
100
AcDbLine
 10
1326.15362
 20
282.431006
 30
0.0
 11
1326.15362
 21
282.750932
 31
0.0
  0
ARC
  5
460F
100
AcDbEntity
  8
0
100
AcDbCircle
 10
1326.913874
 20
290.431006
 30
0.0
 40
5.0
100
AcDbArc
 50
286.258309
 51
300.0
  0
LINE
  5
4610
100
AcDbEntity
  8
0
100
AcDbLine
 10
1295.65362
 20
281.075667
 30
0.0
 11
1301.57062
 21
281.075667
 31
0.0
  0
ARC
  5
4611
100
AcDbEntity
  8
0
100
AcDbCircle
 10
1293.65362
 20
273.931006
 30
0.0
 40
2.0
100
AcDbArc
 50
270.0
 51
0.0
  0
LINE
  5
4612
100
AcDbEntity
  8
0
100
AcDbLine
 10
1301.57062
 20
281.075667
 30
0.0
 11
1302.65362
 21
282.158667
 31
0.0
  0
LINE
  5
4613
100
AcDbEntity
  8
0
100
AcDbLine
 10
1303.15362
 20
285.431006
 30
0.0
 11
1302.65362
 21
285.431006
 31
0.0
  0
ARC
  5
4614
100
AcDbEntity
  8
0
100
AcDbCircle
 10
1303.15362
 20
282.431006
 30
0.0
 40
3.0
100
AcDbArc
 50
0.0
 51
90.0
  0
LINE
  5
4615
100
AcDbEntity
  8
0
100
AcDbLine
 10
1306.15362
 20
282.431006
 30
0.0
 11
1326.15362
 21
282.431006
 31
0.0
  0
ARC
  5
4616
100
AcDbEntity
  8
0
100
AcDbCircle
 10
1315.716965
 20
267.400718
 30
0.0
 40
20.780944
100
AcDbArc
 50
60.92649
 51
116.665503
  0
LINE
  5
4617
100
AcDbEntity
  8
0
100
AcDbLine
 10
1310.15362
 20
273.431006
 30
0.0
 11
1306.15362
 21
282.431006
 31
0.0
  0
LINE
  5
4618
100
AcDbEntity
  8
0
100
AcDbLine
 10
1293.65362
 20
271.931006
 30
0.0
 11
1281.65362
 21
271.931006
 31
0.0
  0
LINE
  5
4619
100
AcDbEntity
  8
0
100
AcDbLine
 10
1257.65362
 20
351.431006
 30
0.0
 11
1252.65362
 21
350.431006
 31
0.0
  0
LINE
  5
461A
100
AcDbEntity
  8
0
100
AcDbLine
 10
1258.92922
 20
352.859345
 30
0.0
 11
1267.65362
 21
352.859345
 31
0.0
  0
LINE
  5
461B
100
AcDbEntity
  8
0
100
AcDbLine
 10
1258.92922
 20
345.930345
 30
0.0
 11
1267.65362
 21
345.930345
 31
0.0
  0
LINE
  5
461C
100
AcDbEntity
  8
0
100
AcDbLine
 10
1257.65362
 20
348.139345
 30
0.0
 11
1258.92922
 21
345.930345
 31
0.0
  0
ARC
  5
461D
100
AcDbEntity
  8
0
100
AcDbCircle
 10
1264.473473
 20
349.394845
 30
0.0
 40
6.537699
100
AcDbArc
 50
147.999511
 51
212.000489
  0
LINE
  5
461E
100
AcDbEntity
  8
0
100
AcDbLine
 10
1239.15362
 20
350.431006
 30
0.0
 11
1252.65362
 21
350.431006
 31
0.0
  0
LINE
  5
461F
100
AcDbEntity
  8
0
100
AcDbLine
 10
1257.65362
 20
297.431006
 30
0.0
 11
1252.65362
 21
298.431006
 31
0.0
  0
ARC
  5
4620
100
AcDbEntity
  8
0
100
AcDbCircle
 10
1264.473473
 20
299.467167
 30
0.0
 40
6.537699
100
AcDbArc
 50
147.999511
 51
212.000489
  0
LINE
  5
4621
100
AcDbEntity
  8
0
100
AcDbLine
 10
1257.65362
 20
300.722667
 30
0.0
 11
1258.92922
 21
302.931667
 31
0.0
  0
LINE
  5
4622
100
AcDbEntity
  8
0
100
AcDbLine
 10
1258.92922
 20
296.002667
 30
0.0
 11
1267.65362
 21
296.002667
 31
0.0
  0
LINE
  5
4623
100
AcDbEntity
  8
0
100
AcDbLine
 10
1258.92922
 20
302.931667
 30
0.0
 11
1267.65362
 21
302.931667
 31
0.0
  0
LINE
  5
4624
100
AcDbEntity
  8
0
100
AcDbLine
 10
1239.15362
 20
298.431006
 30
0.0
 11
1252.65362
 21
298.431006
 31
0.0
  0
LINE
  5
4625
100
AcDbEntity
  8
0
100
AcDbLine
 10
1301.57062
 20
351.786345
 30
0.0
 11
1295.65362
 21
351.786345
 31
0.0
  0
LINE
  5
4626
100
AcDbEntity
  8
0
100
AcDbLine
 10
1302.65362
 20
352.869345
 30
0.0
 11
1301.57062
 21
351.786345
 31
0.0
  0
LINE
  5
4627
100
AcDbEntity
  8
0
100
AcDbLine
 10
1328.877899
 20
345.431006
 30
0.0
 11
1328.877899
 21
353.690287
 31
0.0
  0
LINE
  5
4628
100
AcDbEntity
  8
0
100
AcDbLine
 10
1301.57062
 20
297.075667
 30
0.0
 11
1295.65362
 21
297.075667
 31
0.0
  0
LINE
  5
4629
100
AcDbEntity
  8
0
100
AcDbLine
 10
1302.65362
 20
295.992667
 30
0.0
 11
1301.57062
 21
297.075667
 31
0.0
  0
ARC
  5
462A
100
AcDbEntity
  8
0
100
AcDbCircle
 10
1377.15362
 20
291.331987
 30
0.0
 40
5.0
100
AcDbArc
 50
0.0
 51
78.690068
  0
LINE
  5
462B
100
AcDbEntity
  8
0
100
AcDbLine
 10
1337.82555
 20
293.294709
 30
0.0
 11
1337.82555
 21
303.431006
 31
0.0
  0
ARC
  5
462C
100
AcDbEntity
  8
0
100
AcDbCircle
 10
1351.25362
 20
295.931006
 30
0.0
 40
5.0
100
AcDbArc
 50
270.0
 51
345.522488
  0
LINE
  5
462D
100
AcDbEntity
  8
0
100
AcDbLine
 10
1398.15362
 20
254.431006
 30
0.0
 11
1398.15362
 21
324.431006
 31
0.0
  0
LINE
  5
462E
100
AcDbEntity
  8
0
100
AcDbLine
 10
1398.15362
 20
254.431006
 30
0.0
 11
1382.15362
 21
254.431006
 31
0.0
  0
LINE
  5
462F
100
AcDbEntity
  8
0
100
AcDbLine
 10
1351.25362
 20
290.931006
 30
0.0
 11
1339.119645
 21
290.931006
 31
0.0
  0
ARC
  5
4630
100
AcDbEntity
  8
0
100
AcDbCircle
 10
1339.119645
 20
285.931006
 30
0.0
 40
5.0
100
AcDbArc
 50
90.0
 51
120.0
  0
ARC
  5
4631
100
AcDbEntity
  8
0
100
AcDbCircle
 10
1377.15362
 20
357.530026
 30
0.0
 40
5.0
100
AcDbArc
 50
281.309932
 51
0.0
  0
LINE
  5
4632
100
AcDbEntity
  8
0
100
AcDbLine
 10
1367.15362
 20
350.431006
 30
0.0
 11
1360.936078
 21
350.431006
 31
0.0
  0
ARC
  5
4633
100
AcDbEntity
  8
0
100
AcDbCircle
 10
1360.936078
 20
355.431006
 30
0.0
 40
5.0
100
AcDbArc
 50
194.477512
 51
270.0
  0
LINE
  5
4634
100
AcDbEntity
  8
0
100
AcDbLine
 10
1351.25362
 20
357.931006
 30
0.0
 11
1347.65362
 21
357.931006
 31
0.0
  0
ARC
  5
4635
100
AcDbEntity
  8
0
100
AcDbCircle
 10
1351.25362
 20
352.931006
 30
0.0
 40
5.0
100
AcDbArc
 50
14.477512
 51
90.0
  0
LINE
  5
4636
100
AcDbEntity
  8
0
100
AcDbLine
 10
1351.25362
 20
308.431006
 30
0.0
 11
1333.877899
 21
308.431006
 31
0.0
  0
LINE
  5
4637
100
AcDbEntity
  8
0
100
AcDbLine
 10
1351.25362
 20
340.431006
 30
0.0
 11
1333.877899
 21
340.431006
 31
0.0
  0
ARC
  5
4638
100
AcDbEntity
  8
0
100
AcDbCircle
 10
1342.82555
 20
345.431006
 30
0.0
 40
5.0
100
AcDbArc
 50
180.0
 51
270.0
  0
ARC
  5
4639
100
AcDbEntity
  8
0
100
AcDbCircle
 10
1351.25362
 20
313.431006
 30
0.0
 40
5.0
100
AcDbArc
 50
270.0
 51
0.0
  0
ARC
  5
463A
100
AcDbEntity
  8
0
100
AcDbCircle
 10
1351.25362
 20
335.431006
 30
0.0
 40
5.0
100
AcDbArc
 50
0.0
 51
90.0
  0
LINE
  5
463B
100
AcDbEntity
  8
0
100
AcDbLine
 10
1337.82555
 20
353.690287
 30
0.0
 11
1337.82555
 21
345.431006
 31
0.0
  0
LINE
  5
463C
100
AcDbEntity
  8
0
100
AcDbLine
 10
1378.1342
 20
352.627122
 30
0.0
 11
1367.15362
 21
350.431006
 31
0.0
  0
LINE
  5
463D
100
AcDbEntity
  8
0
100
AcDbLine
 10
1367.15362
 20
298.431006
 30
0.0
 11
1360.936078
 21
298.431006
 31
0.0
  0
ARC
  5
463E
100
AcDbEntity
  8
0
100
AcDbCircle
 10
1360.936078
 20
293.431006
 30
0.0
 40
5.0
100
AcDbArc
 50
90.0
 51
165.522488
  0
LINE
  5
463F
100
AcDbEntity
  8
0
100
AcDbLine
 10
1378.1342
 20
296.23489
 30
0.0
 11
1367.15362
 21
298.431006
 31
0.0
  0
LINE
  5
4640
100
AcDbEntity
  8
0
100
AcDbLine
 10
1356.25362
 20
295.184455
 30
0.0
 11
1356.25362
 21
353.677557
 31
0.0
  0
ARC
  5
4641
100
AcDbEntity
  8
0
100
AcDbCircle
 10
1342.82555
 20
303.431006
 30
0.0
 40
5.0
100
AcDbArc
 50
90.0
 51
180.0
  0
CIRCLE
  5
4642
100
AcDbEntity
  8
0
100
AcDbCircle
 10
1552.337177
 20
287.3079
 30
0.0
 40
9.5
  0
CIRCLE
  5
4643
100
AcDbEntity
  8
0
100
AcDbCircle
 10
1626.583389
 20
287.3079
 30
0.0
 40
9.5
  0
CIRCLE
  5
4644
100
AcDbEntity
  8
0
100
AcDbCircle
 10
1935.803434
 20
281.978209
 30
0.0
 40
9.5
  0
CIRCLE
  5
4645
100
AcDbEntity
  8
0
100
AcDbCircle
 10
1851.003434
 20
281.978209
 30
0.0
 40
9.5
  0
TEXT
  5
4646
100
AcDbEntity
  8
0
100
AcDbText
 10
2135.96344
 20
202.428777
 30
0.0
 40
20.0
  1
50A
 41
0.8
 72
     4
 11
2157.296773
 21
212.428777
 31
0.0
100
AcDbText
  0
LINE
  5
4647
100
AcDbEntity
  8
0
100
AcDbLine
 10
2252.971961
 20
246.931006
 30
0.0
 11
2236.971961
 21
246.931006
 31
0.0
  0
LINE
  5
4649
100
AcDbEntity
  8
0
100
AcDbLine
 10
2139.888961
 20
358.647873
 30
0.0
 11
2137.971961
 21
358.647873
 31
0.0
  0
LINE
  5
464A
100
AcDbEntity
  8
0
100
AcDbLine
 10
2137.971961
 20
274.214139
 30
0.0
 11
2139.888961
 21
274.214139
 31
0.0
  0
LINE
  5
464B
100
AcDbEntity
  8
0
100
AcDbLine
 10
2139.888961
 20
290.214139
 30
0.0
 11
2137.971961
 21
290.214139
 31
0.0
  0
ARC
  5
464C
100
AcDbEntity
  8
0
100
AcDbCircle
 10
2102.791814
 20
292.605639
 30
0.0
 40
6.537699
100
AcDbArc
 50
147.999511
 51
212.000489
  0
LINE
  5
464D
100
AcDbEntity
  8
0
100
AcDbLine
 10
2095.971961
 20
270.567139
 30
0.0
 11
2095.971961
 21
293.861139
 31
0.0
  0
LINE
  5
464E
100
AcDbEntity
  8
0
100
AcDbLine
 10
2042.971961
 20
246.931006
 30
0.0
 11
2042.971961
 21
324.431006
 31
0.0
  0
LINE
  5
464F
100
AcDbEntity
  8
0
100
AcDbLine
 10
2121.971961
 20
266.431006
 30
0.0
 11
2121.971961
 21
324.431006
 31
0.0
  0
LINE
  5
4650
100
AcDbEntity
  8
0
100
AcDbLine
 10
2073.971961
 20
293.431006
 30
0.0
 11
2090.971961
 21
293.431006
 31
0.0
  0
ARC
  5
4651
100
AcDbEntity
  8
0
100
AcDbCircle
 10
2063.971961
 20
286.331987
 30
0.0
 40
5.0
100
AcDbArc
 50
101.309932
 51
180.0
  0
LINE
  5
4652
100
AcDbEntity
  8
0
100
AcDbLine
 10
2042.971961
 20
246.931006
 30
0.0
 11
2058.971961
 21
246.931006
 31
0.0
  0
LINE
  5
4653
100
AcDbEntity
  8
0
100
AcDbLine
 10
2062.99138
 20
291.23489
 30
0.0
 11
2073.971961
 21
293.431006
 31
0.0
  0
ARC
  5
4654
100
AcDbEntity
  8
0
100
AcDbCircle
 10
2135.971961
 20
268.431006
 30
0.0
 40
2.0
100
AcDbArc
 50
270.0
 51
0.0
  0
LINE
  5
4655
100
AcDbEntity
  8
0
100
AcDbLine
 10
2135.971961
 20
266.431006
 30
0.0
 11
2121.971961
 21
266.431006
 31
0.0
  0
ARC
  5
4656
100
AcDbEntity
  8
0
100
AcDbCircle
 10
2120.907385
 20
282.213639
 30
0.0
 40
24.653145
100
AcDbArc
 50
163.680185
 51
196.319815
  0
ARC
  5
4657
100
AcDbEntity
  8
0
100
AcDbCircle
 10
2102.791837
 20
271.821639
 30
0.0
 40
6.537718
100
AcDbArc
 50
147.999617
 51
212.000383
  0
ARC
  5
4658
100
AcDbEntity
  8
0
100
AcDbCircle
 10
2107.471961
 20
267.931006
 30
0.0
 40
1.5
100
AcDbArc
 50
180.0
 51
270.0
  0
LINE
  5
4659
100
AcDbEntity
  8
0
100
AcDbLine
 10
2097.247561
 20
289.141139
 30
0.0
 11
2105.971961
 21
289.141139
 31
0.0
  0
LINE
  5
465A
100
AcDbEntity
  8
0
100
AcDbLine
 10
2105.971961
 20
268.358139
 30
0.0
 11
2097.247561
 21
268.358139
 31
0.0
  0
LINE
  5
465B
100
AcDbEntity
  8
0
100
AcDbLine
 10
2097.247561
 20
275.286139
 30
0.0
 11
2105.971961
 21
275.286139
 31
0.0
  0
LINE
  5
465C
100
AcDbEntity
  8
0
100
AcDbLine
 10
2095.971961
 20
292.431006
 30
0.0
 11
2090.971961
 21
293.431006
 31
0.0
  0
LINE
  5
465D
100
AcDbEntity
  8
0
100
AcDbLine
 10
2097.247561
 20
268.358139
 30
0.0
 11
2095.971961
 21
270.567139
 31
0.0
  0
LINE
  5
465E
100
AcDbEntity
  8
0
100
AcDbLine
 10
2107.471961
 20
266.431006
 30
0.0
 11
2121.971961
 21
266.431006
 31
0.0
  0
LINE
  5
465F
100
AcDbEntity
  8
0
100
AcDbLine
 10
2073.971961
 20
355.431006
 30
0.0
 11
2090.971961
 21
355.431006
 31
0.0
  0
LINE
  5
4660
100
AcDbEntity
  8
0
100
AcDbLine
 10
2062.99138
 20
357.627122
 30
0.0
 11
2073.971961
 21
355.431006
 31
0.0
  0
LINE
  5
4661
100
AcDbEntity
  8
0
100
AcDbLine
 10
2097.247561
 20
352.791873
 30
0.0
 11
2105.971961
 21
352.791873
 31
0.0
  0
LINE
  5
4662
100
AcDbEntity
  8
0
100
AcDbLine
 10
2095.971961
 20
356.431006
 30
0.0
 11
2090.971961
 21
355.431006
 31
0.0
  0
LINE
  5
4663
100
AcDbEntity
  8
0
100
AcDbLine
 10
2095.971961
 20
355.000873
 30
0.0
 11
2097.247561
 21
352.791873
 31
0.0
  0
LINE
  5
4664
100
AcDbEntity
  8
0
100
AcDbLine
 10
2097.247561
 20
296.070139
 30
0.0
 11
2105.971961
 21
296.070139
 31
0.0
  0
LINE
  5
4665
100
AcDbEntity
  8
0
100
AcDbLine
 10
2095.971961
 20
293.861139
 30
0.0
 11
2097.247561
 21
296.070139
 31
0.0
  0
ARC
  5
4666
100
AcDbEntity
  8
0
100
AcDbCircle
 10
2214.071961
 20
289.431006
 30
0.0
 40
4.0
100
AcDbArc
 50
90.0
 51
170.405932
  0
LINE
  5
4667
100
AcDbEntity
  8
0
100
AcDbLine
 10
2191.729611
 20
287.782494
 30
0.0
 11
2191.729611
 21
300.431006
 31
0.0
  0
LINE
  5
4668
100
AcDbEntity
  8
0
100
AcDbLine
 10
2182.91431
 20
281.204518
 30
0.0
 11
2182.91431
 21
300.431006
 31
0.0
  0
LINE
  5
4669
100
AcDbEntity
  8
0
100
AcDbLine
 10
2210.071961
 20
289.816126
 30
0.0
 11
2210.071961
 21
359.045886
 31
0.0
  0
ARC
  5
466A
100
AcDbEntity
  8
0
100
AcDbCircle
 10
2193.643028
 20
280.931006
 30
0.0
 40
5.0
100
AcDbArc
 50
90.0
 51
135.0
  0
LINE
  5
466B
100
AcDbEntity
  8
0
100
AcDbLine
 10
2173.971961
 20
273.431006
 30
0.0
 11
2173.971961
 21
274.431006
 31
0.0
  0
ARC
  5
466C
100
AcDbEntity
  8
0
100
AcDbCircle
 10
2176.971961
 20
274.431006
 30
0.0
 40
3.0
100
AcDbArc
 50
90.0
 51
180.0
  0
ARC
  5
466D
100
AcDbEntity
  8
0
100
AcDbCircle
 10
2181.000893
 20
282.431006
 30
0.0
 40
5.0
100
AcDbArc
 50
270.0
 51
315.0
  0
LINE
  5
466E
100
AcDbEntity
  8
0
100
AcDbLine
 10
2176.971961
 20
277.431006
 30
0.0
 11
2181.000893
 21
277.431006
 31
0.0
  0
LINE
  5
466F
100
AcDbEntity
  8
0
100
AcDbLine
 10
2173.971961
 20
273.431006
 30
0.0
 11
2169.471961
 21
263.431006
 31
0.0
  0
LINE
  5
4670
100
AcDbEntity
  8
0
100
AcDbLine
 10
2184.536427
 20
278.895472
 30
0.0
 11
2190.107495
 21
284.46654
 31
0.0
  0
LINE
  5
4671
100
AcDbEntity
  8
0
100
AcDbLine
 10
2148.971961
 20
277.431006
 30
0.0
 11
2140.971961
 21
277.431006
 31
0.0
  0
LINE
  5
4672
100
AcDbEntity
  8
0
100
AcDbLine
 10
2140.971961
 20
275.297139
 30
0.0
 11
2140.971961
 21
289.131139
 31
0.0
  0
LINE
  5
4673
100
AcDbEntity
  8
0
100
AcDbLine
 10
2151.971961
 20
273.431006
 30
0.0
 11
2151.971961
 21
274.431006
 31
0.0
  0
ARC
  5
4674
100
AcDbEntity
  8
0
100
AcDbCircle
 10
2148.971961
 20
274.431006
 30
0.0
 40
3.0
100
AcDbArc
 50
0.0
 51
90.0
  0
LINE
  5
4675
100
AcDbEntity
  8
0
100
AcDbLine
 10
2156.471961
 20
263.431006
 30
0.0
 11
2151.971961
 21
273.431006
 31
0.0
  0
LINE
  5
4676
100
AcDbEntity
  8
0
100
AcDbLine
 10
2139.888961
 20
290.214139
 30
0.0
 11
2139.888961
 21
274.214139
 31
0.0
  0
LINE
  5
4677
100
AcDbEntity
  8
0
100
AcDbLine
 10
2139.888961
 20
274.214139
 30
0.0
 11
2140.971961
 21
275.297139
 31
0.0
  0
LINE
  5
4678
100
AcDbEntity
  8
0
100
AcDbLine
 10
2140.971961
 20
289.131139
 30
0.0
 11
2139.888961
 21
290.214139
 31
0.0
  0
LINE
  5
4679
100
AcDbEntity
  8
0
100
AcDbLine
 10
2169.471961
 20
263.431006
 30
0.0
 11
2156.471961
 21
263.431006
 31
0.0
  0
ARC
  5
467A
100
AcDbEntity
  8
0
100
AcDbCircle
 10
2162.971961
 20
249.53172
 30
0.0
 40
29.020606
100
AcDbArc
 50
72.348123
 51
107.651877
  0
LINE
  5
467B
100
AcDbEntity
  8
0
100
AcDbLine
 10
2173.971961
 20
273.431006
 30
0.0
 11
2151.971961
 21
273.431006
 31
0.0
  0
ARC
  5
467C
100
AcDbEntity
  8
0
100
AcDbCircle
 10
2231.971961
 20
286.331987
 30
0.0
 40
5.0
100
AcDbArc
 50
0.0
 51
78.690068
  0
LINE
  5
467D
100
AcDbEntity
  8
0
100
AcDbLine
 10
2221.971961
 20
293.431006
 30
0.0
 11
2214.071961
 21
293.431006
 31
0.0
  0
LINE
  5
467E
100
AcDbEntity
  8
0
100
AcDbLine
 10
2221.971961
 20
293.431006
 30
0.0
 11
2232.952541
 21
291.23489
 31
0.0
  0
LINE
  5
467F
100
AcDbEntity
  8
0
100
AcDbLine
 10
2205.197841
 20
285.931006
 30
0.0
 11
2193.643028
 21
285.931006
 31
0.0
  0
ARC
  5
4680
100
AcDbEntity
  8
0
100
AcDbCircle
 10
2205.197841
 20
290.931006
 30
0.0
 40
5.0
100
AcDbArc
 50
270.0
 51
350.405932
  0
LINE
  5
4681
100
AcDbEntity
  8
0
100
AcDbLine
 10
2207.071961
 20
343.431006
 30
0.0
 11
2187.91431
 21
343.431006
 31
0.0
  0
LINE
  5
4682
100
AcDbEntity
  8
0
100
AcDbLine
 10
2207.071961
 20
305.431006
 30
0.0
 11
2187.91431
 21
305.431006
 31
0.0
  0
ARC
  5
4683
100
AcDbEntity
  8
0
100
AcDbCircle
 10
2187.91431
 20
348.431006
 30
0.0
 40
5.0
100
AcDbArc
 50
180.0
 51
270.0
  0
ARC
  5
4684
100
AcDbEntity
  8
0
100
AcDbCircle
 10
2187.91431
 20
300.431006
 30
0.0
 40
5.0
100
AcDbArc
 50
90.0
 51
180.0
  0
LINE
  5
4685
100
AcDbEntity
  8
0
100
AcDbLine
 10
2221.971961
 20
355.431006
 30
0.0
 11
2214.071961
 21
355.431006
 31
0.0
  0
ARC
  5
4686
100
AcDbEntity
  8
0
100
AcDbCircle
 10
2214.071961
 20
359.431006
 30
0.0
 40
4.0
100
AcDbArc
 50
189.594068
 51
270.0
  0
LINE
  5
4687
100
AcDbEntity
  8
0
100
AcDbLine
 10
2221.971961
 20
355.431006
 30
0.0
 11
2232.952541
 21
357.627122
 31
0.0
  0
ARC
  5
4688
100
AcDbEntity
  8
0
100
AcDbCircle
 10
2196.729611
 20
348.431006
 30
0.0
 40
5.0
100
AcDbArc
 50
180.0
 51
270.0
  0
ARC
  5
4689
100
AcDbEntity
  8
0
100
AcDbCircle
 10
2207.071961
 20
308.431006
 30
0.0
 40
3.0
100
AcDbArc
 50
270.0
 51
0.0
  0
ARC
  5
468A
100
AcDbEntity
  8
0
100
AcDbCircle
 10
2207.071961
 20
340.431006
 30
0.0
 40
3.0
100
AcDbArc
 50
0.0
 51
90.0
  0
ARC
  5
468B
100
AcDbEntity
  8
0
100
AcDbCircle
 10
2196.729611
 20
300.431006
 30
0.0
 40
5.0
100
AcDbArc
 50
90.0
 51
180.0
  0
LINE
  5
468C
100
AcDbEntity
  8
0
100
AcDbLine
 10
2252.971961
 20
246.931006
 30
0.0
 11
2252.971961
 21
324.431006
 31
0.0
  0
CIRCLE
  5
468D
100
AcDbEntity
  8
0
100
AcDbCircle
 10
2419.367862
 20
281.978209
 30
0.0
 40
9.5
  0
CIRCLE
  5
468E
100
AcDbEntity
  8
0
100
AcDbCircle
 10
2504.167862
 20
281.978209
 30
0.0
 40
9.5
  0
LINE
  5
468F
100
AcDbEntity
  8
0
100
AcDbLine
 10
2070.971961
 20
981.332916
 30
0.0
 11
1916.361257
 21
986.22566
 31
0.0
  0
LINE
  5
4690
100
AcDbEntity
  8
0
100
AcDbLine
 10
2055.971961
 20
996.332916
 30
0.0
 11
1916.471961
 21
996.332916
 31
0.0
  0
LINE
  5
4691
100
AcDbEntity
  8
0
100
AcDbLine
 10
1228.173039
 20
643.742253
 30
0.0
 11
1239.15362
 21
641.546136
 31
0.0
  0
LINE
  5
4692
100
AcDbEntity
  8
0
100
AcDbLine
 10
1228.173039
 20
587.35002
 30
0.0
 11
1239.15362
 21
589.546136
 31
0.0
  0
LINE
  5
4693
100
AcDbEntity
  8
0
100
AcDbLine
 10
1249.906043
 20
975.332916
 30
0.0
 11
1227.906043
 21
975.332916
 31
0.0
  0
LINE
  5
4694
100
AcDbEntity
  8
0
100
AcDbLine
 10
1228.173039
 20
886.529032
 30
0.0
 11
1239.15362
 21
884.332916
 31
0.0
  0
LINE
  5
4695
100
AcDbEntity
  8
0
100
AcDbLine
 10
1228.173039
 20
830.1368
 30
0.0
 11
1239.15362
 21
832.332916
 31
0.0
  0
LINE
  5
4696
100
AcDbEntity
  8
0
100
AcDbLine
 10
1258.27494
 20
944.96402
 30
0.0
 11
1225.906043
 21
977.332916
 31
0.0
  0
LINE
  5
4697
100
AcDbEntity
  8
0
100
AcDbLine
 10
1235.906043
 20
967.332916
 30
0.0
 11
1105.860936
 21
969.288482
 31
0.0
  0
LINE
  5
4698
100
AcDbEntity
  8
0
100
AcDbLine
 10
1224.15362
 20
928.332916
 30
0.0
 11
1224.15362
 21
788.332916
 31
0.0
  0
LINE
  5
4699
100
AcDbEntity
  8
0
100
AcDbLine
 10
1208.15362
 20
858.332916
 30
0.0
 11
1208.15362
 21
928.332916
 31
0.0
  0
ARC
  5
469A
100
AcDbEntity
  8
0
100
AcDbCircle
 10
564.77859
 20
887.431936
 30
0.0
 40
5.0
100
AcDbArc
 50
281.309932
 51
0.0
  0
LINE
  5
469B
100
AcDbEntity
  8
0
100
AcDbLine
 10
536.27859
 20
896.898848
 30
0.0
 11
536.27859
 21
878.456848
 31
0.0
  0
ARC
  5
469C
100
AcDbEntity
  8
0
100
AcDbCircle
 10
516.538821
 20
887.677848
 30
0.0
 40
19.516109
100
AcDbArc
 50
343.680185
 51
16.319815
  0
LINE
  5
469D
100
AcDbEntity
  8
0
100
AcDbLine
 10
528.27859
 20
817.332916
 30
0.0
 11
528.27859
 21
899.332916
 31
0.0
  0
LINE
  5
469E
100
AcDbEntity
  8
0
100
AcDbLine
 10
514.27859
 20
815.832916
 30
0.0
 11
514.27859
 21
900.832916
 31
0.0
  0
LINE
  5
469F
100
AcDbEntity
  8
0
100
AcDbLine
 10
569.77859
 20
790.832916
 30
0.0
 11
569.77859
 21
925.832916
 31
0.0
  0
LINE
  5
46A0
100
AcDbEntity
  8
0
100
AcDbLine
 10
585.77859
 20
925.832916
 30
0.0
 11
585.77859
 21
858.332916
 31
0.0
  0
ARC
  5
46A1
100
AcDbEntity
  8
0
100
AcDbCircle
 10
692.533517
 20
620.022287
 30
0.0
 40
9.0
100
AcDbArc
 50
6.267726
 51
91.030389
  0
LINE
  5
46A2
100
AcDbEntity
  8
0
100
AcDbLine
 10
580.026166
 20
605.415635
 30
0.0
 11
580.026166
 21
625.676638
 31
0.0
  0
LINE
  5
46A3
100
AcDbEntity
  8
0
100
AcDbLine
 10
578.026166
 20
605.451606
 30
0.0
 11
578.026166
 21
625.640667
 31
0.0
  0
LINE
  5
46A4
100
AcDbEntity
  8
0
100
AcDbLine
 10
556.026166
 20
606.728186
 30
0.0
 11
556.026166
 21
624.364087
 31
0.0
  0
CIRCLE
  5
46A5
100
AcDbEntity
  8
0
100
AcDbCircle
 10
515.77859
 20
615.546136
 30
0.0
 40
6.75
  0
LINE
  5
46A6
100
AcDbEntity
  8
0
100
AcDbLine
 10
580.026166
 20
438.431006
 30
0.0
 11
700.026166
 21
438.431006
 31
0.0
  0
LINE
  5
46A7
100
AcDbEntity
  8
0
100
AcDbLine
 10
570.026166
 20
428.431006
 30
0.0
 11
700.071274
 21
430.386572
 31
0.0
  0
LINE
  5
46A8
100
AcDbEntity
  8
0
100
AcDbLine
 10
547.65727
 20
406.062109
 30
0.0
 11
580.026166
 21
438.431006
 31
0.0
  0
ARC
  5
46A9
100
AcDbEntity
  8
0
100
AcDbCircle
 10
549.77859
 20
403.940789
 30
0.0
 40
3.0
100
AcDbArc
 50
135.0
 51
180.0
  0
LINE
  5
46AA
100
AcDbEntity
  8
0
100
AcDbLine
 10
546.77859
 20
403.940789
 30
0.0
 11
546.77859
 21
373.431006
 31
0.0
  0
LINE
  5
46AB
100
AcDbEntity
  8
0
100
AcDbLine
 10
585.77859
 20
391.931006
 30
0.0
 11
569.77859
 21
391.931006
 31
0.0
  0
LINE
  5
46AC
100
AcDbEntity
  8
0
100
AcDbLine
 10
556.026166
 20
436.431006
 30
0.0
 11
578.026166
 21
436.431006
 31
0.0
  0
LINE
  5
46AD
100
AcDbEntity
  8
0
100
AcDbLine
 10
703.026166
 20
433.386232
 30
0.0
 11
703.026166
 21
435.431006
 31
0.0
  0
ARC
  5
46AE
100
AcDbEntity
  8
0
100
AcDbCircle
 10
700.026166
 20
435.431006
 30
0.0
 40
3.0
100
AcDbArc
 50
0.0
 51
90.0
  0
ARC
  5
46AF
100
AcDbEntity
  8
0
100
AcDbCircle
 10
700.026166
 20
433.386232
 30
0.0
 40
3.0
100
AcDbArc
 50
270.861526
 51
0.0
  0
LINE
  5
46B0
100
AcDbEntity
  8
0
100
AcDbLine
 10
554.77859
 20
604.546136
 30
0.0
 11
692.371673
 21
602.071441
 31
0.0
  0
LINE
  5
46B1
100
AcDbEntity
  8
0
100
AcDbLine
 10
585.77859
 20
548.046136
 30
0.0
 11
585.77859
 21
603.988582
 31
0.0
  0
LINE
  5
46B2
100
AcDbEntity
  8
0
100
AcDbLine
 10
569.77859
 20
548.046136
 30
0.0
 11
569.77859
 21
604.276352
 31
0.0
  0
LINE
  5
46B3
100
AcDbEntity
  8
0
100
AcDbLine
 10
585.77859
 20
548.046136
 30
0.0
 11
569.77859
 21
548.046136
 31
0.0
  0
LINE
  5
46B4
100
AcDbEntity
  8
0
100
AcDbLine
 10
566.383787
 20
591.065749
 30
0.0
 11
554.783787
 21
592.841259
 31
0.0
  0
LINE
  5
46B5
100
AcDbEntity
  8
0
100
AcDbLine
 10
540.875365
 20
590.546136
 30
0.0
 11
546.247121
 21
590.546136
 31
0.0
  0
ARC
  5
46B6
100
AcDbEntity
  8
0
100
AcDbCircle
 10
546.247121
 20
594.546136
 30
0.0
 40
4.0
100
AcDbArc
 50
270.0
 51
0.0
  0
ARC
  5
46B7
100
AcDbEntity
  8
0
100
AcDbCircle
 10
540.875365
 20
594.546136
 30
0.0
 40
4.0
100
AcDbArc
 50
201.346248
 51
270.0
  0
LINE
  5
46B8
100
AcDbEntity
  8
0
100
AcDbLine
 10
550.247121
 20
587.546136
 30
0.0
 11
550.247121
 21
604.11112
 31
0.0
  0
ARC
  5
46B9
100
AcDbEntity
  8
0
100
AcDbCircle
 10
554.17859
 20
588.887307
 30
0.0
 40
4.0
100
AcDbArc
 50
81.297776
 51
169.37884
  0
LINE
  5
46BA
100
AcDbEntity
  8
0
100
AcDbLine
 10
544.361802
 20
603.546136
 30
0.0
 11
554.77859
 21
604.546136
 31
0.0
  0
LINE
  5
46BB
100
AcDbEntity
  8
0
100
AcDbLine
 10
507.33159
 20
580.201205
 30
0.0
 11
508.27859
 21
581.148205
 31
0.0
  0
LINE
  5
46BC
100
AcDbEntity
  8
0
100
AcDbLine
 10
508.27859
 20
581.148205
 30
0.0
 11
508.27859
 21
585.467074
 31
0.0
  0
LINE
  5
46BD
100
AcDbEntity
  8
0
100
AcDbLine
 10
507.33159
 20
585.719166
 30
0.0
 11
507.33159
 21
580.201205
 31
0.0
  0
LINE
  5
46BE
100
AcDbEntity
  8
0
100
AcDbLine
 10
533.17859
 20
585.546136
 30
0.0
 11
545.332784
 21
585.546136
 31
0.0
  0
LINE
  5
46BF
100
AcDbEntity
  8
0
100
AcDbLine
 10
545.247121
 20
582.546136
 30
0.0
 11
508.27859
 21
582.546136
 31
0.0
  0
ARC
  5
46C0
100
AcDbEntity
  8
0
100
AcDbCircle
 10
533.17859
 20
590.546136
 30
0.0
 40
5.0
100
AcDbArc
 50
216.388107
 51
270.0
  0
ARC
  5
46C1
100
AcDbEntity
  8
0
100
AcDbCircle
 10
545.247121
 20
587.546136
 30
0.0
 40
5.0
100
AcDbArc
 50
270.0
 51
0.0
  0
ARC
  5
46C2
100
AcDbEntity
  8
0
100
AcDbCircle
 10
545.332784
 20
590.546136
 30
0.0
 40
5.0
100
AcDbArc
 50
270.0
 51
349.37884
  0
ARC
  5
46C3
100
AcDbEntity
  8
0
100
AcDbCircle
 10
576.726166
 20
605.451606
 30
0.0
 40
1.3
100
AcDbArc
 50
268.969611
 51
0.0
  0
ARC
  5
46C4
100
AcDbEntity
  8
0
100
AcDbCircle
 10
565.77859
 20
587.111797
 30
0.0
 40
4.0
100
AcDbArc
 50
0.0
 51
81.297776
  0
ARC
  5
46C5
100
AcDbEntity
  8
0
100
AcDbCircle
 10
578.726166
 20
605.415635
 30
0.0
 40
1.3
100
AcDbArc
 50
268.969611
 51
0.0
  0
ARC
  5
46C6
100
AcDbEntity
  8
0
100
AcDbCircle
 10
651.77859
 20
615.546136
 30
0.0
 40
50.0
100
AcDbArc
 50
353.732274
 51
6.267726
  0
ARC
  5
46C7
100
AcDbEntity
  8
0
100
AcDbCircle
 10
692.533517
 20
611.069985
 30
0.0
 40
9.0
100
AcDbArc
 50
268.969611
 51
353.732274
  0
LINE
  5
46C8
100
AcDbEntity
  8
0
100
AcDbLine
 10
753.88279
 20
403.431006
 30
0.0
 11
815.88279
 21
403.431006
 31
0.0
  0
LINE
  5
46C9
100
AcDbEntity
  8
0
100
AcDbLine
 10
753.88279
 20
403.431006
 30
0.0
 11
753.88279
 21
384.39141
 31
0.0
  0
LINE
  5
46CA
100
AcDbEntity
  8
0
100
AcDbLine
 10
798.244422
 20
421.844424
 30
0.0
 11
798.244422
 21
438.431006
 31
0.0
  0
LINE
  5
46CB
100
AcDbEntity
  8
0
100
AcDbLine
 10
771.521158
 20
421.844424
 30
0.0
 11
771.521158
 21
438.431006
 31
0.0
  0
LINE
  5
46CC
100
AcDbEntity
  8
0
100
AcDbLine
 10
815.88279
 20
403.431006
 30
0.0
 11
815.88279
 21
384.39141
 31
0.0
  0
LINE
  5
46CD
100
AcDbEntity
  8
0
100
AcDbLine
 10
774.88279
 20
407.261754
 30
0.0
 11
794.88279
 21
407.261754
 31
0.0
  0
LINE
  5
46CE
100
AcDbEntity
  8
0
100
AcDbLine
 10
771.521158
 20
421.844424
 30
0.0
 11
798.244422
 21
421.844424
 31
0.0
  0
LINE
  5
46CF
100
AcDbEntity
  8
0
100
AcDbLine
 10
796.88279
 20
403.431006
 30
0.0
 11
796.88279
 21
421.844424
 31
0.0
  0
LINE
  5
46D0
100
AcDbEntity
  8
0
100
AcDbLine
 10
772.88279
 20
403.431006
 30
0.0
 11
772.88279
 21
421.844424
 31
0.0
  0
LINE
  5
46D1
100
AcDbEntity
  8
0
100
AcDbLine
 10
771.521158
 20
438.431006
 30
0.0
 11
798.244422
 21
438.431006
 31
0.0
  0
LINE
  5
46D2
100
AcDbEntity
  8
0
100
AcDbLine
 10
554.77859
 20
626.546136
 30
0.0
 11
692.371673
 21
629.020832
 31
0.0
  0
LINE
  5
46D3
100
AcDbEntity
  8
0
100
AcDbLine
 10
566.383787
 20
640.026524
 30
0.0
 11
554.783787
 21
638.251013
 31
0.0
  0
ARC
  5
46D4
100
AcDbEntity
  8
0
100
AcDbCircle
 10
546.247121
 20
636.546136
 30
0.0
 40
4.0
100
AcDbArc
 50
0.0
 51
90.0
  0
LINE
  5
46D5
100
AcDbEntity
  8
0
100
AcDbLine
 10
540.875365
 20
640.546136
 30
0.0
 11
546.247121
 21
640.546136
 31
0.0
  0
ARC
  5
46D6
100
AcDbEntity
  8
0
100
AcDbCircle
 10
545.247121
 20
643.546136
 30
0.0
 40
5.0
100
AcDbArc
 50
0.0
 51
90.0
  0
ARC
  5
46D7
100
AcDbEntity
  8
0
100
AcDbCircle
 10
545.332784
 20
640.546136
 30
0.0
 40
5.0
100
AcDbArc
 50
10.62116
 51
90.0
  0
ARC
  5
46D8
100
AcDbEntity
  8
0
100
AcDbCircle
 10
540.875365
 20
636.546136
 30
0.0
 40
4.0
100
AcDbArc
 50
90.0
 51
158.653752
  0
ARC
  5
46D9
100
AcDbEntity
  8
0
100
AcDbCircle
 10
554.17859
 20
642.204966
 30
0.0
 40
4.0
100
AcDbArc
 50
190.62116
 51
278.702224
  0
LINE
  5
46DA
100
AcDbEntity
  8
0
100
AcDbLine
 10
544.361802
 20
627.546136
 30
0.0
 11
554.77859
 21
626.546136
 31
0.0
  0
LINE
  5
46DB
100
AcDbEntity
  8
0
100
AcDbLine
 10
550.247121
 20
626.981152
 30
0.0
 11
550.247121
 21
643.546136
 31
0.0
  0
ARC
  5
46DC
100
AcDbEntity
  8
0
100
AcDbCircle
 10
533.17859
 20
640.546136
 30
0.0
 40
5.0
100
AcDbArc
 50
90.0
 51
143.611893
  0
LINE
  5
46DD
100
AcDbEntity
  8
0
100
AcDbLine
 10
507.33159
 20
650.891068
 30
0.0
 11
508.27859
 21
649.944068
 31
0.0
  0
LINE
  5
46DE
100
AcDbEntity
  8
0
100
AcDbLine
 10
508.27859
 20
649.944068
 30
0.0
 11
508.27859
 21
645.625199
 31
0.0
  0
LINE
  5
46DF
100
AcDbEntity
  8
0
100
AcDbLine
 10
507.33159
 20
645.373107
 30
0.0
 11
507.33159
 21
650.891068
 31
0.0
  0
LINE
  5
46E0
100
AcDbEntity
  8
0
100
AcDbLine
 10
545.332784
 20
645.546136
 30
0.0
 11
533.17859
 21
645.546136
 31
0.0
  0
LINE
  5
46E1
100
AcDbEntity
  8
0
100
AcDbLine
 10
545.247121
 20
648.546136
 30
0.0
 11
508.27859
 21
648.546136
 31
0.0
  0
LINE
  5
46E2
100
AcDbEntity
  8
0
100
AcDbLine
 10
585.77859
 20
683.046136
 30
0.0
 11
569.77859
 21
683.046136
 31
0.0
  0
ARC
  5
46E3
100
AcDbEntity
  8
0
100
AcDbCircle
 10
565.77859
 20
643.980476
 30
0.0
 40
4.0
100
AcDbArc
 50
278.702224
 51
0.0
  0
ARC
  5
46E4
100
AcDbEntity
  8
0
100
AcDbCircle
 10
576.726166
 20
625.640667
 30
0.0
 40
1.3
100
AcDbArc
 50
0.0
 51
91.030389
  0
ARC
  5
46E5
100
AcDbEntity
  8
0
100
AcDbCircle
 10
578.726166
 20
625.676638
 30
0.0
 40
1.3
100
AcDbArc
 50
0.0
 51
91.030389
  0
LINE
  5
46E6
100
AcDbEntity
  8
0
100
AcDbLine
 10
569.77859
 20
626.815921
 30
0.0
 11
569.77859
 21
683.046136
 31
0.0
  0
LINE
  5
46E7
100
AcDbEntity
  8
0
100
AcDbLine
 10
585.77859
 20
683.046136
 30
0.0
 11
585.77859
 21
627.10369
 31
0.0
  0
LINE
  5
46E8
100
AcDbEntity
  8
0
100
AcDbLine
 10
585.77859
 20
790.832916
 30
0.0
 11
585.77859
 21
858.332916
 31
0.0
  0
LINE
  5
46E9
100
AcDbEntity
  8
0
100
AcDbLine
 10
526.77859
 20
815.832916
 30
0.0
 11
514.27859
 21
815.832916
 31
0.0
  0
ARC
  5
46EA
100
AcDbEntity
  8
0
100
AcDbCircle
 10
526.77859
 20
817.332916
 30
0.0
 40
1.5
100
AcDbArc
 50
270.0
 51
0.0
  0
LINE
  5
46EB
100
AcDbEntity
  8
0
100
AcDbLine
 10
585.77859
 20
790.832916
 30
0.0
 11
569.77859
 21
790.832916
 31
0.0
  0
LINE
  5
46EC
100
AcDbEntity
  8
0
100
AcDbLine
 10
565.759171
 20
882.529032
 30
0.0
 11
554.77859
 21
880.332916
 31
0.0
  0
LINE
  5
46ED
100
AcDbEntity
  8
0
100
AcDbLine
 10
565.759171
 20
834.1368
 30
0.0
 11
554.77859
 21
836.332916
 31
0.0
  0
LINE
  5
46EE
100
AcDbEntity
  8
0
100
AcDbLine
 10
535.26859
 20
882.193848
 30
0.0
 11
528.27859
 21
882.193848
 31
0.0
  0
LINE
  5
46EF
100
AcDbEntity
  8
0
100
AcDbLine
 10
536.27859
 20
881.732916
 30
0.0
 11
543.27859
 21
880.332916
 31
0.0
  0
LINE
  5
46F0
100
AcDbEntity
  8
0
100
AcDbLine
 10
536.27859
 20
838.208985
 30
0.0
 11
535.26859
 21
839.957985
 31
0.0
  0
LINE
  5
46F1
100
AcDbEntity
  8
0
100
AcDbLine
 10
535.26859
 20
839.957985
 30
0.0
 11
528.27859
 21
839.957985
 31
0.0
  0
LINE
  5
46F2
100
AcDbEntity
  8
0
100
AcDbLine
 10
535.26859
 20
876.707848
 30
0.0
 11
528.27859
 21
876.707848
 31
0.0
  0
ARC
  5
46F3
100
AcDbEntity
  8
0
100
AcDbCircle
 10
530.878793
 20
879.450848
 30
0.0
 40
5.176327
100
AcDbArc
 50
328.000464
 51
31.999536
  0
LINE
  5
46F4
100
AcDbEntity
  8
0
100
AcDbLine
 10
536.27859
 20
878.456848
 30
0.0
 11
535.26859
 21
876.707848
 31
0.0
  0
LINE
  5
46F5
100
AcDbEntity
  8
0
100
AcDbLine
 10
554.77859
 20
836.332916
 30
0.0
 11
543.27859
 21
836.332916
 31
0.0
  0
LINE
  5
46F6
100
AcDbEntity
  8
0
100
AcDbLine
 10
554.77859
 20
880.332916
 30
0.0
 11
543.27859
 21
880.332916
 31
0.0
  0
LINE
  5
46F7
100
AcDbEntity
  8
0
100
AcDbLine
 10
535.26859
 20
823.503985
 30
0.0
 11
528.27859
 21
823.503985
 31
0.0
  0
LINE
  5
46F8
100
AcDbEntity
  8
0
100
AcDbLine
 10
535.26859
 20
834.471985
 30
0.0
 11
528.27859
 21
834.471985
 31
0.0
  0
LINE
  5
46F9
100
AcDbEntity
  8
0
100
AcDbLine
 10
528.27859
 20
818.017985
 30
0.0
 11
535.26859
 21
818.017985
 31
0.0
  0
ARC
  5
46FA
100
AcDbEntity
  8
0
100
AcDbCircle
 10
530.878793
 20
820.760985
 30
0.0
 40
5.176327
100
AcDbArc
 50
328.000464
 51
31.999536
  0
ARC
  5
46FB
100
AcDbEntity
  8
0
100
AcDbCircle
 10
516.538821
 20
828.987985
 30
0.0
 40
19.516109
100
AcDbArc
 50
343.680185
 51
16.319815
  0
LINE
  5
46FC
100
AcDbEntity
  8
0
100
AcDbLine
 10
535.26859
 20
818.017985
 30
0.0
 11
536.27859
 21
819.766985
 31
0.0
  0
ARC
  5
46FD
100
AcDbEntity
  8
0
100
AcDbCircle
 10
530.878793
 20
837.214985
 30
0.0
 40
5.176327
100
AcDbArc
 50
328.000464
 51
31.999536
  0
LINE
  5
46FE
100
AcDbEntity
  8
0
100
AcDbLine
 10
536.27859
 20
819.766985
 30
0.0
 11
536.27859
 21
838.208985
 31
0.0
  0
LINE
  5
46FF
100
AcDbEntity
  8
0
100
AcDbLine
 10
536.27859
 20
834.932916
 30
0.0
 11
543.27859
 21
836.332916
 31
0.0
  0
ARC
  5
4700
100
AcDbEntity
  8
0
100
AcDbCircle
 10
564.77859
 20
829.233897
 30
0.0
 40
5.0
100
AcDbArc
 50
0.0
 51
78.690068
  0
LINE
  5
4701
100
AcDbEntity
  8
0
100
AcDbLine
 10
1208.15362
 20
615.546136
 30
0.0
 11
1208.15362
 21
685.546136
 31
0.0
  0
LINE
  5
4702
100
AcDbEntity
  8
0
100
AcDbLine
 10
1224.15362
 20
685.546136
 30
0.0
 11
1224.15362
 21
545.546136
 31
0.0
  0
ELLIPSE
  5
4703
100
AcDbEntity
  8
0
100
AcDbEllipse
 10
1058.585092
 20
424.662127
 30
0.0
 11
-9.75
 21
0.0
 31
0.0
210
0.0
220
0.0
230
1.0
 40
0.466646
 41
0.0
 42
6.283185307179586
  0
LINE
  5
4704
100
AcDbEntity
  8
0
100
AcDbLine
 10
1046.585092
 20
408.431006
 30
0.0
 11
1046.585092
 21
441.431006
 31
0.0
  0
LINE
  5
4705
100
AcDbEntity
  8
0
100
AcDbLine
 10
1070.585092
 20
408.431006
 30
0.0
 11
1070.585092
 21
441.431006
 31
0.0
  0
LINE
  5
4706
100
AcDbEntity
  8
0
100
AcDbLine
 10
1027.585092
 20
408.431006
 30
0.0
 11
1089.655873
 21
408.431006
 31
0.0
  0
LINE
  5
4707
100
AcDbEntity
  8
0
100
AcDbLine
 10
1027.585092
 20
408.431006
 30
0.0
 11
1027.585092
 21
387.192459
 31
0.0
  0
LINE
  5
4708
100
AcDbEntity
  8
0
100
AcDbLine
 10
1089.655873
 20
408.431006
 30
0.0
 11
1089.655873
 21
387.157449
 31
0.0
  0
LINE
  5
4709
100
AcDbEntity
  8
0
100
AcDbLine
 10
1045.22346
 20
443.431006
 30
0.0
 11
1071.946725
 21
443.431006
 31
0.0
  0
LINE
  5
470A
100
AcDbEntity
  8
0
100
AcDbLine
 10
1070.585092
 20
441.431006
 30
0.0
 11
1046.585092
 21
441.431006
 31
0.0
  0
LINE
  5
470B
100
AcDbEntity
  8
0
100
AcDbLine
 10
1071.946725
 20
426.844424
 30
0.0
 11
1071.946725
 21
443.431006
 31
0.0
  0
LINE
  5
470C
100
AcDbEntity
  8
0
100
AcDbLine
 10
1070.585092
 20
426.844424
 30
0.0
 11
1071.946725
 21
426.844424
 31
0.0
  0
LINE
  5
470D
100
AcDbEntity
  8
0
100
AcDbLine
 10
1045.22346
 20
426.844424
 30
0.0
 11
1045.22346
 21
443.431006
 31
0.0
  0
LINE
  5
470E
100
AcDbEntity
  8
0
100
AcDbLine
 10
1045.22346
 20
426.844424
 30
0.0
 11
1046.585092
 21
426.844424
 31
0.0
  0
LINE
  5
470F
100
AcDbEntity
  8
0
100
AcDbLine
 10
1208.15362
 20
394.431006
 30
0.0
 11
1224.15362
 21
394.431006
 31
0.0
  0
LINE
  5
4710
100
AcDbEntity
  8
0
100
AcDbLine
 10
1208.15362
 20
545.546136
 30
0.0
 11
1208.15362
 21
615.546136
 31
0.0
  0
LINE
  5
4711
100
AcDbEntity
  8
0
100
AcDbLine
 10
1208.15362
 20
545.546136
 30
0.0
 11
1224.15362
 21
545.546136
 31
0.0
  0
ARC
  5
4712
100
AcDbEntity
  8
0
100
AcDbCircle
 10
1229.15362
 20
582.447117
 30
0.0
 40
5.0
100
AcDbArc
 50
101.309932
 51
180.0
  0
LINE
  5
4713
100
AcDbEntity
  8
0
100
AcDbLine
 10
1208.15362
 20
685.546136
 30
0.0
 11
1224.15362
 21
685.546136
 31
0.0
  0
ARC
  5
4714
100
AcDbEntity
  8
0
100
AcDbCircle
 10
1229.15362
 20
648.645156
 30
0.0
 40
5.0
100
AcDbArc
 50
180.0
 51
258.690068
  0
LINE
  5
4715
100
AcDbEntity
  8
0
100
AcDbLine
 10
1208.15362
 20
788.332916
 30
0.0
 11
1208.15362
 21
858.332916
 31
0.0
  0
LINE
  5
4716
100
AcDbEntity
  8
0
100
AcDbLine
 10
1208.15362
 20
788.332916
 30
0.0
 11
1224.15362
 21
788.332916
 31
0.0
  0
ARC
  5
4717
100
AcDbEntity
  8
0
100
AcDbCircle
 10
1229.15362
 20
825.233897
 30
0.0
 40
5.0
100
AcDbArc
 50
101.309932
 51
180.0
  0
ARC
  5
4718
100
AcDbEntity
  8
0
100
AcDbCircle
 10
513.77859
 20
933.976646
 30
0.0
 40
3.0
100
AcDbArc
 50
0.0
 51
59.337093
  0
LINE
  5
4719
100
AcDbEntity
  8
0
100
AcDbLine
 10
535.26859
 20
893.161848
 30
0.0
 11
528.27859
 21
893.161848
 31
0.0
  0
LINE
  5
471A
100
AcDbEntity
  8
0
100
AcDbLine
 10
528.27859
 20
898.647848
 30
0.0
 11
535.26859
 21
898.647848
 31
0.0
  0
ARC
  5
471B
100
AcDbEntity
  8
0
100
AcDbCircle
 10
530.878793
 20
895.904848
 30
0.0
 40
5.176327
100
AcDbArc
 50
328.000464
 51
31.999536
  0
LINE
  5
471C
100
AcDbEntity
  8
0
100
AcDbLine
 10
535.26859
 20
898.647848
 30
0.0
 11
536.27859
 21
896.898848
 31
0.0
  0
ARC
  5
471D
100
AcDbEntity
  8
0
100
AcDbCircle
 10
513.77859
 20
903.832916
 30
0.0
 40
3.0
100
AcDbArc
 50
180.0
 51
270.0
  0
LINE
  5
471E
100
AcDbEntity
  8
0
100
AcDbLine
 10
510.77859
 20
903.832916
 30
0.0
 11
510.77859
 21
907.332916
 31
0.0
  0
LINE
  5
471F
100
AcDbEntity
  8
0
100
AcDbLine
 10
526.77859
 20
900.832916
 30
0.0
 11
514.27859
 21
900.832916
 31
0.0
  0
ARC
  5
4720
100
AcDbEntity
  8
0
100
AcDbCircle
 10
526.77859
 20
899.332916
 30
0.0
 40
1.5
100
AcDbArc
 50
0.0
 51
90.0
  0
LINE
  5
4721
100
AcDbEntity
  8
0
100
AcDbLine
 10
516.77859
 20
933.976646
 30
0.0
 11
516.77859
 21
907.332916
 31
0.0
  0
LINE
  5
4722
100
AcDbEntity
  8
0
100
AcDbLine
 10
585.77859
 20
925.832916
 30
0.0
 11
569.77859
 21
925.832916
 31
0.0
  0
LINE
  5
4723
100
AcDbEntity
  8
0
100
AcDbLine
 10
1225.906043
 20
977.332916
 30
0.0
 11
1105.906043
 21
977.332916
 31
0.0
  0
LINE
  5
4724
100
AcDbEntity
  8
0
100
AcDbLine
 10
1102.906043
 20
972.288143
 30
0.0
 11
1102.906043
 21
974.332916
 31
0.0
  0
ARC
  5
4725
100
AcDbEntity
  8
0
100
AcDbCircle
 10
1105.906043
 20
974.332916
 30
0.0
 40
3.0
100
AcDbArc
 50
90.0
 51
180.0
  0
ARC
  5
4726
100
AcDbEntity
  8
0
100
AcDbCircle
 10
1105.906043
 20
972.288143
 30
0.0
 40
3.0
100
AcDbArc
 50
180.0
 51
269.138474
  0
LINE
  5
4727
100
AcDbEntity
  8
0
100
AcDbLine
 10
1208.15362
 20
928.332916
 30
0.0
 11
1224.15362
 21
928.332916
 31
0.0
  0
ARC
  5
4728
100
AcDbEntity
  8
0
100
AcDbCircle
 10
1229.15362
 20
891.431936
 30
0.0
 40
5.0
100
AcDbArc
 50
180.0
 51
258.690068
  0
ARC
  5
4729
100
AcDbEntity
  8
0
100
AcDbCircle
 10
1341.833766
 20
883.296755
 30
0.0
 40
6.537699
100
AcDbArc
 50
327.999511
 51
32.000489
  0
LINE
  5
472A
100
AcDbEntity
  8
0
100
AcDbLine
 10
1348.65362
 20
905.335255
 30
0.0
 11
1348.65362
 21
882.041255
 31
0.0
  0
LINE
  5
472B
100
AcDbEntity
  8
0
100
AcDbLine
 10
1338.65362
 20
807.332916
 30
0.0
 11
1338.65362
 21
909.332916
 31
0.0
  0
LINE
  5
472C
100
AcDbEntity
  8
0
100
AcDbLine
 10
1382.15362
 20
928.332916
 30
0.0
 11
1382.15362
 21
788.332916
 31
0.0
  0
LINE
  5
472D
100
AcDbEntity
  8
0
100
AcDbLine
 10
1398.15362
 20
858.332916
 30
0.0
 11
1398.15362
 21
928.332916
 31
0.0
  0
LINE
  5
472E
100
AcDbEntity
  8
0
100
AcDbLine
 10
1268.481689
 20
887.592197
 30
0.0
 11
1268.481689
 21
879.332916
 31
0.0
  0
LINE
  5
472F
100
AcDbEntity
  8
0
100
AcDbLine
 10
1277.42934
 20
879.332916
 30
0.0
 11
1277.42934
 21
887.592197
 31
0.0
  0
LINE
  5
4730
100
AcDbEntity
  8
0
100
AcDbLine
 10
1250.05362
 20
829.086365
 30
0.0
 11
1250.05362
 21
887.579467
 31
0.0
  0
LINE
  5
4731
100
AcDbEntity
  8
0
100
AcDbLine
 10
1324.65362
 20
805.832916
 30
0.0
 11
1324.65362
 21
910.832916
 31
0.0
  0
LINE
  5
4732
100
AcDbEntity
  8
0
100
AcDbLine
 10
1310.65362
 20
807.832916
 30
0.0
 11
1310.65362
 21
908.832916
 31
0.0
  0
LINE
  5
4733
100
AcDbEntity
  8
0
100
AcDbLine
 10
1558.460283
 20
408.431006
 30
0.0
 11
1620.531063
 21
408.431006
 31
0.0
  0
ARC
  5
4734
100
AcDbEntity
  8
0
100
AcDbCircle
 10
1492.908547
 20
620.022287
 30
0.0
 40
9.0
100
AcDbArc
 50
6.267726
 51
91.030389
  0
LINE
  5
4735
100
AcDbEntity
  8
0
100
AcDbLine
 10
1378.401196
 20
605.451606
 30
0.0
 11
1378.401196
 21
625.640667
 31
0.0
  0
LINE
  5
4736
100
AcDbEntity
  8
0
100
AcDbLine
 10
1380.401196
 20
605.415635
 30
0.0
 11
1380.401196
 21
625.676638
 31
0.0
  0
LINE
  5
4737
100
AcDbEntity
  8
0
100
AcDbLine
 10
1356.401196
 20
606.728186
 30
0.0
 11
1356.401196
 21
624.364087
 31
0.0
  0
CIRCLE
  5
4738
100
AcDbEntity
  8
0
100
AcDbCircle
 10
1316.15362
 20
615.546136
 30
0.0
 40
9.75
  0
CIRCLE
  5
4739
100
AcDbEntity
  8
0
100
AcDbCircle
 10
1316.15362
 20
615.546136
 30
0.0
 40
6.75
  0
LINE
  5
473A
100
AcDbEntity
  8
0
100
AcDbLine
 10
1267.65362
 20
564.546136
 30
0.0
 11
1267.65362
 21
666.546136
 31
0.0
  0
LINE
  5
473B
100
AcDbEntity
  8
0
100
AcDbLine
 10
1281.65362
 20
563.046136
 30
0.0
 11
1281.65362
 21
668.046136
 31
0.0
  0
ARC
  5
473C
100
AcDbEntity
  8
0
100
AcDbCircle
 10
1316.15362
 20
615.546136
 30
0.0
 40
31.0
100
AcDbArc
 50
22.773972
 51
337.226028
  0
LINE
  5
473D
100
AcDbEntity
  8
0
100
AcDbLine
 10
1380.401196
 20
443.431006
 30
0.0
 11
1500.401196
 21
443.431006
 31
0.0
  0
LINE
  5
473E
100
AcDbEntity
  8
0
100
AcDbLine
 10
1370.401196
 20
433.431006
 30
0.0
 11
1500.446304
 21
435.386572
 31
0.0
  0
LINE
  5
473F
100
AcDbEntity
  8
0
100
AcDbLine
 10
1355.15362
 20
604.546136
 30
0.0
 11
1492.746702
 21
602.071441
 31
0.0
  0
LINE
  5
4740
100
AcDbEntity
  8
0
100
AcDbLine
 10
1285.477703
 20
406.431006
 30
0.0
 11
1347.15362
 21
406.431006
 31
0.0
  0
LINE
  5
4741
100
AcDbEntity
  8
0
100
AcDbLine
 10
1285.15362
 20
378.431006
 30
0.0
 11
1347.15362
 21
378.431006
 31
0.0
  0
ARC
  5
4742
100
AcDbEntity
  8
0
100
AcDbCircle
 10
1521.217288
 20
11.971281
 30
0.0
 40
460.0
100
AcDbArc
 50
110.995575
 51
120.662907
  0
LINE
  5
4743
100
AcDbEntity
  8
0
100
AcDbLine
 10
1269.15362
 20
376.931006
 30
0.0
 11
1281.65362
 21
376.931006
 31
0.0
  0
ARC
  5
4744
100
AcDbEntity
  8
0
100
AcDbCircle
 10
1269.15362
 20
375.431006
 30
0.0
 40
1.5
100
AcDbArc
 50
90.0
 51
180.0
  0
ARC
  5
4745
100
AcDbEntity
  8
0
100
AcDbCircle
 10
1264.473496
 20
370.178845
 30
0.0
 40
6.537718
100
AcDbArc
 50
147.999617
 51
212.000383
  0
LINE
  5
4746
100
AcDbEntity
  8
0
100
AcDbLine
 10
1258.92922
 20
373.642345
 30
0.0
 11
1257.65362
 21
371.433345
 31
0.0
  0
LINE
  5
4747
100
AcDbEntity
  8
0
100
AcDbLine
 10
1258.92922
 20
366.714345
 30
0.0
 11
1267.65362
 21
366.714345
 31
0.0
  0
LINE
  5
4748
100
AcDbEntity
  8
0
100
AcDbLine
 10
1267.65362
 20
373.642345
 30
0.0
 11
1258.92922
 21
373.642345
 31
0.0
  0
ARC
  5
4749
100
AcDbEntity
  8
0
100
AcDbCircle
 10
1288.15362
 20
405.074736
 30
0.0
 40
3.0
100
AcDbArc
 50
120.662907
 51
180.0
  0
LINE
  5
474A
100
AcDbEntity
  8
0
100
AcDbLine
 10
1295.65362
 20
367.786345
 30
0.0
 11
1301.57062
 21
367.786345
 31
0.0
  0
ARC
  5
474B
100
AcDbEntity
  8
0
100
AcDbCircle
 10
1293.65362
 20
374.931006
 30
0.0
 40
2.0
100
AcDbArc
 50
0.0
 51
90.0
  0
ARC
  5
474C
100
AcDbEntity
  8
0
100
AcDbCircle
 10
1287.716763
 20
378.929592
 30
0.0
 40
2.0
100
AcDbArc
 50
267.845235
 51
345.564326
  0
LINE
  5
474D
100
AcDbEntity
  8
0
100
AcDbLine
 10
1301.57062
 20
367.786345
 30
0.0
 11
1302.65362
 21
366.703345
 31
0.0
  0
LINE
  5
474E
100
AcDbEntity
  8
0
100
AcDbLine
 10
1293.65362
 20
376.931006
 30
0.0
 11
1281.65362
 21
376.931006
 31
0.0
  0
LINE
  5
474F
100
AcDbEntity
  8
0
100
AcDbLine
 10
1285.15362
 20
405.074736
 30
0.0
 11
1285.15362
 21
378.431006
 31
0.0
  0
LINE
  5
4750
100
AcDbEntity
  8
0
100
AcDbLine
 10
1348.032299
 20
411.062109
 30
0.0
 11
1380.401196
 21
443.431006
 31
0.0
  0
LINE
  5
4751
100
AcDbEntity
  8
0
100
AcDbLine
 10
1398.15362
 20
394.431006
 30
0.0
 11
1382.15362
 21
394.431006
 31
0.0
  0
ARC
  5
4752
100
AcDbEntity
  8
0
100
AcDbCircle
 10
1350.15362
 20
408.940789
 30
0.0
 40
3.0
100
AcDbArc
 50
135.0
 51
180.0
  0
LINE
  5
4753
100
AcDbEntity
  8
0
100
AcDbLine
 10
1342.65362
 20
362.931006
 30
0.0
 11
1342.65362
 21
378.431006
 31
0.0
  0
LINE
  5
4754
100
AcDbEntity
  8
0
100
AcDbLine
 10
1347.15362
 20
408.940789
 30
0.0
 11
1347.15362
 21
378.431006
 31
0.0
  0
LINE
  5
4755
100
AcDbEntity
  8
0
100
AcDbLine
 10
1356.401196
 20
441.431006
 30
0.0
 11
1378.401196
 21
441.431006
 31
0.0
  0
ARC
  5
4756
100
AcDbEntity
  8
0
100
AcDbCircle
 10
1333.877899
 20
587.046136
 30
0.0
 40
5.0
100
AcDbArc
 50
180.0
 51
270.0
  0
LINE
  5
4757
100
AcDbEntity
  8
0
100
AcDbLine
 10
1289.883998
 20
603.58037
 30
0.0
 11
1355.15362
 21
604.546136
 31
0.0
  0
LINE
  5
4758
100
AcDbEntity
  8
0
100
AcDbLine
 10
1289.586802
 20
603.546136
 30
0.0
 11
1344.736831
 21
603.546136
 31
0.0
  0
LINE
  5
4759
100
AcDbEntity
  8
0
100
AcDbLine
 10
1351.25362
 20
576.546136
 30
0.0
 11
1302.65362
 21
576.546136
 31
0.0
  0
LINE
  5
475A
100
AcDbEntity
  8
0
100
AcDbLine
 10
1269.15362
 20
563.046136
 30
0.0
 11
1281.65362
 21
563.046136
 31
0.0
  0
LINE
  5
475B
100
AcDbEntity
  8
0
100
AcDbLine
 10
1258.92922
 20
594.046797
 30
0.0
 11
1267.65362
 21
594.046797
 31
0.0
  0
LINE
  5
475C
100
AcDbEntity
  8
0
100
AcDbLine
 10
1257.65362
 20
591.837797
 30
0.0
 11
1258.92922
 21
594.046797
 31
0.0
  0
LINE
  5
475D
100
AcDbEntity
  8
0
100
AcDbLine
 10
1267.65362
 20
566.334797
 30
0.0
 11
1258.92922
 21
566.334797
 31
0.0
  0
LINE
  5
475E
100
AcDbEntity
  8
0
100
AcDbLine
 10
1258.92922
 20
573.262797
 30
0.0
 11
1267.65362
 21
573.262797
 31
0.0
  0
LINE
  5
475F
100
AcDbEntity
  8
0
100
AcDbLine
 10
1258.92922
 20
587.117797
 30
0.0
 11
1267.65362
 21
587.117797
 31
0.0
  0
ARC
  5
4760
100
AcDbEntity
  8
0
100
AcDbCircle
 10
1282.589044
 20
580.190297
 30
0.0
 40
24.653145
100
AcDbArc
 50
163.680185
 51
196.319815
  0
LINE
  5
4761
100
AcDbEntity
  8
0
100
AcDbLine
 10
1258.92922
 20
566.334797
 30
0.0
 11
1257.65362
 21
568.543797
 31
0.0
  0
ARC
  5
4762
100
AcDbEntity
  8
0
100
AcDbCircle
 10
1264.473496
 20
569.798297
 30
0.0
 40
6.537718
100
AcDbArc
 50
147.999617
 51
212.000383
  0
LINE
  5
4763
100
AcDbEntity
  8
0
100
AcDbLine
 10
1257.65362
 20
588.546136
 30
0.0
 11
1252.65362
 21
589.546136
 31
0.0
  0
ARC
  5
4764
100
AcDbEntity
  8
0
100
AcDbCircle
 10
1269.15362
 20
564.546136
 30
0.0
 40
1.5
100
AcDbArc
 50
180.0
 51
270.0
  0
LINE
  5
4765
100
AcDbEntity
  8
0
100
AcDbLine
 10
1257.65362
 20
568.543797
 30
0.0
 11
1257.65362
 21
591.837797
 31
0.0
  0
ARC
  5
4766
100
AcDbEntity
  8
0
100
AcDbCircle
 10
1264.473473
 20
590.582297
 30
0.0
 40
6.537699
100
AcDbArc
 50
147.999511
 51
212.000489
  0
LINE
  5
4767
100
AcDbEntity
  8
0
100
AcDbLine
 10
1239.15362
 20
589.546136
 30
0.0
 11
1252.65362
 21
589.546136
 31
0.0
  0
ARC
  5
4768
100
AcDbEntity
  8
0
100
AcDbCircle
 10
1289.90619
 20
602.080534
 30
0.0
 40
1.5
100
AcDbArc
 50
90.847719
 51
207.158984
  0
LINE
  5
4769
100
AcDbEntity
  8
0
100
AcDbLine
 10
1328.877899
 20
587.046136
 30
0.0
 11
1328.877899
 21
587.277909
 31
0.0
  0
LINE
  5
476A
100
AcDbEntity
  8
0
100
AcDbLine
 10
1301.57062
 20
588.190797
 30
0.0
 11
1301.57062
 21
572.190797
 31
0.0
  0
LINE
  5
476B
100
AcDbEntity
  8
0
100
AcDbLine
 10
1302.65362
 20
573.273797
 30
0.0
 11
1302.65362
 21
587.107797
 31
0.0
  0
LINE
  5
476C
100
AcDbEntity
  8
0
100
AcDbLine
 10
1301.57062
 20
572.190797
 30
0.0
 11
1302.65362
 21
573.273797
 31
0.0
  0
LINE
  5
476D
100
AcDbEntity
  8
0
100
AcDbLine
 10
1302.65362
 20
587.107797
 30
0.0
 11
1301.57062
 21
588.190797
 31
0.0
  0
LINE
  5
476E
100
AcDbEntity
  8
0
100
AcDbLine
 10
1295.65362
 20
572.190797
 30
0.0
 11
1301.57062
 21
572.190797
 31
0.0
  0
LINE
  5
476F
100
AcDbEntity
  8
0
100
AcDbLine
 10
1301.57062
 20
588.190797
 30
0.0
 11
1295.65362
 21
588.190797
 31
0.0
  0
LINE
  5
4770
100
AcDbEntity
  8
0
100
AcDbLine
 10
1293.65362
 20
563.046136
 30
0.0
 11
1281.65362
 21
563.046136
 31
0.0
  0
ARC
  5
4771
100
AcDbEntity
  8
0
100
AcDbCircle
 10
1293.65362
 20
565.046136
 30
0.0
 40
2.0
100
AcDbArc
 50
270.0
 51
0.0
  0
LINE
  5
4772
100
AcDbEntity
  8
0
100
AcDbLine
 10
1295.65362
 20
565.046136
 30
0.0
 11
1295.65362
 21
592.292105
 31
0.0
  0
LINE
  5
4773
100
AcDbEntity
  8
0
100
AcDbLine
 10
1382.15362
 20
604.060525
 30
0.0
 11
1382.15362
 21
545.546136
 31
0.0
  0
LINE
  5
4774
100
AcDbEntity
  8
0
100
AcDbLine
 10
1398.15362
 20
545.546136
 30
0.0
 11
1398.15362
 21
603.772755
 31
0.0
  0
LINE
  5
4775
100
AcDbEntity
  8
0
100
AcDbLine
 10
1398.15362
 20
545.546136
 30
0.0
 11
1382.15362
 21
545.546136
 31
0.0
  0
ARC
  5
4776
100
AcDbEntity
  8
0
100
AcDbCircle
 10
1377.15362
 20
582.447117
 30
0.0
 40
5.0
100
AcDbArc
 50
0.0
 51
78.690068
  0
ARC
  5
4777
100
AcDbEntity
  8
0
100
AcDbCircle
 10
1379.101196
 20
605.415635
 30
0.0
 40
1.3
100
AcDbArc
 50
268.969611
 51
0.0
  0
ARC
  5
4778
100
AcDbEntity
  8
0
100
AcDbCircle
 10
1377.101196
 20
605.451606
 30
0.0
 40
1.3
100
AcDbArc
 50
268.969611
 51
0.0
  0
LINE
  5
4779
100
AcDbEntity
  8
0
100
AcDbLine
 10
1344.736831
 20
603.546136
 30
0.0
 11
1355.15362
 21
604.546136
 31
0.0
  0
LINE
  5
477A
100
AcDbEntity
  8
0
100
AcDbLine
 10
1378.1342
 20
587.35002
 30
0.0
 11
1367.15362
 21
589.546136
 31
0.0
  0
ARC
  5
477B
100
AcDbEntity
  8
0
100
AcDbCircle
 10
1351.25362
 20
581.546136
 30
0.0
 40
5.0
100
AcDbArc
 50
270.0
 51
0.0
  0
ARC
  5
477C
100
AcDbEntity
  8
0
100
AcDbCircle
 10
1351.25362
 20
587.046136
 30
0.0
 40
5.0
100
AcDbArc
 50
270.0
 51
345.522488
  0
LINE
  5
477D
100
AcDbEntity
  8
0
100
AcDbLine
 10
1340.82555
 20
589.046136
 30
0.0
 11
1351.25362
 21
589.046136
 31
0.0
  0
ARC
  5
477E
100
AcDbEntity
  8
0
100
AcDbCircle
 10
1360.936078
 20
584.546136
 30
0.0
 40
5.0
100
AcDbArc
 50
90.0
 51
165.522488
  0
LINE
  5
477F
100
AcDbEntity
  8
0
100
AcDbLine
 10
1367.15362
 20
589.546136
 30
0.0
 11
1360.936078
 21
589.546136
 31
0.0
  0
ARC
  5
4780
100
AcDbEntity
  8
0
100
AcDbCircle
 10
1351.25362
 20
594.046136
 30
0.0
 40
5.0
100
AcDbArc
 50
270.0
 51
0.0
  0
LINE
  5
4781
100
AcDbEntity
  8
0
100
AcDbLine
 10
1356.25362
 20
581.546136
 30
0.0
 11
1356.25362
 21
604.526352
 31
0.0
  0
LINE
  5
4782
100
AcDbEntity
  8
0
100
AcDbLine
 10
1337.82555
 20
592.046136
 30
0.0
 11
1337.82555
 21
593.380229
 31
0.0
  0
ARC
  5
4783
100
AcDbEntity
  8
0
100
AcDbCircle
 10
1340.82555
 20
592.046136
 30
0.0
 40
3.0
100
AcDbArc
 50
180.0
 51
270.0
  0
LINE
  5
4784
100
AcDbEntity
  8
0
100
AcDbLine
 10
1351.25362
 20
582.046136
 30
0.0
 11
1333.877899
 21
582.046136
 31
0.0
  0
ARC
  5
4785
100
AcDbEntity
  8
0
100
AcDbCircle
 10
1500.401196
 20
438.386232
 30
0.0
 40
3.0
100
AcDbArc
 50
270.861526
 51
0.0
  0
ARC
  5
4786
100
AcDbEntity
  8
0
100
AcDbCircle
 10
1500.401196
 20
440.431006
 30
0.0
 40
3.0
100
AcDbArc
 50
0.0
 51
90.0
  0
LINE
  5
4787
100
AcDbEntity
  8
0
100
AcDbLine
 10
1503.401196
 20
438.386232
 30
0.0
 11
1503.401196
 21
440.431006
 31
0.0
  0
LINE
  5
4788
100
AcDbEntity
  8
0
100
AcDbLine
 10
1601.460283
 20
408.431006
 30
0.0
 11
1601.460283
 21
426.844424
 31
0.0
  0
LINE
  5
4789
100
AcDbEntity
  8
0
100
AcDbLine
 10
1577.460283
 20
408.431006
 30
0.0
 11
1577.460283
 21
426.844424
 31
0.0
  0
LINE
  5
478A
100
AcDbEntity
  8
0
100
AcDbLine
 10
1579.460283
 20
412.261754
 30
0.0
 11
1599.460283
 21
412.261754
 31
0.0
  0
LINE
  5
478B
100
AcDbEntity
  8
0
100
AcDbLine
 10
1558.460283
 20
408.431006
 30
0.0
 11
1558.460283
 21
387.192459
 31
0.0
  0
LINE
  5
478C
100
AcDbEntity
  8
0
100
AcDbLine
 10
1602.821915
 20
426.844424
 30
0.0
 11
1602.821915
 21
443.431006
 31
0.0
  0
LINE
  5
478D
100
AcDbEntity
  8
0
100
AcDbLine
 10
1576.098651
 20
426.844424
 30
0.0
 11
1576.098651
 21
443.431006
 31
0.0
  0
LINE
  5
478E
100
AcDbEntity
  8
0
100
AcDbLine
 10
1576.098651
 20
426.844424
 30
0.0
 11
1602.821915
 21
426.844424
 31
0.0
  0
LINE
  5
478F
100
AcDbEntity
  8
0
100
AcDbLine
 10
1576.098651
 20
443.431006
 30
0.0
 11
1602.821915
 21
443.431006
 31
0.0
  0
ARC
  5
4790
100
AcDbEntity
  8
0
100
AcDbCircle
 10
1452.15362
 20
615.546136
 30
0.0
 40
50.0
100
AcDbArc
 50
353.732274
 51
6.267726
  0
ARC
  5
4791
100
AcDbEntity
  8
0
100
AcDbCircle
 10
1492.908547
 20
611.069985
 30
0.0
 40
9.0
100
AcDbArc
 50
268.969611
 51
353.732274
  0
LINE
  5
4792
100
AcDbEntity
  8
0
100
AcDbLine
 10
1355.15362
 20
626.546136
 30
0.0
 11
1492.746702
 21
629.020832
 31
0.0
  0
ARC
  5
4793
100
AcDbEntity
  8
0
100
AcDbCircle
 10
1333.877899
 20
644.046136
 30
0.0
 40
5.0
100
AcDbArc
 50
90.0
 51
180.0
  0
LINE
  5
4794
100
AcDbEntity
  8
0
100
AcDbLine
 10
1289.883998
 20
627.511903
 30
0.0
 11
1355.15362
 21
626.546136
 31
0.0
  0
LINE
  5
4795
100
AcDbEntity
  8
0
100
AcDbLine
 10
1289.586802
 20
627.546136
 30
0.0
 11
1344.736831
 21
627.546136
 31
0.0
  0
LINE
  5
4796
100
AcDbEntity
  8
0
100
AcDbLine
 10
1351.25362
 20
654.546136
 30
0.0
 11
1302.65362
 21
654.546136
 31
0.0
  0
LINE
  5
4797
100
AcDbEntity
  8
0
100
AcDbLine
 10
1269.15362
 20
668.046136
 30
0.0
 11
1281.65362
 21
668.046136
 31
0.0
  0
LINE
  5
4798
100
AcDbEntity
  8
0
100
AcDbLine
 10
1258.92922
 20
657.829475
 30
0.0
 11
1267.65362
 21
657.829475
 31
0.0
  0
LINE
  5
4799
100
AcDbEntity
  8
0
100
AcDbLine
 10
1258.92922
 20
643.974475
 30
0.0
 11
1267.65362
 21
643.974475
 31
0.0
  0
LINE
  5
479A
100
AcDbEntity
  8
0
100
AcDbLine
 10
1267.65362
 20
664.757475
 30
0.0
 11
1258.92922
 21
664.757475
 31
0.0
  0
LINE
  5
479B
100
AcDbEntity
  8
0
100
AcDbLine
 10
1258.92922
 20
637.045475
 30
0.0
 11
1267.65362
 21
637.045475
 31
0.0
  0
ARC
  5
479C
100
AcDbEntity
  8
0
100
AcDbCircle
 10
1264.473496
 20
661.293975
 30
0.0
 40
6.537718
100
AcDbArc
 50
147.999617
 51
212.000383
  0
ARC
  5
479D
100
AcDbEntity
  8
0
100
AcDbCircle
 10
1282.589044
 20
650.901975
 30
0.0
 40
24.653145
100
AcDbArc
 50
163.680185
 51
196.319815
  0
LINE
  5
479E
100
AcDbEntity
  8
0
100
AcDbLine
 10
1258.92922
 20
664.757475
 30
0.0
 11
1257.65362
 21
662.548475
 31
0.0
  0
LINE
  5
479F
100
AcDbEntity
  8
0
100
AcDbLine
 10
1257.65362
 20
639.254475
 30
0.0
 11
1258.92922
 21
637.045475
 31
0.0
  0
ARC
  5
47A0
100
AcDbEntity
  8
0
100
AcDbCircle
 10
1264.473473
 20
640.509975
 30
0.0
 40
6.537699
100
AcDbArc
 50
147.999511
 51
212.000489
  0
LINE
  5
47A1
100
AcDbEntity
  8
0
100
AcDbLine
 10
1257.65362
 20
662.548475
 30
0.0
 11
1257.65362
 21
639.254475
 31
0.0
  0
LINE
  5
47A2
100
AcDbEntity
  8
0
100
AcDbLine
 10
1257.65362
 20
642.546136
 30
0.0
 11
1252.65362
 21
641.546136
 31
0.0
  0
ARC
  5
47A3
100
AcDbEntity
  8
0
100
AcDbCircle
 10
1269.15362
 20
666.546136
 30
0.0
 40
1.5
100
AcDbArc
 50
90.0
 51
180.0
  0
LINE
  5
47A4
100
AcDbEntity
  8
0
100
AcDbLine
 10
1239.15362
 20
641.546136
 30
0.0
 11
1252.65362
 21
641.546136
 31
0.0
  0
LINE
  5
47A5
100
AcDbEntity
  8
0
100
AcDbLine
 10
1328.877899
 20
644.046136
 30
0.0
 11
1328.877899
 21
643.814364
 31
0.0
  0
LINE
  5
47A6
100
AcDbEntity
  8
0
100
AcDbLine
 10
1301.57062
 20
658.901475
 30
0.0
 11
1302.65362
 21
657.818475
 31
0.0
  0
LINE
  5
47A7
100
AcDbEntity
  8
0
100
AcDbLine
 10
1302.65362
 20
643.984475
 30
0.0
 11
1301.57062
 21
642.901475
 31
0.0
  0
LINE
  5
47A8
100
AcDbEntity
  8
0
100
AcDbLine
 10
1302.65362
 20
657.818475
 30
0.0
 11
1302.65362
 21
643.984475
 31
0.0
  0
LINE
  5
47A9
100
AcDbEntity
  8
0
100
AcDbLine
 10
1301.57062
 20
642.901475
 30
0.0
 11
1301.57062
 21
658.901475
 31
0.0
  0
LINE
  5
47AA
100
AcDbEntity
  8
0
100
AcDbLine
 10
1295.65362
 20
658.901475
 30
0.0
 11
1301.57062
 21
658.901475
 31
0.0
  0
LINE
  5
47AB
100
AcDbEntity
  8
0
100
AcDbLine
 10
1301.57062
 20
642.901475
 30
0.0
 11
1295.65362
 21
642.901475
 31
0.0
  0
LINE
  5
47AC
100
AcDbEntity
  8
0
100
AcDbLine
 10
1295.65362
 20
638.800168
 30
0.0
 11
1295.65362
 21
666.046136
 31
0.0
  0
LINE
  5
47AD
100
AcDbEntity
  8
0
100
AcDbLine
 10
1293.65362
 20
668.046136
 30
0.0
 11
1281.65362
 21
668.046136
 31
0.0
  0
ARC
  5
47AE
100
AcDbEntity
  8
0
100
AcDbCircle
 10
1289.90619
 20
629.011739
 30
0.0
 40
1.5
100
AcDbArc
 50
152.841016
 51
269.152281
  0
ARC
  5
47AF
100
AcDbEntity
  8
0
100
AcDbCircle
 10
1293.65362
 20
666.046136
 30
0.0
 40
2.0
100
AcDbArc
 50
0.0
 51
90.0
  0
LINE
  5
47B0
100
AcDbEntity
  8
0
100
AcDbLine
 10
1398.15362
 20
685.546136
 30
0.0
 11
1382.15362
 21
685.546136
 31
0.0
  0
ARC
  5
47B1
100
AcDbEntity
  8
0
100
AcDbCircle
 10
1377.15362
 20
648.645156
 30
0.0
 40
5.0
100
AcDbArc
 50
281.309932
 51
0.0
  0
LINE
  5
47B2
100
AcDbEntity
  8
0
100
AcDbLine
 10
1378.1342
 20
643.742253
 30
0.0
 11
1367.15362
 21
641.546136
 31
0.0
  0
ARC
  5
47B3
100
AcDbEntity
  8
0
100
AcDbCircle
 10
1351.25362
 20
637.046136
 30
0.0
 40
5.0
100
AcDbArc
 50
0.0
 51
90.0
  0
ARC
  5
47B4
100
AcDbEntity
  8
0
100
AcDbCircle
 10
1351.25362
 20
649.546136
 30
0.0
 40
5.0
100
AcDbArc
 50
0.0
 51
90.0
  0
ARC
  5
47B5
100
AcDbEntity
  8
0
100
AcDbCircle
 10
1351.25362
 20
644.046136
 30
0.0
 40
5.0
100
AcDbArc
 50
14.477512
 51
90.0
  0
LINE
  5
47B6
100
AcDbEntity
  8
0
100
AcDbLine
 10
1340.82555
 20
642.046136
 30
0.0
 11
1351.25362
 21
642.046136
 31
0.0
  0
ARC
  5
47B7
100
AcDbEntity
  8
0
100
AcDbCircle
 10
1360.936078
 20
646.546136
 30
0.0
 40
5.0
100
AcDbArc
 50
194.477512
 51
270.0
  0
LINE
  5
47B8
100
AcDbEntity
  8
0
100
AcDbLine
 10
1367.15362
 20
641.546136
 30
0.0
 11
1360.936078
 21
641.546136
 31
0.0
  0
ARC
  5
47B9
100
AcDbEntity
  8
0
100
AcDbCircle
 10
1379.101196
 20
625.676638
 30
0.0
 40
1.3
100
AcDbArc
 50
0.0
 51
91.030389
  0
ARC
  5
47BA
100
AcDbEntity
  8
0
100
AcDbCircle
 10
1377.101196
 20
625.640667
 30
0.0
 40
1.3
100
AcDbArc
 50
0.0
 51
91.030389
  0
LINE
  5
47BB
100
AcDbEntity
  8
0
100
AcDbLine
 10
1344.736831
 20
627.546136
 30
0.0
 11
1355.15362
 21
626.546136
 31
0.0
  0
LINE
  5
47BC
100
AcDbEntity
  8
0
100
AcDbLine
 10
1356.25362
 20
626.565921
 30
0.0
 11
1356.25362
 21
649.546136
 31
0.0
  0
LINE
  5
47BD
100
AcDbEntity
  8
0
100
AcDbLine
 10
1337.82555
 20
639.046136
 30
0.0
 11
1337.82555
 21
637.712044
 31
0.0
  0
ARC
  5
47BE
100
AcDbEntity
  8
0
100
AcDbCircle
 10
1340.82555
 20
639.046136
 30
0.0
 40
3.0
100
AcDbArc
 50
90.0
 51
180.0
  0
LINE
  5
47BF
100
AcDbEntity
  8
0
100
AcDbLine
 10
1351.25362
 20
649.046136
 30
0.0
 11
1333.877899
 21
649.046136
 31
0.0
  0
LINE
  5
47C0
100
AcDbEntity
  8
0
100
AcDbLine
 10
1382.15362
 20
685.546136
 30
0.0
 11
1382.15362
 21
627.031748
 31
0.0
  0
LINE
  5
47C1
100
AcDbEntity
  8
0
100
AcDbLine
 10
1398.15362
 20
627.319518
 30
0.0
 11
1398.15362
 21
685.546136
 31
0.0
  0
LINE
  5
47C2
100
AcDbEntity
  8
0
100
AcDbLine
 10
1337.15362
 20
805.832916
 30
0.0
 11
1324.65362
 21
805.832916
 31
0.0
  0
ARC
  5
47C3
100
AcDbEntity
  8
0
100
AcDbCircle
 10
1303.15362
 20
816.332916
 30
0.0
 40
3.0
100
AcDbArc
 50
90.0
 51
180.0
  0
LINE
  5
47C4
100
AcDbEntity
  8
0
100
AcDbLine
 10
1303.65362
 20
816.060577
 30
0.0
 11
1303.65362
 21
829.894577
 31
0.0
  0
LINE
  5
47C5
100
AcDbEntity
  8
0
100
AcDbLine
 10
1304.73662
 20
830.977577
 30
0.0
 11
1304.73662
 21
814.977577
 31
0.0
  0
ARC
  5
47C6
100
AcDbEntity
  8
0
100
AcDbCircle
 10
1277.15362
 20
816.652842
 30
0.0
 40
3.0
100
AcDbArc
 50
0.0
 51
73.741691
  0
LINE
  5
47C7
100
AcDbEntity
  8
0
100
AcDbLine
 10
1284.15362
 20
807.332916
 30
0.0
 11
1280.15362
 21
816.332916
 31
0.0
  0
LINE
  5
47C8
100
AcDbEntity
  8
0
100
AcDbLine
 10
1300.15362
 20
816.332916
 30
0.0
 11
1280.15362
 21
816.332916
 31
0.0
  0
LINE
  5
47C9
100
AcDbEntity
  8
0
100
AcDbLine
 10
1280.15362
 20
816.332916
 30
0.0
 11
1280.15362
 21
816.652842
 31
0.0
  0
LINE
  5
47CA
100
AcDbEntity
  8
0
100
AcDbLine
 10
1312.65362
 20
805.832916
 30
0.0
 11
1324.65362
 21
805.832916
 31
0.0
  0
ARC
  5
47CB
100
AcDbEntity
  8
0
100
AcDbCircle
 10
1312.65362
 20
807.832916
 30
0.0
 40
2.0
100
AcDbArc
 50
180.0
 51
270.0
  0
LINE
  5
47CC
100
AcDbEntity
  8
0
100
AcDbLine
 10
1296.15362
 20
807.332916
 30
0.0
 11
1300.15362
 21
816.332916
 31
0.0
  0
LINE
  5
47CD
100
AcDbEntity
  8
0
100
AcDbLine
 10
1304.73662
 20
814.977577
 30
0.0
 11
1303.65362
 21
816.060577
 31
0.0
  0
LINE
  5
47CE
100
AcDbEntity
  8
0
100
AcDbLine
 10
1310.65362
 20
814.977577
 30
0.0
 11
1304.73662
 21
814.977577
 31
0.0
  0
LINE
  5
47CF
100
AcDbEntity
  8
0
100
AcDbLine
 10
1284.15362
 20
807.332916
 30
0.0
 11
1296.15362
 21
807.332916
 31
0.0
  0
ARC
  5
47D0
100
AcDbEntity
  8
0
100
AcDbCircle
 10
1272.42934
 20
879.332916
 30
0.0
 40
5.0
100
AcDbArc
 50
270.0
 51
0.0
  0
ARC
  5
47D1
100
AcDbEntity
  8
0
100
AcDbCircle
 10
1255.05362
 20
869.332916
 30
0.0
 40
5.0
100
AcDbArc
 50
90.0
 51
180.0
  0
ARC
  5
47D2
100
AcDbEntity
  8
0
100
AcDbCircle
 10
1263.481689
 20
879.332916
 30
0.0
 40
5.0
100
AcDbArc
 50
270.0
 51
0.0
  0
LINE
  5
47D3
100
AcDbEntity
  8
0
100
AcDbLine
 10
1255.05362
 20
874.332916
 30
0.0
 11
1272.42934
 21
874.332916
 31
0.0
  0
ARC
  5
47D4
100
AcDbEntity
  8
0
100
AcDbCircle
 10
1272.42934
 20
837.332916
 30
0.0
 40
5.0
100
AcDbArc
 50
0.0
 51
90.0
  0
ARC
  5
47D5
100
AcDbEntity
  8
0
100
AcDbCircle
 10
1267.187594
 20
819.832916
 30
0.0
 40
5.0
100
AcDbArc
 50
60.0
 51
90.0
  0
LINE
  5
47D6
100
AcDbEntity
  8
0
100
AcDbLine
 10
1268.481689
 20
827.19662
 30
0.0
 11
1268.481689
 21
837.332916
 31
0.0
  0
LINE
  5
47D7
100
AcDbEntity
  8
0
100
AcDbLine
 10
1277.42934
 20
823.254429
 30
0.0
 11
1277.42934
 21
837.332916
 31
0.0
  0
ARC
  5
47D8
100
AcDbEntity
  8
0
100
AcDbCircle
 10
1255.05362
 20
829.832916
 30
0.0
 40
5.0
100
AcDbArc
 50
194.477512
 51
270.0
  0
ARC
  5
47D9
100
AcDbEntity
  8
0
100
AcDbCircle
 10
1245.371161
 20
827.332916
 30
0.0
 40
5.0
100
AcDbArc
 50
14.477512
 51
90.0
  0
ARC
  5
47DA
100
AcDbEntity
  8
0
100
AcDbCircle
 10
1255.05362
 20
847.332916
 30
0.0
 40
5.0
100
AcDbArc
 50
180.0
 51
270.0
  0
ARC
  5
47DB
100
AcDbEntity
  8
0
100
AcDbCircle
 10
1263.481689
 20
837.332916
 30
0.0
 40
5.0
100
AcDbArc
 50
0.0
 51
90.0
  0
LINE
  5
47DC
100
AcDbEntity
  8
0
100
AcDbLine
 10
1255.05362
 20
824.832916
 30
0.0
 11
1267.187594
 21
824.832916
 31
0.0
  0
LINE
  5
47DD
100
AcDbEntity
  8
0
100
AcDbLine
 10
1255.05362
 20
842.332916
 30
0.0
 11
1272.42934
 21
842.332916
 31
0.0
  0
ARC
  5
47DE
100
AcDbEntity
  8
0
100
AcDbCircle
 10
1279.393366
 20
824.332916
 30
0.0
 40
5.0
100
AcDbArc
 50
240.0
 51
253.741691
  0
LINE
  5
47DF
100
AcDbEntity
  8
0
100
AcDbLine
 10
1276.893366
 20
820.002789
 30
0.0
 11
1269.687594
 21
824.163043
 31
0.0
  0
LINE
  5
47E0
100
AcDbEntity
  8
0
100
AcDbLine
 10
1239.15362
 20
832.332916
 30
0.0
 11
1245.371161
 21
832.332916
 31
0.0
  0
LINE
  5
47E1
100
AcDbEntity
  8
0
100
AcDbLine
 10
1303.65362
 20
829.894577
 30
0.0
 11
1304.73662
 21
830.977577
 31
0.0
  0
LINE
  5
47E2
100
AcDbEntity
  8
0
100
AcDbLine
 10
1304.73662
 20
830.977577
 30
0.0
 11
1310.65362
 21
830.977577
 31
0.0
  0
LINE
  5
47E3
100
AcDbEntity
  8
0
100
AcDbLine
 10
1303.15362
 20
819.332916
 30
0.0
 11
1303.65362
 21
819.332916
 31
0.0
  0
ARC
  5
47E4
100
AcDbEntity
  8
0
100
AcDbCircle
 10
1290.590275
 20
801.302628
 30
0.0
 40
20.780944
100
AcDbArc
 50
63.334497
 51
119.07351
  0
LINE
  5
47E5
100
AcDbEntity
  8
0
100
AcDbLine
 10
1398.15362
 20
788.332916
 30
0.0
 11
1398.15362
 21
858.332916
 31
0.0
  0
ARC
  5
47E6
100
AcDbEntity
  8
0
100
AcDbCircle
 10
1323.718195
 20
822.977077
 30
0.0
 40
24.653145
100
AcDbArc
 50
343.680185
 51
16.319815
  0
LINE
  5
47E7
100
AcDbEntity
  8
0
100
AcDbLine
 10
1348.65362
 20
811.330577
 30
0.0
 11
1348.65362
 21
834.624577
 31
0.0
  0
LINE
  5
47E8
100
AcDbEntity
  8
0
100
AcDbLine
 10
1398.15362
 20
788.332916
 30
0.0
 11
1382.15362
 21
788.332916
 31
0.0
  0
LINE
  5
47E9
100
AcDbEntity
  8
0
100
AcDbLine
 10
1347.37802
 20
816.049577
 30
0.0
 11
1338.65362
 21
816.049577
 31
0.0
  0
LINE
  5
47EA
100
AcDbEntity
  8
0
100
AcDbLine
 10
1338.65362
 20
809.121577
 30
0.0
 11
1347.37802
 21
809.121577
 31
0.0
  0
ARC
  5
47EB
100
AcDbEntity
  8
0
100
AcDbCircle
 10
1337.15362
 20
807.332916
 30
0.0
 40
1.5
100
AcDbArc
 50
270.0
 51
0.0
  0
ARC
  5
47EC
100
AcDbEntity
  8
0
100
AcDbCircle
 10
1341.833743
 20
812.585077
 30
0.0
 40
6.537718
100
AcDbArc
 50
327.999617
 51
32.000383
  0
LINE
  5
47ED
100
AcDbEntity
  8
0
100
AcDbLine
 10
1347.37802
 20
809.121577
 30
0.0
 11
1348.65362
 21
811.330577
 31
0.0
  0
ARC
  5
47EE
100
AcDbEntity
  8
0
100
AcDbCircle
 10
1377.15362
 20
825.233897
 30
0.0
 40
5.0
100
AcDbArc
 50
0.0
 51
78.690068
  0
LINE
  5
47EF
100
AcDbEntity
  8
0
100
AcDbLine
 10
1348.65362
 20
882.041255
 30
0.0
 11
1347.37802
 21
879.832255
 31
0.0
  0
LINE
  5
47F0
100
AcDbEntity
  8
0
100
AcDbLine
 10
1347.37802
 20
879.832255
 30
0.0
 11
1338.65362
 21
879.832255
 31
0.0
  0
LINE
  5
47F1
100
AcDbEntity
  8
0
100
AcDbLine
 10
1347.37802
 20
836.833577
 30
0.0
 11
1338.65362
 21
836.833577
 31
0.0
  0
LINE
  5
47F2
100
AcDbEntity
  8
0
100
AcDbLine
 10
1347.37802
 20
829.904577
 30
0.0
 11
1338.65362
 21
829.904577
 31
0.0
  0
LINE
  5
47F3
100
AcDbEntity
  8
0
100
AcDbLine
 10
1348.65362
 20
834.624577
 30
0.0
 11
1347.37802
 21
836.833577
 31
0.0
  0
ARC
  5
47F4
100
AcDbEntity
  8
0
100
AcDbCircle
 10
1341.833766
 20
833.369077
 30
0.0
 40
6.537699
100
AcDbArc
 50
327.999511
 51
32.000489
  0
LINE
  5
47F5
100
AcDbEntity
  8
0
100
AcDbLine
 10
1348.65362
 20
831.332916
 30
0.0
 11
1353.65362
 21
832.332916
 31
0.0
  0
LINE
  5
47F6
100
AcDbEntity
  8
0
100
AcDbLine
 10
1367.15362
 20
832.332916
 30
0.0
 11
1353.65362
 21
832.332916
 31
0.0
  0
LINE
  5
47F7
100
AcDbEntity
  8
0
100
AcDbLine
 10
1378.1342
 20
830.1368
 30
0.0
 11
1367.15362
 21
832.332916
 31
0.0
  0
LINE
  5
47F8
100
AcDbEntity
  8
0
100
AcDbLine
 10
1620.531063
 20
408.431006
 30
0.0
 11
1620.531063
 21
387.157449
 31
0.0
  0
LINE
  5
47F9
100
AcDbEntity
  8
0
100
AcDbLine
 10
1907.403434
 20
418.431006
 30
0.0
 11
1907.403434
 21
460.431006
 31
0.0
  0
LINE
  5
47FA
100
AcDbEntity
  8
0
100
AcDbLine
 10
1879.403434
 20
418.431006
 30
0.0
 11
1879.403434
 21
460.431006
 31
0.0
  0
LINE
  5
47FB
100
AcDbEntity
  8
0
100
AcDbLine
 10
1862.403434
 20
418.431006
 30
0.0
 11
1924.403434
 21
418.431006
 31
0.0
  0
LINE
  5
47FC
100
AcDbEntity
  8
0
100
AcDbLine
 10
1862.403434
 20
418.431006
 30
0.0
 11
1924.403434
 21
418.431006
 31
0.0
  0
LINE
  5
47FD
100
AcDbEntity
  8
0
100
AcDbLine
 10
1862.403434
 20
418.431006
 30
0.0
 11
1862.403434
 21
395.460929
 31
0.0
  0
LINE
  5
47FE
100
AcDbEntity
  8
0
100
AcDbLine
 10
1862.403434
 20
418.431006
 30
0.0
 11
1862.403434
 21
395.460929
 31
0.0
  0
LINE
  5
47FF
100
AcDbEntity
  8
0
100
AcDbLine
 10
1924.403434
 20
418.431006
 30
0.0
 11
1924.403434
 21
395.460929
 31
0.0
  0
LINE
  5
4800
100
AcDbEntity
  8
0
100
AcDbLine
 10
1924.403434
 20
418.431006
 30
0.0
 11
1924.403434
 21
395.460929
 31
0.0
  0
LINE
  5
4801
100
AcDbEntity
  8
0
100
AcDbLine
 10
1907.403434
 20
460.431006
 30
0.0
 11
1879.403434
 21
460.431006
 31
0.0
  0
ELLIPSE
  5
4802
100
AcDbEntity
  8
0
100
AcDbEllipse
 10
1893.403434
 20
436.661566
 30
0.0
 11
-9.75
 21
0.0
 31
0.0
210
0.0
220
0.0
230
1.0
 40
0.528796
 41
0.0
 42
6.283185307179586
  0
LINE
  5
4803
100
AcDbEntity
  8
0
100
AcDbLine
 10
1877.547101
 20
462.431006
 30
0.0
 11
1909.259766
 21
462.431006
 31
0.0
  0
LINE
  5
4804
100
AcDbEntity
  8
0
100
AcDbLine
 10
1877.547101
 20
462.431006
 30
0.0
 11
1877.547101
 21
448.181006
 31
0.0
  0
LINE
  5
4805
100
AcDbEntity
  8
0
100
AcDbLine
 10
1877.547101
 20
448.181006
 30
0.0
 11
1879.403434
 21
448.181006
 31
0.0
  0
LINE
  5
4806
100
AcDbEntity
  8
0
100
AcDbLine
 10
1907.403434
 20
448.181006
 30
0.0
 11
1909.259766
 21
448.181006
 31
0.0
  0
LINE
  5
4807
100
AcDbEntity
  8
0
100
AcDbLine
 10
1909.259766
 20
462.431006
 30
0.0
 11
1909.259766
 21
448.181006
 31
0.0
  0
LINE
  5
4808
100
AcDbEntity
  8
0
100
AcDbLine
 10
1337.15362
 20
910.832916
 30
0.0
 11
1324.65362
 21
910.832916
 31
0.0
  0
ARC
  5
4809
100
AcDbEntity
  8
0
100
AcDbCircle
 10
1085.089951
 20
545.873191
 30
0.0
 40
460.0
100
AcDbArc
 50
59.337093
 51
69.004425
  0
ARC
  5
480A
100
AcDbEntity
  8
0
100
AcDbCircle
 10
1291.450332
 20
954.062465
 30
0.0
 40
65.5423
100
AcDbArc
 50
249.485771
 51
280.730491
  0
LINE
  5
480B
100
AcDbEntity
  8
0
100
AcDbLine
 10
1321.15362
 20
912.332916
 30
0.0
 11
1259.15362
 21
912.332916
 31
0.0
  0
LINE
  5
480C
100
AcDbEntity
  8
0
100
AcDbLine
 10
1320.829537
 20
940.332916
 30
0.0
 11
1259.15362
 21
940.332916
 31
0.0
  0
LINE
  5
480D
100
AcDbEntity
  8
0
100
AcDbLine
 10
1259.15362
 20
942.842699
 30
0.0
 11
1259.15362
 21
912.332916
 31
0.0
  0
ARC
  5
480E
100
AcDbEntity
  8
0
100
AcDbCircle
 10
1256.15362
 20
942.842699
 30
0.0
 40
3.0
100
AcDbArc
 50
0.0
 51
45.0
  0
ARC
  5
480F
100
AcDbEntity
  8
0
100
AcDbCircle
 10
1255.05362
 20
886.832916
 30
0.0
 40
5.0
100
AcDbArc
 50
90.0
 51
165.522488
  0
ARC
  5
4810
100
AcDbEntity
  8
0
100
AcDbCircle
 10
1245.371161
 20
889.332916
 30
0.0
 40
5.0
100
AcDbArc
 50
270.0
 51
345.522488
  0
LINE
  5
4811
100
AcDbEntity
  8
0
100
AcDbLine
 10
1255.05362
 20
891.832916
 30
0.0
 11
1258.65362
 21
891.832916
 31
0.0
  0
ARC
  5
4812
100
AcDbEntity
  8
0
100
AcDbCircle
 10
1258.65362
 20
896.832916
 30
0.0
 40
5.0
100
AcDbArc
 50
270.0
 51
0.0
  0
LINE
  5
4813
100
AcDbEntity
  8
0
100
AcDbLine
 10
1263.65362
 20
896.832916
 30
0.0
 11
1263.65362
 21
912.332916
 31
0.0
  0
LINE
  5
4814
100
AcDbEntity
  8
0
100
AcDbLine
 10
1239.15362
 20
884.332916
 30
0.0
 11
1245.371161
 21
884.332916
 31
0.0
  0
LINE
  5
4815
100
AcDbEntity
  8
0
100
AcDbLine
 10
1321.15362
 20
938.976646
 30
0.0
 11
1321.15362
 21
912.332916
 31
0.0
  0
LINE
  5
4816
100
AcDbEntity
  8
0
100
AcDbLine
 10
1312.65362
 20
910.832916
 30
0.0
 11
1324.65362
 21
910.832916
 31
0.0
  0
ARC
  5
4817
100
AcDbEntity
  8
0
100
AcDbCircle
 10
1318.590476
 20
912.831502
 30
0.0
 40
2.0
100
AcDbArc
 50
194.435674
 51
272.154765
  0
ARC
  5
4818
100
AcDbEntity
  8
0
100
AcDbCircle
 10
1312.65362
 20
908.832916
 30
0.0
 40
2.0
100
AcDbArc
 50
90.0
 51
180.0
  0
ARC
  5
4819
100
AcDbEntity
  8
0
100
AcDbCircle
 10
1318.15362
 20
938.976646
 30
0.0
 40
3.0
100
AcDbArc
 50
0.0
 51
59.337093
  0
LINE
  5
481A
100
AcDbEntity
  8
0
100
AcDbLine
 10
1304.73662
 20
885.688255
 30
0.0
 11
1304.73662
 21
901.688255
 31
0.0
  0
LINE
  5
481B
100
AcDbEntity
  8
0
100
AcDbLine
 10
1303.65362
 20
900.605255
 30
0.0
 11
1303.65362
 21
886.771255
 31
0.0
  0
LINE
  5
481C
100
AcDbEntity
  8
0
100
AcDbLine
 10
1303.65362
 20
886.771255
 30
0.0
 11
1304.73662
 21
885.688255
 31
0.0
  0
LINE
  5
481D
100
AcDbEntity
  8
0
100
AcDbLine
 10
1304.73662
 20
901.688255
 30
0.0
 11
1303.65362
 21
900.605255
 31
0.0
  0
LINE
  5
481E
100
AcDbEntity
  8
0
100
AcDbLine
 10
1304.73662
 20
885.688255
 30
0.0
 11
1310.65362
 21
885.688255
 31
0.0
  0
LINE
  5
481F
100
AcDbEntity
  8
0
100
AcDbLine
 10
1310.65362
 20
901.688255
 30
0.0
 11
1304.73662
 21
901.688255
 31
0.0
  0
LINE
  5
4820
100
AcDbEntity
  8
0
100
AcDbLine
 10
1398.15362
 20
928.332916
 30
0.0
 11
1382.15362
 21
928.332916
 31
0.0
  0
ARC
  5
4821
100
AcDbEntity
  8
0
100
AcDbCircle
 10
1377.15362
 20
891.431936
 30
0.0
 40
5.0
100
AcDbArc
 50
281.309932
 51
0.0
  0
LINE
  5
4822
100
AcDbEntity
  8
0
100
AcDbLine
 10
1338.65362
 20
907.544255
 30
0.0
 11
1347.37802
 21
907.544255
 31
0.0
  0
ARC
  5
4823
100
AcDbEntity
  8
0
100
AcDbCircle
 10
1337.15362
 20
909.332916
 30
0.0
 40
1.5
100
AcDbArc
 50
0.0
 51
90.0
  0
LINE
  5
4824
100
AcDbEntity
  8
0
100
AcDbLine
 10
1347.37802
 20
886.761255
 30
0.0
 11
1338.65362
 21
886.761255
 31
0.0
  0
LINE
  5
4825
100
AcDbEntity
  8
0
100
AcDbLine
 10
1347.37802
 20
900.616255
 30
0.0
 11
1338.65362
 21
900.616255
 31
0.0
  0
ARC
  5
4826
100
AcDbEntity
  8
0
100
AcDbCircle
 10
1323.718195
 20
893.688755
 30
0.0
 40
24.653145
100
AcDbArc
 50
343.680185
 51
16.319815
  0
LINE
  5
4827
100
AcDbEntity
  8
0
100
AcDbLine
 10
1348.65362
 20
885.332916
 30
0.0
 11
1353.65362
 21
884.332916
 31
0.0
  0
LINE
  5
4828
100
AcDbEntity
  8
0
100
AcDbLine
 10
1367.15362
 20
884.332916
 30
0.0
 11
1353.65362
 21
884.332916
 31
0.0
  0
LINE
  5
4829
100
AcDbEntity
  8
0
100
AcDbLine
 10
1347.37802
 20
907.544255
 30
0.0
 11
1348.65362
 21
905.335255
 31
0.0
  0
ARC
  5
482A
100
AcDbEntity
  8
0
100
AcDbCircle
 10
1341.833743
 20
904.080755
 30
0.0
 40
6.537718
100
AcDbArc
 50
327.999617
 51
32.000383
  0
LINE
  5
482B
100
AcDbEntity
  8
0
100
AcDbLine
 10
1378.1342
 20
886.529032
 30
0.0
 11
1367.15362
 21
884.332916
 31
0.0
  0
ARC
  5
482C
100
AcDbEntity
  8
0
100
AcDbCircle
 10
1916.471961
 20
992.832916
 30
0.0
 40
3.5
100
AcDbArc
 50
90.0
 51
180.0
  0
LINE
  5
482D
100
AcDbEntity
  8
0
100
AcDbLine
 10
1912.971961
 20
989.723909
 30
0.0
 11
1912.971961
 21
992.832916
 31
0.0
  0
ARC
  5
482E
100
AcDbEntity
  8
0
100
AcDbCircle
 10
1916.471961
 20
989.723909
 30
0.0
 40
3.5
100
AcDbArc
 50
180.0
 51
268.187447
  0
LINE
  5
482F
100
AcDbEntity
  8
0
100
AcDbLine
 10
2236.971961
 20
935.832916
 30
0.0
 11
2236.971961
 21
780.832916
 31
0.0
  0
LINE
  5
4830
100
AcDbEntity
  8
0
100
AcDbLine
 10
2252.971961
 20
858.332916
 30
0.0
 11
2252.971961
 21
935.832916
 31
0.0
  0
LINE
  5
4831
100
AcDbEntity
  8
0
100
AcDbLine
 10
2173.971961
 20
916.332916
 30
0.0
 11
2173.971961
 21
858.332916
 31
0.0
  0
LINE
  5
4832
100
AcDbEntity
  8
0
100
AcDbLine
 10
2189.971961
 20
914.832916
 30
0.0
 11
2189.971961
 21
801.832916
 31
0.0
  0
LINE
  5
4833
100
AcDbEntity
  8
0
100
AcDbLine
 10
2157.971961
 20
802.332916
 30
0.0
 11
2157.971961
 21
914.332916
 31
0.0
  0
LINE
  5
4834
100
AcDbEntity
  8
0
100
AcDbLine
 10
2104.21431
 20
894.981428
 30
0.0
 11
2104.21431
 21
882.332916
 31
0.0
  0
LINE
  5
4835
100
AcDbEntity
  8
0
100
AcDbLine
 10
2113.029611
 20
897.168303
 30
0.0
 11
2113.029611
 21
882.332916
 31
0.0
  0
LINE
  5
4836
100
AcDbEntity
  8
0
100
AcDbLine
 10
2085.871961
 20
823.718036
 30
0.0
 11
2085.871961
 21
892.947796
 31
0.0
  0
LINE
  5
4837
100
AcDbEntity
  8
0
100
AcDbLine
 10
2058.971961
 20
935.832916
 30
0.0
 11
2058.971961
 21
780.832916
 31
0.0
  0
LINE
  5
4838
100
AcDbEntity
  8
0
100
AcDbLine
 10
2042.971961
 20
858.332916
 30
0.0
 11
2042.971961
 21
935.832916
 31
0.0
  0
ARC
  5
4839
100
AcDbEntity
  8
0
100
AcDbCircle
 10
2322.971961
 20
615.546136
 30
0.0
 40
60.0
100
AcDbArc
 50
352.11097
 51
7.88903
  0
LINE
  5
483A
100
AcDbEntity
  8
0
100
AcDbLine
 10
2239.971961
 20
603.569814
 30
0.0
 11
2239.971961
 21
627.522459
 31
0.0
  0
LINE
  5
483B
100
AcDbEntity
  8
0
100
AcDbLine
 10
2237.971961
 20
603.607193
 30
0.0
 11
2237.971961
 21
627.485079
 31
0.0
  0
LINE
  5
483C
100
AcDbEntity
  8
0
100
AcDbLine
 10
2212.971961
 20
605.146136
 30
0.0
 11
2212.971961
 21
625.946136
 31
0.0
  0
LINE
  5
483D
100
AcDbEntity
  8
0
100
AcDbLine
 10
2121.971961
 20
673.546136
 30
0.0
 11
2121.971961
 21
615.546136
 31
0.0
  0
LINE
  5
483E
100
AcDbEntity
  8
0
100
AcDbLine
 10
2105.971961
 20
672.046136
 30
0.0
 11
2105.971961
 21
559.046136
 31
0.0
  0
LINE
  5
483F
100
AcDbEntity
  8
0
100
AcDbLine
 10
2058.971961
 20
693.046136
 30
0.0
 11
2058.971961
 21
538.046136
 31
0.0
  0
LINE
  5
4840
100
AcDbEntity
  8
0
100
AcDbLine
 10
2042.971961
 20
615.546136
 30
0.0
 11
2042.971961
 21
693.046136
 31
0.0
  0
CIRCLE
  5
4841
100
AcDbEntity
  8
0
100
AcDbCircle
 10
2162.971961
 20
615.546136
 30
0.0
 40
9.75
  0
CIRCLE
  5
4842
100
AcDbEntity
  8
0
100
AcDbCircle
 10
2162.971961
 20
615.546136
 30
0.0
 40
6.75
  0
ARC
  5
4843
100
AcDbEntity
  8
0
100
AcDbCircle
 10
2162.971961
 20
615.546136
 30
0.0
 40
31.0
100
AcDbArc
 50
26.847213
 51
333.152787
  0
LINE
  5
4844
100
AcDbEntity
  8
0
100
AcDbLine
 10
2252.971961
 20
401.931006
 30
0.0
 11
2236.971961
 21
401.931006
 31
0.0
  0
LINE
  5
4845
100
AcDbEntity
  8
0
100
AcDbLine
 10
2224.971961
 20
447.431006
 30
0.0
 11
2379.582665
 21
452.32375
 31
0.0
  0
LINE
  5
4846
100
AcDbEntity
  8
0
100
AcDbLine
 10
2239.971961
 20
462.431006
 30
0.0
 11
2379.471961
 21
462.431006
 31
0.0
  0
LINE
  5
4847
100
AcDbEntity
  8
0
100
AcDbLine
 10
2252.971961
 20
538.046136
 30
0.0
 11
2236.971961
 21
538.046136
 31
0.0
  0
LINE
  5
4848
100
AcDbEntity
  8
0
100
AcDbLine
 10
2212.971961
 20
602.546136
 30
0.0
 11
2373.489284
 21
599.546136
 31
0.0
  0
LINE
  5
4849
100
AcDbEntity
  8
0
100
AcDbLine
 10
2137.971961
 20
374.647873
 30
0.0
 11
2139.888961
 21
374.647873
 31
0.0
  0
LINE
  5
484A
100
AcDbEntity
  8
0
100
AcDbLine
 10
2132.467113
 20
418.431006
 30
0.0
 11
2195.971961
 21
418.431006
 31
0.0
  0
ARC
  5
484B
100
AcDbEntity
  8
0
100
AcDbCircle
 10
2410.913919
 20
-20.421342
 30
0.0
 40
520.0
100
AcDbArc
 50
112.374423
 51
122.258289
  0
LINE
  5
484C
100
AcDbEntity
  8
0
100
AcDbLine
 10
2131.971961
 20
388.431006
 30
0.0
 11
2193.971961
 21
388.431006
 31
0.0
  0
LINE
  5
484D
100
AcDbEntity
  8
0
100
AcDbLine
 10
2042.971961
 20
401.931006
 30
0.0
 11
2058.971961
 21
401.931006
 31
0.0
  0
ARC
  5
484E
100
AcDbEntity
  8
0
100
AcDbCircle
 10
2134.971961
 20
416.780025
 30
0.0
 40
3.0
100
AcDbArc
 50
122.258289
 51
180.0
  0
ARC
  5
484F
100
AcDbEntity
  8
0
100
AcDbCircle
 10
2135.971961
 20
380.431006
 30
0.0
 40
2.0
100
AcDbArc
 50
0.0
 51
90.0
  0
LINE
  5
4850
100
AcDbEntity
  8
0
100
AcDbLine
 10
2131.971961
 20
384.431006
 30
0.0
 11
2131.971961
 21
386.431006
 31
0.0
  0
ARC
  5
4851
100
AcDbEntity
  8
0
100
AcDbCircle
 10
2129.971961
 20
384.431006
 30
0.0
 40
2.0
100
AcDbArc
 50
270.0
 51
0.0
  0
LINE
  5
4852
100
AcDbEntity
  8
0
100
AcDbLine
 10
2131.971961
 20
386.431006
 30
0.0
 11
2133.971961
 21
388.431006
 31
0.0
  0
LINE
  5
4853
100
AcDbEntity
  8
0
100
AcDbLine
 10
2135.971961
 20
382.431006
 30
0.0
 11
2121.971961
 21
382.431006
 31
0.0
  0
ARC
  5
4854
100
AcDbEntity
  8
0
100
AcDbCircle
 10
2120.907385
 20
366.648373
 30
0.0
 40
24.653145
100
AcDbArc
 50
163.680185
 51
196.319815
  0
ARC
  5
4855
100
AcDbEntity
  8
0
100
AcDbCircle
 10
2102.791837
 20
377.040373
 30
0.0
 40
6.537718
100
AcDbArc
 50
147.999617
 51
212.000383
  0
ARC
  5
4856
100
AcDbEntity
  8
0
100
AcDbCircle
 10
2107.471961
 20
380.931006
 30
0.0
 40
1.5
100
AcDbArc
 50
90.0
 51
180.0
  0
LINE
  5
4857
100
AcDbEntity
  8
0
100
AcDbLine
 10
2097.247561
 20
373.575873
 30
0.0
 11
2105.971961
 21
373.575873
 31
0.0
  0
LINE
  5
4858
100
AcDbEntity
  8
0
100
AcDbLine
 10
2105.971961
 20
380.503873
 30
0.0
 11
2097.247561
 21
380.503873
 31
0.0
  0
LINE
  5
4859
100
AcDbEntity
  8
0
100
AcDbLine
 10
2097.247561
 20
359.720873
 30
0.0
 11
2105.971961
 21
359.720873
 31
0.0
  0
LINE
  5
485A
100
AcDbEntity
  8
0
100
AcDbLine
 10
2097.247561
 20
380.503873
 30
0.0
 11
2095.971961
 21
378.294873
 31
0.0
  0
LINE
  5
485B
100
AcDbEntity
  8
0
100
AcDbLine
 10
2107.471961
 20
382.431006
 30
0.0
 11
2121.971961
 21
382.431006
 31
0.0
  0
LINE
  5
485C
100
AcDbEntity
  8
0
100
AcDbLine
 10
2131.971961
 20
416.780025
 30
0.0
 11
2131.971961
 21
388.431006
 31
0.0
  0
LINE
  5
485D
100
AcDbEntity
  8
0
100
AcDbLine
 10
2239.971961
 20
462.431006
 30
0.0
 11
2195.436427
 21
417.895472
 31
0.0
  0
LINE
  5
485E
100
AcDbEntity
  8
0
100
AcDbLine
 10
2140.971961
 20
373.564873
 30
0.0
 11
2140.971961
 21
359.730873
 31
0.0
  0
LINE
  5
485F
100
AcDbEntity
  8
0
100
AcDbLine
 10
2139.888961
 20
374.647873
 30
0.0
 11
2140.971961
 21
373.564873
 31
0.0
  0
ARC
  5
4860
100
AcDbEntity
  8
0
100
AcDbCircle
 10
2165.978605
 20
461.045838
 30
0.0
 40
99.235266
100
AcDbArc
 50
255.40449
 51
283.678815
  0
ARC
  5
4861
100
AcDbEntity
  8
0
100
AcDbCircle
 10
2198.971961
 20
414.359938
 30
0.0
 40
5.0
100
AcDbArc
 50
135.0
 51
180.0
  0
LINE
  5
4862
100
AcDbEntity
  8
0
100
AcDbLine
 10
2193.971961
 20
365.931006
 30
0.0
 11
2193.971961
 21
386.431006
 31
0.0
  0
LINE
  5
4863
100
AcDbEntity
  8
0
100
AcDbLine
 10
2205.197841
 20
362.931006
 30
0.0
 11
2196.971961
 21
362.931006
 31
0.0
  0
ARC
  5
4864
100
AcDbEntity
  8
0
100
AcDbCircle
 10
2196.971961
 20
365.931006
 30
0.0
 40
3.0
100
AcDbArc
 50
180.0
 51
270.0
  0
LINE
  5
4865
100
AcDbEntity
  8
0
100
AcDbLine
 10
2193.971961
 20
386.431006
 30
0.0
 11
2191.971961
 21
388.431006
 31
0.0
  0
LINE
  5
4866
100
AcDbEntity
  8
0
100
AcDbLine
 10
2193.971961
 20
414.359938
 30
0.0
 11
2193.971961
 21
388.431006
 31
0.0
  0
LINE
  5
4867
100
AcDbEntity
  8
0
100
AcDbLine
 10
2212.971961
 20
460.431006
 30
0.0
 11
2237.971961
 21
460.431006
 31
0.0
  0
LINE
  5
4868
100
AcDbEntity
  8
0
100
AcDbLine
 10
2139.888961
 20
581.32927
 30
0.0
 11
2137.971961
 21
581.32927
 31
0.0
  0
LINE
  5
4869
100
AcDbEntity
  8
0
100
AcDbLine
 10
2137.971961
 20
565.32927
 30
0.0
 11
2139.888961
 21
565.32927
 31
0.0
  0
LINE
  5
486A
100
AcDbEntity
  8
0
100
AcDbLine
 10
2138.785187
 20
601.546136
 30
0.0
 11
2212.971961
 21
602.546136
 31
0.0
  0
LINE
  5
486B
100
AcDbEntity
  8
0
100
AcDbLine
 10
2138.785187
 20
601.546136
 30
0.0
 11
2190.630594
 21
601.546136
 31
0.0
  0
LINE
  5
486C
100
AcDbEntity
  8
0
100
AcDbLine
 10
2042.971961
 20
538.046136
 30
0.0
 11
2042.971961
 21
615.546136
 31
0.0
  0
LINE
  5
486D
100
AcDbEntity
  8
0
100
AcDbLine
 10
2042.971961
 20
538.046136
 30
0.0
 11
2058.971961
 21
538.046136
 31
0.0
  0
LINE
  5
486E
100
AcDbEntity
  8
0
100
AcDbLine
 10
2073.971961
 20
584.546136
 30
0.0
 11
2090.971961
 21
584.546136
 31
0.0
  0
LINE
  5
486F
100
AcDbEntity
  8
0
100
AcDbLine
 10
2062.99138
 20
582.35002
 30
0.0
 11
2073.971961
 21
584.546136
 31
0.0
  0
ARC
  5
4870
100
AcDbEntity
  8
0
100
AcDbCircle
 10
2063.971961
 20
577.447117
 30
0.0
 40
5.0
100
AcDbArc
 50
101.309932
 51
180.0
  0
ARC
  5
4871
100
AcDbEntity
  8
0
100
AcDbCircle
 10
2138.785187
 20
599.546136
 30
0.0
 40
2.0
100
AcDbArc
 50
90.0
 51
213.485377
  0
ARC
  5
4872
100
AcDbEntity
  8
0
100
AcDbCircle
 10
2135.971961
 20
559.546136
 30
0.0
 40
2.0
100
AcDbArc
 50
270.0
 51
0.0
  0
LINE
  5
4873
100
AcDbEntity
  8
0
100
AcDbLine
 10
2135.971961
 20
557.546136
 30
0.0
 11
2121.971961
 21
557.546136
 31
0.0
  0
ARC
  5
4874
100
AcDbEntity
  8
0
100
AcDbCircle
 10
2107.471961
 20
559.046136
 30
0.0
 40
1.5
100
AcDbArc
 50
180.0
 51
270.0
  0
LINE
  5
4875
100
AcDbEntity
  8
0
100
AcDbLine
 10
2095.971961
 20
584.97627
 30
0.0
 11
2097.247561
 21
587.18527
 31
0.0
  0
ARC
  5
4876
100
AcDbEntity
  8
0
100
AcDbCircle
 10
2102.791814
 20
583.72077
 30
0.0
 40
6.537699
100
AcDbArc
 50
147.999511
 51
212.000489
  0
ARC
  5
4877
100
AcDbEntity
  8
0
100
AcDbCircle
 10
2102.791837
 20
562.93677
 30
0.0
 40
6.537718
100
AcDbArc
 50
147.999617
 51
212.000383
  0
LINE
  5
4878
100
AcDbEntity
  8
0
100
AcDbLine
 10
2097.247561
 20
559.47327
 30
0.0
 11
2095.971961
 21
561.68227
 31
0.0
  0
ARC
  5
4879
100
AcDbEntity
  8
0
100
AcDbCircle
 10
2120.907385
 20
573.32877
 30
0.0
 40
24.653145
100
AcDbArc
 50
163.680185
 51
196.319815
  0
LINE
  5
487A
100
AcDbEntity
  8
0
100
AcDbLine
 10
2095.971961
 20
583.546136
 30
0.0
 11
2090.971961
 21
584.546136
 31
0.0
  0
LINE
  5
487B
100
AcDbEntity
  8
0
100
AcDbLine
 10
2095.971961
 20
561.68227
 30
0.0
 11
2095.971961
 21
584.97627
 31
0.0
  0
LINE
  5
487C
100
AcDbEntity
  8
0
100
AcDbLine
 10
2097.247561
 20
566.40127
 30
0.0
 11
2105.971961
 21
566.40127
 31
0.0
  0
LINE
  5
487D
100
AcDbEntity
  8
0
100
AcDbLine
 10
2105.971961
 20
559.47327
 30
0.0
 11
2097.247561
 21
559.47327
 31
0.0
  0
LINE
  5
487E
100
AcDbEntity
  8
0
100
AcDbLine
 10
2097.247561
 20
587.18527
 30
0.0
 11
2105.971961
 21
587.18527
 31
0.0
  0
LINE
  5
487F
100
AcDbEntity
  8
0
100
AcDbLine
 10
2097.247561
 20
580.25627
 30
0.0
 11
2105.971961
 21
580.25627
 31
0.0
  0
LINE
  5
4880
100
AcDbEntity
  8
0
100
AcDbLine
 10
2107.471961
 20
557.546136
 30
0.0
 11
2121.971961
 21
557.546136
 31
0.0
  0
LINE
  5
4881
100
AcDbEntity
  8
0
100
AcDbLine
 10
2121.971961
 20
557.546136
 30
0.0
 11
2121.971961
 21
615.546136
 31
0.0
  0
LINE
  5
4882
100
AcDbEntity
  8
0
100
AcDbLine
 10
2137.971961
 20
559.546136
 30
0.0
 11
2137.971961
 21
597.215834
 31
0.0
  0
LINE
  5
4883
100
AcDbEntity
  8
0
100
AcDbLine
 10
2236.971961
 20
602.097587
 30
0.0
 11
2236.971961
 21
538.046136
 31
0.0
  0
LINE
  5
4884
100
AcDbEntity
  8
0
100
AcDbLine
 10
2205.197841
 20
577.046136
 30
0.0
 11
2187.91431
 21
577.046136
 31
0.0
  0
LINE
  5
4885
100
AcDbEntity
  8
0
100
AcDbLine
 10
2205.071961
 20
568.546136
 30
0.0
 11
2140.971961
 21
568.546136
 31
0.0
  0
ARC
  5
4886
100
AcDbEntity
  8
0
100
AcDbCircle
 10
2187.91431
 20
591.546136
 30
0.0
 40
5.0
100
AcDbArc
 50
176.878874
 51
180.0
  0
ARC
  5
4887
100
AcDbEntity
  8
0
100
AcDbCircle
 10
2187.91431
 20
582.046136
 30
0.0
 40
5.0
100
AcDbArc
 50
180.0
 51
270.0
  0
LINE
  5
4888
100
AcDbEntity
  8
0
100
AcDbLine
 10
2182.91431
 20
582.046136
 30
0.0
 11
2182.91431
 21
591.546136
 31
0.0
  0
LINE
  5
4889
100
AcDbEntity
  8
0
100
AcDbLine
 10
2140.971961
 20
580.24627
 30
0.0
 11
2139.888961
 21
581.32927
 31
0.0
  0
LINE
  5
488A
100
AcDbEntity
  8
0
100
AcDbLine
 10
2139.888961
 20
565.32927
 30
0.0
 11
2140.971961
 21
566.41227
 31
0.0
  0
LINE
  5
488B
100
AcDbEntity
  8
0
100
AcDbLine
 10
2140.971961
 20
566.41227
 30
0.0
 11
2140.971961
 21
580.24627
 31
0.0
  0
LINE
  5
488C
100
AcDbEntity
  8
0
100
AcDbLine
 10
2139.888961
 20
581.32927
 30
0.0
 11
2139.888961
 21
565.32927
 31
0.0
  0
LINE
  5
488D
100
AcDbEntity
  8
0
100
AcDbLine
 10
2148.971961
 20
568.546136
 30
0.0
 11
2140.971961
 21
568.546136
 31
0.0
  0
ARC
  5
488E
100
AcDbEntity
  8
0
100
AcDbCircle
 10
2238.471961
 20
603.569814
 30
0.0
 40
1.5
100
AcDbArc
 50
268.929291
 51
0.0
  0
ARC
  5
488F
100
AcDbEntity
  8
0
100
AcDbCircle
 10
2236.471961
 20
603.607193
 30
0.0
 40
1.5
100
AcDbArc
 50
268.929291
 51
0.0
  0
LINE
  5
4890
100
AcDbEntity
  8
0
100
AcDbLine
 10
2190.630594
 20
601.546136
 30
0.0
 11
2212.971961
 21
602.546136
 31
0.0
  0
LINE
  5
4891
100
AcDbEntity
  8
0
100
AcDbLine
 10
2221.971961
 20
584.546136
 30
0.0
 11
2232.952541
 21
582.35002
 31
0.0
  0
LINE
  5
4892
100
AcDbEntity
  8
0
100
AcDbLine
 10
2221.971961
 20
584.546136
 30
0.0
 11
2214.071961
 21
584.546136
 31
0.0
  0
ARC
  5
4893
100
AcDbEntity
  8
0
100
AcDbCircle
 10
2231.971961
 20
577.447117
 30
0.0
 40
5.0
100
AcDbArc
 50
0.0
 51
78.690068
  0
ARC
  5
4894
100
AcDbEntity
  8
0
100
AcDbCircle
 10
2205.197841
 20
582.046136
 30
0.0
 40
5.0
100
AcDbArc
 50
270.0
 51
350.405932
  0
ARC
  5
4895
100
AcDbEntity
  8
0
100
AcDbCircle
 10
2205.071961
 20
573.546136
 30
0.0
 40
5.0
100
AcDbArc
 50
270.0
 51
0.0
  0
ARC
  5
4896
100
AcDbEntity
  8
0
100
AcDbCircle
 10
2205.071961
 20
589.546136
 30
0.0
 40
5.0
100
AcDbArc
 50
270.0
 51
0.0
  0
ARC
  5
4897
100
AcDbEntity
  8
0
100
AcDbCircle
 10
2196.729611
 20
589.546136
 30
0.0
 40
5.0
100
AcDbArc
 50
180.0
 51
270.0
  0
LINE
  5
4898
100
AcDbEntity
  8
0
100
AcDbLine
 10
2196.729611
 20
584.546136
 30
0.0
 11
2205.071961
 21
584.546136
 31
0.0
  0
ARC
  5
4899
100
AcDbEntity
  8
0
100
AcDbCircle
 10
2214.071961
 20
580.546136
 30
0.0
 40
4.0
100
AcDbArc
 50
90.0
 51
170.405932
  0
LINE
  5
489A
100
AcDbEntity
  8
0
100
AcDbLine
 10
2191.729611
 20
589.546136
 30
0.0
 11
2191.729611
 21
601.595328
 31
0.0
  0
LINE
  5
489B
100
AcDbEntity
  8
0
100
AcDbLine
 10
2210.071961
 20
573.546136
 30
0.0
 11
2210.071961
 21
602.416332
 31
0.0
  0
ARC
  5
489C
100
AcDbEntity
  8
0
100
AcDbCircle
 10
2379.471961
 20
455.821999
 30
0.0
 40
3.5
100
AcDbArc
 50
271.812553
 51
0.0
  0
LINE
  5
489D
100
AcDbEntity
  8
0
100
AcDbLine
 10
2382.971961
 20
455.821999
 30
0.0
 11
2382.971961
 21
458.931006
 31
0.0
  0
ARC
  5
489E
100
AcDbEntity
  8
0
100
AcDbCircle
 10
2379.471961
 20
458.931006
 30
0.0
 40
3.5
100
AcDbArc
 50
0.0
 51
90.0
  0
LINE
  5
489F
100
AcDbEntity
  8
0
100
AcDbLine
 10
2252.971961
 20
538.046136
 30
0.0
 11
2252.971961
 21
601.798554
 31
0.0
  0
ARC
  5
48A0
100
AcDbEntity
  8
0
100
AcDbCircle
 10
2373.489284
 20
608.546136
 30
0.0
 40
9.0
100
AcDbArc
 50
270.0
 51
352.11097
  0
LINE
  5
48A1
100
AcDbEntity
  8
0
100
AcDbLine
 10
2252.971961
 20
693.046136
 30
0.0
 11
2236.971961
 21
693.046136
 31
0.0
  0
LINE
  5
48A2
100
AcDbEntity
  8
0
100
AcDbLine
 10
2212.971961
 20
628.546136
 30
0.0
 11
2373.489284
 21
631.546136
 31
0.0
  0
LINE
  5
48A3
100
AcDbEntity
  8
0
100
AcDbLine
 10
2252.971961
 20
780.832916
 30
0.0
 11
2236.971961
 21
780.832916
 31
0.0
  0
LINE
  5
48A4
100
AcDbEntity
  8
0
100
AcDbLine
 10
2137.971961
 20
665.763003
 30
0.0
 11
2139.888961
 21
665.763003
 31
0.0
  0
LINE
  5
48A5
100
AcDbEntity
  8
0
100
AcDbLine
 10
2139.888961
 20
649.763003
 30
0.0
 11
2137.971961
 21
649.763003
 31
0.0
  0
LINE
  5
48A6
100
AcDbEntity
  8
0
100
AcDbLine
 10
2138.785187
 20
629.546136
 30
0.0
 11
2212.971961
 21
628.546136
 31
0.0
  0
LINE
  5
48A7
100
AcDbEntity
  8
0
100
AcDbLine
 10
2138.785187
 20
629.546136
 30
0.0
 11
2190.630594
 21
629.546136
 31
0.0
  0
LINE
  5
48A8
100
AcDbEntity
  8
0
100
AcDbLine
 10
2073.971961
 20
646.546136
 30
0.0
 11
2090.971961
 21
646.546136
 31
0.0
  0
LINE
  5
48A9
100
AcDbEntity
  8
0
100
AcDbLine
 10
2062.99138
 20
648.742253
 30
0.0
 11
2073.971961
 21
646.546136
 31
0.0
  0
ARC
  5
48AA
100
AcDbEntity
  8
0
100
AcDbCircle
 10
2063.971961
 20
653.645156
 30
0.0
 40
5.0
100
AcDbArc
 50
180.0
 51
258.690068
  0
ARC
  5
48AB
100
AcDbEntity
  8
0
100
AcDbCircle
 10
2135.971961
 20
671.546136
 30
0.0
 40
2.0
100
AcDbArc
 50
0.0
 51
90.0
  0
LINE
  5
48AC
100
AcDbEntity
  8
0
100
AcDbLine
 10
2135.971961
 20
673.546136
 30
0.0
 11
2121.971961
 21
673.546136
 31
0.0
  0
ARC
  5
48AD
100
AcDbEntity
  8
0
100
AcDbCircle
 10
2138.785187
 20
631.546136
 30
0.0
 40
2.0
100
AcDbArc
 50
146.514623
 51
270.0
  0
LINE
  5
48AE
100
AcDbEntity
  8
0
100
AcDbLine
 10
2137.971961
 20
633.876439
 30
0.0
 11
2137.971961
 21
671.546136
 31
0.0
  0
ARC
  5
48AF
100
AcDbEntity
  8
0
100
AcDbCircle
 10
2107.471961
 20
672.046136
 30
0.0
 40
1.5
100
AcDbArc
 50
90.0
 51
180.0
  0
LINE
  5
48B0
100
AcDbEntity
  8
0
100
AcDbLine
 10
2097.247561
 20
671.619003
 30
0.0
 11
2095.971961
 21
669.410003
 31
0.0
  0
ARC
  5
48B1
100
AcDbEntity
  8
0
100
AcDbCircle
 10
2102.791837
 20
668.155503
 30
0.0
 40
6.537718
100
AcDbArc
 50
147.999617
 51
212.000383
  0
ARC
  5
48B2
100
AcDbEntity
  8
0
100
AcDbCircle
 10
2102.791814
 20
647.371503
 30
0.0
 40
6.537699
100
AcDbArc
 50
147.999511
 51
212.000489
  0
LINE
  5
48B3
100
AcDbEntity
  8
0
100
AcDbLine
 10
2095.971961
 20
646.116003
 30
0.0
 11
2097.247561
 21
643.907003
 31
0.0
  0
ARC
  5
48B4
100
AcDbEntity
  8
0
100
AcDbCircle
 10
2120.907385
 20
657.763503
 30
0.0
 40
24.653145
100
AcDbArc
 50
163.680185
 51
196.319815
  0
LINE
  5
48B5
100
AcDbEntity
  8
0
100
AcDbLine
 10
2095.971961
 20
647.546136
 30
0.0
 11
2090.971961
 21
646.546136
 31
0.0
  0
LINE
  5
48B6
100
AcDbEntity
  8
0
100
AcDbLine
 10
2095.971961
 20
669.410003
 30
0.0
 11
2095.971961
 21
646.116003
 31
0.0
  0
LINE
  5
48B7
100
AcDbEntity
  8
0
100
AcDbLine
 10
2097.247561
 20
650.836003
 30
0.0
 11
2105.971961
 21
650.836003
 31
0.0
  0
LINE
  5
48B8
100
AcDbEntity
  8
0
100
AcDbLine
 10
2097.247561
 20
643.907003
 30
0.0
 11
2105.971961
 21
643.907003
 31
0.0
  0
LINE
  5
48B9
100
AcDbEntity
  8
0
100
AcDbLine
 10
2105.971961
 20
671.619003
 30
0.0
 11
2097.247561
 21
671.619003
 31
0.0
  0
LINE
  5
48BA
100
AcDbEntity
  8
0
100
AcDbLine
 10
2097.247561
 20
664.691003
 30
0.0
 11
2105.971961
 21
664.691003
 31
0.0
  0
LINE
  5
48BB
100
AcDbEntity
  8
0
100
AcDbLine
 10
2107.471961
 20
673.546136
 30
0.0
 11
2121.971961
 21
673.546136
 31
0.0
  0
LINE
  5
48BC
100
AcDbEntity
  8
0
100
AcDbLine
 10
2042.971961
 20
693.046136
 30
0.0
 11
2058.971961
 21
693.046136
 31
0.0
  0
LINE
  5
48BD
100
AcDbEntity
  8
0
100
AcDbLine
 10
2236.971961
 20
693.046136
 30
0.0
 11
2236.971961
 21
628.994686
 31
0.0
  0
LINE
  5
48BE
100
AcDbEntity
  8
0
100
AcDbLine
 10
2205.197841
 20
654.046136
 30
0.0
 11
2187.91431
 21
654.046136
 31
0.0
  0
LINE
  5
48BF
100
AcDbEntity
  8
0
100
AcDbLine
 10
2205.071961
 20
662.546136
 30
0.0
 11
2140.971961
 21
662.546136
 31
0.0
  0
ARC
  5
48C0
100
AcDbEntity
  8
0
100
AcDbCircle
 10
2187.91431
 20
649.046136
 30
0.0
 40
5.0
100
AcDbArc
 50
90.0
 51
180.0
  0
LINE
  5
48C1
100
AcDbEntity
  8
0
100
AcDbLine
 10
2182.91431
 20
649.046136
 30
0.0
 11
2182.91431
 21
639.546136
 31
0.0
  0
ARC
  5
48C2
100
AcDbEntity
  8
0
100
AcDbCircle
 10
2187.91431
 20
639.546136
 30
0.0
 40
5.0
100
AcDbArc
 50
180.0
 51
183.121126
  0
LINE
  5
48C3
100
AcDbEntity
  8
0
100
AcDbLine
 10
2139.888961
 20
665.763003
 30
0.0
 11
2140.971961
 21
664.680003
 31
0.0
  0
LINE
  5
48C4
100
AcDbEntity
  8
0
100
AcDbLine
 10
2140.971961
 20
650.846003
 30
0.0
 11
2139.888961
 21
649.763003
 31
0.0
  0
LINE
  5
48C5
100
AcDbEntity
  8
0
100
AcDbLine
 10
2139.888961
 20
649.763003
 30
0.0
 11
2139.888961
 21
665.763003
 31
0.0
  0
LINE
  5
48C6
100
AcDbEntity
  8
0
100
AcDbLine
 10
2140.971961
 20
664.680003
 30
0.0
 11
2140.971961
 21
650.846003
 31
0.0
  0
LINE
  5
48C7
100
AcDbEntity
  8
0
100
AcDbLine
 10
2221.971961
 20
646.546136
 30
0.0
 11
2232.952541
 21
648.742253
 31
0.0
  0
LINE
  5
48C8
100
AcDbEntity
  8
0
100
AcDbLine
 10
2221.971961
 20
646.546136
 30
0.0
 11
2214.071961
 21
646.546136
 31
0.0
  0
ARC
  5
48C9
100
AcDbEntity
  8
0
100
AcDbCircle
 10
2231.971961
 20
653.645156
 30
0.0
 40
5.0
100
AcDbArc
 50
281.309932
 51
0.0
  0
ARC
  5
48CA
100
AcDbEntity
  8
0
100
AcDbCircle
 10
2238.471961
 20
627.522459
 30
0.0
 40
1.5
100
AcDbArc
 50
0.0
 51
91.070709
  0
ARC
  5
48CB
100
AcDbEntity
  8
0
100
AcDbCircle
 10
2236.471961
 20
627.485079
 30
0.0
 40
1.5
100
AcDbArc
 50
0.0
 51
91.070709
  0
ARC
  5
48CC
100
AcDbEntity
  8
0
100
AcDbCircle
 10
2205.071961
 20
657.546136
 30
0.0
 40
5.0
100
AcDbArc
 50
0.0
 51
90.0
  0
ARC
  5
48CD
100
AcDbEntity
  8
0
100
AcDbCircle
 10
2205.197841
 20
649.046136
 30
0.0
 40
5.0
100
AcDbArc
 50
9.594068
 51
90.0
  0
ARC
  5
48CE
100
AcDbEntity
  8
0
100
AcDbCircle
 10
2205.071961
 20
641.546136
 30
0.0
 40
5.0
100
AcDbArc
 50
360.0
 51
90.0
  0
ARC
  5
48CF
100
AcDbEntity
  8
0
100
AcDbCircle
 10
2196.729611
 20
641.546136
 30
0.0
 40
5.0
100
AcDbArc
 50
90.0
 51
180.0
  0
LINE
  5
48D0
100
AcDbEntity
  8
0
100
AcDbLine
 10
2196.729611
 20
646.546136
 30
0.0
 11
2205.071961
 21
646.546136
 31
0.0
  0
LINE
  5
48D1
100
AcDbEntity
  8
0
100
AcDbLine
 10
2191.729611
 20
641.546136
 30
0.0
 11
2191.729611
 21
629.496944
 31
0.0
  0
LINE
  5
48D2
100
AcDbEntity
  8
0
100
AcDbLine
 10
2210.071961
 20
628.67594
 30
0.0
 11
2210.071961
 21
657.546136
 31
0.0
  0
ARC
  5
48D3
100
AcDbEntity
  8
0
100
AcDbCircle
 10
2214.071961
 20
650.546136
 30
0.0
 40
4.0
100
AcDbArc
 50
189.594068
 51
270.0
  0
LINE
  5
48D4
100
AcDbEntity
  8
0
100
AcDbLine
 10
2190.630594
 20
629.546136
 30
0.0
 11
2212.971961
 21
628.546136
 31
0.0
  0
LINE
  5
48D5
100
AcDbEntity
  8
0
100
AcDbLine
 10
2121.971961
 20
807.332916
 30
0.0
 11
2143.971961
 21
807.332916
 31
0.0
  0
ARC
  5
48D6
100
AcDbEntity
  8
0
100
AcDbCircle
 10
2132.971961
 20
783.433631
 30
0.0
 40
29.020606
100
AcDbArc
 50
72.348123
 51
107.651877
  0
LINE
  5
48D7
100
AcDbEntity
  8
0
100
AcDbLine
 10
2126.471961
 20
797.332916
 30
0.0
 11
2139.471961
 21
797.332916
 31
0.0
  0
LINE
  5
48D8
100
AcDbEntity
  8
0
100
AcDbLine
 10
2113.029611
 20
815.106428
 30
0.0
 11
2113.029611
 21
834.332916
 31
0.0
  0
LINE
  5
48D9
100
AcDbEntity
  8
0
100
AcDbLine
 10
2111.407495
 20
812.797382
 30
0.0
 11
2105.836427
 21
818.36845
 31
0.0
  0
LINE
  5
48DA
100
AcDbEntity
  8
0
100
AcDbLine
 10
2042.971961
 20
780.832916
 30
0.0
 11
2042.971961
 21
858.332916
 31
0.0
  0
LINE
  5
48DB
100
AcDbEntity
  8
0
100
AcDbLine
 10
2042.971961
 20
780.832916
 30
0.0
 11
2058.971961
 21
780.832916
 31
0.0
  0
LINE
  5
48DC
100
AcDbEntity
  8
0
100
AcDbLine
 10
2121.971961
 20
807.332916
 30
0.0
 11
2121.971961
 21
808.332916
 31
0.0
  0
LINE
  5
48DD
100
AcDbEntity
  8
0
100
AcDbLine
 10
2118.971961
 20
811.332916
 30
0.0
 11
2114.943028
 21
811.332916
 31
0.0
  0
ARC
  5
48DE
100
AcDbEntity
  8
0
100
AcDbCircle
 10
2114.943028
 20
816.332916
 30
0.0
 40
5.0
100
AcDbArc
 50
225.0
 51
270.0
  0
ARC
  5
48DF
100
AcDbEntity
  8
0
100
AcDbCircle
 10
2118.971961
 20
808.332916
 30
0.0
 40
3.0
100
AcDbArc
 50
0.0
 51
90.0
  0
LINE
  5
48E0
100
AcDbEntity
  8
0
100
AcDbLine
 10
2121.971961
 20
807.332916
 30
0.0
 11
2126.471961
 21
797.332916
 31
0.0
  0
ARC
  5
48E1
100
AcDbEntity
  8
0
100
AcDbCircle
 10
2088.871961
 20
874.332916
 30
0.0
 40
3.0
100
AcDbArc
 50
90.0
 51
180.0
  0
ARC
  5
48E2
100
AcDbEntity
  8
0
100
AcDbCircle
 10
2090.74608
 20
824.832916
 30
0.0
 40
5.0
100
AcDbArc
 50
189.594068
 51
270.0
  0
ARC
  5
48E3
100
AcDbEntity
  8
0
100
AcDbCircle
 10
2088.871961
 20
842.332916
 30
0.0
 40
3.0
100
AcDbArc
 50
180.0
 51
270.0
  0
ARC
  5
48E4
100
AcDbEntity
  8
0
100
AcDbCircle
 10
2081.871961
 20
823.332916
 30
0.0
 40
4.0
100
AcDbArc
 50
9.594068
 51
90.0
  0
ARC
  5
48E5
100
AcDbEntity
  8
0
100
AcDbCircle
 10
2063.971961
 20
820.233897
 30
0.0
 40
5.0
100
AcDbArc
 50
101.309932
 51
180.0
  0
LINE
  5
48E6
100
AcDbEntity
  8
0
100
AcDbLine
 10
2073.971961
 20
827.332916
 30
0.0
 11
2062.99138
 21
825.1368
 31
0.0
  0
LINE
  5
48E7
100
AcDbEntity
  8
0
100
AcDbLine
 10
2073.971961
 20
827.332916
 30
0.0
 11
2081.871961
 21
827.332916
 31
0.0
  0
ARC
  5
48E8
100
AcDbEntity
  8
0
100
AcDbCircle
 10
2108.029611
 20
882.332916
 30
0.0
 40
5.0
100
AcDbArc
 50
270.0
 51
0.0
  0
LINE
  5
48E9
100
AcDbEntity
  8
0
100
AcDbLine
 10
2088.871961
 20
877.332916
 30
0.0
 11
2108.029611
 21
877.332916
 31
0.0
  0
ARC
  5
48EA
100
AcDbEntity
  8
0
100
AcDbCircle
 10
2099.21431
 20
882.332916
 30
0.0
 40
5.0
100
AcDbArc
 50
270.0
 51
0.0
  0
ARC
  5
48EB
100
AcDbEntity
  8
0
100
AcDbCircle
 10
2108.029611
 20
834.332916
 30
0.0
 40
5.0
100
AcDbArc
 50
0.0
 51
90.0
  0
ARC
  5
48EC
100
AcDbEntity
  8
0
100
AcDbCircle
 10
2102.300893
 20
814.832916
 30
0.0
 40
5.0
100
AcDbArc
 50
45.0
 51
90.0
  0
LINE
  5
48ED
100
AcDbEntity
  8
0
100
AcDbLine
 10
2104.21431
 20
821.684404
 30
0.0
 11
2104.21431
 21
834.332916
 31
0.0
  0
ARC
  5
48EE
100
AcDbEntity
  8
0
100
AcDbCircle
 10
2099.21431
 20
834.332916
 30
0.0
 40
5.0
100
AcDbArc
 50
0.0
 51
90.0
  0
LINE
  5
48EF
100
AcDbEntity
  8
0
100
AcDbLine
 10
2090.74608
 20
819.832916
 30
0.0
 11
2102.300893
 21
819.832916
 31
0.0
  0
LINE
  5
48F0
100
AcDbEntity
  8
0
100
AcDbLine
 10
2088.871961
 20
839.332916
 30
0.0
 11
2108.029611
 21
839.332916
 31
0.0
  0
LINE
  5
48F1
100
AcDbEntity
  8
0
100
AcDbLine
 10
2199.971961
 20
804.46905
 30
0.0
 11
2199.971961
 21
827.76305
 31
0.0
  0
ARC
  5
48F2
100
AcDbEntity
  8
0
100
AcDbCircle
 10
2175.036536
 20
816.11555
 30
0.0
 40
24.653145
100
AcDbArc
 50
343.680185
 51
16.319815
  0
LINE
  5
48F3
100
AcDbEntity
  8
0
100
AcDbLine
 10
2154.971961
 20
809.19905
 30
0.0
 11
2154.971961
 21
823.03305
 31
0.0
  0
LINE
  5
48F4
100
AcDbEntity
  8
0
100
AcDbLine
 10
2156.054961
 20
824.11605
 30
0.0
 11
2156.054961
 21
808.11605
 31
0.0
  0
LINE
  5
48F5
100
AcDbEntity
  8
0
100
AcDbLine
 10
2173.971961
 20
800.332916
 30
0.0
 11
2173.971961
 21
858.332916
 31
0.0
  0
LINE
  5
48F6
100
AcDbEntity
  8
0
100
AcDbLine
 10
2198.696361
 20
809.18805
 30
0.0
 11
2189.971961
 21
809.18805
 31
0.0
  0
LINE
  5
48F7
100
AcDbEntity
  8
0
100
AcDbLine
 10
2189.971961
 20
802.26005
 30
0.0
 11
2198.696361
 21
802.26005
 31
0.0
  0
ARC
  5
48F8
100
AcDbEntity
  8
0
100
AcDbCircle
 10
2188.471961
 20
801.832916
 30
0.0
 40
1.5
100
AcDbArc
 50
270.0
 51
0.0
  0
LINE
  5
48F9
100
AcDbEntity
  8
0
100
AcDbLine
 10
2146.971961
 20
811.332916
 30
0.0
 11
2154.971961
 21
811.332916
 31
0.0
  0
LINE
  5
48FA
100
AcDbEntity
  8
0
100
AcDbLine
 10
2157.971961
 20
808.11605
 30
0.0
 11
2156.054961
 21
808.11605
 31
0.0
  0
LINE
  5
48FB
100
AcDbEntity
  8
0
100
AcDbLine
 10
2156.054961
 20
808.11605
 30
0.0
 11
2154.971961
 21
809.19905
 31
0.0
  0
LINE
  5
48FC
100
AcDbEntity
  8
0
100
AcDbLine
 10
2188.471961
 20
800.332916
 30
0.0
 11
2173.971961
 21
800.332916
 31
0.0
  0
ARC
  5
48FD
100
AcDbEntity
  8
0
100
AcDbCircle
 10
2159.971961
 20
802.332916
 30
0.0
 40
2.0
100
AcDbArc
 50
180.0
 51
270.0
  0
LINE
  5
48FE
100
AcDbEntity
  8
0
100
AcDbLine
 10
2159.971961
 20
800.332916
 30
0.0
 11
2173.971961
 21
800.332916
 31
0.0
  0
LINE
  5
48FF
100
AcDbEntity
  8
0
100
AcDbLine
 10
2143.971961
 20
807.332916
 30
0.0
 11
2143.971961
 21
808.332916
 31
0.0
  0
LINE
  5
4900
100
AcDbEntity
  8
0
100
AcDbLine
 10
2139.471961
 20
797.332916
 30
0.0
 11
2143.971961
 21
807.332916
 31
0.0
  0
ARC
  5
4901
100
AcDbEntity
  8
0
100
AcDbCircle
 10
2146.971961
 20
808.332916
 30
0.0
 40
3.0
100
AcDbArc
 50
90.0
 51
180.0
  0
ARC
  5
4902
100
AcDbEntity
  8
0
100
AcDbCircle
 10
2193.152084
 20
805.72355
 30
0.0
 40
6.537718
100
AcDbArc
 50
327.999617
 51
32.000383
  0
LINE
  5
4903
100
AcDbEntity
  8
0
100
AcDbLine
 10
2198.696361
 20
802.26005
 30
0.0
 11
2199.971961
 21
804.46905
 31
0.0
  0
LINE
  5
4904
100
AcDbEntity
  8
0
100
AcDbLine
 10
2198.696361
 20
829.97205
 30
0.0
 11
2189.971961
 21
829.97205
 31
0.0
  0
LINE
  5
4905
100
AcDbEntity
  8
0
100
AcDbLine
 10
2198.696361
 20
823.04305
 30
0.0
 11
2189.971961
 21
823.04305
 31
0.0
  0
LINE
  5
4906
100
AcDbEntity
  8
0
100
AcDbLine
 10
2156.054961
 20
824.11605
 30
0.0
 11
2157.971961
 21
824.11605
 31
0.0
  0
LINE
  5
4907
100
AcDbEntity
  8
0
100
AcDbLine
 10
2154.971961
 20
823.03305
 30
0.0
 11
2156.054961
 21
824.11605
 31
0.0
  0
LINE
  5
4908
100
AcDbEntity
  8
0
100
AcDbLine
 10
2232.952541
 20
825.1368
 30
0.0
 11
2221.971961
 21
827.332916
 31
0.0
  0
LINE
  5
4909
100
AcDbEntity
  8
0
100
AcDbLine
 10
2199.971961
 20
826.332916
 30
0.0
 11
2204.971961
 21
827.332916
 31
0.0
  0
LINE
  5
490A
100
AcDbEntity
  8
0
100
AcDbLine
 10
2199.971961
 20
827.76305
 30
0.0
 11
2198.696361
 21
829.97205
 31
0.0
  0
ARC
  5
490B
100
AcDbEntity
  8
0
100
AcDbCircle
 10
2193.152107
 20
826.50755
 30
0.0
 40
6.537699
100
AcDbArc
 50
327.999511
 51
32.000489
  0
LINE
  5
490C
100
AcDbEntity
  8
0
100
AcDbLine
 10
2221.971961
 20
827.332916
 30
0.0
 11
2204.971961
 21
827.332916
 31
0.0
  0
ARC
  5
490D
100
AcDbEntity
  8
0
100
AcDbCircle
 10
2231.971961
 20
820.233897
 30
0.0
 40
5.0
100
AcDbArc
 50
0.0
 51
78.690068
  0
LINE
  5
490E
100
AcDbEntity
  8
0
100
AcDbLine
 10
2252.971961
 20
629.293719
 30
0.0
 11
2252.971961
 21
693.046136
 31
0.0
  0
ARC
  5
490F
100
AcDbEntity
  8
0
100
AcDbCircle
 10
2373.489284
 20
622.546136
 30
0.0
 40
9.0
100
AcDbArc
 50
7.88903
 51
90.0
  0
LINE
  5
4910
100
AcDbEntity
  8
0
100
AcDbLine
 10
2252.971961
 20
780.832916
 30
0.0
 11
2252.971961
 21
858.332916
 31
0.0
  0
LINE
  5
4911
100
AcDbEntity
  8
0
100
AcDbLine
 10
2430.767862
 20
418.431006
 30
0.0
 11
2492.767862
 21
418.431006
 31
0.0
  0
LINE
  5
4912
100
AcDbEntity
  8
0
100
AcDbLine
 10
2447.767862
 20
418.431006
 30
0.0
 11
2447.767862
 21
448.181006
 31
0.0
  0
LINE
  5
4913
100
AcDbEntity
  8
0
100
AcDbLine
 10
2475.767862
 20
418.431006
 30
0.0
 11
2475.767862
 21
448.181006
 31
0.0
  0
LINE
  5
4914
100
AcDbEntity
  8
0
100
AcDbLine
 10
2430.767862
 20
418.431006
 30
0.0
 11
2430.767862
 21
395.460929
 31
0.0
  0
LINE
  5
4915
100
AcDbEntity
  8
0
100
AcDbLine
 10
2445.91153
 20
448.181006
 30
0.0
 11
2477.624195
 21
448.181006
 31
0.0
  0
LINE
  5
4916
100
AcDbEntity
  8
0
100
AcDbLine
 10
2445.91153
 20
462.431006
 30
0.0
 11
2477.624195
 21
462.431006
 31
0.0
  0
LINE
  5
4917
100
AcDbEntity
  8
0
100
AcDbLine
 10
2445.91153
 20
462.431006
 30
0.0
 11
2445.91153
 21
448.181006
 31
0.0
  0
LINE
  5
4918
100
AcDbEntity
  8
0
100
AcDbLine
 10
2477.624195
 20
462.431006
 30
0.0
 11
2477.624195
 21
448.181006
 31
0.0
  0
LINE
  5
4919
100
AcDbEntity
  8
0
100
AcDbLine
 10
2492.767862
 20
418.431006
 30
0.0
 11
2492.767862
 21
395.460929
 31
0.0
  0
LINE
  5
491A
100
AcDbEntity
  8
0
100
AcDbLine
 10
2252.971961
 20
935.832916
 30
0.0
 11
2236.971961
 21
935.832916
 31
0.0
  0
ARC
  5
491B
100
AcDbEntity
  8
0
100
AcDbCircle
 10
1885.030002
 20
513.480568
 30
0.0
 40
520.0
100
AcDbArc
 50
57.741711
 51
67.625577
  0
LINE
  5
491C
100
AcDbEntity
  8
0
100
AcDbLine
 10
2163.476808
 20
952.332916
 30
0.0
 11
2099.971961
 21
952.332916
 31
0.0
  0
ARC
  5
491D
100
AcDbEntity
  8
0
100
AcDbCircle
 10
2129.965316
 20
994.947749
 30
0.0
 40
99.235266
100
AcDbArc
 50
256.321185
 51
284.59551
  0
LINE
  5
491E
100
AcDbEntity
  8
0
100
AcDbLine
 10
2163.971961
 20
922.332916
 30
0.0
 11
2101.971961
 21
922.332916
 31
0.0
  0
ARC
  5
491F
100
AcDbEntity
  8
0
100
AcDbCircle
 10
2096.971961
 20
948.261849
 30
0.0
 40
5.0
100
AcDbArc
 50
0.0
 51
45.0
  0
ARC
  5
4920
100
AcDbEntity
  8
0
100
AcDbCircle
 10
2090.74608
 20
891.832916
 30
0.0
 40
5.0
100
AcDbArc
 50
90.0
 51
170.405932
  0
ARC
  5
4921
100
AcDbEntity
  8
0
100
AcDbCircle
 10
2063.971961
 20
896.431936
 30
0.0
 40
5.0
100
AcDbArc
 50
180.0
 51
258.690068
  0
LINE
  5
4922
100
AcDbEntity
  8
0
100
AcDbLine
 10
2073.971961
 20
889.332916
 30
0.0
 11
2062.99138
 21
891.529032
 31
0.0
  0
LINE
  5
4923
100
AcDbEntity
  8
0
100
AcDbLine
 10
2073.971961
 20
889.332916
 30
0.0
 11
2081.871961
 21
889.332916
 31
0.0
  0
ARC
  5
4924
100
AcDbEntity
  8
0
100
AcDbCircle
 10
2081.871961
 20
893.332916
 30
0.0
 40
4.0
100
AcDbArc
 50
270.0
 51
350.405932
  0
LINE
  5
4925
100
AcDbEntity
  8
0
100
AcDbLine
 10
2042.971961
 20
935.832916
 30
0.0
 11
2058.971961
 21
935.832916
 31
0.0
  0
LINE
  5
4926
100
AcDbEntity
  8
0
100
AcDbLine
 10
2101.971961
 20
920.332916
 30
0.0
 11
2103.971961
 21
922.332916
 31
0.0
  0
LINE
  5
4927
100
AcDbEntity
  8
0
100
AcDbLine
 10
2101.971961
 20
899.832916
 30
0.0
 11
2101.971961
 21
920.332916
 31
0.0
  0
LINE
  5
4928
100
AcDbEntity
  8
0
100
AcDbLine
 10
2090.74608
 20
896.832916
 30
0.0
 11
2098.971961
 21
896.832916
 31
0.0
  0
ARC
  5
4929
100
AcDbEntity
  8
0
100
AcDbCircle
 10
2098.971961
 20
899.832916
 30
0.0
 40
3.0
100
AcDbArc
 50
270.0
 51
360.0
  0
LINE
  5
492A
100
AcDbEntity
  8
0
100
AcDbLine
 10
2101.971961
 20
948.261849
 30
0.0
 11
2101.971961
 21
922.332916
 31
0.0
  0
LINE
  5
492B
100
AcDbEntity
  8
0
100
AcDbLine
 10
2055.971961
 20
996.332916
 30
0.0
 11
2100.507495
 21
951.797382
 31
0.0
  0
LINE
  5
492C
100
AcDbEntity
  8
0
100
AcDbLine
 10
2082.971961
 20
994.332916
 30
0.0
 11
2057.971961
 21
994.332916
 31
0.0
  0
LINE
  5
492D
100
AcDbEntity
  8
0
100
AcDbLine
 10
2163.971961
 20
950.681935
 30
0.0
 11
2163.971961
 21
922.332916
 31
0.0
  0
LINE
  5
492E
100
AcDbEntity
  8
0
100
AcDbLine
 10
2198.696361
 20
893.622783
 30
0.0
 11
2189.971961
 21
893.622783
 31
0.0
  0
LINE
  5
492F
100
AcDbEntity
  8
0
100
AcDbLine
 10
2189.971961
 20
914.405783
 30
0.0
 11
2198.696361
 21
914.405783
 31
0.0
  0
LINE
  5
4930
100
AcDbEntity
  8
0
100
AcDbLine
 10
2198.696361
 20
907.477783
 30
0.0
 11
2189.971961
 21
907.477783
 31
0.0
  0
LINE
  5
4931
100
AcDbEntity
  8
0
100
AcDbLine
 10
2198.696361
 20
886.693783
 30
0.0
 11
2189.971961
 21
886.693783
 31
0.0
  0
ARC
  5
4932
100
AcDbEntity
  8
0
100
AcDbCircle
 10
2188.471961
 20
914.832916
 30
0.0
 40
1.5
100
AcDbArc
 50
0.0
 51
90.0
  0
LINE
  5
4933
100
AcDbEntity
  8
0
100
AcDbLine
 10
2188.471961
 20
916.332916
 30
0.0
 11
2173.971961
 21
916.332916
 31
0.0
  0
LINE
  5
4934
100
AcDbEntity
  8
0
100
AcDbLine
 10
2163.971961
 20
920.332916
 30
0.0
 11
2161.971961
 21
922.332916
 31
0.0
  0
ARC
  5
4935
100
AcDbEntity
  8
0
100
AcDbCircle
 10
2165.971961
 20
918.332916
 30
0.0
 40
2.0
100
AcDbArc
 50
180.0
 51
270.0
  0
LINE
  5
4936
100
AcDbEntity
  8
0
100
AcDbLine
 10
2163.971961
 20
918.332916
 30
0.0
 11
2163.971961
 21
920.332916
 31
0.0
  0
ARC
  5
4937
100
AcDbEntity
  8
0
100
AcDbCircle
 10
2159.971961
 20
914.332916
 30
0.0
 40
2.0
100
AcDbArc
 50
90.0
 51
180.0
  0
LINE
  5
4938
100
AcDbEntity
  8
0
100
AcDbLine
 10
2157.971961
 20
908.549783
 30
0.0
 11
2156.054961
 21
908.549783
 31
0.0
  0
LINE
  5
4939
100
AcDbEntity
  8
0
100
AcDbLine
 10
2156.054961
 20
908.549783
 30
0.0
 11
2154.971961
 21
907.466783
 31
0.0
  0
LINE
  5
493A
100
AcDbEntity
  8
0
100
AcDbLine
 10
2156.054961
 20
892.549783
 30
0.0
 11
2157.971961
 21
892.549783
 31
0.0
  0
LINE
  5
493B
100
AcDbEntity
  8
0
100
AcDbLine
 10
2154.971961
 20
893.632783
 30
0.0
 11
2156.054961
 21
892.549783
 31
0.0
  0
LINE
  5
493C
100
AcDbEntity
  8
0
100
AcDbLine
 10
2156.054961
 20
892.549783
 30
0.0
 11
2156.054961
 21
908.549783
 31
0.0
  0
LINE
  5
493D
100
AcDbEntity
  8
0
100
AcDbLine
 10
2154.971961
 20
907.466783
 30
0.0
 11
2154.971961
 21
893.632783
 31
0.0
  0
LINE
  5
493E
100
AcDbEntity
  8
0
100
AcDbLine
 10
2159.971961
 20
916.332916
 30
0.0
 11
2173.971961
 21
916.332916
 31
0.0
  0
LINE
  5
493F
100
AcDbEntity
  8
0
100
AcDbLine
 10
2232.952541
 20
891.529032
 30
0.0
 11
2221.971961
 21
889.332916
 31
0.0
  0
LINE
  5
4940
100
AcDbEntity
  8
0
100
AcDbLine
 10
2199.971961
 20
890.332916
 30
0.0
 11
2204.971961
 21
889.332916
 31
0.0
  0
LINE
  5
4941
100
AcDbEntity
  8
0
100
AcDbLine
 10
2199.971961
 20
912.196783
 30
0.0
 11
2199.971961
 21
888.902783
 31
0.0
  0
LINE
  5
4942
100
AcDbEntity
  8
0
100
AcDbLine
 10
2198.696361
 20
914.405783
 30
0.0
 11
2199.971961
 21
912.196783
 31
0.0
  0
ARC
  5
4943
100
AcDbEntity
  8
0
100
AcDbCircle
 10
2193.152084
 20
910.942283
 30
0.0
 40
6.537718
100
AcDbArc
 50
327.999617
 51
32.000383
  0
ARC
  5
4944
100
AcDbEntity
  8
0
100
AcDbCircle
 10
2175.036536
 20
900.550283
 30
0.0
 40
24.653145
100
AcDbArc
 50
343.680185
 51
16.319815
  0
LINE
  5
4945
100
AcDbEntity
  8
0
100
AcDbLine
 10
2221.971961
 20
889.332916
 30
0.0
 11
2204.971961
 21
889.332916
 31
0.0
  0
ARC
  5
4946
100
AcDbEntity
  8
0
100
AcDbCircle
 10
2193.152107
 20
890.158283
 30
0.0
 40
6.537699
100
AcDbArc
 50
327.999511
 51
32.000489
  0
LINE
  5
4947
100
AcDbEntity
  8
0
100
AcDbLine
 10
2199.971961
 20
888.902783
 30
0.0
 11
2198.696361
 21
886.693783
 31
0.0
  0
ARC
  5
4948
100
AcDbEntity
  8
0
100
AcDbCircle
 10
2231.971961
 20
896.431936
 30
0.0
 40
5.0
100
AcDbArc
 50
281.309932
 51
0.0
  0
ARC
  5
4949
100
AcDbEntity
  8
0
100
AcDbCircle
 10
2160.971961
 20
950.681935
 30
0.0
 40
3.0
100
AcDbArc
 50
0.0
 51
57.741711
  0
TEXT
  5
4953
100
AcDbEntity
  8
0
100
AcDbText
 10
141.000614
 20
1235.458704
 30
0.0
 40
25.0
  1
正面
100
AcDbText
  0
TEXT
  5
4954
100
AcDbEntity
  8
0
100
AcDbText
 10
135.132934
 20
1435.379416
 30
0.0
 40
25.0
  1
平面
100
AcDbText
  0
TEXT
  5
4955
100
AcDbEntity
  8
0
100
AcDbText
 10
146.868279
 20
1589.81115
 30
0.0
 40
25.0
  1
背面
100
AcDbText
  0
TEXT
  5
4956
100
AcDbEntity
  8
0
100
AcDbText
 10
119.488856
 20
318.454692
 30
0.0
 40
25.0
  1
正面
100
AcDbText
  0
TEXT
  5
4957
100
AcDbEntity
  8
0
100
AcDbText
 10
113.621177
 20
597.072962
 30
0.0
 40
25.0
  1
平面
100
AcDbText
  0
TEXT
  5
4958
100
AcDbEntity
  8
0
100
AcDbText
 10
119.412745
 20
822.777953
 30
0.0
 40
25.0
  1
背面
100
AcDbText
  0
LINE
  5
49D9
100
AcDbEntity
  8
0
100
AcDbLine
 10
515.15977
 20
1407.926875
 30
0.0
 11
516.273044
 21
1377.497367
 31
0.0
  0
LINE
  5
49DA
100
AcDbEntity
  8
0
100
AcDbLine
 10
504.15977
 20
1407.926875
 30
0.0
 11
503.111975
 21
1379.287159
 31
0.0
  0
LINE
  5
49DB
100
AcDbEntity
  8
0
100
AcDbLine
 10
515.15977
 20
1407.926875
 30
0.0
 11
515.64281
 21
1448.529073
 31
0.0
  0
LINE
  5
49DC
100
AcDbEntity
  8
0
100
AcDbLine
 10
504.15977
 20
1407.926875
 30
0.0
 11
503.67673
 21
1448.529073
 31
0.0
  0
LINE
  5
49DD
100
AcDbEntity
  8
0
100
AcDbLine
 10
515.65977
 20
1448.700946
 30
0.0
 11
515.65977
 21
1394.260208
 31
0.0
  0
LINE
  5
49DE
100
AcDbEntity
  8
0
100
AcDbLine
 10
503.65977
 20
1448.700946
 30
0.0
 11
503.65977
 21
1394.961233
 31
0.0
  0
LINE
  5
49DF
100
AcDbEntity
  8
0
100
AcDbLine
 10
515.636361
 20
1394.900041
 30
0.0
 11
515.636361
 21
1394.900041
 31
0.0
  0
ARC
  5
49E0
100
AcDbEntity
  8
0
100
AcDbCircle
 10
514.651746
 20
1394.461233
 30
0.0
 40
1.0
100
AcDbArc
 50
270.0
 51
2.095253
  0
ARC
  5
49E1
100
AcDbEntity
  8
0
100
AcDbCircle
 10
504.667793
 20
1394.461233
 30
0.0
 40
1.0
100
AcDbArc
 50
177.904747
 51
270.0
  0
LINE
  5
49E2
100
AcDbEntity
  8
0
100
AcDbLine
 10
503.685417
 20
1394.961233
 30
0.0
 11
515.634123
 21
1394.961233
 31
0.0
  0
LINE
  5
49E3
100
AcDbEntity
  8
0
100
AcDbLine
 10
504.667793
 20
1393.461233
 30
0.0
 11
514.651746
 21
1393.461233
 31
0.0
  0
LINE
  5
49E4
100
AcDbEntity
  8
0
100
AcDbLine
 10
505.25977
 20
1407.926875
 30
0.0
 11
514.05977
 21
1407.926875
 31
0.0
  0
ARC
  5
49E5
100
AcDbEntity
  8
0
100
AcDbCircle
 10
502.6768
 20
1448.517177
 30
0.0
 40
1.0
100
AcDbArc
 50
0.68161
 51
112.826552
  0
ARC
  5
49E6
100
AcDbEntity
  8
0
100
AcDbCircle
 10
516.642739
 20
1448.517177
 30
0.0
 40
1.0
100
AcDbArc
 50
67.173448
 51
179.31839
  0
SPLINE
  5
49E7
100
AcDbEntity
  8
0
100
AcDbSpline
210
0.0
220
0.0
230
1.0
 70
     8
 71
     3
 72
    11
 73
     7
 74
     0
 42
0.0000001
 43
0.0000001
 40
1.530491977524728
 40
1.530491977524728
 40
1.530491977524728
 40
1.530491977524728
 40
5.88234070994239
 40
10.62999431114197
 40
15.12492966544251
 40
19.8193557863632
 40
19.8193557863632
 40
19.8193557863632
 40
19.8193557863632
 10
503.1119753038828
 20
1379.287158915636
 30
0.0
 10
504.3240574757759
 20
1380.59353658198
 30
0.0
 10
506.7807591342901
 20
1382.663868009376
 30
0.0
 10
509.5180955995972
 20
1377.817892704469
 30
0.0
 10
513.1209600183869
 20
1373.437363103227
 30
0.0
 10
515.2204457204318
 20
1375.870282508659
 30
0.0
 10
516.2730444493162
 20
1377.497367172078
 30
0.0
  0
LINE
  5
4A58
100
AcDbEntity
  8
0
100
AcDbLine
 10
1236.96247
 20
1448.480387
 30
0.0
 11
1236.480772
 21
1414.263353
 31
0.0
  0
LINE
  5
4A59
100
AcDbEntity
  8
0
100
AcDbLine
 10
1236.980772
 20
1448.289943
 30
0.0
 11
1236.980772
 21
1407.926875
 31
0.0
  0
LINE
  5
4A5A
100
AcDbEntity
  8
0
100
AcDbLine
 10
1249.999074
 20
1448.480387
 30
0.0
 11
1250.480772
 21
1414.263353
 31
0.0
  0
LINE
  5
4A5B
100
AcDbEntity
  8
0
100
AcDbLine
 10
1249.980772
 20
1448.289943
 30
0.0
 11
1249.980772
 21
1407.926875
 31
0.0
  0
LINE
  5
4A5C
100
AcDbEntity
  8
0
100
AcDbLine
 10
1249.980772
 20
1407.926875
 30
0.0
 11
1251.314088
 21
1360.816374
 31
0.0
  0
LINE
  5
4A5D
100
AcDbEntity
  8
0
100
AcDbLine
 10
1236.980772
 20
1407.926875
 30
0.0
 11
1235.749091
 21
1364.407487
 31
0.0
  0
LINE
  5
4A5E
100
AcDbEntity
  8
0
100
AcDbLine
 10
1238.930772
 20
1407.926875
 30
0.0
 11
1248.030772
 21
1407.926875
 31
0.0
  0
LINE
  5
4A5F
100
AcDbEntity
  8
0
100
AcDbLine
 10
1236.480772
 20
1414.263353
 30
0.0
 11
1236.980772
 21
1407.926875
 31
0.0
  0
LINE
  5
4A60
100
AcDbEntity
  8
0
100
AcDbLine
 10
1250.480772
 20
1414.263353
 30
0.0
 11
1249.980772
 21
1407.926875
 31
0.0
  0
LINE
  5
4A61
100
AcDbEntity
  8
0
100
AcDbLine
 10
1238.590749
 20
1392.117779
 30
0.0
 11
1248.370795
 21
1392.117779
 31
0.0
  0
LINE
  5
4A62
100
AcDbEntity
  8
0
100
AcDbLine
 10
1238.633202
 20
1393.617779
 30
0.0
 11
1248.328342
 21
1393.617779
 31
0.0
  0
ARC
  5
4A63
100
AcDbEntity
  8
0
100
AcDbCircle
 10
1248.328342
 20
1395.617779
 30
0.0
 40
2.0
100
AcDbArc
 50
270.0
 51
1.621146
  0
ARC
  5
4A64
100
AcDbEntity
  8
0
100
AcDbCircle
 10
1248.370795
 20
1394.117779
 30
0.0
 40
2.0
100
AcDbArc
 50
270.0
 51
1.621146
  0
ARC
  5
4A65
100
AcDbEntity
  8
0
100
AcDbCircle
 10
1238.633202
 20
1395.617779
 30
0.0
 40
2.0
100
AcDbArc
 50
178.378854
 51
270.0
  0
ARC
  5
4A66
100
AcDbEntity
  8
0
100
AcDbCircle
 10
1238.590749
 20
1394.117779
 30
0.0
 40
2.0
100
AcDbArc
 50
178.378854
 51
270.0
  0
ARC
  5
4A67
100
AcDbEntity
  8
0
100
AcDbCircle
 10
1250.980772
 20
1448.289943
 30
0.0
 40
1.0
100
AcDbArc
 50
65.375682
 51
180.0
  0
ARC
  5
4A68
100
AcDbEntity
  8
0
100
AcDbCircle
 10
1235.980772
 20
1448.289943
 30
0.0
 40
1.0
100
AcDbArc
 50
0.0
 51
114.624318
  0
SPLINE
  5
4A6A
100
AcDbEntity
  8
0
100
AcDbSpline
210
0.0
220
0.0
230
-1.0
 70
     8
 71
     3
 72
    11
 73
     7
 74
     0
 42
0.0000001
 43
0.0000001
 40
3.48239675292014
 40
3.48239675292014
 40
3.48239675292014
 40
3.48239675292014
 40
10.0032829829383
 40
17.27007143758111
 40
21.91635313715333
 40
27.43470465900424
 40
27.43470465900424
 40
27.43470465900424
 40
27.43470465900424
 10
1235.74909133387
 20
1364.407486897773
 30
0.0
 10
1237.510587543225
 20
1366.462551331371
 30
0.0
 10
1240.967285680148
 20
1369.378097343049
 30
0.0
 10
1243.414327085696
 20
1361.666810706286
 30
0.0
 10
1248.430767560792
 20
1356.98026410209
 30
0.0
 10
1250.39117392538
 20
1359.013850381709
 30
0.0
 10
1251.314088177995
 20
1360.816374006015
 30
0.0
  0
LINE
  5
4AC2
100
AcDbEntity
  8
0
100
AcDbLine
 10
2046.314266
 20
1449.590239
 30
0.0
 11
2046.314266
 21
1414.263706
 31
0.0
  0
LINE
  5
4AC3
100
AcDbEntity
  8
0
100
AcDbLine
 10
2032.314266
 20
1449.590119
 30
0.0
 11
2032.314266
 21
1414.263706
 31
0.0
  0
LINE
  5
4AC4
100
AcDbEntity
  8
0
100
AcDbLine
 10
2047.324702
 20
1368.701184
 30
0.0
 11
2046.314266
 21
1414.263706
 31
0.0
  0
LINE
  5
4AC5
100
AcDbEntity
  8
0
100
AcDbLine
 10
2032.314266
 20
1414.263706
 30
0.0
 11
2031.444304
 21
1375.201664
 31
0.0
  0
LINE
  5
4AC6
100
AcDbEntity
  8
0
100
AcDbLine
 10
2045.814266
 20
1407.926706
 30
0.0
 11
2032.814266
 21
1407.926706
 31
0.0
  0
SPLINE
  5
4AC7
100
AcDbEntity
  8
0
100
AcDbSpline
210
0.0
220
0.0
230
1.0
 70
     8
 71
     3
 72
    11
 73
     7
 74
     0
 42
0.0000001
 43
0.0000001
 40
5.968353051198276
 40
5.968353051198276
 40
5.968353051198276
 40
5.968353051198276
 40
10.8698602183783
 40
19.04934718789252
 40
25.15377287260411
 40
30.00344202151957
 40
30.00344202151957
 40
30.00344202151957
 40
30.00344202151957
 10
2031.444303599584
 20
1375.201663642386
 30
0.0
 10
2032.587439860908
 20
1376.446375600785
 30
0.0
 10
2035.489761588725
 20
1378.307400809426
 30
0.0
 10
2038.688264410206
 20
1370.623101156215
 30
0.0
 10
2044.241357611065
 20
1365.172392721986
 30
0.0
 10
2046.448582502685
 20
1367.244049042049
 30
0.0
 10
2047.324702463086
 20
1368.701184402429
 30
0.0
  0
LINE
  5
4B33
100
AcDbEntity
  8
0
100
AcDbLine
 10
503.812823
 20
641.815758
 30
0.0
 11
504.77859
 21
576.546136
 31
0.0
  0
LINE
  5
4B34
100
AcDbEntity
  8
0
100
AcDbLine
 10
527.744357
 20
641.815758
 30
0.0
 11
526.77859
 21
576.546136
 31
0.0
  0
LINE
  5
4B35
100
AcDbEntity
  8
0
100
AcDbLine
 10
503.77859
 20
642.112954
 30
0.0
 11
503.77859
 21
586.962925
 31
0.0
  0
LINE
  5
4B36
100
AcDbEntity
  8
0
100
AcDbLine
 10
527.77859
 20
642.112954
 30
0.0
 11
527.77859
 21
586.962925
 31
0.0
  0
ARC
  5
4B37
100
AcDbEntity
  8
0
100
AcDbCircle
 10
502.312987
 20
641.793566
 30
0.0
 40
1.5
100
AcDbArc
 50
0.847719
 51
117.158984
  0
ARC
  5
4B38
100
AcDbEntity
  8
0
100
AcDbCircle
 10
529.244193
 20
641.793566
 30
0.0
 40
1.5
100
AcDbArc
 50
62.841016
 51
179.152281
  0
LINE
  5
4B39
100
AcDbEntity
  8
0
100
AcDbLine
 10
526.77859
 20
576.546136
 30
0.0
 11
527.877779
 21
515.431247
 31
0.0
  0
LINE
  5
4B3A
100
AcDbEntity
  8
0
100
AcDbLine
 10
504.77859
 20
576.546136
 30
0.0
 11
503.762192
 21
520.034416
 31
0.0
  0
LINE
  5
4B3B
100
AcDbEntity
  8
0
100
AcDbLine
 10
527.77859
 20
586.962925
 30
0.0
 11
526.77859
 21
576.546136
 31
0.0
  0
LINE
  5
4B3C
100
AcDbEntity
  8
0
100
AcDbLine
 10
503.77859
 20
586.962925
 30
0.0
 11
504.77859
 21
576.546136
 31
0.0
  0
LINE
  5
4B3D
100
AcDbEntity
  8
0
100
AcDbLine
 10
506.960639
 20
575.29856
 30
0.0
 11
524.596541
 21
575.29856
 31
0.0
  0
LINE
  5
4B3E
100
AcDbEntity
  8
0
100
AcDbLine
 10
505.68406
 20
553.29856
 30
0.0
 11
525.87312
 21
553.29856
 31
0.0
  0
LINE
  5
4B3F
100
AcDbEntity
  8
0
100
AcDbLine
 10
505.648089
 20
551.29856
 30
0.0
 11
525.909092
 21
551.29856
 31
0.0
  0
ARC
  5
4B40
100
AcDbEntity
  8
0
100
AcDbCircle
 10
505.648089
 20
552.59856
 30
0.0
 40
1.3
100
AcDbArc
 50
178.969611
 51
270.0
  0
ARC
  5
4B41
100
AcDbEntity
  8
0
100
AcDbCircle
 10
505.68406
 20
554.59856
 30
0.0
 40
1.3
100
AcDbArc
 50
178.969611
 51
270.0
  0
ARC
  5
4B42
100
AcDbEntity
  8
0
100
AcDbCircle
 10
525.909092
 20
552.59856
 30
0.0
 40
1.3
100
AcDbArc
 50
270.0
 51
1.030389
  0
ARC
  5
4B43
100
AcDbEntity
  8
0
100
AcDbCircle
 10
525.87312
 20
554.59856
 30
0.0
 40
1.3
100
AcDbArc
 50
270.0
 51
1.030389
  0
SPLINE
  5
4B44
100
AcDbEntity
  8
0
100
AcDbSpline
210
0.0
220
0.0
230
-1.0
 70
     8
 71
     3
 72
    11
 73
     7
 74
     0
 42
0.0000001
 43
0.0000001
 40
3.69877004058182
 40
3.69877004058182
 40
3.69877004058182
 40
3.69877004058182
 40
14.50867726337957
 40
27.29048933296372
 40
33.46180272985552
 40
40.14985215654369
 40
40.14985215654369
 40
40.14985215654369
 40
40.14985215654369
 10
503.7621922514379
 20
520.034416494539
 30
0.0
 10
506.5923672579288
 20
523.8706807698153
 30
0.0
 10
512.3879189165545
 20
530.1970274322687
 30
0.0
 10
515.5839563181394
 20
516.0815926162383
 30
0.0
 10
524.148193749874
 20
510.9667771878783
 30
0.0
 10
526.7649226002037
 20
513.4161382055101
 30
0.0
 10
527.8777787481917
 20
515.4312471468594
 30
0.0
  0
LINE
  5
4BB9
100
AcDbEntity
  8
0
100
AcDbLine
 10
1328.15362
 20
642.112954
 30
0.0
 11
1328.15362
 21
586.962925
 31
0.0
  0
LINE
  5
4BBA
100
AcDbEntity
  8
0
100
AcDbLine
 10
1328.119386
 20
641.815758
 30
0.0
 11
1327.15362
 21
576.546136
 31
0.0
  0
LINE
  5
4BBB
100
AcDbEntity
  8
0
100
AcDbLine
 10
1304.15362
 20
642.112954
 30
0.0
 11
1304.15362
 21
586.962925
 31
0.0
  0
LINE
  5
4BBC
100
AcDbEntity
  8
0
100
AcDbLine
 10
1304.187853
 20
641.815758
 30
0.0
 11
1305.15362
 21
576.546136
 31
0.0
  0
ARC
  5
4BBD
100
AcDbEntity
  8
0
100
AcDbCircle
 10
1302.688017
 20
641.793566
 30
0.0
 40
1.5
100
AcDbArc
 50
0.847719
 51
117.158984
  0
ARC
  5
4BBE
100
AcDbEntity
  8
0
100
AcDbCircle
 10
1329.619222
 20
641.793566
 30
0.0
 40
1.5
100
AcDbArc
 50
62.841016
 51
179.152281
  0
LINE
  5
4BBF
100
AcDbEntity
  8
0
100
AcDbLine
 10
1307.335669
 20
575.29856
 30
0.0
 11
1324.97157
 21
575.29856
 31
0.0
  0
LINE
  5
4BC0
100
AcDbEntity
  8
0
100
AcDbLine
 10
1327.15362
 20
576.546136
 30
0.0
 11
1328.213393
 21
517.622759
 31
0.0
  0
LINE
  5
4BC1
100
AcDbEntity
  8
0
100
AcDbLine
 10
1305.15362
 20
576.546136
 30
0.0
 11
1304.215426
 21
524.382568
 31
0.0
  0
LINE
  5
4BC2
100
AcDbEntity
  8
0
100
AcDbLine
 10
1306.023118
 20
551.29856
 30
0.0
 11
1326.284121
 21
551.29856
 31
0.0
  0
LINE
  5
4BC3
100
AcDbEntity
  8
0
100
AcDbLine
 10
1306.059089
 20
553.29856
 30
0.0
 11
1326.24815
 21
553.29856
 31
0.0
  0
ARC
  5
4BC4
100
AcDbEntity
  8
0
100
AcDbCircle
 10
1306.059089
 20
554.59856
 30
0.0
 40
1.3
100
AcDbArc
 50
178.969611
 51
270.0
  0
ARC
  5
4BC5
100
AcDbEntity
  8
0
100
AcDbCircle
 10
1306.023118
 20
552.59856
 30
0.0
 40
1.3
100
AcDbArc
 50
178.969611
 51
270.0
  0
ARC
  5
4BC6
100
AcDbEntity
  8
0
100
AcDbCircle
 10
1326.24815
 20
554.59856
 30
0.0
 40
1.3
100
AcDbArc
 50
270.0
 51
1.030389
  0
ARC
  5
4BC7
100
AcDbEntity
  8
0
100
AcDbCircle
 10
1326.284121
 20
552.59856
 30
0.0
 40
1.3
100
AcDbArc
 50
270.0
 51
1.030389
  0
LINE
  5
4BC8
100
AcDbEntity
  8
0
100
AcDbLine
 10
1304.15362
 20
586.962925
 30
0.0
 11
1305.15362
 21
576.546136
 31
0.0
  0
LINE
  5
4BC9
100
AcDbEntity
  8
0
100
AcDbLine
 10
1328.15362
 20
586.962925
 30
0.0
 11
1327.15362
 21
576.546136
 31
0.0
  0
SPLINE
  5
4BCB
100
AcDbEntity
  8
0
100
AcDbSpline
210
0.0
220
0.0
230
1.0
 70
     8
 71
     3
 72
    11
 73
     7
 74
     0
 42
0.0000001
 43
0.0000001
 40
7.585368282521709
 40
7.585368282521709
 40
7.585368282521709
 40
7.585368282521709
 40
12.87534208890144
 40
21.46386591458411
 40
32.0158563343624
 40
40.66553496340776
 40
40.66553496340776
 40
40.66553496340776
 40
40.66553496340776
 10
1304.215425955814
 20
524.3825677658725
 30
0.0
 10
1305.51377239737
 20
525.5513940239816
 30
0.0
 10
1309.022290795127
 20
527.3834957132881
 30
0.0
 10
1315.999875613658
 20
520.93234240717
 30
0.0
 10
1322.000722762772
 20
510.7551577674315
 30
0.0
 10
1326.276503810682
 20
514.8501289098499
 30
0.0
 10
1328.213392612584
 20
517.6227589799828
 30
0.0
  0
LINE
  5
4C44
100
AcDbEntity
  8
0
100
AcDbLine
 10
2148.971961
 20
639.73291
 30
0.0
 11
2149.971961
 21
565.546136
 31
0.0
  0
LINE
  5
4C45
100
AcDbEntity
  8
0
100
AcDbLine
 10
2148.971961
 20
639.73291
 30
0.0
 11
2148.971961
 21
587.887503
 31
0.0
  0
LINE
  5
4C46
100
AcDbEntity
  8
0
100
AcDbLine
 10
2176.971961
 20
639.73291
 30
0.0
 11
2175.971961
 21
565.546136
 31
0.0
  0
LINE
  5
4C47
100
AcDbEntity
  8
0
100
AcDbLine
 10
2176.971961
 20
639.73291
 30
0.0
 11
2176.971961
 21
587.887503
 31
0.0
  0
LINE
  5
4C48
100
AcDbEntity
  8
0
100
AcDbLine
 10
2148.971961
 20
587.887503
 30
0.0
 11
2149.971961
 21
565.546136
 31
0.0
  0
LINE
  5
4C49
100
AcDbEntity
  8
0
100
AcDbLine
 10
2176.971961
 20
587.887503
 30
0.0
 11
2175.971961
 21
565.546136
 31
0.0
  0
LINE
  5
4C4A
100
AcDbEntity
  8
0
100
AcDbLine
 10
2152.571961
 20
565.546136
 30
0.0
 11
2173.371961
 21
565.546136
 31
0.0
  0
LINE
  5
4C4B
100
AcDbEntity
  8
0
100
AcDbLine
 10
2149.971961
 20
565.546136
 30
0.0
 11
2148.908345
 21
508.636542
 31
0.0
  0
LINE
  5
4C4C
100
AcDbEntity
  8
0
100
AcDbLine
 10
2175.971961
 20
565.546136
 30
0.0
 11
2177.147497
 21
502.648147
 31
0.0
  0
LINE
  5
4C4D
100
AcDbEntity
  8
0
100
AcDbLine
 10
2150.995639
 20
538.546136
 30
0.0
 11
2174.948283
 21
538.546136
 31
0.0
  0
LINE
  5
4C4E
100
AcDbEntity
  8
0
100
AcDbLine
 10
2151.033018
 20
540.546136
 30
0.0
 11
2174.910904
 21
540.546136
 31
0.0
  0
ARC
  5
4C4F
100
AcDbEntity
  8
0
100
AcDbCircle
 10
2174.910904
 20
542.046136
 30
0.0
 40
1.5
100
AcDbArc
 50
270.0
 51
1.070709
  0
ARC
  5
4C50
100
AcDbEntity
  8
0
100
AcDbCircle
 10
2150.995639
 20
540.046136
 30
0.0
 40
1.5
100
AcDbArc
 50
178.929291
 51
270.0
  0
ARC
  5
4C51
100
AcDbEntity
  8
0
100
AcDbCircle
 10
2151.033018
 20
542.046136
 30
0.0
 40
1.5
100
AcDbArc
 50
178.929291
 51
270.0
  0
ARC
  5
4C52
100
AcDbEntity
  8
0
100
AcDbCircle
 10
2174.948283
 20
540.046136
 30
0.0
 40
1.5
100
AcDbArc
 50
270.0
 51
1.070709
  0
ARC
  5
4C53
100
AcDbEntity
  8
0
100
AcDbCircle
 10
2146.971961
 20
639.73291
 30
0.0
 40
2.0
100
AcDbArc
 50
0.0
 51
123.485377
  0
ARC
  5
4C54
100
AcDbEntity
  8
0
100
AcDbCircle
 10
2178.971961
 20
639.73291
 30
0.0
 40
2.0
100
AcDbArc
 50
56.514623
 51
180.0
  0
SPLINE
  5
4C55
100
AcDbEntity
  8
0
100
AcDbSpline
210
0.0
220
0.0
230
1.0
 70
     8
 71
     3
 72
    11
 73
     7
 74
     0
 42
0.0000001
 43
0.0000001
 40
5.626522724968426
 40
5.626522724968426
 40
5.626522724968426
 40
5.626522724968426
 40
14.47854019217451
 40
26.67948490831134
 40
36.34421367302629
 40
46.19532266536767
 40
46.19532266536767
 40
46.19532266536767
 40
46.19532266536767
 10
2148.908344746721
 20
508.6365423124285
 30
0.0
 10
2150.977978609939
 20
511.4140931904702
 30
0.0
 10
2155.840300252664
 20
515.9880791186638
 30
0.0
 10
2162.39953907787
 20
504.517562311554
 30
0.0
 10
2170.685668489057
 20
495.0753861051107
 30
0.0
 10
2175.03032169909
 20
499.4280054175143
 30
0.0
 10
2177.147497151468
 20
502.6481467127227
 30
0.0
  0
VIEWPORT
  5
41
100
AcDbEntity
 67
     1
  8
0
100
AcDbViewport
 10
117.358407
 20
73.5
 30
0.0
 40
234.716814
 41
147.0
 68
    -1
 69
     1
1001
ACAD
1000
MVIEW
1002
{
1070
    16
1010
0.0
1020
0.0
1030
0.0
1010
0.0
1020
0.0
1030
1.0
1040
0.0
1040
147.0
1040
117.358407
1040
73.5
1040
50.0
1040
0.0
1040
0.0
1070
     0
1070
   100
1070
     1
1070
     1
1070
     0
1070
     0
1070
     0
1070
     0
1040
0.0
1040
0.0
1040
0.0
1040
1.0
1040
1.0
1040
0.0
1040
0.0
1070
     0
1002
{
1002
}
1002
}
  0
ENDSEC
  0
SECTION
  2
OBJECTS
  0
DICTIONARY
  5
C
100
AcDbDictionary
  3
ACAD_GROUP
350
D
  3
ACAD_MLINESTYLE
350
E
  0
DICTIONARY
  5
D
102
{ACAD_REACTORS
330
C
102
}
100
AcDbDictionary
  0
DICTIONARY
  5
E
102
{ACAD_REACTORS
330
C
102
}
100
AcDbDictionary
  3
STANDARD
350
1B
  0
MLINESTYLE
  5
1B
102
{ACAD_REACTORS
330
E
102
}
100
AcDbMlineStyle
  2
STANDARD
 70
     0
  3

 62
     0
 51
90.0
 52
90.0
 71
     2
 49
0.5
 62
   256
  6
BYLAYER
 49
-0.5
 62
   256
  6
BYLAYER
  0
ENDSEC
  0
EOF
