  0
SECTION
  2
HEADER
  9
$ACADVER
  1
AC1012
  9
$DWGCODEPAGE
  3
dos932
  9
$INSBASE
 10
0.0
 20
0.0
 30
0.0
  9
$EXTMIN
 10
55.0
 20
25.0
 30
0.0
  9
$EXTMAX
 10
1430.0
 20
955.0
 30
0.0
  9
$LIMMIN
 10
0.0
 20
0.0
  9
$LIMMAX
 10
1485.0
 20
1050.0
  9
$ORTHOMODE
 70
     1
  9
$REGENMODE
 70
     1
  9
$FILLMODE
 70
     1
  9
$QTEXTMODE
 70
     0
  9
$MIRRTEXT
 70
     1
  9
$DRAGMODE
 70
     2
  9
$LTSCALE
 40
20.0
  9
$OSMODE
 70
   163
  9
$ATTMODE
 70
     1
  9
$TEXTSIZE
 40
20.0
  9
$TRACEWID
 40
0.05
  9
$TEXTSTYLE
  7
STANDARD
  9
$CLAYER
  8
0
  9
$CELTYPE
  6
BYLAYER
  9
$CECOLOR
 62
   256
  9
$CELTSCALE
 40
1.0
  9
$DELOBJ
 70
     1
  9
$DISPSILH
 70
     0
  9
$DIMSCALE
 40
5.0
  9
$DIMASZ
 40
2.8
  9
$DIMEXO
 40
1.0
  9
$DIMDLI
 40
5.0
  9
$DIMRND
 40
0.1
  9
$DIMDLE
 40
0.0
  9
$DIMEXE
 40
1.0
  9
$DIMTP
 40
0.0
  9
$DIMTM
 40
0.0
  9
$DIMTXT
 40
2.5
  9
$DIMCEN
 40
0.0
  9
$DIMTSZ
 40
0.0
  9
$DIMTOL
 70
     0
  9
$DIMLIM
 70
     0
  9
$DIMTIH
 70
     0
  9
$DIMTOH
 70
     0
  9
$DIMSE1
 70
     0
  9
$DIMSE2
 70
     0
  9
$DIMTAD
 70
     3
  9
$DIMZIN
 70
     8
  9
$DIMBLK
  1

  9
$DIMASO
 70
     1
  9
$DIMSHO
 70
     1
  9
$DIMPOST
  1

  9
$DIMAPOST
  1

  9
$DIMALT
 70
     0
  9
$DIMALTD
 70
     2
  9
$DIMALTF
 40
1.0
  9
$DIMLFAC
 40
1.0
  9
$DIMTOFL
 70
     1
  9
$DIMTVP
 40
0.0
  9
$DIMTIX
 70
     0
  9
$DIMSOXD
 70
     0
  9
$DIMSAH
 70
     1
  9
$DIMBLK1
  1
_OPEN
  9
$DIMBLK2
  1
_OPEN
  9
$DIMSTYLE
  2
DIM1
  9
$DIMCLRD
 70
     2
  9
$DIMCLRE
 70
     2
  9
$DIMCLRT
 70
     2
  9
$DIMTFAC
 40
0.7
  9
$DIMGAP
 40
0.85
  9
$DIMJUST
 70
     0
  9
$DIMSD1
 70
     0
  9
$DIMSD2
 70
     0
  9
$DIMTOLJ
 70
     1
  9
$DIMTZIN
 70
     8
  9
$DIMALTZ
 70
     8
  9
$DIMALTTZ
 70
     8
  9
$DIMFIT
 70
     3
  9
$DIMUPT
 70
     0
  9
$DIMUNIT
 70
     2
  9
$DIMDEC
 70
     2
  9
$DIMTDEC
 70
     3
  9
$DIMALTU
 70
     2
  9
$DIMALTTD
 70
     3
  9
$DIMTXSTY
  7
DIM
  9
$DIMAUNIT
 70
     0
  9
$LUNITS
 70
     2
  9
$LUPREC
 70
     4
  9
$SKETCHINC
 40
0.1
  9
$FILLETRAD
 40
0.0
  9
$AUNITS
 70
     0
  9
$AUPREC
 70
     0
  9
$MENU
  1
C:\ACADR13\WIN\SUPPORT\ACAD.mnc
  9
$ELEVATION
 40
0.0
  9
$PELEVATION
 40
0.0
  9
$THICKNESS
 40
0.0
  9
$LIMCHECK
 70
     0
  9
$BLIPMODE
 70
     1
  9
$CHAMFERA
 40
0.0
  9
$CHAMFERB
 40
0.0
  9
$CHAMFERC
 40
0.0
  9
$CHAMFERD
 40
0.0
  9
$SKPOLY
 70
     0
  9
$TDCREATE
 40
2451564.376489502
  9
$TDUPDATE
 40
2451967.665307974
  9
$TDINDWG
 40
0.0399220718
  9
$TDUSRTIMER
 40
0.0399220718
  9
$USRTIMER
 70
     1
  9
$ANGBASE
 50
0.0
  9
$ANGDIR
 70
     0
  9
$PDMODE
 70
     0
  9
$PDSIZE
 40
0.0
  9
$PLINEWID
 40
0.0
  9
$COORDS
 70
     2
  9
$SPLFRAME
 70
     0
  9
$SPLINETYPE
 70
     6
  9
$SPLINESEGS
 70
     8
  9
$ATTDIA
 70
     0
  9
$ATTREQ
 70
     1
  9
$HANDLING
 70
     1
  9
$HANDSEED
  5
3540
  9
$SURFTAB1
 70
     6
  9
$SURFTAB2
 70
     6
  9
$SURFTYPE
 70
     6
  9
$SURFU
 70
     6
  9
$SURFV
 70
     6
  9
$UCSNAME
  2

  9
$UCSORG
 10
0.0
 20
0.0
 30
0.0
  9
$UCSXDIR
 10
1.0
 20
0.0
 30
0.0
  9
$UCSYDIR
 10
0.0
 20
1.0
 30
0.0
  9
$PUCSNAME
  2

  9
$PUCSORG
 10
0.0
 20
0.0
 30
0.0
  9
$PUCSXDIR
 10
1.0
 20
0.0
 30
0.0
  9
$PUCSYDIR
 10
0.0
 20
1.0
 30
0.0
  9
$USERI1
 70
     0
  9
$USERI2
 70
     0
  9
$USERI3
 70
     0
  9
$USERI4
 70
     0
  9
$USERI5
 70
     0
  9
$USERR1
 40
0.0
  9
$USERR2
 40
0.0
  9
$USERR3
 40
0.0
  9
$USERR4
 40
0.0
  9
$USERR5
 40
0.0
  9
$WORLDVIEW
 70
     1
  9
$SHADEDGE
 70
     3
  9
$SHADEDIF
 70
    70
  9
$TILEMODE
 70
     1
  9
$MAXACTVP
 70
    16
  9
$PINSBASE
 10
0.0
 20
0.0
 30
0.0
  9
$PLIMCHECK
 70
     0
  9
$PEXTMIN
 10
1.000000E+20
 20
1.000000E+20
 30
1.000000E+20
  9
$PEXTMAX
 10
-1.000000E+20
 20
-1.000000E+20
 30
-1.000000E+20
  9
$PLIMMIN
 10
0.0
 20
0.0
  9
$PLIMMAX
 10
20.0
 20
147.0
  9
$UNITMODE
 70
     0
  9
$VISRETAIN
 70
     0
  9
$PLINEGEN
 70
     0
  9
$PSLTSCALE
 70
     1
  9
$TREEDEPTH
 70
  3020
  9
$PICKSTYLE
 70
     1
  9
$CMLSTYLE
  2
STANDARD
  9
$CMLJUST
 70
     0
  9
$CMLSCALE
 40
1.0
  9
$SAVEIMAGES
 70
     1
  0
ENDSEC
  0
SECTION
  2
CLASSES
  0
CLASS
  1
LWPOLYLINE
  2
AcDbPolyline
  3
"AutoCAD"
 90
    32768
280
     0
281
     1
  0
ENDSEC
  0
SECTION
  2
TABLES
  0
TABLE
  2
VPORT
  5
8
100
AcDbSymbolTable
 70
     2
  0
VPORT
  5
353F
100
AcDbSymbolTableRecord
100
AcDbViewportTableRecord
  2
*ACTIVE
 70
     0
 10
0.0
 20
0.0
 11
1.0
 21
1.0
 12
990.682968
 22
562.228955
 13
0.0
 23
0.0
 14
1.0
 24
1.0
 15
20.0
 25
20.0
 16
0.0
 26
0.0
 36
1.0
 17
0.0
 27
0.0
 37
0.0
 40
1124.457911
 41
1.762063
 42
50.0
 43
0.0
 44
0.0
 50
0.0
 51
0.0
 71
     0
 72
   100
 73
     1
 74
     1
 75
     0
 76
     0
 77
     0
 78
     0
  0
ENDTAB
  0
TABLE
  2
LTYPE
  5
5
100
AcDbSymbolTable
 70
     5
  0
LTYPE
  5
12
100
AcDbSymbolTableRecord
100
AcDbLinetypeTableRecord
  2
BYBLOCK
 70
     0
  3

 72
    65
 73
     0
 40
0.0
  0
LTYPE
  5
13
100
AcDbSymbolTableRecord
100
AcDbLinetypeTableRecord
  2
BYLAYER
 70
     0
  3

 72
    65
 73
     0
 40
0.0
  0
LTYPE
  5
14
100
AcDbSymbolTableRecord
100
AcDbLinetypeTableRecord
  2
CONTINUOUS
 70
     0
  3
Solid line
 72
    65
 73
     0
 40
0.0
  0
ENDTAB
  0
TABLE
  2
LAYER
  5
2
100
AcDbSymbolTable
 70
     3
  0
LAYER
  5
F
100
AcDbSymbolTableRecord
100
AcDbLayerTableRecord
  2
0
 70
     0
 62
     7
  6
CONTINUOUS
  0
ENDTAB
  0
TABLE
  2
STYLE
  5
3
100
AcDbSymbolTable
 70
     3
  0
STYLE
  5
10
100
AcDbSymbolTableRecord
100
AcDbTextStyleTableRecord
  2
STANDARD
 70
     0
 40
0.0
 41
0.8
 50
0.0
 71
     0
 42
20.0
  3
simplex
  4
extfont
  0
STYLE
  5
237C
100
AcDbSymbolTableRecord
100
AcDbTextStyleTableRecord
  2
PTSH
 70
     0
 40
0.0
 41
0.9
 50
0.0
 71
     0
 42
4.0
  3
SIMPLEX
  4
EXTFONT
  0
STYLE
  5
2592
100
AcDbSymbolTableRecord
100
AcDbTextStyleTableRecord
  2
DIM
 70
     0
 40
0.0
 41
0.8
 50
0.0
 71
     0
 42
4.0
  3
simplex
  4
extfont
  0
ENDTAB
  0
TABLE
  2
VIEW
  5
6
100
AcDbSymbolTable
 70
     0
  0
ENDTAB
  0
TABLE
  2
UCS
  5
7
100
AcDbSymbolTable
 70
     0
  0
ENDTAB
  0
TABLE
  2
APPID
  5
9
100
AcDbSymbolTable
 70
     1
  0
APPID
  5
11
100
AcDbSymbolTableRecord
100
AcDbRegAppTableRecord
  2
ACAD
 70
     0
  0
ENDTAB
  0
TABLE
  2
DIMSTYLE
  5
A
100
AcDbSymbolTable
 70
     1
  0
DIMSTYLE
105
2237
100
AcDbSymbolTableRecord
100
AcDbDimStyleTableRecord
  2
DIM1
 70
     0
  3

  4

  5

  6
_OPEN
  7
_OPEN
 40
5.0
 41
2.8
 42
1.0
 43
5.0
 44
1.0
 45
0.1
 46
0.0
 47
0.0
 48
0.0
140
2.5
141
0.0
142
0.0
143
1.0
144
1.0
145
0.0
146
0.7
147
0.85
 71
     0
 72
     0
 73
     0
 74
     0
 75
     0
 76
     0
 77
     3
 78
     8
170
     0
171
     2
172
     1
173
     1
174
     0
175
     0
176
     2
177
     2
178
     2
270
     2
271
     2
272
     3
273
     2
274
     3
340
2592
275
     0
280
     0
281
     0
282
     0
283
     1
284
     8
285
     8
286
     8
287
     3
288
     0
  0
ENDTAB
  0
TABLE
  2
BLOCK_RECORD
  5
1
100
AcDbSymbolTable
 70
     1
  0
BLOCK_RECORD
  5
18
100
AcDbSymbolTableRecord
100
AcDbBlockTableRecord
  2
*MODEL_SPACE
  0
BLOCK_RECORD
  5
15
100
AcDbSymbolTableRecord
100
AcDbBlockTableRecord
  2
*PAPER_SPACE
  0
BLOCK_RECORD
  5
2448
100
AcDbSymbolTableRecord
100
AcDbBlockTableRecord
  2
_OPEN
  0
ENDTAB
  0
ENDSEC
  0
SECTION
  2
BLOCKS
  0
BLOCK
  5
3C
100
AcDbEntity
  8
0
100
AcDbBlockBegin
  2
*MODEL_SPACE
 70
     0
 10
0.0
 20
0.0
 30
0.0
  3
*MODEL_SPACE
  1

  0
ENDBLK
  5
3D
100
AcDbEntity
  8
0
100
AcDbBlockEnd
  0
BLOCK
  5
3A
100
AcDbEntity
 67
     1
  8
0
100
AcDbBlockBegin
  2
*PAPER_SPACE
 70
     0
 10
0.0
 20
0.0
 30
0.0
  3
*PAPER_SPACE
  1

  0
ENDBLK
  5
3B
100
AcDbEntity
 67
     1
  8
0
100
AcDbBlockEnd
  0
BLOCK
  5
2449
100
AcDbEntity
  8
0
 48
4.0
100
AcDbBlockBegin
  2
_OPEN
 70
     0
 10
0.0
 20
0.0
 30
0.0
  3
_OPEN
  1
H1111.DWG
  0
LINE
  5
244A
100
AcDbEntity
  8
0
  6
BYBLOCK
 62
     0
 48
4.0
100
AcDbLine
 10
-1.0
 20
0.166667
 30
0.0
 11
0.0
 21
0.0
 31
0.0
  0
LINE
  5
244B
100
AcDbEntity
  8
0
  6
BYBLOCK
 62
     0
 48
4.0
100
AcDbLine
 10
0.0
 20
0.0
 30
0.0
 11
-1.0
 21
-0.166667
 31
0.0
  0
LINE
  5
244C
100
AcDbEntity
  8
0
  6
BYBLOCK
 62
     0
 48
4.0
100
AcDbLine
 10
0.0
 20
0.0
 30
0.0
 11
-1.0
 21
0.0
 31
0.0
  0
ENDBLK
  5
244D
100
AcDbEntity
  8
0
 48
4.0
100
AcDbBlockEnd
  0
ENDSEC
  0
SECTION
  2
ENTITIES
  0
MTEXT
  5
ADA
100
AcDbEntity
  8
0
100
AcDbMText
 10
1900.696399
 20
249.231556
 30
0.0
 40
1.0
 41
236.132324
 71
     1
 72
     1
  1

  0
MTEXT
  5
ADB
100
AcDbEntity
  8
0
100
AcDbMText
 10
1945.249666
 20
289.253969
 30
0.0
 40
1.0
 41
227.221671
 71
     1
 72
     1
  1

  0
MTEXT
  5
ADC
100
AcDbEntity
  8
0
100
AcDbMText
 10
1918.517706
 20
-239.931232
 30
0.0
 40
1.0
 41
258.408958
 71
     1
 72
     1
  1

  0
TEXT
  5
2529
100
AcDbEntity
  8
0
  6
CONTINUOUS
100
AcDbText
 10
1369.0
 20
33.75
 30
0.0
 40
15.0
  1
CK3
 41
0.9
  7
PTSH
 72
     2
 11
1405.0
 21
41.25
 31
0.0
100
AcDbText
 73
     2
  0
POLYLINE
  5
2563
100
AcDbEntity
  8
0
100
AcDb2dPolyline
 66
     1
 10
0.0
 20
0.0
 30
0.0
 70
     1
  0
VERTEX
  5
3504
100
AcDbEntity
  8
0
100
AcDbVertex
100
AcDb2dVertex
 10
55.0
 20
25.0
 30
0.0
  0
VERTEX
  5
3505
100
AcDbEntity
  8
0
100
AcDbVertex
100
AcDb2dVertex
 10
1430.0
 20
25.0
 30
0.0
  0
VERTEX
  5
3506
100
AcDbEntity
  8
0
100
AcDbVertex
100
AcDb2dVertex
 10
1430.0
 20
955.0
 30
0.0
  0
VERTEX
  5
3507
100
AcDbEntity
  8
0
100
AcDbVertex
100
AcDb2dVertex
 10
55.0
 20
955.0
 30
0.0
  0
SEQEND
  5
3508
100
AcDbEntity
  8
0
  0
LINE
  5
30E1
100
AcDbEntity
  8
0
100
AcDbLine
 10
678.542308
 20
681.674286
 30
0.0
 11
697.449058
 21
681.674286
 31
0.0
  0
LINE
  5
30E2
100
AcDbEntity
  8
0
100
AcDbLine
 10
716.356933
 20
675.372036
 30
0.0
 11
684.844558
 21
675.372036
 31
0.0
  0
LINE
  5
30E3
100
AcDbEntity
  8
0
100
AcDbLine
 10
714.707881
 20
774.226007
 30
0.0
 11
683.195506
 21
774.226007
 31
0.0
  0
LINE
  5
30E4
100
AcDbEntity
  8
0
100
AcDbLine
 10
698.952256
 20
777.377132
 30
0.0
 11
708.268381
 21
777.377132
 31
0.0
  0
LINE
  5
30E5
100
AcDbEntity
  8
0
100
AcDbLine
 10
692.959671
 20
498.270871
 30
0.0
 11
704.959671
 21
498.270871
 31
0.0
  0
LINE
  5
30E6
100
AcDbEntity
  8
0
100
AcDbLine
 10
703.156123
 20
514.379998
 30
0.0
 11
690.248346
 21
514.379998
 31
0.0
  0
LINE
  5
30E7
100
AcDbEntity
  8
0
100
AcDbLine
 10
702.458743
 20
324.899342
 30
0.0
 11
690.247419
 21
324.899342
 31
0.0
  0
LINE
  5
30E8
100
AcDbEntity
  8
0
100
AcDbLine
 10
692.958743
 20
341.008469
 30
0.0
 11
702.458743
 21
341.008469
 31
0.0
  0
LINE
  5
30E9
100
AcDbEntity
  8
0
100
AcDbLine
 10
692.958743
 20
363.790215
 30
0.0
 11
702.458743
 21
363.790215
 31
0.0
  0
LINE
  5
30EA
100
AcDbEntity
  8
0
100
AcDbLine
 10
702.458743
 20
379.899342
 30
0.0
 11
690.247419
 21
379.899342
 31
0.0
  0
LINE
  5
30EB
100
AcDbEntity
  8
0
100
AcDbLine
 10
703.156123
 20
459.379998
 30
0.0
 11
690.248346
 21
459.379998
 31
0.0
  0
LINE
  5
30EC
100
AcDbEntity
  8
0
100
AcDbLine
 10
692.959671
 20
475.489125
 30
0.0
 11
704.959671
 21
475.489125
 31
0.0
  0
LINE
  5
30ED
100
AcDbEntity
  8
0
100
AcDbLine
 10
702.457783
 20
184.890223
 30
0.0
 11
690.246459
 21
184.890223
 31
0.0
  0
LINE
  5
30EE
100
AcDbEntity
  8
0
100
AcDbLine
 10
692.957783
 20
200.99935
 30
0.0
 11
702.457783
 21
200.99935
 31
0.0
  0
LINE
  5
30EF
100
AcDbEntity
  8
0
100
AcDbLine
 10
692.957783
 20
223.781096
 30
0.0
 11
702.457783
 21
223.781096
 31
0.0
  0
LINE
  5
30F0
100
AcDbEntity
  8
0
100
AcDbLine
 10
702.457783
 20
239.890223
 30
0.0
 11
690.246459
 21
239.890223
 31
0.0
  0
LINE
  5
30F1
100
AcDbEntity
  8
0
100
AcDbLine
 10
689.959671
 20
486.879998
 30
0.0
 11
689.959671
 21
459.879998
 31
0.0
  0
ARC
  5
30F2
100
AcDbEntity
  8
0
100
AcDbCircle
 10
713.085002
 20
486.879998
 30
0.0
 40
23.125331
100
AcDbArc
 50
150.490278
 51
209.509722
  0
LINE
  5
30F3
100
AcDbEntity
  8
0
100
AcDbLine
 10
332.371384
 20
524.379998
 30
0.0
 11
332.371384
 21
449.379998
 31
0.0
  0
LINE
  5
30F4
100
AcDbEntity
  8
0
100
AcDbLine
 10
328.041257
 20
521.879998
 30
0.0
 11
328.041257
 21
451.879998
 31
0.0
  0
LINE
  5
30F5
100
AcDbEntity
  8
0
100
AcDbLine
 10
316.041257
 20
521.879998
 30
0.0
 11
316.041257
 21
451.879998
 31
0.0
  0
LINE
  5
30F6
100
AcDbEntity
  8
0
100
AcDbLine
 10
346.371384
 20
524.379998
 30
0.0
 11
346.371384
 21
449.379998
 31
0.0
  0
LINE
  5
30F7
100
AcDbEntity
  8
0
100
AcDbLine
 10
351.371384
 20
524.379998
 30
0.0
 11
351.371384
 21
449.379998
 31
0.0
  0
LINE
  5
30F8
100
AcDbEntity
  8
0
100
AcDbLine
 10
285.371384
 20
486.879998
 30
0.0
 11
285.371384
 21
462.379998
 31
0.0
  0
LINE
  5
30F9
100
AcDbEntity
  8
0
100
AcDbLine
 10
299.371384
 20
511.879998
 30
0.0
 11
299.371384
 21
461.879998
 31
0.0
  0
LINE
  5
30FA
100
AcDbEntity
  8
0
100
AcDbLine
 10
302.371384
 20
511.879998
 30
0.0
 11
302.371384
 21
461.879998
 31
0.0
  0
ARC
  5
30FB
100
AcDbEntity
  8
0
100
AcDbCircle
 10
304.743559
 20
486.879998
 30
0.0
 40
19.372175
100
AcDbArc
 50
147.6868
 51
212.3132
  0
LINE
  5
30FC
100
AcDbEntity
  8
0
100
AcDbLine
 10
365.371384
 20
486.879998
 30
0.0
 11
365.371384
 21
462.379998
 31
0.0
  0
ARC
  5
30FD
100
AcDbEntity
  8
0
100
AcDbCircle
 10
345.999209
 20
486.879998
 30
0.0
 40
19.372175
100
AcDbArc
 50
327.6868
 51
32.3132
  0
LINE
  5
30FE
100
AcDbEntity
  8
0
100
AcDbLine
 10
234.800119
 20
349.216342
 30
0.0
 11
253.706869
 21
349.216342
 31
0.0
  0
LINE
  5
30FF
100
AcDbEntity
  8
0
100
AcDbLine
 10
241.102369
 20
342.914092
 30
0.0
 11
234.800119
 21
349.216342
 31
0.0
  0
TEXT
  5
3100
100
AcDbEntity
  8
0
100
AcDbText
 10
80.880284
 20
231.563392
 30
0.0
 40
15.0
  1
正面
100
AcDbText
  0
CIRCLE
  5
3101
100
AcDbEntity
  8
0
100
AcDbCircle
 10
190.56646
 20
212.390223
 30
0.0
 40
37.5
  0
CIRCLE
  5
3102
100
AcDbEntity
  8
0
100
AcDbCircle
 10
190.56646
 20
212.390223
 30
0.0
 40
24.5
  0
POLYLINE
  5
3103
100
AcDbEntity
  8
0
100
AcDb2dPolyline
 66
     1
 10
0.0
 20
0.0
 30
0.0
 70
     1
  0
VERTEX
  5
3509
100
AcDbEntity
  8
0
100
AcDbVertex
100
AcDb2dVertex
 10
180.211121
 20
187.390223
 30
0.0
  0
VERTEX
  5
350A
100
AcDbEntity
  8
0
100
AcDbVertex
100
AcDb2dVertex
 10
165.56646
 20
202.034884
 30
0.0
  0
VERTEX
  5
350B
100
AcDbEntity
  8
0
100
AcDbVertex
100
AcDb2dVertex
 10
165.56646
 20
222.745563
 30
0.0
  0
VERTEX
  5
350C
100
AcDbEntity
  8
0
100
AcDbVertex
100
AcDb2dVertex
 10
180.211121
 20
237.390223
 30
0.0
  0
VERTEX
  5
350D
100
AcDbEntity
  8
0
100
AcDbVertex
100
AcDb2dVertex
 10
200.9218
 20
237.390223
 30
0.0
  0
VERTEX
  5
350E
100
AcDbEntity
  8
0
100
AcDbVertex
100
AcDb2dVertex
 10
215.56646
 20
222.745563
 30
0.0
  0
VERTEX
  5
350F
100
AcDbEntity
  8
0
100
AcDbVertex
100
AcDb2dVertex
 10
215.56646
 20
202.034884
 30
0.0
  0
VERTEX
  5
3510
100
AcDbEntity
  8
0
100
AcDbVertex
100
AcDb2dVertex
 10
200.9218
 20
187.390223
 30
0.0
  0
SEQEND
  5
3511
100
AcDbEntity
  8
0
  0
CIRCLE
  5
3104
100
AcDbEntity
  8
0
100
AcDbCircle
 10
190.56646
 20
212.390223
 30
0.0
 40
17.5
  0
TEXT
  5
3105
100
AcDbEntity
  8
0
100
AcDbText
 10
80.880284
 20
345.787731
 30
0.0
 40
15.0
  1
平面
100
AcDbText
  0
TEXT
  5
3106
100
AcDbEntity
  8
0
100
AcDbText
 10
82.715458
 20
454.419188
 30
0.0
 40
15.0
  1
背面
100
AcDbText
  0
TEXT
  5
3107
100
AcDbEntity
  8
0
100
AcDbText
 10
318.60168
 20
120.209302
 30
0.0
 40
12.5
  1
32A
 41
0.8
 11
318.60168
 21
120.209302
 31
0.0
100
AcDbText
 73
     1
  0
ARC
  5
3108
100
AcDbEntity
  8
0
100
AcDbCircle
 10
353.268483
 20
184.390223
 30
0.0
 40
3.0
100
AcDbArc
 50
90.0
 51
154.667241
  0
LINE
  5
3109
100
AcDbEntity
  8
0
100
AcDbLine
 10
362.369497
 20
222.745563
 30
0.0
 11
351.369497
 21
222.745563
 31
0.0
  0
LINE
  5
310A
100
AcDbEntity
  8
0
100
AcDbLine
 10
362.369497
 20
202.034884
 30
0.0
 11
351.369497
 21
202.034884
 31
0.0
  0
ARC
  5
310B
100
AcDbEntity
  8
0
100
AcDbCircle
 10
353.268483
 20
240.390223
 30
0.0
 40
3.0
100
AcDbArc
 50
205.332759
 51
270.0
  0
LINE
  5
310C
100
AcDbEntity
  8
0
100
AcDbLine
 10
318.369497
 20
249.890223
 30
0.0
 11
318.369497
 21
174.890223
 31
0.0
  0
LINE
  5
310D
100
AcDbEntity
  8
0
100
AcDbLine
 10
304.369497
 20
249.890223
 30
0.0
 11
304.369497
 21
174.890223
 31
0.0
  0
LINE
  5
310E
100
AcDbEntity
  8
0
100
AcDbLine
 10
322.699624
 20
247.390223
 30
0.0
 11
322.699624
 21
177.390223
 31
0.0
  0
LINE
  5
310F
100
AcDbEntity
  8
0
100
AcDbLine
 10
334.699624
 20
247.390223
 30
0.0
 11
334.699624
 21
177.390223
 31
0.0
  0
LINE
  5
3110
100
AcDbEntity
  8
0
100
AcDbLine
 10
299.369497
 20
249.890223
 30
0.0
 11
299.369497
 21
174.890223
 31
0.0
  0
ARC
  5
3111
100
AcDbEntity
  8
0
100
AcDbCircle
 10
295.805584
 20
230.067893
 30
0.0
 40
10.436087
100
AcDbArc
 50
135.441623
 51
224.558377
  0
LINE
  5
3112
100
AcDbEntity
  8
0
100
AcDbLine
 10
285.369497
 20
236.890223
 30
0.0
 11
285.369497
 21
212.390223
 31
0.0
  0
LINE
  5
3113
100
AcDbEntity
  8
0
100
AcDbLine
 10
351.369497
 20
237.390223
 30
0.0
 11
351.369497
 21
187.390223
 31
0.0
  0
LINE
  5
3114
100
AcDbEntity
  8
0
100
AcDbLine
 10
348.369497
 20
237.390223
 30
0.0
 11
348.369497
 21
187.390223
 31
0.0
  0
LINE
  5
3115
100
AcDbEntity
  8
0
100
AcDbLine
 10
288.369497
 20
222.745563
 30
0.0
 11
299.369497
 21
222.745563
 31
0.0
  0
LINE
  5
3116
100
AcDbEntity
  8
0
100
AcDbLine
 10
288.369497
 20
202.034884
 30
0.0
 11
299.369497
 21
202.034884
 31
0.0
  0
LINE
  5
3117
100
AcDbEntity
  8
0
100
AcDbLine
 10
297.470511
 20
187.390223
 30
0.0
 11
285.658172
 21
187.390223
 31
0.0
  0
LINE
  5
3118
100
AcDbEntity
  8
0
100
AcDbLine
 10
285.369497
 20
212.390223
 30
0.0
 11
285.369497
 21
187.890223
 31
0.0
  0
ARC
  5
3119
100
AcDbEntity
  8
0
100
AcDbCircle
 10
295.805584
 20
194.712554
 30
0.0
 40
10.436087
100
AcDbArc
 50
135.441623
 51
224.558377
  0
LINE
  5
311A
100
AcDbEntity
  8
0
100
AcDbLine
 10
285.658172
 20
187.390223
 30
0.0
 11
285.369497
 21
187.890223
 31
0.0
  0
LINE
  5
311B
100
AcDbEntity
  8
0
100
AcDbLine
 10
263.229005
 20
212.385818
 30
0.0
 11
272.54513
 21
212.385818
 31
0.0
  0
LINE
  5
311C
100
AcDbEntity
  8
0
100
AcDbLine
 10
278.98463
 20
209.234693
 30
0.0
 11
247.472255
 21
209.234693
 31
0.0
  0
LINE
  5
311D
100
AcDbEntity
  8
0
100
AcDbLine
 10
247.472255
 20
209.234693
 30
0.0
 11
241.170005
 21
215.536943
 31
0.0
  0
LINE
  5
311E
100
AcDbEntity
  8
0
100
AcDbLine
 10
241.170005
 20
215.536943
 30
0.0
 11
260.076755
 21
215.536943
 31
0.0
  0
LINE
  5
311F
100
AcDbEntity
  8
0
100
AcDbLine
 10
260.076755
 20
215.536943
 30
0.0
 11
263.229005
 21
212.385818
 31
0.0
  0
LINE
  5
3120
100
AcDbEntity
  8
0
100
AcDbLine
 10
272.54513
 20
215.536943
 30
0.0
 11
278.98463
 21
209.234693
 31
0.0
  0
ARC
  5
3121
100
AcDbEntity
  8
0
100
AcDbCircle
 10
304.741671
 20
212.390223
 30
0.0
 40
19.372175
100
AcDbArc
 50
147.6868
 51
212.3132
  0
LINE
  5
3122
100
AcDbEntity
  8
0
100
AcDbLine
 10
272.54513
 20
212.385818
 30
0.0
 11
272.54513
 21
215.536943
 31
0.0
  0
LINE
  5
3123
100
AcDbEntity
  8
0
100
AcDbLine
 10
322.699624
 20
177.390223
 30
0.0
 11
334.699624
 21
177.390223
 31
0.0
  0
LINE
  5
3124
100
AcDbEntity
  8
0
100
AcDbLine
 10
299.369497
 20
174.890223
 30
0.0
 11
318.369497
 21
174.890223
 31
0.0
  0
ARC
  5
3125
100
AcDbEntity
  8
0
100
AcDbCircle
 10
297.369497
 20
185.390223
 30
0.0
 40
2.0
100
AcDbArc
 50
0.0
 51
90.0
  0
LINE
  5
3126
100
AcDbEntity
  8
0
100
AcDbLine
 10
318.369497
 20
174.890223
 30
0.0
 11
322.699624
 21
177.390223
 31
0.0
  0
LINE
  5
3127
100
AcDbEntity
  8
0
100
AcDbLine
 10
334.699624
 20
177.390223
 30
0.0
 11
345.687447
 21
180.334402
 31
0.0
  0
LINE
  5
3128
100
AcDbEntity
  8
0
100
AcDbLine
 10
350.556969
 20
185.673848
 30
0.0
 11
349.557561
 21
183.562708
 31
0.0
  0
ARC
  5
3129
100
AcDbEntity
  8
0
100
AcDbCircle
 10
344.134532
 20
186.129957
 30
0.0
 40
6.0
100
AcDbArc
 50
285.0
 51
334.667241
  0
LINE
  5
312A
100
AcDbEntity
  8
0
100
AcDbLine
 10
297.470511
 20
237.390223
 30
0.0
 11
285.658172
 21
237.390223
 31
0.0
  0
LINE
  5
312B
100
AcDbEntity
  8
0
100
AcDbLine
 10
285.658172
 20
237.390223
 30
0.0
 11
285.369497
 21
236.890223
 31
0.0
  0
LINE
  5
312C
100
AcDbEntity
  8
0
100
AcDbLine
 10
322.699624
 20
247.390223
 30
0.0
 11
334.699624
 21
247.390223
 31
0.0
  0
LINE
  5
312D
100
AcDbEntity
  8
0
100
AcDbLine
 10
299.369497
 20
249.890223
 30
0.0
 11
318.369497
 21
249.890223
 31
0.0
  0
ARC
  5
312E
100
AcDbEntity
  8
0
100
AcDbCircle
 10
297.369497
 20
239.390223
 30
0.0
 40
2.0
100
AcDbArc
 50
270.0
 51
0.0
  0
LINE
  5
312F
100
AcDbEntity
  8
0
100
AcDbLine
 10
318.369497
 20
249.890223
 30
0.0
 11
322.699624
 21
247.390223
 31
0.0
  0
LINE
  5
3130
100
AcDbEntity
  8
0
100
AcDbLine
 10
334.699624
 20
247.390223
 30
0.0
 11
345.687447
 21
244.446045
 31
0.0
  0
LINE
  5
3131
100
AcDbEntity
  8
0
100
AcDbLine
 10
350.556969
 20
239.106599
 30
0.0
 11
349.557561
 21
241.217739
 31
0.0
  0
ARC
  5
3132
100
AcDbEntity
  8
0
100
AcDbCircle
 10
344.134532
 20
238.65049
 30
0.0
 40
6.0
100
AcDbArc
 50
25.332759
 51
75.0
  0
ARC
  5
3133
100
AcDbEntity
  8
0
100
AcDbCircle
 10
354.93341
 20
230.067893
 30
0.0
 40
10.436087
100
AcDbArc
 50
315.441623
 51
44.558377
  0
LINE
  5
3134
100
AcDbEntity
  8
0
100
AcDbLine
 10
365.369497
 20
236.890223
 30
0.0
 11
365.369497
 21
212.390223
 31
0.0
  0
CIRCLE
  5
3135
100
AcDbEntity
  8
0
100
AcDbCircle
 10
422.544361
 20
212.390223
 30
0.0
 40
37.5
  0
CIRCLE
  5
3136
100
AcDbEntity
  8
0
100
AcDbCircle
 10
422.544361
 20
212.390223
 30
0.0
 40
35.0
  0
POLYLINE
  5
3137
100
AcDbEntity
  8
0
100
AcDb2dPolyline
 66
     1
 10
0.0
 20
0.0
 30
0.0
 70
     1
  0
VERTEX
  5
3512
100
AcDbEntity
  8
0
100
AcDbVertex
100
AcDb2dVertex
 10
432.8997
 20
187.390223
 30
0.0
  0
VERTEX
  5
3513
100
AcDbEntity
  8
0
100
AcDbVertex
100
AcDb2dVertex
 10
447.544361
 20
202.034884
 30
0.0
  0
VERTEX
  5
3514
100
AcDbEntity
  8
0
100
AcDbVertex
100
AcDb2dVertex
 10
447.544361
 20
222.745563
 30
0.0
  0
VERTEX
  5
3515
100
AcDbEntity
  8
0
100
AcDbVertex
100
AcDb2dVertex
 10
432.8997
 20
237.390223
 30
0.0
  0
VERTEX
  5
3516
100
AcDbEntity
  8
0
100
AcDbVertex
100
AcDb2dVertex
 10
412.189022
 20
237.390223
 30
0.0
  0
VERTEX
  5
3517
100
AcDbEntity
  8
0
100
AcDbVertex
100
AcDb2dVertex
 10
397.544361
 20
222.745563
 30
0.0
  0
VERTEX
  5
3518
100
AcDbEntity
  8
0
100
AcDbVertex
100
AcDb2dVertex
 10
397.544361
 20
202.034884
 30
0.0
  0
VERTEX
  5
3519
100
AcDbEntity
  8
0
100
AcDbVertex
100
AcDb2dVertex
 10
412.189022
 20
187.390223
 30
0.0
  0
SEQEND
  5
351A
100
AcDbEntity
  8
0
  0
CIRCLE
  5
3138
100
AcDbEntity
  8
0
100
AcDbCircle
 10
422.544361
 20
212.390223
 30
0.0
 40
24.5
  0
CIRCLE
  5
3139
100
AcDbEntity
  8
0
100
AcDbCircle
 10
422.544361
 20
212.390223
 30
0.0
 40
17.5
  0
LINE
  5
313A
100
AcDbEntity
  8
0
100
AcDbLine
 10
365.369497
 20
212.390223
 30
0.0
 11
365.369497
 21
187.890223
 31
0.0
  0
ARC
  5
313B
100
AcDbEntity
  8
0
100
AcDbCircle
 10
354.93341
 20
194.712554
 30
0.0
 40
10.436087
100
AcDbArc
 50
315.441623
 51
44.558377
  0
LINE
  5
313C
100
AcDbEntity
  8
0
100
AcDbLine
 10
353.268483
 20
187.390223
 30
0.0
 11
365.080822
 21
187.390223
 31
0.0
  0
LINE
  5
313D
100
AcDbEntity
  8
0
100
AcDbLine
 10
365.080822
 20
187.390223
 30
0.0
 11
365.369497
 21
187.890223
 31
0.0
  0
ARC
  5
313E
100
AcDbEntity
  8
0
100
AcDbCircle
 10
345.997322
 20
212.390223
 30
0.0
 40
19.372175
100
AcDbArc
 50
327.6868
 51
32.3132
  0
LINE
  5
313F
100
AcDbEntity
  8
0
100
AcDbLine
 10
353.268483
 20
237.390223
 30
0.0
 11
365.080822
 21
237.390223
 31
0.0
  0
LINE
  5
3140
100
AcDbEntity
  8
0
100
AcDbLine
 10
365.080822
 20
237.390223
 30
0.0
 11
365.369497
 21
236.890223
 31
0.0
  0
ARC
  5
3141
100
AcDbEntity
  8
0
100
AcDbCircle
 10
353.269443
 20
324.399342
 30
0.0
 40
3.0
100
AcDbArc
 50
90.0
 51
154.667241
  0
LINE
  5
3142
100
AcDbEntity
  8
0
100
AcDbLine
 10
362.370457
 20
342.044003
 30
0.0
 11
351.370457
 21
342.044003
 31
0.0
  0
LINE
  5
3143
100
AcDbEntity
  8
0
100
AcDbLine
 10
362.370457
 20
362.754681
 30
0.0
 11
351.370457
 21
362.754681
 31
0.0
  0
ARC
  5
3144
100
AcDbEntity
  8
0
100
AcDbCircle
 10
353.269443
 20
380.399342
 30
0.0
 40
3.0
100
AcDbArc
 50
205.332759
 51
270.0
  0
ARC
  5
3145
100
AcDbEntity
  8
0
100
AcDbCircle
 10
353.371384
 20
459.879998
 30
0.0
 40
2.0
100
AcDbArc
 50
90.0
 51
180.0
  0
LINE
  5
3146
100
AcDbEntity
  8
0
100
AcDbLine
 10
362.371384
 20
476.524659
 30
0.0
 11
351.371384
 21
476.524659
 31
0.0
  0
LINE
  5
3147
100
AcDbEntity
  8
0
100
AcDbLine
 10
297.471471
 20
327.399342
 30
0.0
 11
285.659132
 21
327.399342
 31
0.0
  0
LINE
  5
3148
100
AcDbEntity
  8
0
100
AcDbLine
 10
288.370457
 20
342.044003
 30
0.0
 11
299.370457
 21
342.044003
 31
0.0
  0
LINE
  5
3149
100
AcDbEntity
  8
0
100
AcDbLine
 10
288.370457
 20
362.754681
 30
0.0
 11
299.370457
 21
362.754681
 31
0.0
  0
LINE
  5
314A
100
AcDbEntity
  8
0
100
AcDbLine
 10
297.471471
 20
377.399342
 30
0.0
 11
285.659132
 21
377.399342
 31
0.0
  0
LINE
  5
314B
100
AcDbEntity
  8
0
100
AcDbLine
 10
285.370457
 20
376.899342
 30
0.0
 11
285.370457
 21
352.399342
 31
0.0
  0
ARC
  5
314C
100
AcDbEntity
  8
0
100
AcDbCircle
 10
304.742631
 20
352.399342
 30
0.0
 40
19.372175
100
AcDbArc
 50
147.6868
 51
212.3132
  0
LINE
  5
314D
100
AcDbEntity
  8
0
100
AcDbLine
 10
272.614744
 20
342.914092
 30
0.0
 11
241.102369
 21
342.914092
 31
0.0
  0
LINE
  5
314E
100
AcDbEntity
  8
0
100
AcDbLine
 10
256.859119
 20
346.065217
 30
0.0
 11
266.175244
 21
346.065217
 31
0.0
  0
LINE
  5
314F
100
AcDbEntity
  8
0
100
AcDbLine
 10
253.706869
 20
349.216342
 30
0.0
 11
256.859119
 21
346.065217
 31
0.0
  0
LINE
  5
3150
100
AcDbEntity
  8
0
100
AcDbLine
 10
285.370457
 20
352.399342
 30
0.0
 11
285.370457
 21
327.899342
 31
0.0
  0
ARC
  5
3151
100
AcDbEntity
  8
0
100
AcDbCircle
 10
295.806544
 20
334.721672
 30
0.0
 40
10.436087
100
AcDbArc
 50
135.441623
 51
224.558377
  0
LINE
  5
3152
100
AcDbEntity
  8
0
100
AcDbLine
 10
285.659132
 20
327.399342
 30
0.0
 11
285.370457
 21
327.899342
 31
0.0
  0
LINE
  5
3153
100
AcDbEntity
  8
0
100
AcDbLine
 10
266.175244
 20
349.216342
 30
0.0
 11
272.614744
 21
342.914092
 31
0.0
  0
LINE
  5
3154
100
AcDbEntity
  8
0
100
AcDbLine
 10
266.175244
 20
346.065217
 30
0.0
 11
266.175244
 21
349.216342
 31
0.0
  0
ARC
  5
3155
100
AcDbEntity
  8
0
100
AcDbCircle
 10
295.806544
 20
370.077011
 30
0.0
 40
10.436087
100
AcDbArc
 50
135.441623
 51
224.558377
  0
LINE
  5
3156
100
AcDbEntity
  8
0
100
AcDbLine
 10
285.659132
 20
377.399342
 30
0.0
 11
285.370457
 21
376.899342
 31
0.0
  0
LINE
  5
3157
100
AcDbEntity
  8
0
100
AcDbLine
 10
299.370457
 20
389.899342
 30
0.0
 11
299.370457
 21
314.899342
 31
0.0
  0
LINE
  5
3158
100
AcDbEntity
  8
0
100
AcDbLine
 10
318.370457
 20
389.899342
 30
0.0
 11
318.370457
 21
314.899342
 31
0.0
  0
LINE
  5
3159
100
AcDbEntity
  8
0
100
AcDbLine
 10
304.370457
 20
389.899342
 30
0.0
 11
304.370457
 21
314.899342
 31
0.0
  0
LINE
  5
315A
100
AcDbEntity
  8
0
100
AcDbLine
 10
322.700584
 20
387.399342
 30
0.0
 11
322.700584
 21
317.399342
 31
0.0
  0
LINE
  5
315B
100
AcDbEntity
  8
0
100
AcDbLine
 10
334.700584
 20
387.399342
 30
0.0
 11
334.700584
 21
317.399342
 31
0.0
  0
LINE
  5
315C
100
AcDbEntity
  8
0
100
AcDbLine
 10
351.370457
 20
377.399342
 30
0.0
 11
351.370457
 21
327.399342
 31
0.0
  0
LINE
  5
315D
100
AcDbEntity
  8
0
100
AcDbLine
 10
348.370457
 20
377.399342
 30
0.0
 11
348.370457
 21
327.399342
 31
0.0
  0
LINE
  5
315E
100
AcDbEntity
  8
0
100
AcDbLine
 10
322.700584
 20
317.399342
 30
0.0
 11
334.700584
 21
317.399342
 31
0.0
  0
LINE
  5
315F
100
AcDbEntity
  8
0
100
AcDbLine
 10
299.370457
 20
314.899342
 30
0.0
 11
318.370457
 21
314.899342
 31
0.0
  0
ARC
  5
3160
100
AcDbEntity
  8
0
100
AcDbCircle
 10
297.370457
 20
325.399342
 30
0.0
 40
2.0
100
AcDbArc
 50
0.0
 51
90.0
  0
LINE
  5
3161
100
AcDbEntity
  8
0
100
AcDbLine
 10
318.370457
 20
314.899342
 30
0.0
 11
322.700584
 21
317.399342
 31
0.0
  0
LINE
  5
3162
100
AcDbEntity
  8
0
100
AcDbLine
 10
334.700584
 20
317.399342
 30
0.0
 11
345.688407
 21
320.34352
 31
0.0
  0
ARC
  5
3163
100
AcDbEntity
  8
0
100
AcDbCircle
 10
344.135492
 20
326.139075
 30
0.0
 40
6.0
100
AcDbArc
 50
285.0
 51
334.667241
  0
LINE
  5
3164
100
AcDbEntity
  8
0
100
AcDbLine
 10
350.557929
 20
325.682966
 30
0.0
 11
349.558521
 21
323.571827
 31
0.0
  0
LINE
  5
3165
100
AcDbEntity
  8
0
100
AcDbLine
 10
322.700584
 20
387.399342
 30
0.0
 11
334.700584
 21
387.399342
 31
0.0
  0
LINE
  5
3166
100
AcDbEntity
  8
0
100
AcDbLine
 10
299.370457
 20
389.899342
 30
0.0
 11
318.370457
 21
389.899342
 31
0.0
  0
ARC
  5
3167
100
AcDbEntity
  8
0
100
AcDbCircle
 10
297.370457
 20
379.399342
 30
0.0
 40
2.0
100
AcDbArc
 50
270.0
 51
0.0
  0
LINE
  5
3168
100
AcDbEntity
  8
0
100
AcDbLine
 10
318.370457
 20
389.899342
 30
0.0
 11
322.700584
 21
387.399342
 31
0.0
  0
LINE
  5
3169
100
AcDbEntity
  8
0
100
AcDbLine
 10
334.700584
 20
387.399342
 30
0.0
 11
345.688407
 21
384.455164
 31
0.0
  0
LINE
  5
316A
100
AcDbEntity
  8
0
100
AcDbLine
 10
350.557929
 20
379.115718
 30
0.0
 11
349.558521
 21
381.226857
 31
0.0
  0
ARC
  5
316B
100
AcDbEntity
  8
0
100
AcDbCircle
 10
344.135492
 20
378.659609
 30
0.0
 40
6.0
100
AcDbArc
 50
25.332759
 51
75.0
  0
LINE
  5
316C
100
AcDbEntity
  8
0
100
AcDbLine
 10
297.472398
 20
461.879998
 30
0.0
 11
285.660059
 21
461.879998
 31
0.0
  0
LINE
  5
316D
100
AcDbEntity
  8
0
100
AcDbLine
 10
288.371384
 20
476.524659
 30
0.0
 11
299.371384
 21
476.524659
 31
0.0
  0
ARC
  5
316E
100
AcDbEntity
  8
0
100
AcDbCircle
 10
295.807471
 20
469.202329
 30
0.0
 40
10.436087
100
AcDbArc
 50
135.441623
 51
224.558377
  0
LINE
  5
316F
100
AcDbEntity
  8
0
100
AcDbLine
 10
285.660059
 20
461.879998
 30
0.0
 11
285.371384
 21
462.379998
 31
0.0
  0
LINE
  5
3170
100
AcDbEntity
  8
0
100
AcDbLine
 10
328.041257
 20
451.879998
 30
0.0
 11
316.041257
 21
451.879998
 31
0.0
  0
ARC
  5
3171
100
AcDbEntity
  8
0
100
AcDbCircle
 10
306.606349
 20
460.619732
 30
0.0
 40
6.0
100
AcDbArc
 50
205.332759
 51
255.0
  0
LINE
  5
3172
100
AcDbEntity
  8
0
100
AcDbLine
 10
316.041257
 20
451.879998
 30
0.0
 11
305.053434
 21
454.824177
 31
0.0
  0
LINE
  5
3173
100
AcDbEntity
  8
0
100
AcDbLine
 10
300.183912
 20
460.163622
 30
0.0
 11
301.18332
 21
458.052483
 31
0.0
  0
ARC
  5
3174
100
AcDbEntity
  8
0
100
AcDbCircle
 10
297.472398
 20
458.879998
 30
0.0
 40
3.0
100
AcDbArc
 50
25.332759
 51
90.0
  0
LINE
  5
3175
100
AcDbEntity
  8
0
100
AcDbLine
 10
351.371384
 20
449.379998
 30
0.0
 11
332.371384
 21
449.379998
 31
0.0
  0
LINE
  5
3176
100
AcDbEntity
  8
0
100
AcDbLine
 10
332.371384
 20
449.379998
 30
0.0
 11
328.041257
 21
451.879998
 31
0.0
  0
LINE
  5
3177
100
AcDbEntity
  8
0
100
AcDbLine
 10
365.370457
 20
376.899342
 30
0.0
 11
365.370457
 21
352.399342
 31
0.0
  0
ARC
  5
3178
100
AcDbEntity
  8
0
100
AcDbCircle
 10
345.998282
 20
352.399342
 30
0.0
 40
19.372175
100
AcDbArc
 50
327.6868
 51
32.3132
  0
LINE
  5
3179
100
AcDbEntity
  8
0
100
AcDbLine
 10
365.370457
 20
352.399342
 30
0.0
 11
365.370457
 21
327.899342
 31
0.0
  0
ARC
  5
317A
100
AcDbEntity
  8
0
100
AcDbCircle
 10
354.93437
 20
334.721672
 30
0.0
 40
10.436087
100
AcDbArc
 50
315.441623
 51
44.558377
  0
LINE
  5
317B
100
AcDbEntity
  8
0
100
AcDbLine
 10
353.269443
 20
327.399342
 30
0.0
 11
365.081782
 21
327.399342
 31
0.0
  0
LINE
  5
317C
100
AcDbEntity
  8
0
100
AcDbLine
 10
365.081782
 20
327.399342
 30
0.0
 11
365.370457
 21
327.899342
 31
0.0
  0
ARC
  5
317D
100
AcDbEntity
  8
0
100
AcDbCircle
 10
354.93437
 20
370.077011
 30
0.0
 40
10.436087
100
AcDbArc
 50
315.441623
 51
44.558377
  0
LINE
  5
317E
100
AcDbEntity
  8
0
100
AcDbLine
 10
353.269443
 20
377.399342
 30
0.0
 11
365.081782
 21
377.399342
 31
0.0
  0
LINE
  5
317F
100
AcDbEntity
  8
0
100
AcDbLine
 10
365.081782
 20
377.399342
 30
0.0
 11
365.370457
 21
376.899342
 31
0.0
  0
ARC
  5
3180
100
AcDbEntity
  8
0
100
AcDbCircle
 10
354.935297
 20
469.202329
 30
0.0
 40
10.436087
100
AcDbArc
 50
315.441623
 51
44.558377
  0
LINE
  5
3181
100
AcDbEntity
  8
0
100
AcDbLine
 10
353.27037
 20
461.879998
 30
0.0
 11
365.082709
 21
461.879998
 31
0.0
  0
LINE
  5
3182
100
AcDbEntity
  8
0
100
AcDbLine
 10
365.082709
 20
461.879998
 30
0.0
 11
365.371384
 21
462.379998
 31
0.0
  0
POLYLINE
  5
3183
100
AcDbEntity
  8
0
100
AcDb2dPolyline
 66
     1
 10
0.0
 20
0.0
 30
0.0
 70
     1
  0
VERTEX
  5
351B
100
AcDbEntity
  8
0
100
AcDbVertex
100
AcDb2dVertex
 10
577.829449
 20
184.890223
 30
0.0
  0
VERTEX
  5
351C
100
AcDbEntity
  8
0
100
AcDbVertex
100
AcDb2dVertex
 10
561.720322
 20
200.99935
 30
0.0
  0
VERTEX
  5
351D
100
AcDbEntity
  8
0
100
AcDbVertex
100
AcDb2dVertex
 10
561.720322
 20
223.781096
 30
0.0
  0
VERTEX
  5
351E
100
AcDbEntity
  8
0
100
AcDbVertex
100
AcDb2dVertex
 10
577.829449
 20
239.890223
 30
0.0
  0
VERTEX
  5
351F
100
AcDbEntity
  8
0
100
AcDbVertex
100
AcDb2dVertex
 10
600.611195
 20
239.890223
 30
0.0
  0
VERTEX
  5
3520
100
AcDbEntity
  8
0
100
AcDbVertex
100
AcDb2dVertex
 10
616.720322
 20
223.781096
 30
0.0
  0
VERTEX
  5
3521
100
AcDbEntity
  8
0
100
AcDbVertex
100
AcDb2dVertex
 10
616.720322
 20
200.99935
 30
0.0
  0
VERTEX
  5
3522
100
AcDbEntity
  8
0
100
AcDbVertex
100
AcDb2dVertex
 10
600.611195
 20
184.890223
 30
0.0
  0
SEQEND
  5
3523
100
AcDbEntity
  8
0
  0
CIRCLE
  5
3184
100
AcDbEntity
  8
0
100
AcDbCircle
 10
589.220322
 20
212.390223
 30
0.0
 40
27.0
  0
CIRCLE
  5
3185
100
AcDbEntity
  8
0
100
AcDbCircle
 10
589.220322
 20
212.390223
 30
0.0
 40
42.5
  0
CIRCLE
  5
3186
100
AcDbEntity
  8
0
100
AcDbCircle
 10
589.220322
 20
212.390223
 30
0.0
 40
21.0
  0
LINE
  5
3187
100
AcDbEntity
  8
0
100
AcDbLine
 10
689.957783
 20
239.390223
 30
0.0
 11
689.957783
 21
212.390223
 31
0.0
  0
ARC
  5
3188
100
AcDbEntity
  8
0
100
AcDbCircle
 10
702.270449
 20
231.83566
 30
0.0
 40
12.312666
100
AcDbArc
 50
139.143335
 51
220.856665
  0
LINE
  5
3189
100
AcDbEntity
  8
0
100
AcDbLine
 10
689.957783
 20
212.390223
 30
0.0
 11
689.957783
 21
185.390223
 31
0.0
  0
ARC
  5
318A
100
AcDbEntity
  8
0
100
AcDbCircle
 10
702.270449
 20
192.944787
 30
0.0
 40
12.312666
100
AcDbArc
 50
139.143335
 51
220.856665
  0
LINE
  5
318B
100
AcDbEntity
  8
0
100
AcDbLine
 10
690.246459
 20
184.890223
 30
0.0
 11
689.957783
 21
185.390223
 31
0.0
  0
LINE
  5
318C
100
AcDbEntity
  8
0
100
AcDbLine
 10
665.891479
 20
209.688025
 30
0.0
 11
675.207604
 21
209.688025
 31
0.0
  0
LINE
  5
318D
100
AcDbEntity
  8
0
100
AcDbLine
 10
681.647104
 20
206.5369
 30
0.0
 11
650.134729
 21
206.5369
 31
0.0
  0
LINE
  5
318E
100
AcDbEntity
  8
0
100
AcDbLine
 10
662.739229
 20
212.83915
 30
0.0
 11
665.891479
 21
209.688025
 31
0.0
  0
LINE
  5
318F
100
AcDbEntity
  8
0
100
AcDbLine
 10
650.134729
 20
206.5369
 30
0.0
 11
643.832479
 21
212.83915
 31
0.0
  0
LINE
  5
3190
100
AcDbEntity
  8
0
100
AcDbLine
 10
643.832479
 20
212.83915
 30
0.0
 11
662.739229
 21
212.83915
 31
0.0
  0
LINE
  5
3191
100
AcDbEntity
  8
0
100
AcDbLine
 10
675.207604
 20
209.688025
 30
0.0
 11
675.207604
 21
212.83915
 31
0.0
  0
LINE
  5
3192
100
AcDbEntity
  8
0
100
AcDbLine
 10
675.207604
 20
212.83915
 30
0.0
 11
681.647104
 21
206.5369
 31
0.0
  0
ARC
  5
3193
100
AcDbEntity
  8
0
100
AcDbCircle
 10
713.083115
 20
212.390223
 30
0.0
 40
23.125331
100
AcDbArc
 50
150.490278
 51
209.509722
  0
LINE
  5
3194
100
AcDbEntity
  8
0
100
AcDbLine
 10
690.246459
 20
239.890223
 30
0.0
 11
689.957783
 21
239.390223
 31
0.0
  0
LINE
  5
3195
100
AcDbEntity
  8
0
100
AcDbLine
 10
638.355027
 20
354.718158
 30
0.0
 11
657.261777
 21
354.718158
 31
0.0
  0
LINE
  5
3196
100
AcDbEntity
  8
0
100
AcDbLine
 10
644.657277
 20
348.415908
 30
0.0
 11
638.355027
 21
354.718158
 31
0.0
  0
LINE
  5
3197
100
AcDbEntity
  8
0
100
AcDbLine
 10
689.958743
 20
379.399342
 30
0.0
 11
689.958743
 21
352.399342
 31
0.0
  0
ARC
  5
3198
100
AcDbEntity
  8
0
100
AcDbCircle
 10
713.084075
 20
352.399342
 30
0.0
 40
23.125331
100
AcDbArc
 50
150.490278
 51
209.509722
  0
LINE
  5
3199
100
AcDbEntity
  8
0
100
AcDbLine
 10
676.169652
 20
348.415908
 30
0.0
 11
644.657277
 21
348.415908
 31
0.0
  0
LINE
  5
319A
100
AcDbEntity
  8
0
100
AcDbLine
 10
669.730152
 20
354.718158
 30
0.0
 11
676.169652
 21
348.415908
 31
0.0
  0
LINE
  5
319B
100
AcDbEntity
  8
0
100
AcDbLine
 10
657.261777
 20
354.718158
 30
0.0
 11
660.414027
 21
351.567033
 31
0.0
  0
LINE
  5
319C
100
AcDbEntity
  8
0
100
AcDbLine
 10
669.730152
 20
351.567033
 30
0.0
 11
669.730152
 21
354.718158
 31
0.0
  0
LINE
  5
319D
100
AcDbEntity
  8
0
100
AcDbLine
 10
660.414027
 20
351.567033
 30
0.0
 11
669.730152
 21
351.567033
 31
0.0
  0
LINE
  5
319E
100
AcDbEntity
  8
0
100
AcDbLine
 10
689.958743
 20
352.399342
 30
0.0
 11
689.958743
 21
325.399342
 31
0.0
  0
ARC
  5
319F
100
AcDbEntity
  8
0
100
AcDbCircle
 10
702.271409
 20
332.953905
 30
0.0
 40
12.312666
100
AcDbArc
 50
139.143335
 51
220.856665
  0
LINE
  5
31A0
100
AcDbEntity
  8
0
100
AcDbLine
 10
690.247419
 20
324.899342
 30
0.0
 11
689.958743
 21
325.399342
 31
0.0
  0
ARC
  5
31A1
100
AcDbEntity
  8
0
100
AcDbCircle
 10
702.271409
 20
371.844778
 30
0.0
 40
12.312666
100
AcDbArc
 50
139.143335
 51
220.856665
  0
LINE
  5
31A2
100
AcDbEntity
  8
0
100
AcDbLine
 10
690.247419
 20
379.899342
 30
0.0
 11
689.958743
 21
379.399342
 31
0.0
  0
ARC
  5
31A3
100
AcDbEntity
  8
0
100
AcDbCircle
 10
702.272336
 20
467.434562
 30
0.0
 40
12.312666
100
AcDbArc
 50
139.143335
 51
220.856665
  0
LINE
  5
31A4
100
AcDbEntity
  8
0
100
AcDbLine
 10
690.248346
 20
459.379998
 30
0.0
 11
689.959671
 21
459.879998
 31
0.0
  0
ARC
  5
31A5
100
AcDbEntity
  8
0
100
AcDbCircle
 10
238.155984
 20
677.972483
 30
0.0
 40
15.5
100
AcDbArc
 50
29.428707
 51
150.571293
  0
ARC
  5
31A6
100
AcDbEntity
  8
0
100
AcDbCircle
 10
238.155984
 20
677.972483
 30
0.0
 40
15.5
100
AcDbArc
 50
209.428707
 51
330.571293
  0
CIRCLE
  5
31A7
100
AcDbEntity
  8
0
100
AcDbCircle
 10
238.155984
 20
677.972483
 30
0.0
 40
8.5
  0
ARC
  5
31A8
100
AcDbEntity
  8
0
100
AcDbCircle
 10
238.155984
 20
677.972483
 30
0.0
 40
14.5
100
AcDbArc
 50
21.40335
 51
158.59665
  0
ARC
  5
31A9
100
AcDbEntity
  8
0
100
AcDbCircle
 10
238.155984
 20
677.972483
 30
0.0
 40
14.5
100
AcDbArc
 50
201.40335
 51
338.59665
  0
CIRCLE
  5
31AA
100
AcDbEntity
  8
0
100
AcDbCircle
 10
238.155984
 20
677.972483
 30
0.0
 40
20.0
  0
TEXT
  5
31AB
100
AcDbEntity
  8
0
100
AcDbText
 10
113.308828
 20
764.765578
 30
0.0
 40
15.0
  1
平面
100
AcDbText
  0
TEXT
  5
31AC
100
AcDbEntity
  8
0
100
AcDbText
 10
113.308828
 20
650.541239
 30
0.0
 40
15.0
  1
正面
100
AcDbText
  0
LINE
  5
31AD
100
AcDbEntity
  8
0
100
AcDbLine
 10
224.655984
 20
685.588256
 30
0.0
 11
224.655984
 21
670.35671
 31
0.0
  0
TEXT
  5
31AE
100
AcDbEntity
  8
0
100
AcDbText
 10
115.144002
 20
873.397034
 30
0.0
 40
15.0
  1
背面
100
AcDbText
  0
LINE
  5
31AF
100
AcDbEntity
  8
0
100
AcDbLine
 10
362.371384
 20
497.235337
 30
0.0
 11
351.371384
 21
497.235337
 31
0.0
  0
ARC
  5
31B0
100
AcDbEntity
  8
0
100
AcDbCircle
 10
353.371384
 20
513.879998
 30
0.0
 40
2.0
100
AcDbArc
 50
180.0
 51
270.0
  0
TEXT
  5
31B1
100
AcDbEntity
  8
0
100
AcDbText
 10
340.892731
 20
611.141676
 30
0.0
 40
12.5
  1
15A
 41
0.8
 11
340.892731
 21
611.141676
 31
0.0
100
AcDbText
 73
     1
  0
LINE
  5
31B2
100
AcDbEntity
  8
0
100
AcDbLine
 10
297.472398
 20
511.879998
 30
0.0
 11
285.660059
 21
511.879998
 31
0.0
  0
LINE
  5
31B3
100
AcDbEntity
  8
0
100
AcDbLine
 10
288.371384
 20
497.235337
 30
0.0
 11
299.371384
 21
497.235337
 31
0.0
  0
ARC
  5
31B4
100
AcDbEntity
  8
0
100
AcDbCircle
 10
295.807471
 20
504.557668
 30
0.0
 40
10.436087
100
AcDbArc
 50
135.441623
 51
224.558377
  0
LINE
  5
31B5
100
AcDbEntity
  8
0
100
AcDbLine
 10
285.371384
 20
511.379998
 30
0.0
 11
285.371384
 21
486.879998
 31
0.0
  0
LINE
  5
31B6
100
AcDbEntity
  8
0
100
AcDbLine
 10
285.660059
 20
511.879998
 30
0.0
 11
285.371384
 21
511.379998
 31
0.0
  0
LINE
  5
31B7
100
AcDbEntity
  8
0
100
AcDbLine
 10
316.041257
 20
521.879998
 30
0.0
 11
305.053434
 21
518.93582
 31
0.0
  0
LINE
  5
31B8
100
AcDbEntity
  8
0
100
AcDbLine
 10
300.183912
 20
513.596374
 30
0.0
 11
301.18332
 21
515.707513
 31
0.0
  0
ARC
  5
31B9
100
AcDbEntity
  8
0
100
AcDbCircle
 10
297.472398
 20
514.879998
 30
0.0
 40
3.0
100
AcDbArc
 50
270.0
 51
334.667241
  0
ARC
  5
31BA
100
AcDbEntity
  8
0
100
AcDbCircle
 10
306.606349
 20
513.140265
 30
0.0
 40
6.0
100
AcDbArc
 50
105.0
 51
154.667241
  0
LINE
  5
31BB
100
AcDbEntity
  8
0
100
AcDbLine
 10
328.041257
 20
521.879998
 30
0.0
 11
316.041257
 21
521.879998
 31
0.0
  0
LINE
  5
31BC
100
AcDbEntity
  8
0
100
AcDbLine
 10
351.371384
 20
524.379998
 30
0.0
 11
332.371384
 21
524.379998
 31
0.0
  0
LINE
  5
31BD
100
AcDbEntity
  8
0
100
AcDbLine
 10
332.371384
 20
524.379998
 30
0.0
 11
328.041257
 21
521.879998
 31
0.0
  0
LINE
  5
31BE
100
AcDbEntity
  8
0
100
AcDbLine
 10
421.361753
 20
492.42466
 30
0.0
 11
402.455003
 21
492.42466
 31
0.0
  0
LINE
  5
31BF
100
AcDbEntity
  8
0
100
AcDbLine
 10
383.547128
 20
486.12241
 30
0.0
 11
415.059503
 21
486.12241
 31
0.0
  0
ARC
  5
31C0
100
AcDbEntity
  8
0
100
AcDbCircle
 10
354.935297
 20
504.557668
 30
0.0
 40
10.436087
100
AcDbArc
 50
315.441623
 51
44.558377
  0
LINE
  5
31C1
100
AcDbEntity
  8
0
100
AcDbLine
 10
365.371384
 20
511.379998
 30
0.0
 11
365.371384
 21
486.879998
 31
0.0
  0
LINE
  5
31C2
100
AcDbEntity
  8
0
100
AcDbLine
 10
353.27037
 20
511.879998
 30
0.0
 11
365.082709
 21
511.879998
 31
0.0
  0
LINE
  5
31C3
100
AcDbEntity
  8
0
100
AcDbLine
 10
365.082709
 20
511.879998
 30
0.0
 11
365.371384
 21
511.379998
 31
0.0
  0
LINE
  5
31C4
100
AcDbEntity
  8
0
100
AcDbLine
 10
399.302753
 20
489.273535
 30
0.0
 11
389.986628
 21
489.273535
 31
0.0
  0
LINE
  5
31C5
100
AcDbEntity
  8
0
100
AcDbLine
 10
389.986628
 20
489.273535
 30
0.0
 11
389.986628
 21
492.42466
 31
0.0
  0
LINE
  5
31C6
100
AcDbEntity
  8
0
100
AcDbLine
 10
389.986628
 20
492.42466
 30
0.0
 11
383.547128
 21
486.12241
 31
0.0
  0
LINE
  5
31C7
100
AcDbEntity
  8
0
100
AcDbLine
 10
402.455003
 20
492.42466
 30
0.0
 11
399.302753
 21
489.273535
 31
0.0
  0
LINE
  5
31C8
100
AcDbEntity
  8
0
100
AcDbLine
 10
415.059503
 20
486.12241
 30
0.0
 11
421.361753
 21
492.42466
 31
0.0
  0
LINE
  5
31C9
100
AcDbEntity
  8
0
100
AcDbLine
 10
352.733205
 20
797.860209
 30
0.0
 11
363.939205
 21
797.860209
 31
0.0
  0
LINE
  5
31CA
100
AcDbEntity
  8
0
100
AcDbLine
 10
363.939205
 20
761.860209
 30
0.0
 11
352.733205
 21
761.860209
 31
0.0
  0
LINE
  5
31CB
100
AcDbEntity
  8
0
100
AcDbLine
 10
363.939205
 20
659.972483
 30
0.0
 11
352.733205
 21
659.972483
 31
0.0
  0
LINE
  5
31CC
100
AcDbEntity
  8
0
100
AcDbLine
 10
352.733205
 20
695.972483
 30
0.0
 11
363.939205
 21
695.972483
 31
0.0
  0
LINE
  5
31CD
100
AcDbEntity
  8
0
100
AcDbLine
 10
310.973902
 20
671.704146
 30
0.0
 11
279.461527
 21
671.704146
 31
0.0
  0
LINE
  5
31CE
100
AcDbEntity
  8
0
100
AcDbLine
 10
292.066027
 20
678.006396
 30
0.0
 11
295.218277
 21
674.855271
 31
0.0
  0
LINE
  5
31CF
100
AcDbEntity
  8
0
100
AcDbLine
 10
251.655984
 20
685.588256
 30
0.0
 11
251.655984
 21
670.35671
 31
0.0
  0
LINE
  5
31D0
100
AcDbEntity
  8
0
100
AcDbLine
 10
273.159277
 20
678.006396
 30
0.0
 11
292.066027
 21
678.006396
 31
0.0
  0
LINE
  5
31D1
100
AcDbEntity
  8
0
100
AcDbLine
 10
279.461527
 20
671.704146
 30
0.0
 11
273.159277
 21
678.006396
 31
0.0
  0
LINE
  5
31D2
100
AcDbEntity
  8
0
100
AcDbLine
 10
335.277505
 20
697.972483
 30
0.0
 11
335.268882
 21
657.972483
 31
0.0
  0
LINE
  5
31D3
100
AcDbEntity
  8
0
100
AcDbLine
 10
339.269205
 20
697.972483
 30
0.0
 11
339.269205
 21
657.972483
 31
0.0
  0
LINE
  5
31D4
100
AcDbEntity
  8
0
100
AcDbLine
 10
352.733205
 20
695.972483
 30
0.0
 11
352.733205
 21
659.972483
 31
0.0
  0
LINE
  5
31D5
100
AcDbEntity
  8
0
100
AcDbLine
 10
349.269205
 20
697.972483
 30
0.0
 11
349.269205
 21
657.972483
 31
0.0
  0
LINE
  5
31D6
100
AcDbEntity
  8
0
100
AcDbLine
 10
324.269205
 20
692.472483
 30
0.0
 11
324.269205
 21
677.972483
 31
0.0
  0
LINE
  5
31D7
100
AcDbEntity
  8
0
100
AcDbLine
 10
304.534402
 20
678.006396
 30
0.0
 11
310.973902
 21
671.704146
 31
0.0
  0
LINE
  5
31D8
100
AcDbEntity
  8
0
100
AcDbLine
 10
304.534402
 20
674.855271
 30
0.0
 11
304.534402
 21
678.006396
 31
0.0
  0
LINE
  5
31D9
100
AcDbEntity
  8
0
100
AcDbLine
 10
295.218277
 20
674.855271
 30
0.0
 11
304.534402
 21
674.855271
 31
0.0
  0
LINE
  5
31DA
100
AcDbEntity
  8
0
100
AcDbLine
 10
325.269205
 20
670.352483
 30
0.0
 11
325.269205
 21
662.472483
 31
0.0
  0
LINE
  5
31DB
100
AcDbEntity
  8
0
100
AcDbLine
 10
325.269205
 20
662.472483
 30
0.0
 11
324.269205
 21
663.472483
 31
0.0
  0
LINE
  5
31DC
100
AcDbEntity
  8
0
100
AcDbLine
 10
349.269205
 20
657.972483
 30
0.0
 11
335.268882
 21
657.97224
 31
0.0
  0
LINE
  5
31DD
100
AcDbEntity
  8
0
100
AcDbLine
 10
335.269205
 20
662.472483
 30
0.0
 11
325.269205
 21
662.472483
 31
0.0
  0
LINE
  5
31DE
100
AcDbEntity
  8
0
100
AcDbLine
 10
352.733205
 20
659.972483
 30
0.0
 11
349.269205
 21
657.972483
 31
0.0
  0
LINE
  5
31DF
100
AcDbEntity
  8
0
100
AcDbLine
 10
324.269205
 20
677.972483
 30
0.0
 11
324.269205
 21
663.472483
 31
0.0
  0
LINE
  5
31E0
100
AcDbEntity
  8
0
100
AcDbLine
 10
324.269205
 20
670.352483
 30
0.0
 11
335.269205
 21
670.352483
 31
0.0
  0
LINE
  5
31E1
100
AcDbEntity
  8
0
100
AcDbLine
 10
335.277505
 20
697.972483
 30
0.0
 11
349.269205
 21
697.972483
 31
0.0
  0
LINE
  5
31E2
100
AcDbEntity
  8
0
100
AcDbLine
 10
324.269205
 20
692.472483
 30
0.0
 11
325.269205
 21
693.472483
 31
0.0
  0
LINE
  5
31E3
100
AcDbEntity
  8
0
100
AcDbLine
 10
325.269205
 20
693.472483
 30
0.0
 11
325.269205
 21
685.582483
 31
0.0
  0
LINE
  5
31E4
100
AcDbEntity
  8
0
100
AcDbLine
 10
325.269205
 20
693.472483
 30
0.0
 11
335.269205
 21
693.472483
 31
0.0
  0
LINE
  5
31E5
100
AcDbEntity
  8
0
100
AcDbLine
 10
324.269205
 20
685.582483
 30
0.0
 11
335.269205
 21
685.582483
 31
0.0
  0
LINE
  5
31E6
100
AcDbEntity
  8
0
100
AcDbLine
 10
349.269205
 20
697.972483
 30
0.0
 11
352.733205
 21
695.972483
 31
0.0
  0
LINE
  5
31E7
100
AcDbEntity
  8
0
100
AcDbLine
 10
310.973902
 20
776.059945
 30
0.0
 11
279.461527
 21
776.059945
 31
0.0
  0
LINE
  5
31E8
100
AcDbEntity
  8
0
100
AcDbLine
 10
292.066027
 20
782.362195
 30
0.0
 11
295.218277
 21
779.21107
 31
0.0
  0
LINE
  5
31E9
100
AcDbEntity
  8
0
100
AcDbLine
 10
273.159277
 20
782.362195
 30
0.0
 11
292.066027
 21
782.362195
 31
0.0
  0
LINE
  5
31EA
100
AcDbEntity
  8
0
100
AcDbLine
 10
279.461527
 20
776.059945
 30
0.0
 11
273.159277
 21
782.362195
 31
0.0
  0
LINE
  5
31EB
100
AcDbEntity
  8
0
100
AcDbLine
 10
335.269205
 20
799.860209
 30
0.0
 11
335.269205
 21
759.860209
 31
0.0
  0
LINE
  5
31EC
100
AcDbEntity
  8
0
100
AcDbLine
 10
339.269205
 20
799.860209
 30
0.0
 11
339.269205
 21
759.860209
 31
0.0
  0
LINE
  5
31ED
100
AcDbEntity
  8
0
100
AcDbLine
 10
352.733205
 20
797.860209
 30
0.0
 11
352.733205
 21
761.860209
 31
0.0
  0
LINE
  5
31EE
100
AcDbEntity
  8
0
100
AcDbLine
 10
349.269205
 20
799.860209
 30
0.0
 11
349.269205
 21
759.860209
 31
0.0
  0
LINE
  5
31EF
100
AcDbEntity
  8
0
100
AcDbLine
 10
349.269205
 20
759.860209
 30
0.0
 11
335.269205
 21
759.860209
 31
0.0
  0
LINE
  5
31F0
100
AcDbEntity
  8
0
100
AcDbLine
 10
352.733205
 20
761.860209
 30
0.0
 11
349.269205
 21
759.860209
 31
0.0
  0
LINE
  5
31F1
100
AcDbEntity
  8
0
100
AcDbLine
 10
304.534402
 20
782.362195
 30
0.0
 11
310.973902
 21
776.059945
 31
0.0
  0
LINE
  5
31F2
100
AcDbEntity
  8
0
100
AcDbLine
 10
304.534402
 20
779.21107
 30
0.0
 11
304.534402
 21
782.362195
 31
0.0
  0
LINE
  5
31F3
100
AcDbEntity
  8
0
100
AcDbLine
 10
295.218277
 20
779.21107
 30
0.0
 11
304.534402
 21
779.21107
 31
0.0
  0
LINE
  5
31F4
100
AcDbEntity
  8
0
100
AcDbLine
 10
325.268205
 20
793.360209
 30
0.0
 11
325.248205
 21
766.360209
 31
0.0
  0
LINE
  5
31F5
100
AcDbEntity
  8
0
100
AcDbLine
 10
324.269205
 20
793.360209
 30
0.0
 11
324.269205
 21
779.860209
 31
0.0
  0
LINE
  5
31F6
100
AcDbEntity
  8
0
100
AcDbLine
 10
324.269205
 20
779.860209
 30
0.0
 11
324.269205
 21
766.360209
 31
0.0
  0
LINE
  5
31F7
100
AcDbEntity
  8
0
100
AcDbLine
 10
335.269205
 20
766.360209
 30
0.0
 11
324.269205
 21
766.360209
 31
0.0
  0
LINE
  5
31F8
100
AcDbEntity
  8
0
100
AcDbLine
 10
335.269205
 20
799.860209
 30
0.0
 11
349.269205
 21
799.860209
 31
0.0
  0
LINE
  5
31F9
100
AcDbEntity
  8
0
100
AcDbLine
 10
324.269205
 20
793.360209
 30
0.0
 11
335.269205
 21
793.360209
 31
0.0
  0
LINE
  5
31FA
100
AcDbEntity
  8
0
100
AcDbLine
 10
349.269205
 20
799.860209
 30
0.0
 11
352.733205
 21
797.860209
 31
0.0
  0
CIRCLE
  5
31FB
100
AcDbEntity
  8
0
100
AcDbCircle
 10
429.232943
 20
677.972483
 30
0.0
 40
20.0
  0
LINE
  5
31FC
100
AcDbEntity
  8
0
100
AcDbLine
 10
368.269205
 20
693.472483
 30
0.0
 11
368.269205
 21
662.472483
 31
0.0
  0
LINE
  5
31FD
100
AcDbEntity
  8
0
100
AcDbLine
 10
363.939205
 20
695.972483
 30
0.0
 11
363.939205
 21
659.972483
 31
0.0
  0
LINE
  5
31FE
100
AcDbEntity
  8
0
100
AcDbLine
 10
379.269205
 20
692.472483
 30
0.0
 11
379.269205
 21
677.972483
 31
0.0
  0
LINE
  5
31FF
100
AcDbEntity
  8
0
100
AcDbLine
 10
378.269205
 20
670.352483
 30
0.0
 11
378.269205
 21
662.472483
 31
0.0
  0
LINE
  5
3200
100
AcDbEntity
  8
0
100
AcDbLine
 10
379.269205
 20
663.472483
 30
0.0
 11
378.269205
 21
662.472483
 31
0.0
  0
LINE
  5
3201
100
AcDbEntity
  8
0
100
AcDbLine
 10
368.269205
 20
662.472483
 30
0.0
 11
363.939205
 21
659.972483
 31
0.0
  0
LINE
  5
3202
100
AcDbEntity
  8
0
100
AcDbLine
 10
378.269205
 20
662.472483
 30
0.0
 11
368.269205
 21
662.472483
 31
0.0
  0
LINE
  5
3203
100
AcDbEntity
  8
0
100
AcDbLine
 10
368.269205
 20
670.352483
 30
0.0
 11
379.269205
 21
670.352483
 31
0.0
  0
LINE
  5
3204
100
AcDbEntity
  8
0
100
AcDbLine
 10
379.269205
 20
677.972483
 30
0.0
 11
379.269205
 21
663.472483
 31
0.0
  0
LINE
  5
3205
100
AcDbEntity
  8
0
100
AcDbLine
 10
363.939205
 20
695.972483
 30
0.0
 11
368.269205
 21
693.472483
 31
0.0
  0
LINE
  5
3206
100
AcDbEntity
  8
0
100
AcDbLine
 10
368.269205
 20
693.472483
 30
0.0
 11
378.269205
 21
693.472483
 31
0.0
  0
LINE
  5
3207
100
AcDbEntity
  8
0
100
AcDbLine
 10
368.269205
 20
685.582483
 30
0.0
 11
379.269205
 21
685.582483
 31
0.0
  0
LINE
  5
3208
100
AcDbEntity
  8
0
100
AcDbLine
 10
378.269205
 20
693.472483
 30
0.0
 11
379.269205
 21
692.472483
 31
0.0
  0
LINE
  5
3209
100
AcDbEntity
  8
0
100
AcDbLine
 10
378.269205
 20
693.472483
 30
0.0
 11
378.269205
 21
685.582483
 31
0.0
  0
CIRCLE
  5
320A
100
AcDbEntity
  8
0
100
AcDbCircle
 10
429.232943
 20
677.972483
 30
0.0
 40
18.0
  0
CIRCLE
  5
320B
100
AcDbEntity
  8
0
100
AcDbCircle
 10
429.232943
 20
677.972483
 30
0.0
 40
8.5
  0
ARC
  5
320C
100
AcDbEntity
  8
0
100
AcDbCircle
 10
429.232943
 20
677.972483
 30
0.0
 40
14.5
100
AcDbArc
 50
21.40335
 51
158.59665
  0
LINE
  5
320D
100
AcDbEntity
  8
0
100
AcDbLine
 10
415.732943
 20
685.588256
 30
0.0
 11
415.732943
 21
670.35671
 31
0.0
  0
LINE
  5
320E
100
AcDbEntity
  8
0
100
AcDbLine
 10
442.732943
 20
685.588256
 30
0.0
 11
442.732943
 21
670.35671
 31
0.0
  0
ARC
  5
320F
100
AcDbEntity
  8
0
100
AcDbCircle
 10
429.232943
 20
677.972483
 30
0.0
 40
15.5
100
AcDbArc
 50
209.428707
 51
330.571293
  0
ARC
  5
3210
100
AcDbEntity
  8
0
100
AcDbCircle
 10
429.232943
 20
677.972483
 30
0.0
 40
14.5
100
AcDbArc
 50
201.40335
 51
338.59665
  0
ARC
  5
3211
100
AcDbEntity
  8
0
100
AcDbCircle
 10
429.232943
 20
677.972483
 30
0.0
 40
15.5
100
AcDbArc
 50
29.428707
 51
150.571293
  0
LINE
  5
3212
100
AcDbEntity
  8
0
100
AcDbLine
 10
368.269205
 20
764.360209
 30
0.0
 11
368.269205
 21
795.360209
 31
0.0
  0
LINE
  5
3213
100
AcDbEntity
  8
0
100
AcDbLine
 10
363.939205
 20
797.860209
 30
0.0
 11
363.939205
 21
761.860209
 31
0.0
  0
LINE
  5
3214
100
AcDbEntity
  8
0
100
AcDbLine
 10
368.269205
 20
764.360209
 30
0.0
 11
363.939205
 21
761.860209
 31
0.0
  0
LINE
  5
3215
100
AcDbEntity
  8
0
100
AcDbLine
 10
378.269205
 20
793.360209
 30
0.0
 11
378.269205
 21
766.360209
 31
0.0
  0
LINE
  5
3216
100
AcDbEntity
  8
0
100
AcDbLine
 10
379.269205
 20
793.360209
 30
0.0
 11
379.269205
 21
779.860209
 31
0.0
  0
LINE
  5
3217
100
AcDbEntity
  8
0
100
AcDbLine
 10
379.269205
 20
779.860209
 30
0.0
 11
379.269205
 21
766.360209
 31
0.0
  0
LINE
  5
3218
100
AcDbEntity
  8
0
100
AcDbLine
 10
379.269205
 20
766.360209
 30
0.0
 11
368.269205
 21
766.360209
 31
0.0
  0
LINE
  5
3219
100
AcDbEntity
  8
0
100
AcDbLine
 10
363.939205
 20
797.860209
 30
0.0
 11
368.269205
 21
795.360209
 31
0.0
  0
LINE
  5
321A
100
AcDbEntity
  8
0
100
AcDbLine
 10
368.269205
 20
793.360209
 30
0.0
 11
379.269205
 21
793.360209
 31
0.0
  0
ARC
  5
321B
100
AcDbEntity
  8
0
100
AcDbCircle
 10
702.272336
 20
506.325435
 30
0.0
 40
12.312666
100
AcDbArc
 50
139.143335
 51
220.856665
  0
LINE
  5
321C
100
AcDbEntity
  8
0
100
AcDbLine
 10
689.959671
 20
513.879998
 30
0.0
 11
689.959671
 21
486.879998
 31
0.0
  0
LINE
  5
321D
100
AcDbEntity
  8
0
100
AcDbLine
 10
690.248346
 20
514.379998
 30
0.0
 11
689.959671
 21
513.879998
 31
0.0
  0
CIRCLE
  5
321E
100
AcDbEntity
  8
0
100
AcDbCircle
 10
633.817349
 20
677.972483
 30
0.0
 40
25.0
  0
ARC
  5
321F
100
AcDbEntity
  8
0
100
AcDbCircle
 10
633.817349
 20
677.972483
 30
0.0
 40
19.0
100
AcDbArc
 50
32.636898
 51
147.363102
  0
ARC
  5
3220
100
AcDbEntity
  8
0
100
AcDbCircle
 10
633.817349
 20
677.972483
 30
0.0
 40
19.0
100
AcDbArc
 50
212.636898
 51
327.363102
  0
ARC
  5
3221
100
AcDbEntity
  8
0
100
AcDbCircle
 10
633.817349
 20
677.972483
 30
0.0
 40
18.0
100
AcDbArc
 50
27.266044
 51
152.733956
  0
ARC
  5
3222
100
AcDbEntity
  8
0
100
AcDbCircle
 10
633.817349
 20
677.972483
 30
0.0
 40
18.0
100
AcDbArc
 50
207.266044
 51
332.733956
  0
CIRCLE
  5
3223
100
AcDbEntity
  8
0
100
AcDbCircle
 10
633.817349
 20
677.972483
 30
0.0
 40
11.0
  0
LINE
  5
3224
100
AcDbEntity
  8
0
100
AcDbLine
 10
617.817349
 20
688.219434
 30
0.0
 11
617.817349
 21
667.725532
 31
0.0
  0
LINE
  5
3225
100
AcDbEntity
  8
0
100
AcDbLine
 10
649.817349
 20
688.219434
 30
0.0
 11
649.817349
 21
667.725532
 31
0.0
  0
LINE
  5
3226
100
AcDbEntity
  8
0
100
AcDbLine
 10
684.844558
 20
675.372036
 30
0.0
 11
678.542308
 21
681.674286
 31
0.0
  0
LINE
  5
3227
100
AcDbEntity
  8
0
100
AcDbLine
 10
676.893256
 20
780.528257
 30
0.0
 11
695.800006
 21
780.528257
 31
0.0
  0
LINE
  5
3228
100
AcDbEntity
  8
0
100
AcDbLine
 10
683.195506
 20
774.226007
 30
0.0
 11
676.893256
 21
780.528257
 31
0.0
  0
LINE
  5
3229
100
AcDbEntity
  8
0
100
AcDbLine
 10
695.800006
 20
780.528257
 30
0.0
 11
698.952256
 21
777.377132
 31
0.0
  0
LINE
  5
322A
100
AcDbEntity
  8
0
100
AcDbLine
 10
356.104379
 20
900.849057
 30
0.0
 11
352.640379
 21
898.849057
 31
0.0
  0
LINE
  5
322B
100
AcDbEntity
  8
0
100
AcDbLine
 10
352.640379
 20
862.849057
 30
0.0
 11
356.104379
 21
860.849057
 31
0.0
  0
LINE
  5
322C
100
AcDbEntity
  8
0
100
AcDbLine
 10
352.640379
 20
898.849057
 30
0.0
 11
352.640379
 21
862.849057
 31
0.0
  0
LINE
  5
322D
100
AcDbEntity
  8
0
100
AcDbLine
 10
337.104379
 20
896.349057
 30
0.0
 11
337.104379
 21
865.349057
 31
0.0
  0
LINE
  5
322E
100
AcDbEntity
  8
0
100
AcDbLine
 10
341.434379
 20
898.849057
 30
0.0
 11
341.434379
 21
862.849057
 31
0.0
  0
LINE
  5
322F
100
AcDbEntity
  8
0
100
AcDbLine
 10
327.104379
 20
896.349057
 30
0.0
 11
327.104379
 21
888.459057
 31
0.0
  0
LINE
  5
3230
100
AcDbEntity
  8
0
100
AcDbLine
 10
326.104379
 20
895.349057
 30
0.0
 11
326.104379
 21
880.849057
 31
0.0
  0
LINE
  5
3231
100
AcDbEntity
  8
0
100
AcDbLine
 10
327.104379
 20
873.229057
 30
0.0
 11
327.104379
 21
865.349057
 31
0.0
  0
LINE
  5
3232
100
AcDbEntity
  8
0
100
AcDbLine
 10
326.104379
 20
880.849057
 30
0.0
 11
326.104379
 21
866.349057
 31
0.0
  0
LINE
  5
3233
100
AcDbEntity
  8
0
100
AcDbLine
 10
337.104379
 20
865.349057
 30
0.0
 11
341.434379
 21
862.849057
 31
0.0
  0
LINE
  5
3234
100
AcDbEntity
  8
0
100
AcDbLine
 10
326.104379
 20
866.349057
 30
0.0
 11
327.104379
 21
865.349057
 31
0.0
  0
LINE
  5
3235
100
AcDbEntity
  8
0
100
AcDbLine
 10
327.104379
 20
865.349057
 30
0.0
 11
337.104379
 21
865.349057
 31
0.0
  0
LINE
  5
3236
100
AcDbEntity
  8
0
100
AcDbLine
 10
341.434379
 20
862.849057
 30
0.0
 11
352.640379
 21
862.849057
 31
0.0
  0
LINE
  5
3237
100
AcDbEntity
  8
0
100
AcDbLine
 10
337.104379
 20
888.459057
 30
0.0
 11
326.104379
 21
888.459057
 31
0.0
  0
LINE
  5
3238
100
AcDbEntity
  8
0
100
AcDbLine
 10
337.104379
 20
873.229057
 30
0.0
 11
326.104379
 21
873.229057
 31
0.0
  0
LINE
  5
3239
100
AcDbEntity
  8
0
100
AcDbLine
 10
341.434379
 20
898.849057
 30
0.0
 11
337.104379
 21
896.349057
 31
0.0
  0
LINE
  5
323A
100
AcDbEntity
  8
0
100
AcDbLine
 10
327.104379
 20
896.349057
 30
0.0
 11
326.104379
 21
895.349057
 31
0.0
  0
LINE
  5
323B
100
AcDbEntity
  8
0
100
AcDbLine
 10
337.104379
 20
896.349057
 30
0.0
 11
327.104379
 21
896.349057
 31
0.0
  0
LINE
  5
323C
100
AcDbEntity
  8
0
100
AcDbLine
 10
352.640379
 20
898.849057
 30
0.0
 11
341.434379
 21
898.849057
 31
0.0
  0
LINE
  5
323D
100
AcDbEntity
  8
0
100
AcDbLine
 10
380.104379
 20
896.349057
 30
0.0
 11
380.104379
 21
888.459057
 31
0.0
  0
LINE
  5
323E
100
AcDbEntity
  8
0
100
AcDbLine
 10
381.104379
 20
895.349057
 30
0.0
 11
381.104379
 21
880.849057
 31
0.0
  0
LINE
  5
323F
100
AcDbEntity
  8
0
100
AcDbLine
 10
356.104379
 20
900.849057
 30
0.0
 11
356.104379
 21
860.849057
 31
0.0
  0
LINE
  5
3240
100
AcDbEntity
  8
0
100
AcDbLine
 10
370.096079
 20
900.849057
 30
0.0
 11
370.104702
 21
860.849057
 31
0.0
  0
LINE
  5
3241
100
AcDbEntity
  8
0
100
AcDbLine
 10
366.104379
 20
900.849057
 30
0.0
 11
366.104379
 21
860.849057
 31
0.0
  0
LINE
  5
3242
100
AcDbEntity
  8
0
100
AcDbLine
 10
397.445063
 20
879.637512
 30
0.0
 11
428.957438
 21
879.637512
 31
0.0
  0
LINE
  5
3243
100
AcDbEntity
  8
0
100
AcDbLine
 10
413.200688
 20
882.788637
 30
0.0
 11
403.884563
 21
882.788637
 31
0.0
  0
LINE
  5
3244
100
AcDbEntity
  8
0
100
AcDbLine
 10
380.104379
 20
873.229057
 30
0.0
 11
380.104379
 21
865.349057
 31
0.0
  0
LINE
  5
3245
100
AcDbEntity
  8
0
100
AcDbLine
 10
381.104379
 20
880.849057
 30
0.0
 11
381.104379
 21
866.349057
 31
0.0
  0
LINE
  5
3246
100
AcDbEntity
  8
0
100
AcDbLine
 10
356.104379
 20
860.849057
 30
0.0
 11
370.104702
 21
860.848814
 31
0.0
  0
LINE
  5
3247
100
AcDbEntity
  8
0
100
AcDbLine
 10
380.104379
 20
865.349057
 30
0.0
 11
381.104379
 21
866.349057
 31
0.0
  0
LINE
  5
3248
100
AcDbEntity
  8
0
100
AcDbLine
 10
370.104379
 20
865.349057
 30
0.0
 11
380.104379
 21
865.349057
 31
0.0
  0
LINE
  5
3249
100
AcDbEntity
  8
0
100
AcDbLine
 10
381.104379
 20
888.459057
 30
0.0
 11
370.104379
 21
888.459057
 31
0.0
  0
LINE
  5
324A
100
AcDbEntity
  8
0
100
AcDbLine
 10
381.104379
 20
873.229057
 30
0.0
 11
370.104379
 21
873.229057
 31
0.0
  0
LINE
  5
324B
100
AcDbEntity
  8
0
100
AcDbLine
 10
403.884563
 20
882.788637
 30
0.0
 11
403.884563
 21
885.939762
 31
0.0
  0
LINE
  5
324C
100
AcDbEntity
  8
0
100
AcDbLine
 10
403.884563
 20
885.939762
 30
0.0
 11
397.445063
 21
879.637512
 31
0.0
  0
LINE
  5
324D
100
AcDbEntity
  8
0
100
AcDbLine
 10
435.259688
 20
885.939762
 30
0.0
 11
416.352938
 21
885.939762
 31
0.0
  0
LINE
  5
324E
100
AcDbEntity
  8
0
100
AcDbLine
 10
416.352938
 20
885.939762
 30
0.0
 11
413.200688
 21
882.788637
 31
0.0
  0
LINE
  5
324F
100
AcDbEntity
  8
0
100
AcDbLine
 10
428.957438
 20
879.637512
 30
0.0
 11
435.259688
 21
885.939762
 31
0.0
  0
LINE
  5
3250
100
AcDbEntity
  8
0
100
AcDbLine
 10
370.096079
 20
900.849057
 30
0.0
 11
356.104379
 21
900.849057
 31
0.0
  0
LINE
  5
3251
100
AcDbEntity
  8
0
100
AcDbLine
 10
381.104379
 20
895.349057
 30
0.0
 11
380.104379
 21
896.349057
 31
0.0
  0
LINE
  5
3252
100
AcDbEntity
  8
0
100
AcDbLine
 10
380.104379
 20
896.349057
 30
0.0
 11
370.104379
 21
896.349057
 31
0.0
  0
LINE
  5
3253
100
AcDbEntity
  8
0
100
AcDbLine
 10
1242.423314
 20
534.379998
 30
0.0
 11
1242.423314
 21
439.379998
 31
0.0
  0
LINE
  5
3254
100
AcDbEntity
  8
0
100
AcDbLine
 10
1236.423314
 20
534.379998
 30
0.0
 11
1236.423314
 21
439.379998
 31
0.0
  0
LINE
  5
3255
100
AcDbEntity
  8
0
100
AcDbLine
 10
1259.423314
 20
486.879998
 30
0.0
 11
1259.423314
 21
452.379998
 31
0.0
  0
ARC
  5
3256
100
AcDbEntity
  8
0
100
AcDbCircle
 10
1222.893852
 20
486.879998
 30
0.0
 40
36.529462
100
AcDbArc
 50
336.617301
 51
23.382699
  0
LINE
  5
3257
100
AcDbEntity
  8
0
100
AcDbLine
 10
1177.423314
 20
520.970234
 30
0.0
 11
1177.423314
 21
452.789763
 31
0.0
  0
LINE
  5
3258
100
AcDbEntity
  8
0
100
AcDbLine
 10
1159.423314
 20
486.879998
 30
0.0
 11
1159.423314
 21
452.379998
 31
0.0
  0
ARC
  5
3259
100
AcDbEntity
  8
0
100
AcDbCircle
 10
1195.952776
 20
486.879998
 30
0.0
 40
36.529462
100
AcDbArc
 50
156.617301
 51
203.382699
  0
LINE
  5
325A
100
AcDbEntity
  8
0
100
AcDbLine
 10
1198.093187
 20
531.879998
 30
0.0
 11
1198.093187
 21
441.879998
 31
0.0
  0
LINE
  5
325B
100
AcDbEntity
  8
0
100
AcDbLine
 10
1214.093187
 20
531.879998
 30
0.0
 11
1214.093187
 21
441.879998
 31
0.0
  0
LINE
  5
325C
100
AcDbEntity
  8
0
100
AcDbLine
 10
1218.423314
 20
534.379998
 30
0.0
 11
1218.423314
 21
439.379998
 31
0.0
  0
LINE
  5
325D
100
AcDbEntity
  8
0
100
AcDbLine
 10
704.959671
 20
514.982663
 30
0.0
 11
704.959671
 21
458.777333
 31
0.0
  0
LINE
  5
325E
100
AcDbEntity
  8
0
100
AcDbLine
 10
722.629544
 20
526.879998
 30
0.0
 11
722.629544
 21
446.879998
 31
0.0
  0
LINE
  5
325F
100
AcDbEntity
  8
0
100
AcDbLine
 10
736.629544
 20
526.879998
 30
0.0
 11
736.629544
 21
446.879998
 31
0.0
  0
LINE
  5
3260
100
AcDbEntity
  8
0
100
AcDbLine
 10
740.959671
 20
529.379998
 30
0.0
 11
740.959671
 21
444.379998
 31
0.0
  0
LINE
  5
3261
100
AcDbEntity
  8
0
100
AcDbLine
 10
762.459671
 20
529.379998
 30
0.0
 11
762.459671
 21
444.379998
 31
0.0
  0
LINE
  5
3262
100
AcDbEntity
  8
0
100
AcDbLine
 10
756.959671
 20
529.379998
 30
0.0
 11
756.959671
 21
444.379998
 31
0.0
  0
LINE
  5
3263
100
AcDbEntity
  8
0
100
AcDbLine
 10
774.959671
 20
486.879998
 30
0.0
 11
774.959671
 21
459.879998
 31
0.0
  0
ARC
  5
3264
100
AcDbEntity
  8
0
100
AcDbCircle
 10
751.834339
 20
486.879998
 30
0.0
 40
23.125331
100
AcDbArc
 50
330.490278
 51
29.509722
  0
LINE
  5
3265
100
AcDbEntity
  8
0
100
AcDbLine
 10
1176.422387
 20
317.399342
 30
0.0
 11
1159.711062
 21
317.399342
 31
0.0
  0
LINE
  5
3266
100
AcDbEntity
  8
0
100
AcDbLine
 10
1162.422387
 20
366.896817
 30
0.0
 11
1176.422387
 21
366.896817
 31
0.0
  0
LINE
  5
3267
100
AcDbEntity
  8
0
100
AcDbLine
 10
1162.422387
 20
337.901867
 30
0.0
 11
1176.422387
 21
337.901867
 31
0.0
  0
LINE
  5
3268
100
AcDbEntity
  8
0
100
AcDbLine
 10
1176.422387
 20
387.399342
 30
0.0
 11
1159.711062
 21
387.399342
 31
0.0
  0
LINE
  5
3269
100
AcDbEntity
  8
0
100
AcDbLine
 10
1175.219307
 20
451.879998
 30
0.0
 11
1159.711989
 21
451.879998
 31
0.0
  0
LINE
  5
326A
100
AcDbEntity
  8
0
100
AcDbLine
 10
1162.423314
 20
472.382524
 30
0.0
 11
1177.423314
 21
472.382524
 31
0.0
  0
LINE
  5
326B
100
AcDbEntity
  8
0
100
AcDbLine
 10
1176.421427
 20
177.390223
 30
0.0
 11
1159.710102
 21
177.390223
 31
0.0
  0
LINE
  5
326C
100
AcDbEntity
  8
0
100
AcDbLine
 10
1162.421427
 20
197.892749
 30
0.0
 11
1176.421427
 21
197.892749
 31
0.0
  0
LINE
  5
326D
100
AcDbEntity
  8
0
100
AcDbLine
 10
1162.421427
 20
226.887698
 30
0.0
 11
1176.421427
 21
226.887698
 31
0.0
  0
LINE
  5
326E
100
AcDbEntity
  8
0
100
AcDbLine
 10
1176.421427
 20
247.390223
 30
0.0
 11
1159.710102
 21
247.390223
 31
0.0
  0
TEXT
  5
326F
100
AcDbEntity
  8
0
100
AcDbText
 10
557.258992
 20
58.911889
 30
0.0
 40
17.5
  1
TLV  CK3M･CK3T･CK3R (PT)
 72
     4
 11
734.008992
 21
66.411889
 31
0.0
100
AcDbText
  0
TEXT
  5
3270
100
AcDbEntity
  8
0
100
AcDbText
 10
712.345817
 20
113.891302
 30
0.0
 40
12.5
  1
40A
 41
0.8
 11
712.345817
 21
113.891302
 31
0.0
100
AcDbText
 73
     1
  0
LINE
  5
3271
100
AcDbEntity
  8
0
100
AcDbLine
 10
742.28887
 20
392.399342
 30
0.0
 11
742.28887
 21
312.399342
 31
0.0
  0
LINE
  5
3272
100
AcDbEntity
  8
0
100
AcDbLine
 10
742.28887
 20
312.399342
 30
0.0
 11
756.458743
 21
320.580322
 31
0.0
  0
LINE
  5
3273
100
AcDbEntity
  8
0
100
AcDbLine
 10
723.958743
 20
394.899342
 30
0.0
 11
723.958743
 21
309.899342
 31
0.0
  0
LINE
  5
3274
100
AcDbEntity
  8
0
100
AcDbLine
 10
728.28887
 20
392.399342
 30
0.0
 11
728.28887
 21
312.399342
 31
0.0
  0
LINE
  5
3275
100
AcDbEntity
  8
0
100
AcDbLine
 10
707.958743
 20
394.899342
 30
0.0
 11
707.958743
 21
309.899342
 31
0.0
  0
LINE
  5
3276
100
AcDbEntity
  8
0
100
AcDbLine
 10
702.458743
 20
394.899342
 30
0.0
 11
702.458743
 21
309.899342
 31
0.0
  0
CIRCLE
  5
3277
100
AcDbEntity
  8
0
100
AcDbCircle
 10
846.54774
 20
212.390223
 30
0.0
 40
42.5
  0
CIRCLE
  5
3278
100
AcDbEntity
  8
0
100
AcDbCircle
 10
846.54774
 20
212.390223
 30
0.0
 40
40.0
  0
LINE
  5
3279
100
AcDbEntity
  8
0
100
AcDbLine
 10
774.957783
 20
239.390223
 30
0.0
 11
774.957783
 21
212.390223
 31
0.0
  0
LINE
  5
327A
100
AcDbEntity
  8
0
100
AcDbLine
 10
759.957783
 20
240.492888
 30
0.0
 11
759.957783
 21
184.287558
 31
0.0
  0
LINE
  5
327B
100
AcDbEntity
  8
0
100
AcDbLine
 10
742.28791
 20
252.390223
 30
0.0
 11
742.28791
 21
172.390223
 31
0.0
  0
ARC
  5
327C
100
AcDbEntity
  8
0
100
AcDbCircle
 10
762.645118
 20
231.83566
 30
0.0
 40
12.312666
100
AcDbArc
 50
319.143335
 51
40.856665
  0
LINE
  5
327D
100
AcDbEntity
  8
0
100
AcDbLine
 10
702.457783
 20
254.890223
 30
0.0
 11
702.457783
 21
169.890223
 31
0.0
  0
LINE
  5
327E
100
AcDbEntity
  8
0
100
AcDbLine
 10
707.957783
 20
254.890223
 30
0.0
 11
707.957783
 21
169.890223
 31
0.0
  0
LINE
  5
327F
100
AcDbEntity
  8
0
100
AcDbLine
 10
728.28791
 20
252.390223
 30
0.0
 11
728.28791
 21
172.390223
 31
0.0
  0
LINE
  5
3280
100
AcDbEntity
  8
0
100
AcDbLine
 10
723.957783
 20
254.890223
 30
0.0
 11
723.957783
 21
169.890223
 31
0.0
  0
ARC
  5
3281
100
AcDbEntity
  8
0
100
AcDbCircle
 10
752.957783
 20
186.633381
 30
0.0
 40
7.0
100
AcDbArc
 50
300.0
 51
331.68519
  0
ARC
  5
3282
100
AcDbEntity
  8
0
100
AcDbCircle
 10
761.761331
 20
181.890223
 30
0.0
 40
3.0
100
AcDbArc
 50
90.0
 51
151.68519
  0
LINE
  5
3283
100
AcDbEntity
  8
0
100
AcDbLine
 10
728.28791
 20
172.390223
 30
0.0
 11
742.28791
 21
172.390223
 31
0.0
  0
LINE
  5
3284
100
AcDbEntity
  8
0
100
AcDbLine
 10
723.957783
 20
169.890223
 30
0.0
 11
728.28791
 21
172.390223
 31
0.0
  0
LINE
  5
3285
100
AcDbEntity
  8
0
100
AcDbLine
 10
702.457783
 20
169.890223
 30
0.0
 11
723.957783
 21
169.890223
 31
0.0
  0
LINE
  5
3286
100
AcDbEntity
  8
0
100
AcDbLine
 10
742.28791
 20
172.390223
 30
0.0
 11
756.457783
 21
180.571203
 31
0.0
  0
LINE
  5
3287
100
AcDbEntity
  8
0
100
AcDbLine
 10
774.957783
 20
212.390223
 30
0.0
 11
774.957783
 21
185.390223
 31
0.0
  0
ARC
  5
3288
100
AcDbEntity
  8
0
100
AcDbCircle
 10
762.645118
 20
192.944787
 30
0.0
 40
12.312666
100
AcDbArc
 50
319.143335
 51
40.856665
  0
LINE
  5
3289
100
AcDbEntity
  8
0
100
AcDbLine
 10
761.761331
 20
184.890223
 30
0.0
 11
774.669108
 21
184.890223
 31
0.0
  0
LINE
  5
328A
100
AcDbEntity
  8
0
100
AcDbLine
 10
774.669108
 20
184.890223
 30
0.0
 11
774.957783
 21
185.390223
 31
0.0
  0
ARC
  5
328B
100
AcDbEntity
  8
0
100
AcDbCircle
 10
751.832452
 20
212.390223
 30
0.0
 40
23.125331
100
AcDbArc
 50
330.490278
 51
29.509722
  0
LINE
  5
328C
100
AcDbEntity
  8
0
100
AcDbLine
 10
771.957783
 20
200.99935
 30
0.0
 11
759.957783
 21
200.99935
 31
0.0
  0
LINE
  5
328D
100
AcDbEntity
  8
0
100
AcDbLine
 10
771.957783
 20
223.781096
 30
0.0
 11
759.957783
 21
223.781096
 31
0.0
  0
ARC
  5
328E
100
AcDbEntity
  8
0
100
AcDbCircle
 10
752.957783
 20
238.147066
 30
0.0
 40
7.0
100
AcDbArc
 50
28.31481
 51
60.0
  0
ARC
  5
328F
100
AcDbEntity
  8
0
100
AcDbCircle
 10
761.761331
 20
242.890223
 30
0.0
 40
3.0
100
AcDbArc
 50
208.31481
 51
270.0
  0
LINE
  5
3290
100
AcDbEntity
  8
0
100
AcDbLine
 10
728.28791
 20
252.390223
 30
0.0
 11
742.28791
 21
252.390223
 31
0.0
  0
LINE
  5
3291
100
AcDbEntity
  8
0
100
AcDbLine
 10
723.957783
 20
254.890223
 30
0.0
 11
728.28791
 21
252.390223
 31
0.0
  0
LINE
  5
3292
100
AcDbEntity
  8
0
100
AcDbLine
 10
702.457783
 20
254.890223
 30
0.0
 11
723.957783
 21
254.890223
 31
0.0
  0
LINE
  5
3293
100
AcDbEntity
  8
0
100
AcDbLine
 10
742.28791
 20
252.390223
 30
0.0
 11
756.457783
 21
244.209243
 31
0.0
  0
LINE
  5
3294
100
AcDbEntity
  8
0
100
AcDbLine
 10
728.28887
 20
312.399342
 30
0.0
 11
742.28887
 21
312.399342
 31
0.0
  0
LINE
  5
3295
100
AcDbEntity
  8
0
100
AcDbLine
 10
702.458743
 20
309.899342
 30
0.0
 11
723.958743
 21
309.899342
 31
0.0
  0
LINE
  5
3296
100
AcDbEntity
  8
0
100
AcDbLine
 10
723.958743
 20
309.899342
 30
0.0
 11
728.28887
 21
312.399342
 31
0.0
  0
LINE
  5
3297
100
AcDbEntity
  8
0
100
AcDbLine
 10
761.761331
 20
239.890223
 30
0.0
 11
774.669108
 21
239.890223
 31
0.0
  0
LINE
  5
3298
100
AcDbEntity
  8
0
100
AcDbLine
 10
774.669108
 20
239.890223
 30
0.0
 11
774.957783
 21
239.390223
 31
0.0
  0
CIRCLE
  5
3299
100
AcDbEntity
  8
0
100
AcDbCircle
 10
846.54774
 20
212.390223
 30
0.0
 40
27.0
  0
POLYLINE
  5
329A
100
AcDbEntity
  8
0
100
AcDb2dPolyline
 66
     1
 10
0.0
 20
0.0
 30
0.0
 70
     1
  0
VERTEX
  5
3524
100
AcDbEntity
  8
0
100
AcDbVertex
100
AcDb2dVertex
 10
857.938613
 20
184.890223
 30
0.0
  0
VERTEX
  5
3525
100
AcDbEntity
  8
0
100
AcDbVertex
100
AcDb2dVertex
 10
874.04774
 20
200.99935
 30
0.0
  0
VERTEX
  5
3526
100
AcDbEntity
  8
0
100
AcDbVertex
100
AcDb2dVertex
 10
874.04774
 20
223.781096
 30
0.0
  0
VERTEX
  5
3527
100
AcDbEntity
  8
0
100
AcDbVertex
100
AcDb2dVertex
 10
857.938613
 20
239.890223
 30
0.0
  0
VERTEX
  5
3528
100
AcDbEntity
  8
0
100
AcDbVertex
100
AcDb2dVertex
 10
835.156867
 20
239.890223
 30
0.0
  0
VERTEX
  5
3529
100
AcDbEntity
  8
0
100
AcDbVertex
100
AcDb2dVertex
 10
819.04774
 20
223.781096
 30
0.0
  0
VERTEX
  5
352A
100
AcDbEntity
  8
0
100
AcDbVertex
100
AcDb2dVertex
 10
819.04774
 20
200.99935
 30
0.0
  0
VERTEX
  5
352B
100
AcDbEntity
  8
0
100
AcDbVertex
100
AcDb2dVertex
 10
835.156867
 20
184.890223
 30
0.0
  0
SEQEND
  5
352C
100
AcDbEntity
  8
0
  0
CIRCLE
  5
329B
100
AcDbEntity
  8
0
100
AcDbCircle
 10
846.54774
 20
212.390223
 30
0.0
 40
21.0
  0
ARC
  5
329C
100
AcDbEntity
  8
0
100
AcDbCircle
 10
752.958743
 20
326.6425
 30
0.0
 40
7.0
100
AcDbArc
 50
300.0
 51
331.68519
  0
ARC
  5
329D
100
AcDbEntity
  8
0
100
AcDbCircle
 10
761.762291
 20
321.899342
 30
0.0
 40
3.0
100
AcDbArc
 50
90.0
 51
151.68519
  0
ARC
  5
329E
100
AcDbEntity
  8
0
100
AcDbCircle
 10
761.762291
 20
382.899342
 30
0.0
 40
3.0
100
AcDbArc
 50
208.31481
 51
270.0
  0
ARC
  5
329F
100
AcDbEntity
  8
0
100
AcDbCircle
 10
752.958743
 20
378.156184
 30
0.0
 40
7.0
100
AcDbArc
 50
28.31481
 51
60.0
  0
LINE
  5
32A0
100
AcDbEntity
  8
0
100
AcDbLine
 10
728.28887
 20
392.399342
 30
0.0
 11
742.28887
 21
392.399342
 31
0.0
  0
LINE
  5
32A1
100
AcDbEntity
  8
0
100
AcDbLine
 10
702.458743
 20
394.899342
 30
0.0
 11
723.958743
 21
394.899342
 31
0.0
  0
LINE
  5
32A2
100
AcDbEntity
  8
0
100
AcDbLine
 10
723.958743
 20
394.899342
 30
0.0
 11
728.28887
 21
392.399342
 31
0.0
  0
LINE
  5
32A3
100
AcDbEntity
  8
0
100
AcDbLine
 10
742.28887
 20
392.399342
 30
0.0
 11
756.458743
 21
384.218362
 31
0.0
  0
LINE
  5
32A4
100
AcDbEntity
  8
0
100
AcDbLine
 10
759.958743
 20
380.502007
 30
0.0
 11
759.958743
 21
324.296677
 31
0.0
  0
LINE
  5
32A5
100
AcDbEntity
  8
0
100
AcDbLine
 10
774.958743
 20
379.399342
 30
0.0
 11
774.958743
 21
352.399342
 31
0.0
  0
ARC
  5
32A6
100
AcDbEntity
  8
0
100
AcDbCircle
 10
751.833412
 20
352.399342
 30
0.0
 40
23.125331
100
AcDbArc
 50
330.490278
 51
29.509722
  0
LINE
  5
32A7
100
AcDbEntity
  8
0
100
AcDbLine
 10
774.958743
 20
352.399342
 30
0.0
 11
774.958743
 21
325.399342
 31
0.0
  0
ARC
  5
32A8
100
AcDbEntity
  8
0
100
AcDbCircle
 10
762.646078
 20
332.953905
 30
0.0
 40
12.312666
100
AcDbArc
 50
319.143335
 51
40.856665
  0
LINE
  5
32A9
100
AcDbEntity
  8
0
100
AcDbLine
 10
761.762291
 20
324.899342
 30
0.0
 11
774.670068
 21
324.899342
 31
0.0
  0
LINE
  5
32AA
100
AcDbEntity
  8
0
100
AcDbLine
 10
774.670068
 20
324.899342
 30
0.0
 11
774.958743
 21
325.399342
 31
0.0
  0
LINE
  5
32AB
100
AcDbEntity
  8
0
100
AcDbLine
 10
771.958743
 20
341.008469
 30
0.0
 11
759.958743
 21
341.008469
 31
0.0
  0
ARC
  5
32AC
100
AcDbEntity
  8
0
100
AcDbCircle
 10
762.646078
 20
371.844778
 30
0.0
 40
12.312666
100
AcDbArc
 50
319.143335
 51
40.856665
  0
LINE
  5
32AD
100
AcDbEntity
  8
0
100
AcDbLine
 10
771.958743
 20
363.790215
 30
0.0
 11
759.958743
 21
363.790215
 31
0.0
  0
LINE
  5
32AE
100
AcDbEntity
  8
0
100
AcDbLine
 10
761.762291
 20
379.899342
 30
0.0
 11
774.670068
 21
379.899342
 31
0.0
  0
LINE
  5
32AF
100
AcDbEntity
  8
0
100
AcDbLine
 10
774.670068
 20
379.899342
 30
0.0
 11
774.958743
 21
379.399342
 31
0.0
  0
LINE
  5
32B0
100
AcDbEntity
  8
0
100
AcDbLine
 10
762.459671
 20
444.379998
 30
0.0
 11
740.959671
 21
444.379998
 31
0.0
  0
LINE
  5
32B1
100
AcDbEntity
  8
0
100
AcDbLine
 10
736.629544
 20
446.879998
 30
0.0
 11
722.629544
 21
446.879998
 31
0.0
  0
ARC
  5
32B2
100
AcDbEntity
  8
0
100
AcDbCircle
 10
703.156123
 20
456.379998
 30
0.0
 40
3.0
100
AcDbArc
 50
28.31481
 51
90.0
  0
LINE
  5
32B3
100
AcDbEntity
  8
0
100
AcDbLine
 10
722.629544
 20
446.879998
 30
0.0
 11
708.459671
 21
455.060978
 31
0.0
  0
ARC
  5
32B4
100
AcDbEntity
  8
0
100
AcDbCircle
 10
711.959671
 20
461.123156
 30
0.0
 40
7.0
100
AcDbArc
 50
208.31481
 51
240.0
  0
LINE
  5
32B5
100
AcDbEntity
  8
0
100
AcDbLine
 10
740.959671
 20
444.379998
 30
0.0
 11
736.629544
 21
446.879998
 31
0.0
  0
LINE
  5
32B6
100
AcDbEntity
  8
0
100
AcDbLine
 10
762.459671
 20
459.379998
 30
0.0
 11
774.670995
 21
459.379998
 31
0.0
  0
ARC
  5
32B7
100
AcDbEntity
  8
0
100
AcDbCircle
 10
762.647005
 20
467.434562
 30
0.0
 40
12.312666
100
AcDbArc
 50
319.143335
 51
40.856665
  0
LINE
  5
32B8
100
AcDbEntity
  8
0
100
AcDbLine
 10
771.959671
 20
475.489125
 30
0.0
 11
762.459671
 21
475.489125
 31
0.0
  0
LINE
  5
32B9
100
AcDbEntity
  8
0
100
AcDbLine
 10
774.670995
 20
459.379998
 30
0.0
 11
774.959671
 21
459.879998
 31
0.0
  0
CIRCLE
  5
32BA
100
AcDbEntity
  8
0
100
AcDbCircle
 10
1049.53537
 20
212.390223
 30
0.0
 40
26.0
  0
CIRCLE
  5
32BB
100
AcDbEntity
  8
0
100
AcDbCircle
 10
1049.53537
 20
212.390223
 30
0.0
 40
34.5
  0
POLYLINE
  5
32BC
100
AcDbEntity
  8
0
100
AcDb2dPolyline
 66
     1
 10
0.0
 20
0.0
 30
0.0
 70
     1
  0
VERTEX
  5
352D
100
AcDbEntity
  8
0
100
AcDbVertex
100
AcDb2dVertex
 10
1035.037895
 20
177.390223
 30
0.0
  0
VERTEX
  5
352E
100
AcDbEntity
  8
0
100
AcDbVertex
100
AcDb2dVertex
 10
1014.53537
 20
197.892749
 30
0.0
  0
VERTEX
  5
352F
100
AcDbEntity
  8
0
100
AcDbVertex
100
AcDb2dVertex
 10
1014.53537
 20
226.887698
 30
0.0
  0
VERTEX
  5
3530
100
AcDbEntity
  8
0
100
AcDbVertex
100
AcDb2dVertex
 10
1035.037895
 20
247.390223
 30
0.0
  0
VERTEX
  5
3531
100
AcDbEntity
  8
0
100
AcDbVertex
100
AcDb2dVertex
 10
1064.032845
 20
247.390223
 30
0.0
  0
VERTEX
  5
3532
100
AcDbEntity
  8
0
100
AcDbVertex
100
AcDb2dVertex
 10
1084.53537
 20
226.887698
 30
0.0
  0
VERTEX
  5
3533
100
AcDbEntity
  8
0
100
AcDbVertex
100
AcDb2dVertex
 10
1084.53537
 20
197.892749
 30
0.0
  0
VERTEX
  5
3534
100
AcDbEntity
  8
0
100
AcDbVertex
100
AcDb2dVertex
 10
1064.032845
 20
177.390223
 30
0.0
  0
SEQEND
  5
3535
100
AcDbEntity
  8
0
  0
CIRCLE
  5
32BD
100
AcDbEntity
  8
0
100
AcDbCircle
 10
1049.53537
 20
212.390223
 30
0.0
 40
47.5
  0
LINE
  5
32BE
100
AcDbEntity
  8
0
100
AcDbLine
 10
1159.421427
 20
246.890223
 30
0.0
 11
1159.421427
 21
212.390223
 31
0.0
  0
ARC
  5
32BF
100
AcDbEntity
  8
0
100
AcDbCircle
 10
1178.436158
 20
237.138961
 30
0.0
 40
19.014731
100
AcDbArc
 50
147.3761
 51
212.6239
  0
LINE
  5
32C0
100
AcDbEntity
  8
0
100
AcDbLine
 10
1159.421427
 20
197.892749
 30
0.0
 11
1159.421427
 21
177.390223
 31
0.0
  0
ARC
  5
32C1
100
AcDbEntity
  8
0
100
AcDbCircle
 10
1178.436158
 20
187.641486
 30
0.0
 40
19.014731
100
AcDbArc
 50
147.3761
 51
212.6239
  0
LINE
  5
32C2
100
AcDbEntity
  8
0
100
AcDbLine
 10
1159.421427
 20
212.390223
 30
0.0
 11
1159.421427
 21
177.890223
 31
0.0
  0
LINE
  5
32C3
100
AcDbEntity
  8
0
100
AcDbLine
 10
1159.710102
 20
177.390223
 30
0.0
 11
1159.421427
 21
177.890223
 31
0.0
  0
LINE
  5
32C4
100
AcDbEntity
  8
0
100
AcDbLine
 10
1132.048705
 20
209.688025
 30
0.0
 11
1141.36483
 21
209.688025
 31
0.0
  0
LINE
  5
32C5
100
AcDbEntity
  8
0
100
AcDbLine
 10
1147.80433
 20
206.5369
 30
0.0
 11
1116.291955
 21
206.5369
 31
0.0
  0
LINE
  5
32C6
100
AcDbEntity
  8
0
100
AcDbLine
 10
1128.896455
 20
212.83915
 30
0.0
 11
1132.048705
 21
209.688025
 31
0.0
  0
LINE
  5
32C7
100
AcDbEntity
  8
0
100
AcDbLine
 10
1116.291955
 20
206.5369
 30
0.0
 11
1109.989705
 21
212.83915
 31
0.0
  0
LINE
  5
32C8
100
AcDbEntity
  8
0
100
AcDbLine
 10
1109.989705
 20
212.83915
 30
0.0
 11
1128.896455
 21
212.83915
 31
0.0
  0
LINE
  5
32C9
100
AcDbEntity
  8
0
100
AcDbLine
 10
1141.36483
 20
209.688025
 30
0.0
 11
1141.36483
 21
212.83915
 31
0.0
  0
LINE
  5
32CA
100
AcDbEntity
  8
0
100
AcDbLine
 10
1141.36483
 20
212.83915
 30
0.0
 11
1147.80433
 21
206.5369
 31
0.0
  0
ARC
  5
32CB
100
AcDbEntity
  8
0
100
AcDbCircle
 10
1195.950889
 20
212.390223
 30
0.0
 40
36.529462
100
AcDbArc
 50
156.617301
 51
203.382699
  0
LINE
  5
32CC
100
AcDbEntity
  8
0
100
AcDbLine
 10
1159.710102
 20
247.390223
 30
0.0
 11
1159.421427
 21
246.890223
 31
0.0
  0
LINE
  5
32CD
100
AcDbEntity
  8
0
100
AcDbLine
 10
1159.422387
 20
386.899342
 30
0.0
 11
1159.422387
 21
352.399342
 31
0.0
  0
ARC
  5
32CE
100
AcDbEntity
  8
0
100
AcDbCircle
 10
1195.951849
 20
352.399342
 30
0.0
 40
36.529462
100
AcDbArc
 50
156.617301
 51
203.382699
  0
LINE
  5
32CF
100
AcDbEntity
  8
0
100
AcDbLine
 10
1147.80433
 20
346.581969
 30
0.0
 11
1116.291955
 21
346.581969
 31
0.0
  0
LINE
  5
32D0
100
AcDbEntity
  8
0
100
AcDbLine
 10
1132.048705
 20
349.733094
 30
0.0
 11
1141.36483
 21
349.733094
 31
0.0
  0
LINE
  5
32D1
100
AcDbEntity
  8
0
100
AcDbLine
 10
1109.989705
 20
352.884219
 30
0.0
 11
1128.896455
 21
352.884219
 31
0.0
  0
LINE
  5
32D2
100
AcDbEntity
  8
0
100
AcDbLine
 10
1116.291955
 20
346.581969
 30
0.0
 11
1109.989705
 21
352.884219
 31
0.0
  0
LINE
  5
32D3
100
AcDbEntity
  8
0
100
AcDbLine
 10
1128.896455
 20
352.884219
 30
0.0
 11
1132.048705
 21
349.733094
 31
0.0
  0
LINE
  5
32D4
100
AcDbEntity
  8
0
100
AcDbLine
 10
1159.422387
 20
352.399342
 30
0.0
 11
1159.422387
 21
317.899342
 31
0.0
  0
ARC
  5
32D5
100
AcDbEntity
  8
0
100
AcDbCircle
 10
1178.437118
 20
327.650605
 30
0.0
 40
19.014731
100
AcDbArc
 50
147.3761
 51
212.6239
  0
LINE
  5
32D6
100
AcDbEntity
  8
0
100
AcDbLine
 10
1159.422387
 20
337.901867
 30
0.0
 11
1159.422387
 21
317.399342
 31
0.0
  0
LINE
  5
32D7
100
AcDbEntity
  8
0
100
AcDbLine
 10
1159.711062
 20
317.399342
 30
0.0
 11
1159.422387
 21
317.899342
 31
0.0
  0
LINE
  5
32D8
100
AcDbEntity
  8
0
100
AcDbLine
 10
1141.36483
 20
352.884219
 30
0.0
 11
1147.80433
 21
346.581969
 31
0.0
  0
LINE
  5
32D9
100
AcDbEntity
  8
0
100
AcDbLine
 10
1141.36483
 20
349.733094
 30
0.0
 11
1141.36483
 21
352.884219
 31
0.0
  0
ARC
  5
32DA
100
AcDbEntity
  8
0
100
AcDbCircle
 10
1178.437118
 20
377.148079
 30
0.0
 40
19.014731
100
AcDbArc
 50
147.3761
 51
212.6239
  0
LINE
  5
32DB
100
AcDbEntity
  8
0
100
AcDbLine
 10
1159.711062
 20
387.399342
 30
0.0
 11
1159.422387
 21
386.899342
 31
0.0
  0
ARC
  5
32DC
100
AcDbEntity
  8
0
100
AcDbCircle
 10
1178.438045
 20
462.131261
 30
0.0
 40
19.014731
100
AcDbArc
 50
147.3761
 51
212.6239
  0
LINE
  5
32DD
100
AcDbEntity
  8
0
100
AcDbLine
 10
1159.423314
 20
472.382524
 30
0.0
 11
1159.423314
 21
451.879998
 31
0.0
  0
LINE
  5
32DE
100
AcDbEntity
  8
0
100
AcDbLine
 10
1159.711989
 20
451.879998
 30
0.0
 11
1159.423314
 21
452.379998
 31
0.0
  0
TEXT
  5
32DF
100
AcDbEntity
  8
0
100
AcDbText
 10
1186.798115
 20
103.361359
 30
0.0
 40
12.5
  1
50A
 41
0.8
 11
1186.798115
 21
103.361359
 31
0.0
100
AcDbText
 73
     1
  0
ARC
  5
32E0
100
AcDbEntity
  8
0
100
AcDbCircle
 10
1234.422387
 20
318.309107
 30
0.0
 40
7.0
100
AcDbArc
 50
285.0
 51
336.984728
  0
LINE
  5
32E1
100
AcDbEntity
  8
0
100
AcDbLine
 10
1176.422387
 20
399.899342
 30
0.0
 11
1176.422387
 21
304.899342
 31
0.0
  0
LINE
  5
32E2
100
AcDbEntity
  8
0
100
AcDbLine
 10
1220.752514
 20
397.399342
 30
0.0
 11
1220.752514
 21
307.399342
 31
0.0
  0
LINE
  5
32E3
100
AcDbEntity
  8
0
100
AcDbLine
 10
1204.752514
 20
397.399342
 30
0.0
 11
1204.752514
 21
307.399342
 31
0.0
  0
LINE
  5
32E4
100
AcDbEntity
  8
0
100
AcDbLine
 10
1182.422387
 20
399.899342
 30
0.0
 11
1182.422387
 21
304.899342
 31
0.0
  0
LINE
  5
32E5
100
AcDbEntity
  8
0
100
AcDbLine
 10
1200.422387
 20
399.899342
 30
0.0
 11
1200.422387
 21
304.899342
 31
0.0
  0
CIRCLE
  5
32E6
100
AcDbEntity
  8
0
100
AcDbCircle
 10
1325.093122
 20
212.390223
 30
0.0
 40
47.5
  0
CIRCLE
  5
32E7
100
AcDbEntity
  8
0
100
AcDbCircle
 10
1325.093122
 20
212.390223
 30
0.0
 40
45.0
  0
LINE
  5
32E8
100
AcDbEntity
  8
0
100
AcDbLine
 10
1241.421427
 20
246.480459
 30
0.0
 11
1241.421427
 21
178.299988
 31
0.0
  0
LINE
  5
32E9
100
AcDbEntity
  8
0
100
AcDbLine
 10
1259.421427
 20
246.890223
 30
0.0
 11
1259.421427
 21
212.390223
 31
0.0
  0
ARC
  5
32EA
100
AcDbEntity
  8
0
100
AcDbCircle
 10
1240.406696
 20
237.138961
 30
0.0
 40
19.014731
100
AcDbArc
 50
327.3761
 51
32.6239
  0
LINE
  5
32EB
100
AcDbEntity
  8
0
100
AcDbLine
 10
1176.421427
 20
259.890223
 30
0.0
 11
1176.421427
 21
164.890223
 31
0.0
  0
LINE
  5
32EC
100
AcDbEntity
  8
0
100
AcDbLine
 10
1200.421427
 20
259.890223
 30
0.0
 11
1200.421427
 21
164.890223
 31
0.0
  0
LINE
  5
32ED
100
AcDbEntity
  8
0
100
AcDbLine
 10
1182.421427
 20
259.890223
 30
0.0
 11
1182.421427
 21
164.890223
 31
0.0
  0
LINE
  5
32EE
100
AcDbEntity
  8
0
100
AcDbLine
 10
1204.751554
 20
257.390223
 30
0.0
 11
1204.751554
 21
167.390223
 31
0.0
  0
LINE
  5
32EF
100
AcDbEntity
  8
0
100
AcDbLine
 10
1220.751554
 20
257.390223
 30
0.0
 11
1220.751554
 21
167.390223
 31
0.0
  0
LINE
  5
32F0
100
AcDbEntity
  8
0
100
AcDbLine
 10
1220.751554
 20
167.390223
 30
0.0
 11
1236.23316
 21
171.538507
 31
0.0
  0
LINE
  5
32F1
100
AcDbEntity
  8
0
100
AcDbLine
 10
1176.421427
 20
164.890223
 30
0.0
 11
1200.421427
 21
164.890223
 31
0.0
  0
LINE
  5
32F2
100
AcDbEntity
  8
0
100
AcDbLine
 10
1204.751554
 20
167.390223
 30
0.0
 11
1220.751554
 21
167.390223
 31
0.0
  0
LINE
  5
32F3
100
AcDbEntity
  8
0
100
AcDbLine
 10
1200.421427
 20
164.890223
 30
0.0
 11
1204.751554
 21
167.390223
 31
0.0
  0
LINE
  5
32F4
100
AcDbEntity
  8
0
100
AcDbLine
 10
1259.421427
 20
197.892749
 30
0.0
 11
1259.421427
 21
177.390223
 31
0.0
  0
ARC
  5
32F5
100
AcDbEntity
  8
0
100
AcDbCircle
 10
1240.406696
 20
187.641486
 30
0.0
 40
19.014731
100
AcDbArc
 50
327.3761
 51
32.6239
  0
LINE
  5
32F6
100
AcDbEntity
  8
0
100
AcDbLine
 10
1259.421427
 20
212.390223
 30
0.0
 11
1259.421427
 21
177.890223
 31
0.0
  0
LINE
  5
32F7
100
AcDbEntity
  8
0
100
AcDbLine
 10
1243.625433
 20
177.390223
 30
0.0
 11
1259.132752
 21
177.390223
 31
0.0
  0
ARC
  5
32F8
100
AcDbEntity
  8
0
100
AcDbCircle
 10
1234.421427
 20
178.299988
 30
0.0
 40
7.0
100
AcDbArc
 50
285.0
 51
336.984728
  0
ARC
  5
32F9
100
AcDbEntity
  8
0
100
AcDbCircle
 10
1243.625433
 20
174.390223
 30
0.0
 40
3.0
100
AcDbArc
 50
90.0
 51
156.984728
  0
LINE
  5
32FA
100
AcDbEntity
  8
0
100
AcDbLine
 10
1259.132752
 20
177.390223
 30
0.0
 11
1259.421427
 21
177.890223
 31
0.0
  0
LINE
  5
32FB
100
AcDbEntity
  8
0
100
AcDbLine
 10
1256.421427
 20
197.892749
 30
0.0
 11
1241.421427
 21
197.892749
 31
0.0
  0
LINE
  5
32FC
100
AcDbEntity
  8
0
100
AcDbLine
 10
1256.421427
 20
226.887698
 30
0.0
 11
1241.421427
 21
226.887698
 31
0.0
  0
ARC
  5
32FD
100
AcDbEntity
  8
0
100
AcDbCircle
 10
1222.891965
 20
212.390223
 30
0.0
 40
36.529462
100
AcDbArc
 50
336.617301
 51
23.382699
  0
LINE
  5
32FE
100
AcDbEntity
  8
0
100
AcDbLine
 10
1220.752514
 20
307.399342
 30
0.0
 11
1236.23412
 21
311.547626
 31
0.0
  0
LINE
  5
32FF
100
AcDbEntity
  8
0
100
AcDbLine
 10
1220.751554
 20
257.390223
 30
0.0
 11
1236.23316
 21
253.24194
 31
0.0
  0
LINE
  5
3300
100
AcDbEntity
  8
0
100
AcDbLine
 10
1176.421427
 20
259.890223
 30
0.0
 11
1200.421427
 21
259.890223
 31
0.0
  0
LINE
  5
3301
100
AcDbEntity
  8
0
100
AcDbLine
 10
1204.751554
 20
257.390223
 30
0.0
 11
1220.751554
 21
257.390223
 31
0.0
  0
LINE
  5
3302
100
AcDbEntity
  8
0
100
AcDbLine
 10
1200.421427
 20
259.890223
 30
0.0
 11
1204.751554
 21
257.390223
 31
0.0
  0
LINE
  5
3303
100
AcDbEntity
  8
0
100
AcDbLine
 10
1176.422387
 20
304.899342
 30
0.0
 11
1200.422387
 21
304.899342
 31
0.0
  0
LINE
  5
3304
100
AcDbEntity
  8
0
100
AcDbLine
 10
1204.752514
 20
307.399342
 30
0.0
 11
1220.752514
 21
307.399342
 31
0.0
  0
LINE
  5
3305
100
AcDbEntity
  8
0
100
AcDbLine
 10
1200.422387
 20
304.899342
 30
0.0
 11
1204.752514
 21
307.399342
 31
0.0
  0
LINE
  5
3306
100
AcDbEntity
  8
0
100
AcDbLine
 10
1243.625433
 20
247.390223
 30
0.0
 11
1259.132752
 21
247.390223
 31
0.0
  0
ARC
  5
3307
100
AcDbEntity
  8
0
100
AcDbCircle
 10
1234.421427
 20
246.480459
 30
0.0
 40
7.0
100
AcDbArc
 50
23.015272
 51
75.0
  0
ARC
  5
3308
100
AcDbEntity
  8
0
100
AcDbCircle
 10
1243.625433
 20
250.390223
 30
0.0
 40
3.0
100
AcDbArc
 50
203.015272
 51
270.0
  0
LINE
  5
3309
100
AcDbEntity
  8
0
100
AcDbLine
 10
1259.132752
 20
247.390223
 30
0.0
 11
1259.421427
 21
246.890223
 31
0.0
  0
POLYLINE
  5
330A
100
AcDbEntity
  8
0
100
AcDb2dPolyline
 66
     1
 10
0.0
 20
0.0
 30
0.0
 70
     1
  0
VERTEX
  5
3536
100
AcDbEntity
  8
0
100
AcDbVertex
100
AcDb2dVertex
 10
1339.590597
 20
177.390223
 30
0.0
  0
VERTEX
  5
3537
100
AcDbEntity
  8
0
100
AcDbVertex
100
AcDb2dVertex
 10
1360.093122
 20
197.892749
 30
0.0
  0
VERTEX
  5
3538
100
AcDbEntity
  8
0
100
AcDbVertex
100
AcDb2dVertex
 10
1360.093122
 20
226.887698
 30
0.0
  0
VERTEX
  5
3539
100
AcDbEntity
  8
0
100
AcDbVertex
100
AcDb2dVertex
 10
1339.590597
 20
247.390223
 30
0.0
  0
VERTEX
  5
353A
100
AcDbEntity
  8
0
100
AcDbVertex
100
AcDb2dVertex
 10
1310.595648
 20
247.390223
 30
0.0
  0
VERTEX
  5
353B
100
AcDbEntity
  8
0
100
AcDbVertex
100
AcDb2dVertex
 10
1290.093122
 20
226.887698
 30
0.0
  0
VERTEX
  5
353C
100
AcDbEntity
  8
0
100
AcDbVertex
100
AcDb2dVertex
 10
1290.093122
 20
197.892749
 30
0.0
  0
VERTEX
  5
353D
100
AcDbEntity
  8
0
100
AcDbVertex
100
AcDb2dVertex
 10
1310.595648
 20
177.390223
 30
0.0
  0
SEQEND
  5
353E
100
AcDbEntity
  8
0
  0
CIRCLE
  5
330B
100
AcDbEntity
  8
0
100
AcDbCircle
 10
1325.093122
 20
212.390223
 30
0.0
 40
34.5
  0
CIRCLE
  5
330C
100
AcDbEntity
  8
0
100
AcDbCircle
 10
1325.093122
 20
212.390223
 30
0.0
 40
26.0
  0
LINE
  5
330D
100
AcDbEntity
  8
0
100
AcDbLine
 10
1220.752514
 20
397.399342
 30
0.0
 11
1236.23412
 21
393.251058
 31
0.0
  0
LINE
  5
330E
100
AcDbEntity
  8
0
100
AcDbLine
 10
1241.422387
 20
386.489577
 30
0.0
 11
1241.422387
 21
318.309107
 31
0.0
  0
LINE
  5
330F
100
AcDbEntity
  8
0
100
AcDbLine
 10
1259.422387
 20
386.899342
 30
0.0
 11
1259.422387
 21
352.399342
 31
0.0
  0
ARC
  5
3310
100
AcDbEntity
  8
0
100
AcDbCircle
 10
1222.892925
 20
352.399342
 30
0.0
 40
36.529462
100
AcDbArc
 50
336.617301
 51
23.382699
  0
LINE
  5
3311
100
AcDbEntity
  8
0
100
AcDbLine
 10
1243.626393
 20
317.399342
 30
0.0
 11
1259.133711
 21
317.399342
 31
0.0
  0
LINE
  5
3312
100
AcDbEntity
  8
0
100
AcDbLine
 10
1256.422387
 20
337.901867
 30
0.0
 11
1241.422387
 21
337.901867
 31
0.0
  0
ARC
  5
3313
100
AcDbEntity
  8
0
100
AcDbCircle
 10
1243.626393
 20
314.399342
 30
0.0
 40
3.0
100
AcDbArc
 50
90.0
 51
156.984728
  0
LINE
  5
3314
100
AcDbEntity
  8
0
100
AcDbLine
 10
1259.422387
 20
352.399342
 30
0.0
 11
1259.422387
 21
317.899342
 31
0.0
  0
ARC
  5
3315
100
AcDbEntity
  8
0
100
AcDbCircle
 10
1240.407656
 20
327.650605
 30
0.0
 40
19.014731
100
AcDbArc
 50
327.3761
 51
32.6239
  0
LINE
  5
3316
100
AcDbEntity
  8
0
100
AcDbLine
 10
1259.422387
 20
337.901867
 30
0.0
 11
1259.422387
 21
317.399342
 31
0.0
  0
LINE
  5
3317
100
AcDbEntity
  8
0
100
AcDbLine
 10
1259.133711
 20
317.399342
 30
0.0
 11
1259.422387
 21
317.899342
 31
0.0
  0
LINE
  5
3318
100
AcDbEntity
  8
0
100
AcDbLine
 10
1256.422387
 20
366.896817
 30
0.0
 11
1241.422387
 21
366.896817
 31
0.0
  0
LINE
  5
3319
100
AcDbEntity
  8
0
100
AcDbLine
 10
1243.626393
 20
387.399342
 30
0.0
 11
1259.133711
 21
387.399342
 31
0.0
  0
ARC
  5
331A
100
AcDbEntity
  8
0
100
AcDbCircle
 10
1234.422387
 20
386.489577
 30
0.0
 40
7.0
100
AcDbArc
 50
23.015272
 51
75.0
  0
ARC
  5
331B
100
AcDbEntity
  8
0
100
AcDbCircle
 10
1243.626393
 20
390.399342
 30
0.0
 40
3.0
100
AcDbArc
 50
203.015272
 51
270.0
  0
ARC
  5
331C
100
AcDbEntity
  8
0
100
AcDbCircle
 10
1240.407656
 20
377.148079
 30
0.0
 40
19.014731
100
AcDbArc
 50
327.3761
 51
32.6239
  0
LINE
  5
331D
100
AcDbEntity
  8
0
100
AcDbLine
 10
1259.133711
 20
387.399342
 30
0.0
 11
1259.422387
 21
386.899342
 31
0.0
  0
LINE
  5
331E
100
AcDbEntity
  8
0
100
AcDbLine
 10
1242.423314
 20
439.379998
 30
0.0
 11
1218.423314
 21
439.379998
 31
0.0
  0
LINE
  5
331F
100
AcDbEntity
  8
0
100
AcDbLine
 10
1176.422387
 20
399.899342
 30
0.0
 11
1200.422387
 21
399.899342
 31
0.0
  0
LINE
  5
3320
100
AcDbEntity
  8
0
100
AcDbLine
 10
1204.752514
 20
397.399342
 30
0.0
 11
1220.752514
 21
397.399342
 31
0.0
  0
LINE
  5
3321
100
AcDbEntity
  8
0
100
AcDbLine
 10
1200.422387
 20
399.899342
 30
0.0
 11
1204.752514
 21
397.399342
 31
0.0
  0
LINE
  5
3322
100
AcDbEntity
  8
0
100
AcDbLine
 10
1198.093187
 20
441.879998
 30
0.0
 11
1182.61158
 21
446.028282
 31
0.0
  0
ARC
  5
3323
100
AcDbEntity
  8
0
100
AcDbCircle
 10
1184.423314
 20
452.789763
 30
0.0
 40
7.0
100
AcDbArc
 50
203.015272
 51
255.0
  0
ARC
  5
3324
100
AcDbEntity
  8
0
100
AcDbCircle
 10
1175.219307
 20
448.879998
 30
0.0
 40
3.0
100
AcDbArc
 50
23.015272
 51
90.0
  0
LINE
  5
3325
100
AcDbEntity
  8
0
100
AcDbLine
 10
1214.093187
 20
441.879998
 30
0.0
 11
1198.093187
 21
441.879998
 31
0.0
  0
LINE
  5
3326
100
AcDbEntity
  8
0
100
AcDbLine
 10
1218.423314
 20
439.379998
 30
0.0
 11
1214.093187
 21
441.879998
 31
0.0
  0
LINE
  5
3327
100
AcDbEntity
  8
0
100
AcDbLine
 10
1242.423314
 20
451.879998
 30
0.0
 11
1259.134639
 21
451.879998
 31
0.0
  0
LINE
  5
3328
100
AcDbEntity
  8
0
100
AcDbLine
 10
1256.423314
 20
472.382524
 30
0.0
 11
1242.423314
 21
472.382524
 31
0.0
  0
ARC
  5
3329
100
AcDbEntity
  8
0
100
AcDbCircle
 10
1240.408583
 20
462.131261
 30
0.0
 40
19.014731
100
AcDbArc
 50
327.3761
 51
32.6239
  0
LINE
  5
332A
100
AcDbEntity
  8
0
100
AcDbLine
 10
1259.423314
 20
472.382524
 30
0.0
 11
1259.423314
 21
451.879998
 31
0.0
  0
LINE
  5
332B
100
AcDbEntity
  8
0
100
AcDbLine
 10
1259.134639
 20
451.879998
 30
0.0
 11
1259.423314
 21
452.379998
 31
0.0
  0
LINE
  5
332C
100
AcDbEntity
  8
0
100
AcDbLine
 10
1162.423314
 20
501.377473
 30
0.0
 11
1177.423314
 21
501.377473
 31
0.0
  0
LINE
  5
332D
100
AcDbEntity
  8
0
100
AcDbLine
 10
1175.219307
 20
521.879998
 30
0.0
 11
1159.711989
 21
521.879998
 31
0.0
  0
LINE
  5
332E
100
AcDbEntity
  8
0
100
AcDbLine
 10
1170.082756
 20
908.849057
 30
0.0
 11
1163.153756
 21
904.849057
 31
0.0
  0
LINE
  5
332F
100
AcDbEntity
  8
0
100
AcDbLine
 10
1163.153756
 20
856.849057
 30
0.0
 11
1170.082756
 21
852.849057
 31
0.0
  0
LINE
  5
3330
100
AcDbEntity
  8
0
100
AcDbLine
 10
1158.317655
 20
749.860209
 30
0.0
 11
1176.317655
 21
749.860209
 31
0.0
  0
LINE
  5
3331
100
AcDbEntity
  8
0
100
AcDbLine
 10
1176.317655
 20
809.860209
 30
0.0
 11
1158.317655
 21
809.860209
 31
0.0
  0
TEXT
  5
3332
100
AcDbEntity
  8
0
100
AcDbText
 10
1160.781909
 20
601.696849
 30
0.0
 40
12.5
  1
25A
 41
0.8
 11
1160.781909
 21
601.696849
 31
0.0
100
AcDbText
 73
     1
  0
LINE
  5
3333
100
AcDbEntity
  8
0
100
AcDbLine
 10
1176.316695
 20
647.972483
 30
0.0
 11
1158.316695
 21
647.972483
 31
0.0
  0
LINE
  5
3334
100
AcDbEntity
  8
0
100
AcDbLine
 10
1158.316695
 20
707.972483
 30
0.0
 11
1176.316695
 21
707.972483
 31
0.0
  0
LINE
  5
3335
100
AcDbEntity
  8
0
100
AcDbLine
 10
1163.317655
 20
809.860209
 30
0.0
 11
1163.317655
 21
749.860209
 31
0.0
  0
LINE
  5
3336
100
AcDbEntity
  8
0
100
AcDbLine
 10
1158.317655
 20
809.860209
 30
0.0
 11
1158.317655
 21
749.860209
 31
0.0
  0
LINE
  5
3337
100
AcDbEntity
  8
0
100
AcDbLine
 10
831.351177
 20
490.109862
 30
0.0
 11
812.444427
 21
490.109862
 31
0.0
  0
LINE
  5
3338
100
AcDbEntity
  8
0
100
AcDbLine
 10
793.536552
 20
483.807612
 30
0.0
 11
825.048927
 21
483.807612
 31
0.0
  0
LINE
  5
3339
100
AcDbEntity
  8
0
100
AcDbLine
 10
762.459671
 20
529.379998
 30
0.0
 11
740.959671
 21
529.379998
 31
0.0
  0
LINE
  5
333A
100
AcDbEntity
  8
0
100
AcDbLine
 10
722.629544
 20
526.879998
 30
0.0
 11
708.459671
 21
518.699018
 31
0.0
  0
ARC
  5
333B
100
AcDbEntity
  8
0
100
AcDbCircle
 10
703.156123
 20
517.379998
 30
0.0
 40
3.0
100
AcDbArc
 50
270.0
 51
331.68519
  0
ARC
  5
333C
100
AcDbEntity
  8
0
100
AcDbCircle
 10
711.959671
 20
512.636841
 30
0.0
 40
7.0
100
AcDbArc
 50
120.0
 51
151.68519
  0
LINE
  5
333D
100
AcDbEntity
  8
0
100
AcDbLine
 10
736.629544
 20
526.879998
 30
0.0
 11
722.629544
 21
526.879998
 31
0.0
  0
LINE
  5
333E
100
AcDbEntity
  8
0
100
AcDbLine
 10
740.959671
 20
529.379998
 30
0.0
 11
736.629544
 21
526.879998
 31
0.0
  0
ARC
  5
333F
100
AcDbEntity
  8
0
100
AcDbCircle
 10
762.647005
 20
506.325435
 30
0.0
 40
12.312666
100
AcDbArc
 50
319.143335
 51
40.856665
  0
LINE
  5
3340
100
AcDbEntity
  8
0
100
AcDbLine
 10
774.959671
 20
513.879998
 30
0.0
 11
774.959671
 21
486.879998
 31
0.0
  0
LINE
  5
3341
100
AcDbEntity
  8
0
100
AcDbLine
 10
771.959671
 20
498.270871
 30
0.0
 11
762.459671
 21
498.270871
 31
0.0
  0
LINE
  5
3342
100
AcDbEntity
  8
0
100
AcDbLine
 10
762.459671
 20
514.379998
 30
0.0
 11
774.670995
 21
514.379998
 31
0.0
  0
LINE
  5
3343
100
AcDbEntity
  8
0
100
AcDbLine
 10
774.670995
 20
514.379998
 30
0.0
 11
774.959671
 21
513.879998
 31
0.0
  0
LINE
  5
3344
100
AcDbEntity
  8
0
100
AcDbLine
 10
809.292177
 20
486.958737
 30
0.0
 11
799.976052
 21
486.958737
 31
0.0
  0
LINE
  5
3345
100
AcDbEntity
  8
0
100
AcDbLine
 10
799.976052
 20
486.958737
 30
0.0
 11
799.976052
 21
490.109862
 31
0.0
  0
LINE
  5
3346
100
AcDbEntity
  8
0
100
AcDbLine
 10
799.976052
 20
490.109862
 30
0.0
 11
793.536552
 21
483.807612
 31
0.0
  0
LINE
  5
3347
100
AcDbEntity
  8
0
100
AcDbLine
 10
812.444427
 20
490.109862
 30
0.0
 11
809.292177
 21
486.958737
 31
0.0
  0
TEXT
  5
3348
100
AcDbEntity
  8
0
100
AcDbText
 10
743.674998
 20
608.370205
 30
0.0
 40
12.5
  1
20A
 41
0.8
 11
743.674998
 21
608.370205
 31
0.0
100
AcDbText
 73
     1
  0
LINE
  5
3349
100
AcDbEntity
  8
0
100
AcDbLine
 10
825.048927
 20
483.807612
 30
0.0
 11
831.351177
 21
490.109862
 31
0.0
  0
CIRCLE
  5
334A
100
AcDbEntity
  8
0
100
AcDbCircle
 10
837.394081
 20
677.972483
 30
0.0
 40
25.0
  0
CIRCLE
  5
334B
100
AcDbEntity
  8
0
100
AcDbCircle
 10
837.394081
 20
677.972483
 30
0.0
 40
23.0
  0
LINE
  5
334C
100
AcDbEntity
  8
0
100
AcDbLine
 10
765.166737
 20
654.972483
 30
0.0
 11
754.559041
 21
654.972483
 31
0.0
  0
LINE
  5
334D
100
AcDbEntity
  8
0
100
AcDbLine
 10
765.166737
 20
700.972483
 30
0.0
 11
754.559041
 21
700.972483
 31
0.0
  0
LINE
  5
334E
100
AcDbEntity
  8
0
100
AcDbLine
 10
751.09494
 20
702.972483
 30
0.0
 11
751.09494
 21
652.972483
 31
0.0
  0
LINE
  5
334F
100
AcDbEntity
  8
0
100
AcDbLine
 10
739.09494
 20
702.972483
 30
0.0
 11
739.09494
 21
652.972483
 31
0.0
  0
LINE
  5
3350
100
AcDbEntity
  8
0
100
AcDbLine
 10
735.09494
 20
702.972483
 30
0.0
 11
735.09494
 21
652.972483
 31
0.0
  0
LINE
  5
3351
100
AcDbEntity
  8
0
100
AcDbLine
 10
754.559041
 20
700.972483
 30
0.0
 11
754.559041
 21
654.972483
 31
0.0
  0
LINE
  5
3352
100
AcDbEntity
  8
0
100
AcDbLine
 10
725.09494
 20
695.972483
 30
0.0
 11
725.09494
 21
677.972483
 31
0.0
  0
LINE
  5
3353
100
AcDbEntity
  8
0
100
AcDbLine
 10
726.09494
 20
667.725532
 30
0.0
 11
735.09494
 21
667.725532
 31
0.0
  0
LINE
  5
3354
100
AcDbEntity
  8
0
100
AcDbLine
 10
735.09494
 20
658.972483
 30
0.0
 11
726.09494
 21
658.972483
 31
0.0
  0
LINE
  5
3355
100
AcDbEntity
  8
0
100
AcDbLine
 10
726.09494
 20
667.725532
 30
0.0
 11
726.09494
 21
658.972483
 31
0.0
  0
LINE
  5
3356
100
AcDbEntity
  8
0
100
AcDbLine
 10
725.09494
 20
677.972483
 30
0.0
 11
725.09494
 21
659.972483
 31
0.0
  0
LINE
  5
3357
100
AcDbEntity
  8
0
100
AcDbLine
 10
725.09494
 20
659.972483
 30
0.0
 11
726.09494
 21
658.972483
 31
0.0
  0
LINE
  5
3358
100
AcDbEntity
  8
0
100
AcDbLine
 10
725.09494
 20
659.972483
 30
0.0
 11
726.09494
 21
658.972483
 31
0.0
  0
LINE
  5
3359
100
AcDbEntity
  8
0
100
AcDbLine
 10
709.917433
 20
681.674286
 30
0.0
 11
716.356933
 21
675.372036
 31
0.0
  0
LINE
  5
335A
100
AcDbEntity
  8
0
100
AcDbLine
 10
709.917433
 20
678.523161
 30
0.0
 11
709.917433
 21
681.674286
 31
0.0
  0
LINE
  5
335B
100
AcDbEntity
  8
0
100
AcDbLine
 10
697.449058
 20
681.674286
 30
0.0
 11
700.601308
 21
678.523161
 31
0.0
  0
LINE
  5
335C
100
AcDbEntity
  8
0
100
AcDbLine
 10
700.601308
 20
678.523161
 30
0.0
 11
709.917433
 21
678.523161
 31
0.0
  0
LINE
  5
335D
100
AcDbEntity
  8
0
100
AcDbLine
 10
725.09494
 20
668.725532
 30
0.0
 11
726.09494
 21
667.725532
 31
0.0
  0
LINE
  5
335E
100
AcDbEntity
  8
0
100
AcDbLine
 10
751.09494
 20
652.972483
 30
0.0
 11
735.09494
 21
652.972483
 31
0.0
  0
LINE
  5
335F
100
AcDbEntity
  8
0
100
AcDbLine
 10
754.559041
 20
654.972483
 30
0.0
 11
751.09494
 21
652.972483
 31
0.0
  0
LINE
  5
3360
100
AcDbEntity
  8
0
100
AcDbLine
 10
735.09494
 20
696.972483
 30
0.0
 11
726.09494
 21
696.972483
 31
0.0
  0
LINE
  5
3361
100
AcDbEntity
  8
0
100
AcDbLine
 10
726.09494
 20
688.219434
 30
0.0
 11
735.09494
 21
688.219434
 31
0.0
  0
LINE
  5
3362
100
AcDbEntity
  8
0
100
AcDbLine
 10
726.09494
 20
696.972483
 30
0.0
 11
725.09494
 21
695.972483
 31
0.0
  0
LINE
  5
3363
100
AcDbEntity
  8
0
100
AcDbLine
 10
726.09494
 20
696.972483
 30
0.0
 11
725.09494
 21
695.972483
 31
0.0
  0
LINE
  5
3364
100
AcDbEntity
  8
0
100
AcDbLine
 10
725.09494
 20
687.219434
 30
0.0
 11
726.09494
 21
688.219434
 31
0.0
  0
LINE
  5
3365
100
AcDbEntity
  8
0
100
AcDbLine
 10
726.09494
 20
696.972483
 30
0.0
 11
726.09494
 21
688.219434
 31
0.0
  0
LINE
  5
3366
100
AcDbEntity
  8
0
100
AcDbLine
 10
751.09494
 20
702.972483
 30
0.0
 11
735.09494
 21
702.972483
 31
0.0
  0
LINE
  5
3367
100
AcDbEntity
  8
0
100
AcDbLine
 10
754.559041
 20
700.972483
 30
0.0
 11
751.09494
 21
702.972483
 31
0.0
  0
LINE
  5
3368
100
AcDbEntity
  8
0
100
AcDbLine
 10
765.166737
 20
700.972483
 30
0.0
 11
765.166737
 21
654.972483
 31
0.0
  0
LINE
  5
3369
100
AcDbEntity
  8
0
100
AcDbLine
 10
772.09494
 20
696.972483
 30
0.0
 11
772.09494
 21
658.972483
 31
0.0
  0
LINE
  5
336A
100
AcDbEntity
  8
0
100
AcDbLine
 10
785.09494
 20
695.972483
 30
0.0
 11
785.09494
 21
677.972483
 31
0.0
  0
LINE
  5
336B
100
AcDbEntity
  8
0
100
AcDbLine
 10
784.09494
 20
667.725532
 30
0.0
 11
784.09494
 21
658.972483
 31
0.0
  0
LINE
  5
336C
100
AcDbEntity
  8
0
100
AcDbLine
 10
785.09494
 20
677.972483
 30
0.0
 11
785.09494
 21
659.972483
 31
0.0
  0
LINE
  5
336D
100
AcDbEntity
  8
0
100
AcDbLine
 10
784.09494
 20
658.972483
 30
0.0
 11
772.09494
 21
658.972483
 31
0.0
  0
LINE
  5
336E
100
AcDbEntity
  8
0
100
AcDbLine
 10
772.09494
 20
658.972483
 30
0.0
 11
765.166737
 21
654.972483
 31
0.0
  0
LINE
  5
336F
100
AcDbEntity
  8
0
100
AcDbLine
 10
785.09494
 20
659.972483
 30
0.0
 11
784.09494
 21
658.972483
 31
0.0
  0
LINE
  5
3370
100
AcDbEntity
  8
0
100
AcDbLine
 10
784.09494
 20
667.725532
 30
0.0
 11
772.09494
 21
667.725532
 31
0.0
  0
LINE
  5
3371
100
AcDbEntity
  8
0
100
AcDbLine
 10
785.09494
 20
668.725532
 30
0.0
 11
784.09494
 21
667.725532
 31
0.0
  0
LINE
  5
3372
100
AcDbEntity
  8
0
100
AcDbLine
 10
784.09494
 20
696.972483
 30
0.0
 11
772.09494
 21
696.972483
 31
0.0
  0
LINE
  5
3373
100
AcDbEntity
  8
0
100
AcDbLine
 10
784.09494
 20
688.219434
 30
0.0
 11
772.09494
 21
688.219434
 31
0.0
  0
LINE
  5
3374
100
AcDbEntity
  8
0
100
AcDbLine
 10
772.09494
 20
696.972483
 30
0.0
 11
765.166737
 21
700.972483
 31
0.0
  0
LINE
  5
3375
100
AcDbEntity
  8
0
100
AcDbLine
 10
784.09494
 20
696.972483
 30
0.0
 11
785.09494
 21
695.972483
 31
0.0
  0
LINE
  5
3376
100
AcDbEntity
  8
0
100
AcDbLine
 10
785.09494
 20
687.219434
 30
0.0
 11
784.09494
 21
688.219434
 31
0.0
  0
LINE
  5
3377
100
AcDbEntity
  8
0
100
AcDbLine
 10
784.09494
 20
696.972483
 30
0.0
 11
784.09494
 21
688.219434
 31
0.0
  0
LINE
  5
3378
100
AcDbEntity
  8
0
100
AcDbLine
 10
765.167697
 20
756.860209
 30
0.0
 11
754.560001
 21
756.860209
 31
0.0
  0
LINE
  5
3379
100
AcDbEntity
  8
0
100
AcDbLine
 10
765.167697
 20
802.860209
 30
0.0
 11
754.560001
 21
802.860209
 31
0.0
  0
LINE
  5
337A
100
AcDbEntity
  8
0
100
AcDbLine
 10
751.0959
 20
804.860209
 30
0.0
 11
751.0959
 21
754.860209
 31
0.0
  0
LINE
  5
337B
100
AcDbEntity
  8
0
100
AcDbLine
 10
739.0959
 20
804.860209
 30
0.0
 11
739.0959
 21
754.860209
 31
0.0
  0
LINE
  5
337C
100
AcDbEntity
  8
0
100
AcDbLine
 10
735.0959
 20
804.860209
 30
0.0
 11
735.0959
 21
754.860209
 31
0.0
  0
LINE
  5
337D
100
AcDbEntity
  8
0
100
AcDbLine
 10
754.560001
 20
802.860209
 30
0.0
 11
754.560001
 21
756.860209
 31
0.0
  0
LINE
  5
337E
100
AcDbEntity
  8
0
100
AcDbLine
 10
725.0959
 20
779.860209
 30
0.0
 11
725.0959
 21
764.860209
 31
0.0
  0
LINE
  5
337F
100
AcDbEntity
  8
0
100
AcDbLine
 10
726.0959
 20
795.860209
 30
0.0
 11
726.0959
 21
763.860209
 31
0.0
  0
LINE
  5
3380
100
AcDbEntity
  8
0
100
AcDbLine
 10
726.0959
 20
763.860209
 30
0.0
 11
735.0959
 21
763.860209
 31
0.0
  0
LINE
  5
3381
100
AcDbEntity
  8
0
100
AcDbLine
 10
725.0959
 20
764.860209
 30
0.0
 11
726.0959
 21
763.860209
 31
0.0
  0
LINE
  5
3382
100
AcDbEntity
  8
0
100
AcDbLine
 10
751.0959
 20
754.860209
 30
0.0
 11
735.0959
 21
754.860209
 31
0.0
  0
LINE
  5
3383
100
AcDbEntity
  8
0
100
AcDbLine
 10
754.560001
 20
756.860209
 30
0.0
 11
751.0959
 21
754.860209
 31
0.0
  0
LINE
  5
3384
100
AcDbEntity
  8
0
100
AcDbLine
 10
726.0959
 20
795.860209
 30
0.0
 11
735.0959
 21
795.860209
 31
0.0
  0
LINE
  5
3385
100
AcDbEntity
  8
0
100
AcDbLine
 10
725.0959
 20
794.860209
 30
0.0
 11
725.0959
 21
779.860209
 31
0.0
  0
LINE
  5
3386
100
AcDbEntity
  8
0
100
AcDbLine
 10
708.268381
 20
780.528257
 30
0.0
 11
714.707881
 21
774.226007
 31
0.0
  0
LINE
  5
3387
100
AcDbEntity
  8
0
100
AcDbLine
 10
708.268381
 20
777.377132
 30
0.0
 11
708.268381
 21
780.528257
 31
0.0
  0
LINE
  5
3388
100
AcDbEntity
  8
0
100
AcDbLine
 10
726.0959
 20
795.860209
 30
0.0
 11
725.0959
 21
794.860209
 31
0.0
  0
LINE
  5
3389
100
AcDbEntity
  8
0
100
AcDbLine
 10
751.0959
 20
804.860209
 30
0.0
 11
735.0959
 21
804.860209
 31
0.0
  0
LINE
  5
338A
100
AcDbEntity
  8
0
100
AcDbLine
 10
754.560001
 20
802.860209
 30
0.0
 11
751.0959
 21
804.860209
 31
0.0
  0
LINE
  5
338B
100
AcDbEntity
  8
0
100
AcDbLine
 10
765.167697
 20
802.860209
 30
0.0
 11
765.167697
 21
756.860209
 31
0.0
  0
LINE
  5
338C
100
AcDbEntity
  8
0
100
AcDbLine
 10
772.0959
 20
798.860209
 30
0.0
 11
772.0959
 21
760.860209
 31
0.0
  0
LINE
  5
338D
100
AcDbEntity
  8
0
100
AcDbLine
 10
785.0959
 20
779.860209
 30
0.0
 11
785.0959
 21
764.860209
 31
0.0
  0
LINE
  5
338E
100
AcDbEntity
  8
0
100
AcDbLine
 10
784.0959
 20
795.860209
 30
0.0
 11
784.0959
 21
763.860209
 31
0.0
  0
LINE
  5
338F
100
AcDbEntity
  8
0
100
AcDbLine
 10
784.0959
 20
763.860209
 30
0.0
 11
772.0959
 21
763.860209
 31
0.0
  0
LINE
  5
3390
100
AcDbEntity
  8
0
100
AcDbLine
 10
772.0959
 20
760.860209
 30
0.0
 11
765.167697
 21
756.860209
 31
0.0
  0
LINE
  5
3391
100
AcDbEntity
  8
0
100
AcDbLine
 10
785.0959
 20
764.860209
 30
0.0
 11
784.0959
 21
763.860209
 31
0.0
  0
LINE
  5
3392
100
AcDbEntity
  8
0
100
AcDbLine
 10
785.0959
 20
794.860209
 30
0.0
 11
785.0959
 21
779.860209
 31
0.0
  0
LINE
  5
3393
100
AcDbEntity
  8
0
100
AcDbLine
 10
784.0959
 20
795.860209
 30
0.0
 11
772.0959
 21
795.860209
 31
0.0
  0
LINE
  5
3394
100
AcDbEntity
  8
0
100
AcDbLine
 10
772.0959
 20
798.860209
 30
0.0
 11
765.167697
 21
802.860209
 31
0.0
  0
LINE
  5
3395
100
AcDbEntity
  8
0
100
AcDbLine
 10
784.0959
 20
795.860209
 30
0.0
 11
785.0959
 21
794.860209
 31
0.0
  0
CIRCLE
  5
3396
100
AcDbEntity
  8
0
100
AcDbCircle
 10
837.394081
 20
677.972483
 30
0.0
 40
11.0
  0
LINE
  5
3397
100
AcDbEntity
  8
0
100
AcDbLine
 10
821.394081
 20
688.219434
 30
0.0
 11
821.394081
 21
667.725532
 31
0.0
  0
LINE
  5
3398
100
AcDbEntity
  8
0
100
AcDbLine
 10
853.394081
 20
688.219434
 30
0.0
 11
853.394081
 21
667.725532
 31
0.0
  0
ARC
  5
3399
100
AcDbEntity
  8
0
100
AcDbCircle
 10
837.394081
 20
677.972483
 30
0.0
 40
19.0
100
AcDbArc
 50
212.636898
 51
327.363102
  0
ARC
  5
339A
100
AcDbEntity
  8
0
100
AcDbCircle
 10
837.394081
 20
677.972483
 30
0.0
 40
18.0
100
AcDbArc
 50
207.266044
 51
332.733956
  0
ARC
  5
339B
100
AcDbEntity
  8
0
100
AcDbCircle
 10
837.394081
 20
677.972483
 30
0.0
 40
19.0
100
AcDbArc
 50
32.636898
 51
147.363102
  0
ARC
  5
339C
100
AcDbEntity
  8
0
100
AcDbCircle
 10
837.394081
 20
677.972483
 30
0.0
 40
18.0
100
AcDbArc
 50
27.266044
 51
152.733956
  0
LINE
  5
339D
100
AcDbEntity
  8
0
100
AcDbLine
 10
1159.423314
 20
521.379998
 30
0.0
 11
1159.423314
 21
486.879998
 31
0.0
  0
ARC
  5
339E
100
AcDbEntity
  8
0
100
AcDbCircle
 10
1178.438045
 20
511.628736
 30
0.0
 40
19.014731
100
AcDbArc
 50
147.3761
 51
212.6239
  0
LINE
  5
339F
100
AcDbEntity
  8
0
100
AcDbLine
 10
1159.711989
 20
521.879998
 30
0.0
 11
1159.423314
 21
521.379998
 31
0.0
  0
CIRCLE
  5
33A0
100
AcDbEntity
  8
0
100
AcDbCircle
 10
1047.909455
 20
677.972483
 30
0.0
 40
30.0
  0
CIRCLE
  5
33A1
100
AcDbEntity
  8
0
100
AcDbCircle
 10
1047.909455
 20
677.972483
 30
0.0
 40
13.5
  0
ARC
  5
33A2
100
AcDbEntity
  8
0
100
AcDbCircle
 10
1047.909455
 20
677.972483
 30
0.0
 40
24.0
100
AcDbArc
 50
211.332251
 51
328.667749
  0
ARC
  5
33A3
100
AcDbEntity
  8
0
100
AcDbCircle
 10
1047.909455
 20
677.972483
 30
0.0
 40
24.0
100
AcDbArc
 50
31.332251
 51
148.667749
  0
ARC
  5
33A4
100
AcDbEntity
  8
0
100
AcDbCircle
 10
1047.909455
 20
677.972483
 30
0.0
 40
22.5
100
AcDbArc
 50
204.340707
 51
335.659293
  0
ARC
  5
33A5
100
AcDbEntity
  8
0
100
AcDbCircle
 10
1047.909455
 20
677.972483
 30
0.0
 40
22.5
100
AcDbArc
 50
24.340707
 51
155.659293
  0
LINE
  5
33A6
100
AcDbEntity
  8
0
100
AcDbLine
 10
1027.409465
 20
690.452483
 30
0.0
 11
1027.409465
 21
665.492483
 31
0.0
  0
LINE
  5
33A7
100
AcDbEntity
  8
0
100
AcDbLine
 10
1136.793398
 20
677.088153
 30
0.0
 11
1105.281023
 21
677.088153
 31
0.0
  0
LINE
  5
33A8
100
AcDbEntity
  8
0
100
AcDbLine
 10
1098.978773
 20
683.390403
 30
0.0
 11
1117.885523
 21
683.390403
 31
0.0
  0
LINE
  5
33A9
100
AcDbEntity
  8
0
100
AcDbLine
 10
1068.409446
 20
690.452483
 30
0.0
 11
1068.409446
 21
665.492483
 31
0.0
  0
LINE
  5
33AA
100
AcDbEntity
  8
0
100
AcDbLine
 10
1105.281023
 20
677.088153
 30
0.0
 11
1098.978773
 21
683.390403
 31
0.0
  0
LINE
  5
33AB
100
AcDbEntity
  8
0
100
AcDbLine
 10
1163.316695
 20
707.972483
 30
0.0
 11
1163.316695
 21
647.972483
 31
0.0
  0
LINE
  5
33AC
100
AcDbEntity
  8
0
100
AcDbLine
 10
1158.316695
 20
647.972483
 30
0.0
 11
1158.316695
 21
707.972483
 31
0.0
  0
LINE
  5
33AD
100
AcDbEntity
  8
0
100
AcDbLine
 10
1146.316695
 20
700.472483
 30
0.0
 11
1146.316695
 21
677.972483
 31
0.0
  0
LINE
  5
33AE
100
AcDbEntity
  8
0
100
AcDbLine
 10
1130.353898
 20
683.390403
 30
0.0
 11
1136.793398
 21
677.088153
 31
0.0
  0
LINE
  5
33AF
100
AcDbEntity
  8
0
100
AcDbLine
 10
1121.037773
 20
680.239278
 30
0.0
 11
1130.353898
 21
680.239278
 31
0.0
  0
LINE
  5
33B0
100
AcDbEntity
  8
0
100
AcDbLine
 10
1117.885523
 20
683.390403
 30
0.0
 11
1121.037773
 21
680.239278
 31
0.0
  0
LINE
  5
33B1
100
AcDbEntity
  8
0
100
AcDbLine
 10
1130.353898
 20
680.239278
 30
0.0
 11
1130.353898
 21
683.390403
 31
0.0
  0
LINE
  5
33B2
100
AcDbEntity
  8
0
100
AcDbLine
 10
1147.816695
 20
653.972483
 30
0.0
 11
1147.816695
 21
665.492483
 31
0.0
  0
LINE
  5
33B3
100
AcDbEntity
  8
0
100
AcDbLine
 10
1146.316695
 20
655.472483
 30
0.0
 11
1146.316695
 21
677.972483
 31
0.0
  0
LINE
  5
33B4
100
AcDbEntity
  8
0
100
AcDbLine
 10
1158.316695
 20
653.972483
 30
0.0
 11
1147.816695
 21
653.972483
 31
0.0
  0
LINE
  5
33B5
100
AcDbEntity
  8
0
100
AcDbLine
 10
1147.816695
 20
653.972483
 30
0.0
 11
1146.316695
 21
655.472483
 31
0.0
  0
LINE
  5
33B6
100
AcDbEntity
  8
0
100
AcDbLine
 10
1147.816695
 20
665.492483
 30
0.0
 11
1158.316695
 21
665.492483
 31
0.0
  0
LINE
  5
33B7
100
AcDbEntity
  8
0
100
AcDbLine
 10
1147.816695
 20
665.492483
 30
0.0
 11
1146.316695
 21
666.992483
 31
0.0
  0
LINE
  5
33B8
100
AcDbEntity
  8
0
100
AcDbLine
 10
1147.816695
 20
690.452483
 30
0.0
 11
1158.316695
 21
690.452483
 31
0.0
  0
LINE
  5
33B9
100
AcDbEntity
  8
0
100
AcDbLine
 10
1147.816695
 20
701.972483
 30
0.0
 11
1158.316695
 21
701.972483
 31
0.0
  0
LINE
  5
33BA
100
AcDbEntity
  8
0
100
AcDbLine
 10
1147.816695
 20
701.972483
 30
0.0
 11
1147.816695
 21
690.452483
 31
0.0
  0
LINE
  5
33BB
100
AcDbEntity
  8
0
100
AcDbLine
 10
1147.816695
 20
690.452483
 30
0.0
 11
1146.316695
 21
688.952483
 31
0.0
  0
LINE
  5
33BC
100
AcDbEntity
  8
0
100
AcDbLine
 10
1146.316695
 20
700.472483
 30
0.0
 11
1147.816695
 21
701.972483
 31
0.0
  0
LINE
  5
33BD
100
AcDbEntity
  8
0
100
AcDbLine
 10
1098.978773
 20
782.362195
 30
0.0
 11
1117.885523
 21
782.362195
 31
0.0
  0
LINE
  5
33BE
100
AcDbEntity
  8
0
100
AcDbLine
 10
1136.793398
 20
776.059945
 30
0.0
 11
1105.281023
 21
776.059945
 31
0.0
  0
LINE
  5
33BF
100
AcDbEntity
  8
0
100
AcDbLine
 10
1105.281023
 20
776.059945
 30
0.0
 11
1098.978773
 21
782.362195
 31
0.0
  0
LINE
  5
33C0
100
AcDbEntity
  8
0
100
AcDbLine
 10
1146.317655
 20
779.860209
 30
0.0
 11
1146.317655
 21
759.360209
 31
0.0
  0
LINE
  5
33C1
100
AcDbEntity
  8
0
100
AcDbLine
 10
1147.817655
 20
800.360209
 30
0.0
 11
1147.817655
 21
759.360209
 31
0.0
  0
LINE
  5
33C2
100
AcDbEntity
  8
0
100
AcDbLine
 10
1146.317655
 20
759.360209
 30
0.0
 11
1158.317655
 21
759.360209
 31
0.0
  0
LINE
  5
33C3
100
AcDbEntity
  8
0
100
AcDbLine
 10
1130.353898
 20
782.362195
 30
0.0
 11
1136.793398
 21
776.059945
 31
0.0
  0
LINE
  5
33C4
100
AcDbEntity
  8
0
100
AcDbLine
 10
1121.037773
 20
779.21107
 30
0.0
 11
1130.353898
 21
779.21107
 31
0.0
  0
LINE
  5
33C5
100
AcDbEntity
  8
0
100
AcDbLine
 10
1117.885523
 20
782.362195
 30
0.0
 11
1121.037773
 21
779.21107
 31
0.0
  0
LINE
  5
33C6
100
AcDbEntity
  8
0
100
AcDbLine
 10
1130.353898
 20
779.21107
 30
0.0
 11
1130.353898
 21
782.362195
 31
0.0
  0
LINE
  5
33C7
100
AcDbEntity
  8
0
100
AcDbLine
 10
1146.317655
 20
800.360209
 30
0.0
 11
1146.317655
 21
779.860209
 31
0.0
  0
LINE
  5
33C8
100
AcDbEntity
  8
0
100
AcDbLine
 10
1158.317655
 20
800.360209
 30
0.0
 11
1146.317655
 21
800.360209
 31
0.0
  0
LINE
  5
33C9
100
AcDbEntity
  8
0
100
AcDbLine
 10
805.118161
 20
877.322726
 30
0.0
 11
836.630536
 21
877.322726
 31
0.0
  0
LINE
  5
33CA
100
AcDbEntity
  8
0
100
AcDbLine
 10
820.873786
 20
880.473851
 30
0.0
 11
811.557661
 21
880.473851
 31
0.0
  0
LINE
  5
33CB
100
AcDbEntity
  8
0
100
AcDbLine
 10
786.932001
 20
898.849057
 30
0.0
 11
786.932001
 21
880.849057
 31
0.0
  0
LINE
  5
33CC
100
AcDbEntity
  8
0
100
AcDbLine
 10
760.932001
 20
905.849057
 30
0.0
 11
760.932001
 21
855.849057
 31
0.0
  0
LINE
  5
33CD
100
AcDbEntity
  8
0
100
AcDbLine
 10
739.932001
 20
899.849057
 30
0.0
 11
739.932001
 21
861.849057
 31
0.0
  0
LINE
  5
33CE
100
AcDbEntity
  8
0
100
AcDbLine
 10
746.860204
 20
903.849057
 30
0.0
 11
746.860204
 21
857.849057
 31
0.0
  0
LINE
  5
33CF
100
AcDbEntity
  8
0
100
AcDbLine
 10
757.467899
 20
903.849057
 30
0.0
 11
757.467899
 21
857.849057
 31
0.0
  0
LINE
  5
33D0
100
AcDbEntity
  8
0
100
AcDbLine
 10
772.932001
 20
905.849057
 30
0.0
 11
772.932001
 21
855.849057
 31
0.0
  0
LINE
  5
33D1
100
AcDbEntity
  8
0
100
AcDbLine
 10
776.932001
 20
905.849057
 30
0.0
 11
776.932001
 21
855.849057
 31
0.0
  0
LINE
  5
33D2
100
AcDbEntity
  8
0
100
AcDbLine
 10
726.932001
 20
898.849057
 30
0.0
 11
726.932001
 21
880.849057
 31
0.0
  0
LINE
  5
33D3
100
AcDbEntity
  8
0
100
AcDbLine
 10
757.467899
 20
857.849057
 30
0.0
 11
760.932001
 21
855.849057
 31
0.0
  0
LINE
  5
33D4
100
AcDbEntity
  8
0
100
AcDbLine
 10
727.932001
 20
870.602107
 30
0.0
 11
739.932001
 21
870.602107
 31
0.0
  0
LINE
  5
33D5
100
AcDbEntity
  8
0
100
AcDbLine
 10
727.932001
 20
861.849057
 30
0.0
 11
739.932001
 21
861.849057
 31
0.0
  0
LINE
  5
33D6
100
AcDbEntity
  8
0
100
AcDbLine
 10
727.932001
 20
870.602107
 30
0.0
 11
727.932001
 21
861.849057
 31
0.0
  0
LINE
  5
33D7
100
AcDbEntity
  8
0
100
AcDbLine
 10
726.932001
 20
880.849057
 30
0.0
 11
726.932001
 21
862.849057
 31
0.0
  0
LINE
  5
33D8
100
AcDbEntity
  8
0
100
AcDbLine
 10
726.932001
 20
862.849057
 30
0.0
 11
727.932001
 21
861.849057
 31
0.0
  0
LINE
  5
33D9
100
AcDbEntity
  8
0
100
AcDbLine
 10
726.932001
 20
871.602107
 30
0.0
 11
727.932001
 21
870.602107
 31
0.0
  0
LINE
  5
33DA
100
AcDbEntity
  8
0
100
AcDbLine
 10
739.932001
 20
861.849057
 30
0.0
 11
746.860204
 21
857.849057
 31
0.0
  0
LINE
  5
33DB
100
AcDbEntity
  8
0
100
AcDbLine
 10
746.860204
 20
857.849057
 30
0.0
 11
757.467899
 21
857.849057
 31
0.0
  0
LINE
  5
33DC
100
AcDbEntity
  8
0
100
AcDbLine
 10
785.932001
 20
870.602107
 30
0.0
 11
785.932001
 21
861.849057
 31
0.0
  0
LINE
  5
33DD
100
AcDbEntity
  8
0
100
AcDbLine
 10
786.932001
 20
880.849057
 30
0.0
 11
786.932001
 21
862.849057
 31
0.0
  0
LINE
  5
33DE
100
AcDbEntity
  8
0
100
AcDbLine
 10
760.932001
 20
855.849057
 30
0.0
 11
776.932001
 21
855.849057
 31
0.0
  0
LINE
  5
33DF
100
AcDbEntity
  8
0
100
AcDbLine
 10
776.932001
 20
861.849057
 30
0.0
 11
785.932001
 21
861.849057
 31
0.0
  0
LINE
  5
33E0
100
AcDbEntity
  8
0
100
AcDbLine
 10
786.932001
 20
862.849057
 30
0.0
 11
785.932001
 21
861.849057
 31
0.0
  0
LINE
  5
33E1
100
AcDbEntity
  8
0
100
AcDbLine
 10
786.932001
 20
862.849057
 30
0.0
 11
785.932001
 21
861.849057
 31
0.0
  0
LINE
  5
33E2
100
AcDbEntity
  8
0
100
AcDbLine
 10
785.932001
 20
870.602107
 30
0.0
 11
776.932001
 21
870.602107
 31
0.0
  0
LINE
  5
33E3
100
AcDbEntity
  8
0
100
AcDbLine
 10
786.932001
 20
871.602107
 30
0.0
 11
785.932001
 21
870.602107
 31
0.0
  0
LINE
  5
33E4
100
AcDbEntity
  8
0
100
AcDbLine
 10
811.557661
 20
880.473851
 30
0.0
 11
811.557661
 21
883.624976
 31
0.0
  0
LINE
  5
33E5
100
AcDbEntity
  8
0
100
AcDbLine
 10
811.557661
 20
883.624976
 30
0.0
 11
805.118161
 21
877.322726
 31
0.0
  0
LINE
  5
33E6
100
AcDbEntity
  8
0
100
AcDbLine
 10
757.467899
 20
903.849057
 30
0.0
 11
760.932001
 21
905.849057
 31
0.0
  0
LINE
  5
33E7
100
AcDbEntity
  8
0
100
AcDbLine
 10
727.932001
 20
891.096008
 30
0.0
 11
739.932001
 21
891.096008
 31
0.0
  0
LINE
  5
33E8
100
AcDbEntity
  8
0
100
AcDbLine
 10
727.932001
 20
899.849057
 30
0.0
 11
739.932001
 21
899.849057
 31
0.0
  0
LINE
  5
33E9
100
AcDbEntity
  8
0
100
AcDbLine
 10
727.932001
 20
899.849057
 30
0.0
 11
727.932001
 21
891.096008
 31
0.0
  0
LINE
  5
33EA
100
AcDbEntity
  8
0
100
AcDbLine
 10
726.932001
 20
890.096008
 30
0.0
 11
727.932001
 21
891.096008
 31
0.0
  0
LINE
  5
33EB
100
AcDbEntity
  8
0
100
AcDbLine
 10
727.932001
 20
899.849057
 30
0.0
 11
726.932001
 21
898.849057
 31
0.0
  0
LINE
  5
33EC
100
AcDbEntity
  8
0
100
AcDbLine
 10
739.932001
 20
899.849057
 30
0.0
 11
746.860204
 21
903.849057
 31
0.0
  0
LINE
  5
33ED
100
AcDbEntity
  8
0
100
AcDbLine
 10
746.860204
 20
903.849057
 30
0.0
 11
757.467899
 21
903.849057
 31
0.0
  0
LINE
  5
33EE
100
AcDbEntity
  8
0
100
AcDbLine
 10
760.932001
 20
905.849057
 30
0.0
 11
776.932001
 21
905.849057
 31
0.0
  0
LINE
  5
33EF
100
AcDbEntity
  8
0
100
AcDbLine
 10
776.932001
 20
899.849057
 30
0.0
 11
785.932001
 21
899.849057
 31
0.0
  0
LINE
  5
33F0
100
AcDbEntity
  8
0
100
AcDbLine
 10
785.932001
 20
891.096008
 30
0.0
 11
776.932001
 21
891.096008
 31
0.0
  0
LINE
  5
33F1
100
AcDbEntity
  8
0
100
AcDbLine
 10
785.932001
 20
899.849057
 30
0.0
 11
785.932001
 21
891.096008
 31
0.0
  0
LINE
  5
33F2
100
AcDbEntity
  8
0
100
AcDbLine
 10
786.932001
 20
890.096008
 30
0.0
 11
785.932001
 21
891.096008
 31
0.0
  0
LINE
  5
33F3
100
AcDbEntity
  8
0
100
AcDbLine
 10
785.932001
 20
899.849057
 30
0.0
 11
786.932001
 21
898.849057
 31
0.0
  0
LINE
  5
33F4
100
AcDbEntity
  8
0
100
AcDbLine
 10
785.932001
 20
899.849057
 30
0.0
 11
786.932001
 21
898.849057
 31
0.0
  0
LINE
  5
33F5
100
AcDbEntity
  8
0
100
AcDbLine
 10
842.932786
 20
883.624976
 30
0.0
 11
824.026036
 21
883.624976
 31
0.0
  0
LINE
  5
33F6
100
AcDbEntity
  8
0
100
AcDbLine
 10
824.026036
 20
883.624976
 30
0.0
 11
820.873786
 21
880.473851
 31
0.0
  0
LINE
  5
33F7
100
AcDbEntity
  8
0
100
AcDbLine
 10
836.630536
 20
877.322726
 30
0.0
 11
842.932786
 21
883.624976
 31
0.0
  0
LINE
  5
33F8
100
AcDbEntity
  8
0
100
AcDbLine
 10
1163.153756
 20
904.849057
 30
0.0
 11
1163.153756
 21
856.849057
 31
0.0
  0
LINE
  5
33F9
100
AcDbEntity
  8
0
100
AcDbLine
 10
1148.153756
 20
903.349057
 30
0.0
 11
1148.153756
 21
880.849057
 31
0.0
  0
LINE
  5
33FA
100
AcDbEntity
  8
0
100
AcDbLine
 10
1149.653756
 20
868.369057
 30
0.0
 11
1149.653756
 21
856.849057
 31
0.0
  0
LINE
  5
33FB
100
AcDbEntity
  8
0
100
AcDbLine
 10
1148.153756
 20
880.849057
 30
0.0
 11
1148.153756
 21
858.349057
 31
0.0
  0
LINE
  5
33FC
100
AcDbEntity
  8
0
100
AcDbLine
 10
1149.653756
 20
856.849057
 30
0.0
 11
1163.153756
 21
856.849057
 31
0.0
  0
LINE
  5
33FD
100
AcDbEntity
  8
0
100
AcDbLine
 10
1148.153756
 20
858.349057
 30
0.0
 11
1149.653756
 21
856.849057
 31
0.0
  0
LINE
  5
33FE
100
AcDbEntity
  8
0
100
AcDbLine
 10
1149.653756
 20
868.369057
 30
0.0
 11
1163.153756
 21
868.369057
 31
0.0
  0
LINE
  5
33FF
100
AcDbEntity
  8
0
100
AcDbLine
 10
1148.153756
 20
869.869057
 30
0.0
 11
1149.653756
 21
868.369057
 31
0.0
  0
LINE
  5
3400
100
AcDbEntity
  8
0
100
AcDbLine
 10
1149.653756
 20
893.329057
 30
0.0
 11
1163.153756
 21
893.329057
 31
0.0
  0
LINE
  5
3401
100
AcDbEntity
  8
0
100
AcDbLine
 10
1163.153756
 20
904.849057
 30
0.0
 11
1149.653756
 21
904.849057
 31
0.0
  0
LINE
  5
3402
100
AcDbEntity
  8
0
100
AcDbLine
 10
1149.653756
 20
904.849057
 30
0.0
 11
1149.653756
 21
893.329057
 31
0.0
  0
LINE
  5
3403
100
AcDbEntity
  8
0
100
AcDbLine
 10
1149.653756
 20
893.329057
 30
0.0
 11
1148.153756
 21
891.829057
 31
0.0
  0
LINE
  5
3404
100
AcDbEntity
  8
0
100
AcDbLine
 10
1149.653756
 20
904.849057
 30
0.0
 11
1148.153756
 21
903.349057
 31
0.0
  0
LINE
  5
3405
100
AcDbEntity
  8
0
100
AcDbLine
 10
1194.389655
 20
751.860209
 30
0.0
 11
1194.389655
 21
807.860209
 31
0.0
  0
LINE
  5
3406
100
AcDbEntity
  8
0
100
AcDbLine
 10
1179.781655
 20
807.860209
 30
0.0
 11
1179.781655
 21
751.860209
 31
0.0
  0
LINE
  5
3407
100
AcDbEntity
  8
0
100
AcDbLine
 10
1176.317655
 20
809.860209
 30
0.0
 11
1176.317655
 21
749.860209
 31
0.0
  0
LINE
  5
3408
100
AcDbEntity
  8
0
100
AcDbLine
 10
1201.317655
 20
803.860209
 30
0.0
 11
1194.389655
 21
807.860209
 31
0.0
  0
LINE
  5
3409
100
AcDbEntity
  8
0
100
AcDbLine
 10
1242.423314
 20
534.379998
 30
0.0
 11
1218.423314
 21
534.379998
 31
0.0
  0
LINE
  5
340A
100
AcDbEntity
  8
0
100
AcDbLine
 10
1198.093187
 20
531.879998
 30
0.0
 11
1182.61158
 21
527.731714
 31
0.0
  0
ARC
  5
340B
100
AcDbEntity
  8
0
100
AcDbCircle
 10
1184.423314
 20
520.970234
 30
0.0
 40
7.0
100
AcDbArc
 50
105.0
 51
156.984728
  0
ARC
  5
340C
100
AcDbEntity
  8
0
100
AcDbCircle
 10
1175.219307
 20
524.879998
 30
0.0
 40
3.0
100
AcDbArc
 50
270.0
 51
336.984728
  0
LINE
  5
340D
100
AcDbEntity
  8
0
100
AcDbLine
 10
1214.093187
 20
531.879998
 30
0.0
 11
1198.093187
 21
531.879998
 31
0.0
  0
LINE
  5
340E
100
AcDbEntity
  8
0
100
AcDbLine
 10
1218.423314
 20
534.379998
 30
0.0
 11
1214.093187
 21
531.879998
 31
0.0
  0
LINE
  5
340F
100
AcDbEntity
  8
0
100
AcDbLine
 10
1259.423314
 20
521.379998
 30
0.0
 11
1259.423314
 21
486.879998
 31
0.0
  0
ARC
  5
3410
100
AcDbEntity
  8
0
100
AcDbCircle
 10
1240.408583
 20
511.628736
 30
0.0
 40
19.014731
100
AcDbArc
 50
327.3761
 51
32.6239
  0
LINE
  5
3411
100
AcDbEntity
  8
0
100
AcDbLine
 10
1256.423314
 20
501.377473
 30
0.0
 11
1242.423314
 21
501.377473
 31
0.0
  0
LINE
  5
3412
100
AcDbEntity
  8
0
100
AcDbLine
 10
1242.423314
 20
521.879998
 30
0.0
 11
1259.134639
 21
521.879998
 31
0.0
  0
LINE
  5
3413
100
AcDbEntity
  8
0
100
AcDbLine
 10
1259.134639
 20
521.879998
 30
0.0
 11
1259.423314
 21
521.379998
 31
0.0
  0
LINE
  5
3414
100
AcDbEntity
  8
0
100
AcDbLine
 10
1324.728278
 20
490.109862
 30
0.0
 11
1305.821528
 21
490.109862
 31
0.0
  0
LINE
  5
3415
100
AcDbEntity
  8
0
100
AcDbLine
 10
1286.913653
 20
483.807612
 30
0.0
 11
1318.426028
 21
483.807612
 31
0.0
  0
LINE
  5
3416
100
AcDbEntity
  8
0
100
AcDbLine
 10
1302.669278
 20
486.958737
 30
0.0
 11
1293.353153
 21
486.958737
 31
0.0
  0
LINE
  5
3417
100
AcDbEntity
  8
0
100
AcDbLine
 10
1293.353153
 20
486.958737
 30
0.0
 11
1293.353153
 21
490.109862
 31
0.0
  0
LINE
  5
3418
100
AcDbEntity
  8
0
100
AcDbLine
 10
1293.353153
 20
490.109862
 30
0.0
 11
1286.913653
 21
483.807612
 31
0.0
  0
LINE
  5
3419
100
AcDbEntity
  8
0
100
AcDbLine
 10
1305.821528
 20
490.109862
 30
0.0
 11
1302.669278
 21
486.958737
 31
0.0
  0
LINE
  5
341A
100
AcDbEntity
  8
0
100
AcDbLine
 10
1318.426028
 20
483.807612
 30
0.0
 11
1324.728278
 21
490.109862
 31
0.0
  0
ARC
  5
341B
100
AcDbEntity
  8
0
100
AcDbCircle
 10
1265.971291
 20
677.972483
 30
0.0
 40
24.0
100
AcDbArc
 50
31.332251
 51
148.667749
  0
ARC
  5
341C
100
AcDbEntity
  8
0
100
AcDbCircle
 10
1265.971291
 20
677.972483
 30
0.0
 40
22.5
100
AcDbArc
 50
24.340707
 51
155.659293
  0
ARC
  5
341D
100
AcDbEntity
  8
0
100
AcDbCircle
 10
1265.971291
 20
677.972483
 30
0.0
 40
22.5
100
AcDbArc
 50
204.340707
 51
335.659293
  0
ARC
  5
341E
100
AcDbEntity
  8
0
100
AcDbCircle
 10
1265.971291
 20
677.972483
 30
0.0
 40
24.0
100
AcDbArc
 50
211.332251
 51
328.667749
  0
CIRCLE
  5
341F
100
AcDbEntity
  8
0
100
AcDbCircle
 10
1265.971291
 20
677.972483
 30
0.0
 40
30.0
  0
CIRCLE
  5
3420
100
AcDbEntity
  8
0
100
AcDbCircle
 10
1265.971291
 20
677.972483
 30
0.0
 40
28.0
  0
LINE
  5
3421
100
AcDbEntity
  8
0
100
AcDbLine
 10
1179.780695
 20
705.972483
 30
0.0
 11
1179.780695
 21
649.972483
 31
0.0
  0
LINE
  5
3422
100
AcDbEntity
  8
0
100
AcDbLine
 10
1176.316695
 20
707.972483
 30
0.0
 11
1176.316695
 21
647.972483
 31
0.0
  0
LINE
  5
3423
100
AcDbEntity
  8
0
100
AcDbLine
 10
1194.387695
 20
649.972483
 30
0.0
 11
1194.387695
 21
705.972483
 31
0.0
  0
LINE
  5
3424
100
AcDbEntity
  8
0
100
AcDbLine
 10
1201.316695
 20
701.972483
 30
0.0
 11
1201.316695
 21
653.972483
 31
0.0
  0
LINE
  5
3425
100
AcDbEntity
  8
0
100
AcDbLine
 10
1216.316695
 20
700.472483
 30
0.0
 11
1216.316695
 21
677.972483
 31
0.0
  0
LINE
  5
3426
100
AcDbEntity
  8
0
100
AcDbLine
 10
1194.387695
 20
649.972483
 30
0.0
 11
1179.780695
 21
649.972483
 31
0.0
  0
LINE
  5
3427
100
AcDbEntity
  8
0
100
AcDbLine
 10
1179.780695
 20
649.972483
 30
0.0
 11
1176.316695
 21
647.972483
 31
0.0
  0
LINE
  5
3428
100
AcDbEntity
  8
0
100
AcDbLine
 10
1214.816695
 20
665.492483
 30
0.0
 11
1214.816695
 21
653.972483
 31
0.0
  0
LINE
  5
3429
100
AcDbEntity
  8
0
100
AcDbLine
 10
1216.316695
 20
677.972483
 30
0.0
 11
1216.316695
 21
655.472483
 31
0.0
  0
LINE
  5
342A
100
AcDbEntity
  8
0
100
AcDbLine
 10
1214.816695
 20
653.972483
 30
0.0
 11
1201.316695
 21
653.972483
 31
0.0
  0
LINE
  5
342B
100
AcDbEntity
  8
0
100
AcDbLine
 10
1201.316695
 20
653.972483
 30
0.0
 11
1194.387695
 21
649.972483
 31
0.0
  0
LINE
  5
342C
100
AcDbEntity
  8
0
100
AcDbLine
 10
1216.316695
 20
655.472483
 30
0.0
 11
1214.816695
 21
653.972483
 31
0.0
  0
LINE
  5
342D
100
AcDbEntity
  8
0
100
AcDbLine
 10
1214.816695
 20
665.492483
 30
0.0
 11
1201.316695
 21
665.492483
 31
0.0
  0
LINE
  5
342E
100
AcDbEntity
  8
0
100
AcDbLine
 10
1216.316695
 20
666.992483
 30
0.0
 11
1214.816695
 21
665.492483
 31
0.0
  0
LINE
  5
342F
100
AcDbEntity
  8
0
100
AcDbLine
 10
1179.780695
 20
705.972483
 30
0.0
 11
1194.387695
 21
705.972483
 31
0.0
  0
LINE
  5
3430
100
AcDbEntity
  8
0
100
AcDbLine
 10
1176.316695
 20
707.972483
 30
0.0
 11
1179.780695
 21
705.972483
 31
0.0
  0
LINE
  5
3431
100
AcDbEntity
  8
0
100
AcDbLine
 10
1194.387695
 20
705.972483
 30
0.0
 11
1201.316695
 21
701.972483
 31
0.0
  0
LINE
  5
3432
100
AcDbEntity
  8
0
100
AcDbLine
 10
1201.316695
 20
701.972483
 30
0.0
 11
1214.816695
 21
701.972483
 31
0.0
  0
LINE
  5
3433
100
AcDbEntity
  8
0
100
AcDbLine
 10
1214.816695
 20
690.452483
 30
0.0
 11
1201.316695
 21
690.452483
 31
0.0
  0
LINE
  5
3434
100
AcDbEntity
  8
0
100
AcDbLine
 10
1214.816695
 20
701.972483
 30
0.0
 11
1214.816695
 21
690.452483
 31
0.0
  0
LINE
  5
3435
100
AcDbEntity
  8
0
100
AcDbLine
 10
1214.816695
 20
690.452483
 30
0.0
 11
1216.316695
 21
688.952483
 31
0.0
  0
LINE
  5
3436
100
AcDbEntity
  8
0
100
AcDbLine
 10
1214.816695
 20
701.972483
 30
0.0
 11
1216.316695
 21
700.472483
 31
0.0
  0
CIRCLE
  5
3437
100
AcDbEntity
  8
0
100
AcDbCircle
 10
1265.971291
 20
677.972483
 30
0.0
 40
13.5
  0
LINE
  5
3438
100
AcDbEntity
  8
0
100
AcDbLine
 10
1245.471301
 20
690.452483
 30
0.0
 11
1245.471301
 21
665.492483
 31
0.0
  0
LINE
  5
3439
100
AcDbEntity
  8
0
100
AcDbLine
 10
1201.317655
 20
800.360209
 30
0.0
 11
1201.317655
 21
759.360209
 31
0.0
  0
LINE
  5
343A
100
AcDbEntity
  8
0
100
AcDbLine
 10
1216.317655
 20
779.860209
 30
0.0
 11
1216.317655
 21
759.360209
 31
0.0
  0
LINE
  5
343B
100
AcDbEntity
  8
0
100
AcDbLine
 10
1214.817655
 20
800.360209
 30
0.0
 11
1214.817655
 21
759.360209
 31
0.0
  0
LINE
  5
343C
100
AcDbEntity
  8
0
100
AcDbLine
 10
1179.781655
 20
751.860209
 30
0.0
 11
1194.389655
 21
751.860209
 31
0.0
  0
LINE
  5
343D
100
AcDbEntity
  8
0
100
AcDbLine
 10
1176.317655
 20
749.860209
 30
0.0
 11
1179.781655
 21
751.860209
 31
0.0
  0
LINE
  5
343E
100
AcDbEntity
  8
0
100
AcDbLine
 10
1201.317655
 20
759.360209
 30
0.0
 11
1216.317655
 21
759.360209
 31
0.0
  0
LINE
  5
343F
100
AcDbEntity
  8
0
100
AcDbLine
 10
1194.389655
 20
751.860209
 30
0.0
 11
1201.317655
 21
755.860209
 31
0.0
  0
LINE
  5
3440
100
AcDbEntity
  8
0
100
AcDbLine
 10
1201.317655
 20
755.860209
 30
0.0
 11
1201.317655
 21
759.360209
 31
0.0
  0
LINE
  5
3441
100
AcDbEntity
  8
0
100
AcDbLine
 10
1216.327655
 20
755.860209
 30
0.0
 11
1216.317655
 21
755.860209
 31
0.0
  0
LINE
  5
3442
100
AcDbEntity
  8
0
100
AcDbLine
 10
1216.317655
 20
800.360209
 30
0.0
 11
1216.317655
 21
779.860209
 31
0.0
  0
LINE
  5
3443
100
AcDbEntity
  8
0
100
AcDbLine
 10
1216.317655
 20
800.360209
 30
0.0
 11
1201.317655
 21
800.360209
 31
0.0
  0
LINE
  5
3444
100
AcDbEntity
  8
0
100
AcDbLine
 10
1201.317655
 20
800.360209
 30
0.0
 11
1201.327655
 21
803.860209
 31
0.0
  0
LINE
  5
3445
100
AcDbEntity
  8
0
100
AcDbLine
 10
1201.327655
 20
803.860209
 30
0.0
 11
1201.317655
 21
803.860209
 31
0.0
  0
LINE
  5
3446
100
AcDbEntity
  8
0
100
AcDbLine
 10
1286.471282
 20
690.452483
 30
0.0
 11
1286.471282
 21
665.492483
 31
0.0
  0
LINE
  5
3447
100
AcDbEntity
  8
0
100
AcDbLine
 10
1218.153756
 20
903.349057
 30
0.0
 11
1218.153756
 21
880.849057
 31
0.0
  0
LINE
  5
3448
100
AcDbEntity
  8
0
100
AcDbLine
 10
1206.153756
 20
850.849057
 30
0.0
 11
1206.153756
 21
910.849057
 31
0.0
  0
LINE
  5
3449
100
AcDbEntity
  8
0
100
AcDbLine
 10
1184.689756
 20
908.849057
 30
0.0
 11
1184.689756
 21
852.849057
 31
0.0
  0
LINE
  5
344A
100
AcDbEntity
  8
0
100
AcDbLine
 10
1188.153756
 20
910.849057
 30
0.0
 11
1188.153756
 21
850.849057
 31
0.0
  0
LINE
  5
344B
100
AcDbEntity
  8
0
100
AcDbLine
 10
1201.153756
 20
910.849057
 30
0.0
 11
1201.153756
 21
850.849057
 31
0.0
  0
LINE
  5
344C
100
AcDbEntity
  8
0
100
AcDbLine
 10
1170.082756
 20
852.849057
 30
0.0
 11
1170.082756
 21
908.849057
 31
0.0
  0
LINE
  5
344D
100
AcDbEntity
  8
0
100
AcDbLine
 10
1194.389655
 20
807.860209
 30
0.0
 11
1179.781655
 21
807.860209
 31
0.0
  0
LINE
  5
344E
100
AcDbEntity
  8
0
100
AcDbLine
 10
1179.781655
 20
807.860209
 30
0.0
 11
1176.317655
 21
809.860209
 31
0.0
  0
LINE
  5
344F
100
AcDbEntity
  8
0
100
AcDbLine
 10
1188.153756
 20
850.849057
 30
0.0
 11
1206.153756
 21
850.849057
 31
0.0
  0
LINE
  5
3450
100
AcDbEntity
  8
0
100
AcDbLine
 10
1170.082756
 20
852.849057
 30
0.0
 11
1184.689756
 21
852.849057
 31
0.0
  0
LINE
  5
3451
100
AcDbEntity
  8
0
100
AcDbLine
 10
1184.689756
 20
852.849057
 30
0.0
 11
1188.153756
 21
850.849057
 31
0.0
  0
LINE
  5
3452
100
AcDbEntity
  8
0
100
AcDbLine
 10
1216.653756
 20
856.849057
 30
0.0
 11
1216.653756
 21
868.369057
 31
0.0
  0
LINE
  5
3453
100
AcDbEntity
  8
0
100
AcDbLine
 10
1218.153756
 20
858.349057
 30
0.0
 11
1218.153756
 21
880.849057
 31
0.0
  0
LINE
  5
3454
100
AcDbEntity
  8
0
100
AcDbLine
 10
1206.153756
 20
856.849057
 30
0.0
 11
1216.653756
 21
856.849057
 31
0.0
  0
LINE
  5
3455
100
AcDbEntity
  8
0
100
AcDbLine
 10
1216.653756
 20
856.849057
 30
0.0
 11
1218.153756
 21
858.349057
 31
0.0
  0
LINE
  5
3456
100
AcDbEntity
  8
0
100
AcDbLine
 10
1216.653756
 20
868.369057
 30
0.0
 11
1206.153756
 21
868.369057
 31
0.0
  0
LINE
  5
3457
100
AcDbEntity
  8
0
100
AcDbLine
 10
1216.653756
 20
868.369057
 30
0.0
 11
1218.153756
 21
869.869057
 31
0.0
  0
LINE
  5
3458
100
AcDbEntity
  8
0
100
AcDbLine
 10
1233.638195
 20
877.322726
 30
0.0
 11
1265.15057
 21
877.322726
 31
0.0
  0
LINE
  5
3459
100
AcDbEntity
  8
0
100
AcDbLine
 10
1252.54607
 20
883.624976
 30
0.0
 11
1249.39382
 21
880.473851
 31
0.0
  0
LINE
  5
345A
100
AcDbEntity
  8
0
100
AcDbLine
 10
1240.077695
 20
883.624976
 30
0.0
 11
1233.638195
 21
877.322726
 31
0.0
  0
LINE
  5
345B
100
AcDbEntity
  8
0
100
AcDbLine
 10
1249.39382
 20
880.473851
 30
0.0
 11
1240.077695
 21
880.473851
 31
0.0
  0
LINE
  5
345C
100
AcDbEntity
  8
0
100
AcDbLine
 10
1240.077695
 20
880.473851
 30
0.0
 11
1240.077695
 21
883.624976
 31
0.0
  0
LINE
  5
345D
100
AcDbEntity
  8
0
100
AcDbLine
 10
1271.45282
 20
883.624976
 30
0.0
 11
1252.54607
 21
883.624976
 31
0.0
  0
LINE
  5
345E
100
AcDbEntity
  8
0
100
AcDbLine
 10
1265.15057
 20
877.322726
 30
0.0
 11
1271.45282
 21
883.624976
 31
0.0
  0
LINE
  5
345F
100
AcDbEntity
  8
0
100
AcDbLine
 10
1206.153756
 20
910.849057
 30
0.0
 11
1188.153756
 21
910.849057
 31
0.0
  0
LINE
  5
3460
100
AcDbEntity
  8
0
100
AcDbLine
 10
1188.153756
 20
910.849057
 30
0.0
 11
1184.689756
 21
908.849057
 31
0.0
  0
LINE
  5
3461
100
AcDbEntity
  8
0
100
AcDbLine
 10
1184.689756
 20
908.849057
 30
0.0
 11
1170.082756
 21
908.849057
 31
0.0
  0
LINE
  5
3462
100
AcDbEntity
  8
0
100
AcDbLine
 10
1216.653756
 20
904.849057
 30
0.0
 11
1206.153756
 21
904.849057
 31
0.0
  0
LINE
  5
3463
100
AcDbEntity
  8
0
100
AcDbLine
 10
1216.653756
 20
893.329057
 30
0.0
 11
1206.153756
 21
893.329057
 31
0.0
  0
LINE
  5
3464
100
AcDbEntity
  8
0
100
AcDbLine
 10
1216.653756
 20
904.849057
 30
0.0
 11
1216.653756
 21
893.329057
 31
0.0
  0
LINE
  5
3465
100
AcDbEntity
  8
0
100
AcDbLine
 10
1216.653756
 20
893.329057
 30
0.0
 11
1218.153756
 21
891.829057
 31
0.0
  0
LINE
  5
3466
100
AcDbEntity
  8
0
100
AcDbLine
 10
1218.153756
 20
903.349057
 30
0.0
 11
1216.653756
 21
904.849057
 31
0.0
  0
VIEWPORT
  5
41
100
AcDbEntity
 67
     1
  8
0
100
AcDbViewport
 10
117.358407
 20
73.5
 30
0.0
 40
234.716814
 41
147.0
 68
    -1
 69
     1
1001
ACAD
1000
MVIEW
1002
{
1070
    16
1010
0.0
1020
0.0
1030
0.0
1010
0.0
1020
0.0
1030
1.0
1040
0.0
1040
147.0
1040
117.358407
1040
73.5
1040
50.0
1040
0.0
1040
0.0
1070
     0
1070
   100
1070
     1
1070
     1
1070
     0
1070
     0
1070
     0
1070
     0
1040
0.0
1040
0.0
1040
0.0
1040
1.0
1040
1.0
1040
0.0
1040
0.0
1070
     0
1002
{
1002
}
1002
}
  0
ENDSEC
  0
SECTION
  2
OBJECTS
  0
DICTIONARY
  5
C
100
AcDbDictionary
  3
ACAD_GROUP
350
D
  3
ACAD_MLINESTYLE
350
E
  0
DICTIONARY
  5
D
102
{ACAD_REACTORS
330
C
102
}
100
AcDbDictionary
  0
DICTIONARY
  5
E
102
{ACAD_REACTORS
330
C
102
}
100
AcDbDictionary
  3
STANDARD
350
1B
  0
MLINESTYLE
  5
1B
102
{ACAD_REACTORS
330
E
102
}
100
AcDbMlineStyle
  2
STANDARD
 70
     0
  3

 62
     0
 51
90.0
 52
90.0
 71
     2
 49
0.5
 62
   256
  6
BYLAYER
 49
-0.5
 62
   256
  6
BYLAYER
  0
ENDSEC
  0
EOF
