  0
SECTION
  2
HEADER
  9
$ACADVER
  1
AC1009
  9
$INSBASE
 10
0.0
 20
0.0
 30
0.0
  9
$EXTMIN
 10
54.903491680630403
 20
24.96185550112477
 30
-0.0015258207003583
  9
$EXTMAX
 10
1430.096515234439
 20
955.02319569352903
 30
0.0000000349246037
  9
$LIMMIN
 10
0.0
 20
0.0
  9
$LIMMAX
 10
1485.0
 20
1050.0
  9
$ORTHOMODE
 70
     0
  9
$REGENMODE
 70
     1
  9
$FILLMODE
 70
     1
  9
$QTEXTMODE
 70
     0
  9
$MIRRTEXT
 70
     1
  9
$DRAGMODE
 70
     2
  9
$LTSCALE
 40
20.0
  9
$OSMODE
 70
   163
  9
$ATTMODE
 70
     1
  9
$TEXTSIZE
 40
20.0
  9
$TRACEWID
 40
0.05
  9
$TEXTSTYLE
  7
STANDARD
  9
$CLAYER
  8
0
  9
$CELTYPE
  6
BYLAYER
  9
$CECOLOR
 62
   256
  9
$DIMSCALE
 40
5.0
  9
$DIMASZ
 40
2.7999999999999989
  9
$DIMEXO
 40
1.0
  9
$DIMDLI
 40
5.0
  9
$DIMRND
 40
0.1
  9
$DIMDLE
 40
0.0
  9
$DIMEXE
 40
1.0
  9
$DIMTP
 40
0.0
  9
$DIMTM
 40
0.0
  9
$DIMTXT
 40
2.5
  9
$DIMCEN
 40
0.0
  9
$DIMTSZ
 40
0.0
  9
$DIMTOL
 70
     0
  9
$DIMLIM
 70
     0
  9
$DIMTIH
 70
     0
  9
$DIMTOH
 70
     0
  9
$DIMSE1
 70
     0
  9
$DIMSE2
 70
     0
  9
$DIMTAD
 70
     3
  9
$DIMZIN
 70
     8
  9
$DIMBLK
  1

  9
$DIMASO
 70
     1
  9
$DIMSHO
 70
     1
  9
$DIMPOST
  1

  9
$DIMAPOST
  1

  9
$DIMALT
 70
     0
  9
$DIMALTD
 70
     2
  9
$DIMALTF
 40
1.0
  9
$DIMLFAC
 40
1.0
  9
$DIMTOFL
 70
     1
  9
$DIMTVP
 40
0.0
  9
$DIMTIX
 70
     0
  9
$DIMSOXD
 70
     0
  9
$DIMSAH
 70
     1
  9
$DIMBLK1
  1
OPEN
  9
$DIMBLK2
  1
OPEN
  9
$DIMSTYLE
  2
DIM1
  9
$DIMCLRD
 70
     2
  9
$DIMCLRE
 70
     2
  9
$DIMCLRT
 70
     2
  9
$DIMTFAC
 40
0.7
  9
$DIMGAP
 40
0.85
  9
$LUNITS
 70
     2
  9
$LUPREC
 70
     4
  9
$SKETCHINC
 40
0.1
  9
$FILLETRAD
 40
0.0
  9
$AUNITS
 70
     0
  9
$AUPREC
 70
     0
  9
$MENU
  1
C:\ACADR13\WIN\SUPPORT\ACAD.mnc
  9
$ELEVATION
 40
0.0
  9
$PELEVATION
 40
0.0
  9
$THICKNESS
 40
0.0
  9
$LIMCHECK
 70
     0
  9
$BLIPMODE
 70
     0
  9
$CHAMFERA
 40
0.0
  9
$CHAMFERB
 40
0.0
  9
$SKPOLY
 70
     0
  9
$TDCREATE
 40
2451564.3967306488
  9
$TDUPDATE
 40
2453782.4356152308
  9
$TDINDWG
 40
0.0138938426
  9
$TDUSRTIMER
 40
0.0138938426
  9
$USRTIMER
 70
     1
  9
$ANGBASE
 50
0.0
  9
$ANGDIR
 70
     0
  9
$PDMODE
 70
     0
  9
$PDSIZE
 40
0.0
  9
$PLINEWID
 40
0.0
  9
$COORDS
 70
     0
  9
$SPLFRAME
 70
     0
  9
$SPLINETYPE
 70
     6
  9
$SPLINESEGS
 70
     8
  9
$ATTDIA
 70
     0
  9
$ATTREQ
 70
     1
  9
$HANDLING
 70
     1
  9
$HANDSEED
  5
3037
  9
$SURFTAB1
 70
     6
  9
$SURFTAB2
 70
     6
  9
$SURFTYPE
 70
     6
  9
$SURFU
 70
     6
  9
$SURFV
 70
     6
  9
$UCSNAME
  2

  9
$UCSORG
 10
0.0
 20
0.0
 30
0.0
  9
$UCSXDIR
 10
1.0
 20
0.0
 30
0.0
  9
$UCSYDIR
 10
0.0
 20
1.0
 30
0.0
  9
$PUCSNAME
  2

  9
$PUCSORG
 10
0.0
 20
0.0
 30
0.0
  9
$PUCSXDIR
 10
1.0
 20
0.0
 30
0.0
  9
$PUCSYDIR
 10
0.0
 20
1.0
 30
0.0
  9
$USERI1
 70
     0
  9
$USERI2
 70
     0
  9
$USERI3
 70
     0
  9
$USERI4
 70
     0
  9
$USERI5
 70
     0
  9
$USERR1
 40
0.0
  9
$USERR2
 40
0.0
  9
$USERR3
 40
0.0
  9
$USERR4
 40
0.0
  9
$USERR5
 40
0.0
  9
$WORLDVIEW
 70
     1
  9
$SHADEDGE
 70
     3
  9
$SHADEDIF
 70
    70
  9
$TILEMODE
 70
     1
  9
$MAXACTVP
 70
    16
  9
$PLIMCHECK
 70
     0
  9
$PEXTMIN
 10
1.0000000000000000E+020
 20
1.0000000000000000E+020
 30
1.0000000000000000E+020
  9
$PEXTMAX
 10
-1.0000000000000000E+020
 20
-1.0000000000000000E+020
 30
-1.0000000000000000E+020
  9
$PLIMMIN
 10
0.0
 20
0.0
  9
$PLIMMAX
 10
20.0
 20
147.0
  9
$UNITMODE
 70
     0
  9
$VISRETAIN
 70
     0
  9
$PLINEGEN
 70
     0
  9
$PSLTSCALE
 70
     1
  0
ENDSEC
  0
SECTION
  2
TABLES
  0
TABLE
  2
VPORT
 70
     5
  0
VPORT
  2
*ACTIVE
 70
     0
 10
0.0
 20
0.0
 11
1.0
 21
1.0
 12
742.49999999999989
 22
525.0
 13
0.0
 23
0.0
 14
1.0
 24
1.0
 15
0.0
 25
0.0
 16
0.0
 26
0.0
 36
1.0
 17
0.0
 27
0.0
 37
0.0
 40
1198.416066523017
 41
1.247267759562841
 42
50.0
 43
0.0
 44
0.0
 50
0.0
 51
0.0
 71
     0
 72
   100
 73
     1
 74
     1
 75
     0
 76
     0
 77
     0
 78
     0
  0
ENDTAB
  0
TABLE
  2
LTYPE
 70
     1
  0
LTYPE
  2
CONTINUOUS
 70
     0
  3
Solid line
 72
    65
 73
     0
 40
0.0
  0
ENDTAB
  0
TABLE
  2
LAYER
 70
     1
  0
LAYER
  2
0
 70
     0
 62
     7
  6
CONTINUOUS
  0
ENDTAB
  0
TABLE
  2
STYLE
 70
     3
  0
STYLE
  2
STANDARD
 70
     0
 40
0.0
 41
0.8
 50
0.0
 71
     0
 42
20.0
  3
simplex
  4
extfont
  0
STYLE
  2
PTSH
 70
     0
 40
0.0
 41
0.9
 50
0.0
 71
     0
 42
4.0
  3
SIMPLEX
  4
EXTFONT
  0
STYLE
  2
DIM
 70
     0
 40
0.0
 41
0.8
 50
0.0
 71
     0
 42
4.0
  3
simplex
  4
extfont
  0
ENDTAB
  0
TABLE
  2
VIEW
 70
     0
  0
ENDTAB
  0
TABLE
  2
UCS
 70
     0
  0
ENDTAB
  0
TABLE
  2
APPID
 70
     1
  0
APPID
  2
ACAD
 70
     0
  0
ENDTAB
  0
TABLE
  2
DIMSTYLE
 70
     1
  0
DIMSTYLE
  2
DIM1
 70
     0
  3

  4

  5

  6
OPEN
  7
OPEN
 40
5.0
 41
2.7999999999999989
 42
1.0
 43
5.0
 44
1.0
 45
0.1
 46
0.0
 47
0.0
 48
0.0
140
2.5
141
0.0
142
0.0
143
1.0
144
1.0
145
0.0
146
0.7
147
0.85
 71
     0
 72
     0
 73
     0
 74
     0
 75
     0
 76
     0
 77
     3
 78
     8
170
     0
171
     2
172
     1
173
     1
174
     0
175
     0
176
     2
177
     2
178
     2
  0
ENDTAB
  0
ENDSEC
  0
SECTION
  2
BLOCKS
  0
BLOCK
  8
0
  2
$MODEL_SPACE
 70
     0
 10
0.0
 20
0.0
 30
0.0
  3
$MODEL_SPACE
  1

  0
ENDBLK
  5
3D
  8
0
  0
BLOCK
 67
     1
  8
0
  2
$PAPER_SPACE
 70
     0
 10
0.0
 20
0.0
 30
0.0
  3
$PAPER_SPACE
  1

  0
ENDBLK
  5
3B
 67
     1
  8
0
  0
BLOCK
  8
0
  2
_OPEN
 70
     0
 10
0.0
 20
0.0
 30
0.0
  3
_OPEN
  1
H1111.DWG
  0
LINE
  5
244A
  8
0
  6
BYBLOCK
 62
     0
 10
-1.0
 20
0.1666666666666666
 30
0.0
 11
0.0
 21
0.0
 31
0.0
  0
LINE
  5
244B
  8
0
  6
BYBLOCK
 62
     0
 10
0.0
 20
0.0
 30
0.0
 11
-1.0
 21
-0.1666666666666666
 31
0.0
  0
LINE
  5
244C
  8
0
  6
BYBLOCK
 62
     0
 10
0.0
 20
0.0
 30
0.0
 11
-1.0
 21
0.0
 31
0.0
  0
ENDBLK
  5
244D
  8
0
  0
ENDSEC
  0
SECTION
  2
ENTITIES
  0
TEXT
  5
2529
  8
0
  6
CONTINUOUS
 10
1357.4285714285711
 20
33.75
 30
0.0
 40
15.0
  1
CKF3
 41
0.9
  7
PTSH
 72
     2
 11
1405.0
 21
41.25
 31
0.0
 73
     2
  0
POLYLINE
  5
2563
  8
0
 66
     1
 10
0.0
 20
0.0
 30
0.0
 70
     1
  0
VERTEX
  5
300C
  8
0
 10
55.0
 20
25.0
 30
0.0
  0
VERTEX
  5
300D
  8
0
 10
1430.0
 20
25.0
 30
0.0
  0
VERTEX
  5
300E
  8
0
 10
1430.0
 20
955.0
 30
0.0
  0
VERTEX
  5
300F
  8
0
 10
55.0
 20
955.0
 30
0.0
  0
SEQEND
  5
3010
  8
0
  0
TEXT
  5
2B14
  8
0
 10
689.86340616366124
 20
600.446888834736
 30
0.0
 40
12.5
  1
20A
 41
0.8
 11
689.86340616366124
 21
600.446888834736
 31
0.0
 73
     1
  0
LINE
  5
2B15
  8
0
 10
730.8093181686063
 20
524.89375849194812
 30
0.0
 11
725.8093181686063
 21
524.89375849194812
 31
0.0
  0
LINE
  5
2B16
  8
0
 10
730.8093181686063
 20
443.89375849194801
 30
0.0
 11
725.8093181686063
 21
443.89375849194801
 31
0.0
  0
ARC
  5
2B17
  8
0
 10
727.70957991463445
 20
388.13762319983971
 30
0.0
 40
1.0
 50
186.00900595749451
 51
270.0
  0
LINE
  5
2B18
  8
0
 10
722.80931816860618
 20
387.13762319983971
 30
0.0
 11
730.8093181686063
 21
387.13762319983971
 31
0.0
  0
ARC
  5
2B19
  8
0
 10
727.70957991463445
 20
305.13762319983971
 30
0.0
 40
1.0
 50
90.0
 51
173.99099404250541
  0
ARC
  5
2B1A
  8
0
 10
727.70957991463445
 20
232.8553524830572
 30
0.0
 40
1.0
 50
186.00900595749451
 51
270.0
  0
LINE
  5
2B1B
  8
0
 10
722.80931816860618
 20
231.8553524830572
 30
0.0
 11
730.8093181686063
 21
231.8553524830572
 31
0.0
  0
ARC
  5
2B1C
  8
0
 10
727.70957991463445
 20
149.8553524830572
 30
0.0
 40
1.0
 50
90.0
 51
173.99099404250541
  0
TEXT
  5
2B1D
  8
0
 10
520.40005414844188
 20
50.131072115927282
 30
0.0
 40
17.5
  1
TLV  CKF3M･CKF3R (ｳｴﾊｰ型)
  0
TEXT
  5
2B1E
  8
0
 10
696.25137380958222
 20
106.7131115116274
 30
0.0
 40
12.5
  1
40A
 41
0.8
 11
696.25137380958222
 21
106.7131115116274
 31
0.0
 73
     1
  0
LINE
  5
2B1F
  8
0
 10
287.69150931655543
 20
344.60464319098941
 30
0.0
 11
256.17913431655518
 21
344.60464319098941
 31
0.0
  0
LINE
  5
2B20
  8
0
 10
249.87688431655539
 20
350.90689319098908
 30
0.0
 11
268.78363431655549
 21
350.90689319098908
 31
0.0
  0
LINE
  5
2B21
  8
0
 10
288.95577503123428
 20
190.57528247828341
 30
0.0
 11
257.44340003123409
 21
190.57528247828341
 31
0.0
  0
LINE
  5
2B22
  8
0
 10
251.14115003123439
 20
196.87753247828309
 30
0.0
 11
270.04790003123452
 21
196.87753247828309
 31
0.0
  0
CIRCLE
  5
2B23
  8
0
 10
194.84710932183589
 20
191.3553524830572
 30
0.0
 40
21.5
  0
CIRCLE
  5
2B24
  8
0
 10
194.84710932183589
 20
191.3553524830572
 30
0.0
 40
36.25
  0
ARC
  5
2B25
  8
0
 10
195.90326232313689
 20
177.61650831920559
 30
0.0
 40
50.0
 50
35.392524138045687
 51
87.898128048245255
  0
ARC
  5
2B26
  8
0
 10
208.5859534856875
 20
192.4115054843582
 30
0.0
 40
50.0
 50
125.3925241380457
 51
177.89812804824541
  0
TEXT
  5
2B27
  8
0
 10
79.087902323370145
 20
183.6936873959603
 30
0.0
 40
15.0
  1
正面
  0
ARC
  5
2B28
  8
0
 10
194.84710932183589
 20
191.3553524830572
 30
0.0
 40
44.5
 50
271.31726039640671
 51
290.0
  0
CIRCLE
  5
2B29
  8
0
 10
194.84710932183589
 20
191.3553524830572
 30
0.0
 40
16.0
  0
ARC
  5
2B2A
  8
0
 10
193.7909563205346
 20
205.09419664690901
 30
0.0
 40
50.0
 50
215.3925241380457
 51
267.8981280482455
  0
LINE
  5
2B2B
  8
0
 10
194.84710932183589
 20
147.8668482549283
 30
0.0
 11
194.84710932183589
 21
152.12985525719969
 31
0.0
  0
ARC
  5
2B2C
  8
0
 10
195.84710932183589
 20
147.8668482549283
 30
0.0
 40
1.0
 50
180.0
 51
271.3172603964112
  0
ARC
  5
2B2D
  8
0
 10
191.84710932183589
 20
152.12985525719969
 30
0.0
 40
3.0
 50
0.000000000000007
 51
87.898128048247202
  0
ARC
  5
2B2E
  8
0
 10
194.8471093218356
 20
191.3553524830574
 30
0.0
 40
44.5
 50
181.31726039640699
 51
200.0
  0
ARC
  5
2B2F
  8
0
 10
151.3586050937065
 20
190.35535248305709
 30
0.0
 40
1.0
 50
90.0
 51
181.31726039640819
  0
LINE
  5
2B30
  8
0
 10
151.3586050937065
 20
191.3553524830572
 30
0.0
 11
155.62161209597841
 21
191.3553524830572
 31
0.0
  0
ARC
  5
2B31
  8
0
 10
155.62161209597841
 20
194.3553524830572
 30
0.0
 40
3.0
 50
270.0
 51
357.89812804824498
  0
ARC
  5
2B32
  8
0
 10
181.10826515798431
 20
190.2991994817562
 30
0.0
 40
50.0
 50
305.3925241380457
 51
357.89812804824538
  0
LINE
  5
2B33
  8
0
 10
238.3356135499651
 20
191.3553524830572
 30
0.0
 11
234.07260654769331
 21
191.3553524830572
 31
0.0
  0
ARC
  5
2B34
  8
0
 10
234.07260654769331
 20
188.3553524830572
 30
0.0
 40
3.0
 50
90.0
 51
177.89812804824501
  0
ARC
  5
2B35
  8
0
 10
238.3356135499651
 20
192.3553524830572
 30
0.0
 40
1.0
 50
270.0
 51
1.317260396408235
  0
ARC
  5
2B36
  8
0
 10
194.84710932183589
 20
191.3553524830572
 30
0.0
 40
44.5
 50
1.317260396406658
 51
19.999999999999929
  0
LINE
  5
2B37
  8
0
 10
257.44340003123409
 20
190.57528247828341
 30
0.0
 11
251.14115003123439
 21
196.87753247828309
 31
0.0
  0
TEXT
  5
2B38
  8
0
 10
79.087902323370145
 20
344.98613231931182
 30
0.0
 40
15.0
  1
平面
  0
LINE
  5
2B39
  8
0
 10
194.84710932183589
 20
234.84385671118631
 30
0.0
 11
194.84710932183589
 21
230.58084970891471
 31
0.0
  0
ARC
  5
2B3A
  8
0
 10
197.84710932183589
 20
230.58084970891471
 30
0.0
 40
3.0
 50
179.99999999999889
 51
267.8981280482472
  0
ARC
  5
2B3B
  8
0
 10
194.84710932183589
 20
191.3553524830572
 30
0.0
 40
44.5
 50
91.317260396406724
 51
109.9999999999999
  0
ARC
  5
2B3C
  8
0
 10
193.84710932183589
 20
234.84385671118631
 30
0.0
 40
1.0
 50
0.000000000000007
 51
91.317260396411243
  0
LINE
  5
2B3D
  8
0
 10
256.17913431655518
 20
344.60464319098941
 30
0.0
 11
249.87688431655539
 21
350.90689319098908
 31
0.0
  0
TEXT
  5
2B3E
  8
0
 10
79.087902323370145
 20
478.52537774033863
 30
0.0
 40
15.0
  1
背面
  0
ARC
  5
2B3F
  8
0
 10
719.80931816860618
 20
211.8553524830572
 30
0.0
 40
3.0
 50
270.0
 51
359.99999999999989
  0
ARC
  5
2B40
  8
0
 10
707.30931816860618
 20
211.8553524830572
 30
0.0
 40
3.0
 50
180.00000000000011
 51
270.0
  0
CIRCLE
  5
2B41
  8
0
 10
600.08404168608013
 20
191.3553524830572
 30
0.0
 40
24.5
  0
CIRCLE
  5
2B42
  8
0
 10
600.08404168608013
 20
191.3553524830572
 30
0.0
 40
20.0
  0
ARC
  5
2B43
  8
0
 10
313.85140121657651
 20
210.8553524830572
 30
0.0
 40
2.0
 50
270.0
 51
0.0
  0
ARC
  5
2B44
  8
0
 10
300.85140121657702
 20
210.8553524830572
 30
0.0
 40
2.0
 50
180.0
 51
270.0
  0
CIRCLE
  5
2B45
  8
0
 10
388.02577947832827
 20
191.3553524830572
 30
0.0
 40
24.0
  0
LINE
  5
2B46
  8
0
 10
318.85140121657702
 20
227.6053524830572
 30
0.0
 11
318.85140121657702
 21
192.3553524830572
 31
0.0
  0
LINE
  5
2B47
  8
0
 10
323.85140121657702
 20
227.6053524830572
 30
0.0
 11
323.85140121657702
 21
191.3553524830572
 31
0.0
  0
LINE
  5
2B48
  8
0
 10
315.8514012165769
 20
234.8553524830572
 30
0.0
 11
315.8514012165769
 21
192.3553524830572
 31
0.0
  0
LINE
  5
2B49
  8
0
 10
293.85140121657702
 20
227.6053524830572
 30
0.0
 11
293.85140121657702
 21
191.3553524830572
 31
0.0
  0
LINE
  5
2B4A
  8
0
 10
298.85140121657702
 20
227.6053524830572
 30
0.0
 11
298.85140121657702
 21
155.1053524830572
 31
0.0
  0
LINE
  5
2B4B
  8
0
 10
704.3093181686063
 20
231.8553524830572
 30
0.0
 11
704.3093181686063
 21
150.8553524830572
 31
0.0
  0
LINE
  5
2B4C
  8
0
 10
725.8093181686063
 20
192.3553524830572
 30
0.0
 11
725.8093181686063
 21
231.8553524830572
 31
0.0
  0
LINE
  5
2B4D
  8
0
 10
699.3093181686063
 20
231.8553524830572
 30
0.0
 11
699.3093181686063
 21
191.3553524830572
 31
0.0
  0
LINE
  5
2B4E
  8
0
 10
722.80931816860618
 20
240.3553524830572
 30
0.0
 11
722.80931816860618
 21
192.3553524830572
 31
0.0
  0
CIRCLE
  5
2B4F
  8
0
 10
388.02577947832827
 20
191.3553524830572
 30
0.0
 40
36.25
  0
ARC
  5
2B50
  8
0
 10
374.28693531447669
 20
192.4115054843582
 30
0.0
 40
50.0
 50
2.1018719517546152
 51
54.607475861954313
  0
ARC
  5
2B51
  8
0
 10
386.9696264770273
 20
177.61650831920559
 30
0.0
 40
50.0
 50
92.101871951754774
 51
144.6074758619543
  0
CIRCLE
  5
2B52
  8
0
 10
600.08404168608013
 20
191.3553524830572
 30
0.0
 40
40.499999999999993
  0
ARC
  5
2B53
  8
0
 10
599.52334647476164
 20
171.8579723662553
 30
0.0
 40
60.0
 50
37.587559491409387
 51
86.759974914414897
  0
ARC
  5
2B54
  8
0
 10
619.58142180288201
 20
190.79465727173871
 30
0.0
 40
60.0
 50
127.58755949140939
 51
176.7599749144149
  0
ARC
  5
2B55
  8
0
 10
388.02577947832827
 20
191.3553524830572
 30
0.0
 40
44.5
 50
250.00000000000011
 51
268.68273960359329
  0
CIRCLE
  5
2B56
  8
0
 10
388.02577947832827
 20
191.3553524830572
 30
0.0
 40
18.0
  0
CIRCLE
  5
2B57
  8
0
 10
388.02577947832827
 20
191.3553524830572
 30
0.0
 40
16.0
  0
TEXT
  5
2B58
  8
0
 10
285.57725900058449
 20
113.4873059401145
 30
0.0
 40
12.5
  1
32A
 41
0.8
 11
285.57725900058449
 21
113.4873059401145
 31
0.0
 73
     1
  0
LINE
  5
2B59
  8
0
 10
318.85140121657702
 20
155.1053524830572
 30
0.0
 11
323.85140121657702
 21
155.1053524830572
 31
0.0
  0
LINE
  5
2B5A
  8
0
 10
301.8824901298226
 20
163.25338376762261
 30
0.0
 11
301.8824901298226
 21
171.8553524830572
 31
0.0
  0
LINE
  5
2B5B
  8
0
 10
315.8514012165769
 20
187.3553524830572
 30
0.0
 11
315.8514012165769
 21
147.8553524830572
 31
0.0
  0
LINE
  5
2B5C
  8
0
 10
293.85140121657702
 20
191.3553524830572
 30
0.0
 11
293.85140121657702
 21
155.1053524830572
 31
0.0
  0
LINE
  5
2B5D
  8
0
 10
318.85140121657702
 20
187.3553524830572
 30
0.0
 11
318.85140121657702
 21
147.3918722932799
 31
0.0
  0
LINE
  5
2B5E
  8
0
 10
318.95802771748367
 20
147.73502111553799
 30
0.0
 11
319.85140121657702
 21
155.1053524830572
 31
0.0
  0
ARC
  5
2B5F
  8
0
 10
316.85140121657702
 20
147.8553524830572
 30
0.0
 40
1.0
 50
180.0
 51
270.0
  0
LINE
  5
2B60
  8
0
 10
316.85140121657702
 20
146.8553524830572
 30
0.0
 11
317.96529393544978
 21
146.8553524830572
 31
0.0
  0
ARC
  5
2B61
  8
0
 10
317.96529393544978
 20
147.8553524830572
 30
0.0
 40
1.0
 50
270.0
 51
353.08877288097381
  0
LINE
  5
2B62
  8
0
 10
303.03719066820167
 20
160.3553524830572
 30
0.0
 11
313.8514012165769
 21
160.3553524830572
 31
0.0
  0
ARC
  5
2B63
  8
0
 10
303.03719066820167
 20
158.3553524830572
 30
0.0
 40
2.0
 50
90.0
 51
150.00000000000011
  0
LINE
  5
2B64
  8
0
 10
301.30513986063301
 20
159.3553524830572
 30
0.0
 11
298.85140121657702
 21
155.1053524830572
 31
0.0
  0
LINE
  5
2B65
  8
0
 10
293.85140121657702
 20
155.1053524830572
 30
0.0
 11
298.85140121657702
 21
155.1053524830572
 31
0.0
  0
ARC
  5
2B66
  8
0
 10
313.8514012165769
 20
158.3553524830572
 30
0.0
 40
2.0
 50
0.0
 51
90.0
  0
LINE
  5
2B67
  8
0
 10
273.20015003123461
 20
193.72640747828319
 30
0.0
 11
282.51627503123478
 21
193.72640747828319
 31
0.0
  0
LINE
  5
2B68
  8
0
 10
270.04790003123452
 20
196.87753247828309
 30
0.0
 11
273.20015003123461
 21
193.72640747828319
 31
0.0
  0
LINE
  5
2B69
  8
0
 10
282.51627503123478
 20
196.87753247828309
 30
0.0
 11
288.95577503123428
 21
190.57528247828341
 31
0.0
  0
LINE
  5
2B6A
  8
0
 10
282.51627503123478
 20
193.72640747828319
 30
0.0
 11
282.51627503123478
 21
196.87753247828309
 31
0.0
  0
LINE
  5
2B6B
  8
0
 10
300.85140121657702
 20
173.8553524830572
 30
0.0
 11
313.85140121657651
 21
173.8553524830572
 31
0.0
  0
ARC
  5
2B6C
  8
0
 10
300.85140121657702
 20
171.8553524830572
 30
0.0
 40
2.0
 50
90.0
 51
180.0
  0
ARC
  5
2B6D
  8
0
 10
314.85140121657702
 20
187.3553524830572
 30
0.0
 40
1.0
 50
0.0
 51
90.0
  0
ARC
  5
2B6E
  8
0
 10
319.85140121657702
 20
187.3553524830572
 30
0.0
 40
1.0
 50
90.0
 51
180.0
  0
ARC
  5
2B6F
  8
0
 10
313.85140121657651
 20
171.8553524830572
 30
0.0
 40
2.0
 50
0.0
 51
90.0
  0
LINE
  5
2B70
  8
0
 10
300.85140121657702
 20
208.8553524830572
 30
0.0
 11
313.85140121657651
 21
208.8553524830572
 31
0.0
  0
ARC
  5
2B71
  8
0
 10
316.85140121657702
 20
192.3553524830572
 30
0.0
 40
1.0
 50
180.0
 51
270.0
  0
ARC
  5
2B72
  8
0
 10
317.85140121657702
 20
192.3553524830572
 30
0.0
 40
1.0
 50
270.0
 51
0.0
  0
LINE
  5
2B73
  8
0
 10
323.85140121657702
 20
191.3553524830572
 30
0.0
 11
323.85140121657702
 21
155.1053524830572
 31
0.0
  0
ARC
  5
2B74
  8
0
 10
401.76462364217991
 20
190.2991994817562
 30
0.0
 40
50.0
 50
182.10187195175459
 51
234.6074758619543
  0
ARC
  5
2B75
  8
0
 10
348.80028225247088
 20
188.3553524830572
 30
0.0
 40
3.0
 50
2.101871951754986
 51
90.0
  0
LINE
  5
2B76
  8
0
 10
344.53727525019917
 20
191.3553524830572
 30
0.0
 11
348.80028225247088
 21
191.3553524830572
 31
0.0
  0
ARC
  5
2B77
  8
0
 10
344.53727525019917
 20
192.3553524830572
 30
0.0
 40
1.0
 50
178.68273960359181
 51
270.0
  0
ARC
  5
2B78
  8
0
 10
388.02577947832827
 20
191.3553524830572
 30
0.0
 40
44.5
 50
160.00000000000011
 51
178.68273960359329
  0
ARC
  5
2B79
  8
0
 10
388.02577947832827
 20
191.3553524830572
 30
0.0
 40
20.0
 50
169.9213418922123
 51
190.0786581077877
  0
LINE
  5
2B7A
  8
0
 10
368.3344108108131
 20
187.8553524830572
 30
0.0
 11
364.28235933716093
 21
187.8553524830572
 31
0.0
  0
LINE
  5
2B7B
  8
0
 10
368.3344108108131
 20
194.8553524830572
 30
0.0
 11
364.28235933716093
 21
194.8553524830572
 31
0.0
  0
LINE
  5
2B7C
  8
0
 10
391.52577947832839
 20
171.663983815542
 30
0.0
 11
391.52577947832839
 21
167.61193234188971
 31
0.0
  0
LINE
  5
2B7D
  8
0
 10
384.52577947832827
 20
171.663983815542
 30
0.0
 11
384.52577947832827
 21
167.61193234188971
 31
0.0
  0
ARC
  5
2B7E
  8
0
 10
389.08193247962959
 20
205.09419664690901
 30
0.0
 40
50.0
 50
272.1018719517545
 51
324.6074758619543
  0
LINE
  5
2B7F
  8
0
 10
388.02577947832827
 20
147.8668482549283
 30
0.0
 11
388.02577947832827
 21
152.12985525719969
 31
0.0
  0
ARC
  5
2B80
  8
0
 10
387.02577947832827
 20
147.8668482549283
 30
0.0
 40
1.0
 50
268.6827396035888
 51
0.0
  0
ARC
  5
2B81
  8
0
 10
391.02577947832827
 20
152.12985525719969
 30
0.0
 40
3.0
 50
92.101871951752813
 51
180.0
  0
LINE
  5
2B82
  8
0
 10
407.71714814584351
 20
187.8553524830572
 30
0.0
 11
411.76919961949579
 21
187.8553524830572
 31
0.0
  0
LINE
  5
2B83
  8
0
 10
407.71714814584351
 20
194.8553524830572
 30
0.0
 11
411.76919961949579
 21
194.8553524830572
 31
0.0
  0
ARC
  5
2B84
  8
0
 10
388.02577947832827
 20
191.3553524830572
 30
0.0
 40
20.0
 50
349.92134189221241
 51
10.07865810778765
  0
ARC
  5
2B85
  8
0
 10
388.02577947832827
 20
191.3553524830572
 30
0.0
 40
20.0
 50
259.9213418922123
 51
280.07865810778759
  0
ARC
  5
2B86
  8
0
 10
388.02577947832862
 20
191.3553524830574
 30
0.0
 40
44.5
 50
340.0
 51
358.68273960359301
  0
ARC
  5
2B87
  8
0
 10
431.51428370645772
 20
190.35535248305709
 30
0.0
 40
1.0
 50
358.68273960359181
 51
90.0
  0
ARC
  5
2B88
  8
0
 10
427.25127670418578
 20
194.3553524830572
 30
0.0
 40
3.0
 50
182.10187195175499
 51
270.0
  0
LINE
  5
2B89
  8
0
 10
431.51428370645772
 20
191.3553524830572
 30
0.0
 11
427.25127670418578
 21
191.3553524830572
 31
0.0
  0
ARC
  5
2B8A
  8
0
 10
600.08404168608013
 20
191.3553524830572
 30
0.0
 40
50.0
 50
271.16938280561408
 51
289.99999999999989
  0
LINE
  5
2B8B
  8
0
 10
551.09424683041652
 20
191.3553524830572
 30
0.0
 11
556.68212570497565
 21
191.3553524830572
 31
0.0
  0
ARC
  5
2B8C
  8
0
 10
600.64473689739862
 20
210.85273259985919
 30
0.0
 40
60.0
 50
217.58755949140939
 51
266.75997491441473
  0
ARC
  5
2B8D
  8
0
 10
600.08404168608013
 20
191.35535248305729
 30
0.0
 40
50.0
 50
181.16938280561411
 51
199.99999999999989
  0
ARC
  5
2B8E
  8
0
 10
551.09424683041652
 20
190.3553524830572
 30
0.0
 40
1.0
 50
90.0
 51
181.16938280561379
  0
ARC
  5
2B8F
  8
0
 10
597.0840416860799
 20
147.95343650195281
 30
0.0
 40
3.0
 50
0.000000000000007
 51
86.759974914416247
  0
LINE
  5
2B90
  8
0
 10
600.08404168608013
 20
142.3655576273936
 30
0.0
 11
600.08404168608013
 21
147.95343650195281
 31
0.0
  0
ARC
  5
2B91
  8
0
 10
601.08404168608013
 20
142.3655576273936
 30
0.0
 40
1.0
 50
180.0
 51
271.16938280561379
  0
ARC
  5
2B92
  8
0
 10
556.68212570497565
 20
194.3553524830572
 30
0.0
 40
3.0
 50
270.0
 51
356.7599749144149
  0
LINE
  5
2B93
  8
0
 10
694.5422007785055
 20
193.35057715941579
 30
0.0
 11
663.02982577850526
 21
193.35057715941579
 31
0.0
  0
LINE
  5
2B94
  8
0
 10
656.72757577850564
 20
199.65282715941549
 30
0.0
 11
675.63432577850574
 21
199.65282715941549
 31
0.0
  0
ARC
  5
2B95
  8
0
 10
580.58666156927825
 20
191.91604769437569
 30
0.0
 40
60.0
 50
307.58755949140942
 51
356.75997491441501
  0
ARC
  5
2B96
  8
0
 10
643.48595766718438
 20
188.3553524830572
 30
0.0
 40
3.0
 50
90.0
 51
176.7599749144149
  0
ARC
  5
2B97
  8
0
 10
649.07383654174373
 20
192.3553524830572
 30
0.0
 40
1.0
 50
270.0
 51
1.1693828056137729
  0
LINE
  5
2B98
  8
0
 10
649.07383654174373
 20
191.3553524830572
 30
0.0
 11
643.48595766718438
 21
191.3553524830572
 31
0.0
  0
ARC
  5
2B99
  8
0
 10
600.08404168608013
 20
191.3553524830572
 30
0.0
 40
50.0
 50
1.169382805614104
 51
19.999999999999911
  0
LINE
  5
2B9A
  8
0
 10
663.02982577850526
 20
193.35057715941579
 30
0.0
 11
656.72757577850564
 21
199.65282715941549
 31
0.0
  0
LINE
  5
2B9B
  8
0
 10
706.04136897617525
 20
169.74984465482549
 30
0.0
 11
706.04136897617525
 21
156.833963629046
 31
0.0
  0
LINE
  5
2B9C
  8
0
 10
725.8093181686063
 20
185.3553524830572
 30
0.0
 11
725.8093181686063
 21
141.92000344075061
 31
0.0
  0
LINE
  5
2B9D
  8
0
 10
722.80931816860618
 20
185.3553524830572
 30
0.0
 11
722.80931816860618
 21
142.3553524830572
 31
0.0
  0
LINE
  5
2B9E
  8
0
 10
699.3093181686063
 20
191.3553524830572
 30
0.0
 11
699.3093181686063
 21
150.8553524830572
 31
0.0
  0
LINE
  5
2B9F
  8
0
 10
725.90356187549867
 20
142.25066769853919
 30
0.0
 11
726.71507446171324
 21
149.96003726757519
 31
0.0
  0
ARC
  5
2BA0
  8
0
 10
724.90905642257758
 20
142.3553524830572
 30
0.0
 40
1.0
 50
270.0
 51
353.99099404250541
  0
LINE
  5
2BA1
  8
0
 10
723.80931816860618
 20
141.3553524830572
 30
0.0
 11
724.90905642257758
 21
141.3553524830572
 31
0.0
  0
ARC
  5
2BA2
  8
0
 10
723.80931816860618
 20
142.3553524830572
 30
0.0
 40
1.0
 50
180.0
 51
270.0
  0
LINE
  5
2BA3
  8
0
 10
707.19606951455444
 20
153.8553524830572
 30
0.0
 11
720.8093181686063
 21
153.8553524830572
 31
0.0
  0
ARC
  5
2BA4
  8
0
 10
707.19606951455444
 20
151.8553524830572
 30
0.0
 40
2.0
 50
90.000000000000114
 51
150.00000000000011
  0
LINE
  5
2BA5
  8
0
 10
705.46401870698583
 20
152.8553524830572
 30
0.0
 11
704.3093181686063
 21
150.8553524830572
 31
0.0
  0
LINE
  5
2BA6
  8
0
 10
699.3093181686063
 20
150.8553524830572
 30
0.0
 11
704.3093181686063
 21
150.8553524830572
 31
0.0
  0
ARC
  5
2BA7
  8
0
 10
720.8093181686063
 20
151.8553524830572
 30
0.0
 40
2.0
 50
0.0000000000002554
 51
90.000000000000171
  0
LINE
  5
2BA8
  8
0
 10
678.78657577850583
 20
196.50170215941569
 30
0.0
 11
688.10270077850612
 21
196.50170215941569
 31
0.0
  0
LINE
  5
2BA9
  8
0
 10
675.63432577850574
 20
199.65282715941549
 30
0.0
 11
678.78657577850583
 21
196.50170215941569
 31
0.0
  0
LINE
  5
2BAA
  8
0
 10
688.10270077850612
 20
199.65282715941549
 30
0.0
 11
694.5422007785055
 21
193.35057715941579
 31
0.0
  0
LINE
  5
2BAB
  8
0
 10
688.10270077850612
 20
196.50170215941569
 30
0.0
 11
688.10270077850612
 21
199.65282715941549
 31
0.0
  0
LINE
  5
2BAC
  8
0
 10
707.30931816860618
 20
173.8553524830572
 30
0.0
 11
719.80931816860618
 21
173.8553524830572
 31
0.0
  0
ARC
  5
2BAD
  8
0
 10
707.30931816860618
 20
170.8553524830572
 30
0.0
 40
3.0
 50
90.000000000000185
 51
180.0
  0
ARC
  5
2BAE
  8
0
 10
726.80931816860618
 20
185.3553524830572
 30
0.0
 40
1.0
 50
90.0
 51
180.0
  0
ARC
  5
2BAF
  8
0
 10
721.8093181686063
 20
185.3553524830572
 30
0.0
 40
1.0
 50
0.0
 51
90.0
  0
ARC
  5
2BB0
  8
0
 10
719.80931816860618
 20
170.8553524830572
 30
0.0
 40
3.0
 50
0.0000000000002778
 51
90.000000000000185
  0
LINE
  5
2BB1
  8
0
 10
707.30931816860618
 20
208.8553524830572
 30
0.0
 11
719.80931816860618
 21
208.8553524830572
 31
0.0
  0
ARC
  5
2BB2
  8
0
 10
724.8093181686063
 20
192.3553524830572
 30
0.0
 40
1.0
 50
270.0
 51
0.0
  0
ARC
  5
2BB3
  8
0
 10
723.80931816860618
 20
192.3553524830572
 30
0.0
 40
1.0
 50
180.0
 51
270.0
  0
LINE
  5
2BB4
  8
0
 10
323.85140121657702
 20
382.88762319983971
 30
0.0
 11
323.85140121657702
 21
346.63762319983971
 31
0.0
  0
LINE
  5
2BB5
  8
0
 10
301.8824901298226
 20
374.73959191527422
 30
0.0
 11
301.8824901298226
 21
366.13762319983971
 31
0.0
  0
LINE
  5
2BB6
  8
0
 10
318.85140121657702
 20
382.88762319983971
 30
0.0
 11
318.85140121657702
 21
347.63762319983971
 31
0.0
  0
LINE
  5
2BB7
  8
0
 10
298.85140121657702
 20
382.88762319983971
 30
0.0
 11
298.85140121657702
 21
310.38762319983971
 31
0.0
  0
LINE
  5
2BB8
  8
0
 10
293.85140121657702
 20
382.88762319983971
 30
0.0
 11
293.85140121657702
 21
346.63762319983971
 31
0.0
  0
LINE
  5
2BB9
  8
0
 10
315.8514012165769
 20
390.13762319983971
 30
0.0
 11
315.8514012165769
 21
347.63762319983971
 31
0.0
  0
LINE
  5
2BBA
  8
0
 10
315.8514012165769
 20
227.6053524830572
 30
0.0
 11
323.85140121657702
 21
227.6053524830572
 31
0.0
  0
LINE
  5
2BBB
  8
0
 10
318.95802771748367
 20
234.9756838505765
 30
0.0
 11
319.85140121657702
 21
227.6053524830572
 31
0.0
  0
LINE
  5
2BBC
  8
0
 10
303.03719066820167
 20
222.3553524830572
 30
0.0
 11
313.8514012165769
 21
222.3553524830572
 31
0.0
  0
LINE
  5
2BBD
  8
0
 10
301.30513986063301
 20
223.3553524830572
 30
0.0
 11
298.85140121657702
 21
227.6053524830572
 31
0.0
  0
ARC
  5
2BBE
  8
0
 10
303.03719066820167
 20
224.3553524830572
 30
0.0
 40
2.0
 50
210.0
 51
270.0
  0
LINE
  5
2BBF
  8
0
 10
293.85140121657702
 20
227.6053524830572
 30
0.0
 11
298.85140121657702
 21
227.6053524830572
 31
0.0
  0
LINE
  5
2BC0
  8
0
 10
301.8824901298226
 20
219.45732119849171
 30
0.0
 11
301.8824901298226
 21
210.8553524830572
 31
0.0
  0
ARC
  5
2BC1
  8
0
 10
313.8514012165769
 20
224.3553524830572
 30
0.0
 40
2.0
 50
270.0
 51
0.0
  0
ARC
  5
2BC2
  8
0
 10
316.85140121657702
 20
234.8553524830572
 30
0.0
 40
1.0
 50
90.000000000000057
 51
180.0
  0
LINE
  5
2BC3
  8
0
 10
316.85140121657702
 20
235.8553524830572
 30
0.0
 11
317.96529393544978
 21
235.8553524830572
 31
0.0
  0
ARC
  5
2BC4
  8
0
 10
317.96529393544978
 20
234.8553524830572
 30
0.0
 40
1.0
 50
6.9112271190262362
 51
90.000000000000057
  0
LINE
  5
2BC5
  8
0
 10
318.85140121657702
 20
310.38762319983971
 30
0.0
 11
323.85140121657702
 21
310.38762319983971
 31
0.0
  0
LINE
  5
2BC6
  8
0
 10
293.85140121657702
 20
346.63762319983971
 30
0.0
 11
293.85140121657702
 21
310.38762319983971
 31
0.0
  0
LINE
  5
2BC7
  8
0
 10
318.85140121657702
 20
342.63762319983971
 30
0.0
 11
318.85140121657702
 21
302.67414301006238
 31
0.0
  0
LINE
  5
2BC8
  8
0
 10
315.8514012165769
 20
342.63762319983971
 30
0.0
 11
315.8514012165769
 21
303.13762319983971
 31
0.0
  0
LINE
  5
2BC9
  8
0
 10
301.30513986063301
 20
314.63762319983971
 30
0.0
 11
298.85140121657702
 21
310.38762319983971
 31
0.0
  0
LINE
  5
2BCA
  8
0
 10
293.85140121657702
 20
310.38762319983971
 30
0.0
 11
298.85140121657702
 21
310.38762319983971
 31
0.0
  0
ARC
  5
2BCB
  8
0
 10
316.85140121657702
 20
303.13762319983971
 30
0.0
 40
1.0
 50
180.0
 51
270.0
  0
ARC
  5
2BCC
  8
0
 10
317.96529393544978
 20
303.13762319983971
 30
0.0
 40
1.0
 50
270.0
 51
353.08877288097381
  0
LINE
  5
2BCD
  8
0
 10
316.85140121657702
 20
302.13762319983971
 30
0.0
 11
317.96529393544978
 21
302.13762319983971
 31
0.0
  0
LINE
  5
2BCE
  8
0
 10
318.95802771748367
 20
303.01729183232038
 30
0.0
 11
319.85140121657702
 21
310.38762319983971
 31
0.0
  0
LINE
  5
2BCF
  8
0
 10
300.85140121657702
 20
329.13762319983971
 30
0.0
 11
313.85140121657651
 21
329.13762319983971
 31
0.0
  0
LINE
  5
2BD0
  8
0
 10
303.03719066820167
 20
315.63762319983971
 30
0.0
 11
313.8514012165769
 21
315.63762319983971
 31
0.0
  0
ARC
  5
2BD1
  8
0
 10
300.85140121657702
 20
327.13762319983971
 30
0.0
 40
2.0
 50
90.0
 51
180.0
  0
ARC
  5
2BD2
  8
0
 10
303.03719066820167
 20
313.63762319983971
 30
0.0
 40
2.0
 50
90.0
 51
150.00000000000011
  0
LINE
  5
2BD3
  8
0
 10
301.8824901298226
 20
318.53565448440509
 30
0.0
 11
301.8824901298226
 21
327.13762319983971
 31
0.0
  0
ARC
  5
2BD4
  8
0
 10
313.85140121657651
 20
327.13762319983971
 30
0.0
 40
2.0
 50
0.0
 51
90.0
  0
ARC
  5
2BD5
  8
0
 10
313.8514012165769
 20
313.63762319983971
 30
0.0
 40
2.0
 50
0.0
 51
90.0
  0
LINE
  5
2BD6
  8
0
 10
271.9358843165557
 20
347.75576819098922
 30
0.0
 11
281.25200931655593
 21
347.75576819098922
 31
0.0
  0
LINE
  5
2BD7
  8
0
 10
268.78363431655549
 20
350.90689319098908
 30
0.0
 11
271.9358843165557
 21
347.75576819098922
 31
0.0
  0
LINE
  5
2BD8
  8
0
 10
281.25200931655593
 20
350.90689319098908
 30
0.0
 11
287.69150931655543
 21
344.60464319098941
 31
0.0
  0
LINE
  5
2BD9
  8
0
 10
281.25200931655593
 20
347.75576819098922
 30
0.0
 11
281.25200931655593
 21
350.90689319098908
 31
0.0
  0
ARC
  5
2BDA
  8
0
 10
314.85140121657702
 20
342.63762319983971
 30
0.0
 40
1.0
 50
0.0
 51
90.0
  0
ARC
  5
2BDB
  8
0
 10
319.85140121657702
 20
342.63762319983971
 30
0.0
 40
1.0
 50
90.0
 51
180.0
  0
ARC
  5
2BDC
  8
0
 10
316.85140121657702
 20
347.63762319983971
 30
0.0
 40
1.0
 50
180.0
 51
270.0
  0
ARC
  5
2BDD
  8
0
 10
317.85140121657702
 20
347.63762319983971
 30
0.0
 40
1.0
 50
270.0
 51
0.0
  0
LINE
  5
2BDE
  8
0
 10
300.85140121657702
 20
364.13762319983971
 30
0.0
 11
313.85140121657651
 21
364.13762319983971
 31
0.0
  0
ARC
  5
2BDF
  8
0
 10
300.85140121657702
 20
366.13762319983971
 30
0.0
 40
2.0
 50
180.0
 51
270.0
  0
ARC
  5
2BE0
  8
0
 10
313.85140121657651
 20
366.13762319983971
 30
0.0
 40
2.0
 50
270.0
 51
0.0
  0
LINE
  5
2BE1
  8
0
 10
323.85140121657702
 20
346.63762319983971
 30
0.0
 11
323.85140121657702
 21
310.38762319983971
 31
0.0
  0
LINE
  5
2BE2
  8
0
 10
388.02577947832827
 20
234.84385671118631
 30
0.0
 11
388.02577947832827
 21
230.58084970891471
 31
0.0
  0
ARC
  5
2BE3
  8
0
 10
385.02577947832827
 20
230.58084970891471
 30
0.0
 40
3.0
 50
272.1018719517528
 51
0.0000000000010856
  0
LINE
  5
2BE4
  8
0
 10
391.52577947832839
 20
211.04672115057249
 30
0.0
 11
391.52577947832839
 21
215.09877262422469
 31
0.0
  0
LINE
  5
2BE5
  8
0
 10
384.52577947832827
 20
211.04672115057249
 30
0.0
 11
384.52577947832827
 21
215.09877262422469
 31
0.0
  0
ARC
  5
2BE6
  8
0
 10
388.02577947832827
 20
191.3553524830572
 30
0.0
 40
20.0
 50
79.92134189221234
 51
100.0786581077876
  0
ARC
  5
2BE7
  8
0
 10
388.02577947832827
 20
191.3553524830572
 30
0.0
 40
44.5
 50
70.000000000000057
 51
88.682739603593276
  0
ARC
  5
2BE8
  8
0
 10
389.02577947832827
 20
234.84385671118631
 30
0.0
 40
1.0
 50
88.682739603588743
 51
180.0
  0
LINE
  5
2BE9
  8
0
 10
323.85140121657702
 20
484.39375849194812
 30
0.0
 11
323.85140121657702
 21
448.14375849194812
 31
0.0
  0
LINE
  5
2BEA
  8
0
 10
315.82031230333132
 20
456.29178977651338
 30
0.0
 11
315.82031230333132
 21
464.89375849194801
 31
0.0
  0
LINE
  5
2BEB
  8
0
 10
293.85140121657702
 20
484.39375849194812
 30
0.0
 11
293.85140121657702
 21
448.14375849194812
 31
0.0
  0
LINE
  5
2BEC
  8
0
 10
318.85140121657702
 20
520.64375849194812
 30
0.0
 11
318.85140121657702
 21
448.14375849194812
 31
0.0
  0
LINE
  5
2BED
  8
0
 10
298.85140121657702
 20
480.39375849194812
 30
0.0
 11
298.85140121657702
 21
440.43027830217079
 31
0.0
  0
LINE
  5
2BEE
  8
0
 10
301.85140121657702
 20
480.39375849194812
 30
0.0
 11
301.85140121657702
 21
440.89375849194812
 31
0.0
  0
LINE
  5
2BEF
  8
0
 10
323.85140121657702
 20
448.14375849194812
 30
0.0
 11
318.85140121657702
 21
448.14375849194812
 31
0.0
  0
LINE
  5
2BF0
  8
0
 10
315.8514012165769
 20
382.88762319983971
 30
0.0
 11
323.85140121657702
 21
382.88762319983971
 31
0.0
  0
LINE
  5
2BF1
  8
0
 10
303.03719066820167
 20
377.63762319983971
 30
0.0
 11
313.8514012165769
 21
377.63762319983971
 31
0.0
  0
LINE
  5
2BF2
  8
0
 10
301.30513986063301
 20
378.63762319983971
 30
0.0
 11
298.85140121657702
 21
382.88762319983971
 31
0.0
  0
ARC
  5
2BF3
  8
0
 10
303.03719066820167
 20
379.63762319983971
 30
0.0
 40
2.0
 50
210.0
 51
270.0
  0
LINE
  5
2BF4
  8
0
 10
293.85140121657702
 20
382.88762319983971
 30
0.0
 11
298.85140121657702
 21
382.88762319983971
 31
0.0
  0
ARC
  5
2BF5
  8
0
 10
316.85140121657702
 20
390.13762319983971
 30
0.0
 40
1.0
 50
90.000000000000057
 51
180.0
  0
ARC
  5
2BF6
  8
0
 10
317.96529393544978
 20
390.13762319983971
 30
0.0
 40
1.0
 50
6.9112271190262362
 51
90.000000000000057
  0
LINE
  5
2BF7
  8
0
 10
316.85140121657702
 20
391.13762319983971
 30
0.0
 11
317.96529393544978
 21
391.13762319983971
 31
0.0
  0
ARC
  5
2BF8
  8
0
 10
313.8514012165769
 20
379.63762319983971
 30
0.0
 40
2.0
 50
270.0
 51
0.0
  0
LINE
  5
2BF9
  8
0
 10
318.95802771748367
 20
390.25795456735898
 30
0.0
 11
319.85140121657702
 21
382.88762319983971
 31
0.0
  0
LINE
  5
2BFA
  8
0
 10
314.6656117649523
 20
453.39375849194812
 30
0.0
 11
303.85140121657702
 21
453.39375849194812
 31
0.0
  0
ARC
  5
2BFB
  8
0
 10
303.85140121657702
 20
451.39375849194812
 30
0.0
 40
2.0
 50
90.0
 51
180.0
  0
LINE
  5
2BFC
  8
0
 10
298.85140121657702
 20
448.14375849194812
 30
0.0
 11
293.85140121657702
 21
448.14375849194812
 31
0.0
  0
ARC
  5
2BFD
  8
0
 10
300.85140121657702
 20
440.89375849194812
 30
0.0
 40
1.0
 50
270.0
 51
0.0
  0
LINE
  5
2BFE
  8
0
 10
300.85140121657702
 20
439.89375849194801
 30
0.0
 11
299.73750849770408
 21
439.89375849194801
 31
0.0
  0
ARC
  5
2BFF
  8
0
 10
299.73750849770408
 20
440.89375849194812
 30
0.0
 40
1.0
 50
186.91122711902619
 51
270.0
  0
LINE
  5
2C00
  8
0
 10
298.7447747156703
 20
440.77342712442879
 30
0.0
 11
297.85140121657702
 21
448.14375849194812
 31
0.0
  0
LINE
  5
2C01
  8
0
 10
316.3976625725208
 20
452.39375849194801
 30
0.0
 11
318.85140121657702
 21
448.14375849194812
 31
0.0
  0
ARC
  5
2C02
  8
0
 10
314.6656117649523
 20
451.39375849194812
 30
0.0
 40
2.0
 50
29.999999999999918
 51
90.0
  0
LINE
  5
2C03
  8
0
 10
323.85140121657702
 20
520.64375849194812
 30
0.0
 11
318.85140121657702
 21
520.64375849194812
 31
0.0
  0
LINE
  5
2C04
  8
0
 10
301.85140121657702
 20
527.89375849194812
 30
0.0
 11
301.85140121657702
 21
485.39375849194812
 31
0.0
  0
LINE
  5
2C05
  8
0
 10
293.85140121657702
 20
520.64375849194812
 30
0.0
 11
293.85140121657702
 21
484.39375849194812
 31
0.0
  0
LINE
  5
2C06
  8
0
 10
298.85140121657702
 20
520.64375849194812
 30
0.0
 11
298.85140121657702
 21
485.39375849194812
 31
0.0
  0
LINE
  5
2C07
  8
0
 10
316.85140121657702
 20
466.89375849194812
 30
0.0
 11
303.85140121657741
 21
466.89375849194812
 31
0.0
  0
ARC
  5
2C08
  8
0
 10
303.85140121657741
 20
464.89375849194801
 30
0.0
 40
2.0
 50
90.0
 51
180.0
  0
ARC
  5
2C09
  8
0
 10
316.85140121657702
 20
464.89375849194801
 30
0.0
 40
2.0
 50
0.0
 51
90.0
  0
ARC
  5
2C0A
  8
0
 10
302.85140121657702
 20
480.39375849194812
 30
0.0
 40
1.0
 50
90.0
 51
180.0
  0
ARC
  5
2C0B
  8
0
 10
300.85140121657702
 20
485.39375849194812
 30
0.0
 40
1.0
 50
270.0
 51
0.0
  0
ARC
  5
2C0C
  8
0
 10
299.85140121657702
 20
485.39375849194812
 30
0.0
 40
1.0
 50
180.0
 51
270.0
  0
ARC
  5
2C0D
  8
0
 10
297.85140121657702
 20
480.39375849194812
 30
0.0
 40
1.0
 50
0.0
 51
90.0
  0
LINE
  5
2C0E
  8
0
 10
316.3976625725208
 20
516.39375849194812
 30
0.0
 11
318.85140121657702
 21
520.64375849194812
 31
0.0
  0
LINE
  5
2C0F
  8
0
 10
314.6656117649523
 20
515.39375849194812
 30
0.0
 11
303.85140121657702
 21
515.39375849194812
 31
0.0
  0
LINE
  5
2C10
  8
0
 10
316.85140121657702
 20
501.89375849194812
 30
0.0
 11
303.85140121657741
 21
501.89375849194812
 31
0.0
  0
ARC
  5
2C11
  8
0
 10
303.85140121657702
 20
517.39375849194812
 30
0.0
 40
2.0
 50
180.0
 51
270.0
  0
ARC
  5
2C12
  8
0
 10
303.85140121657741
 20
503.89375849194812
 30
0.0
 40
2.0
 50
180.0
 51
270.0
  0
ARC
  5
2C13
  8
0
 10
314.6656117649523
 20
517.39375849194812
 30
0.0
 40
2.0
 50
270.0
 51
330.00000000000011
  0
ARC
  5
2C14
  8
0
 10
316.85140121657702
 20
503.89375849194812
 30
0.0
 40
2.0
 50
270.0
 51
0.0
  0
LINE
  5
2C15
  8
0
 10
315.82031230333132
 20
512.49572720738263
 30
0.0
 11
315.82031230333132
 21
503.89375849194812
 31
0.0
  0
ARC
  5
2C16
  8
0
 10
300.85140121657702
 20
527.89375849194812
 30
0.0
 40
1.0
 50
0.0
 51
89.999999999999943
  0
LINE
  5
2C17
  8
0
 10
300.85140121657702
 20
528.89375849194812
 30
0.0
 11
299.73750849770408
 21
528.89375849194812
 31
0.0
  0
ARC
  5
2C18
  8
0
 10
299.73750849770408
 20
527.89375849194812
 30
0.0
 40
1.0
 50
89.999999999999943
 51
173.08877288097369
  0
LINE
  5
2C19
  8
0
 10
301.85140121657702
 20
520.64375849194812
 30
0.0
 11
293.85140121657702
 21
520.64375849194812
 31
0.0
  0
LINE
  5
2C1A
  8
0
 10
298.7447747156703
 20
528.01408985946728
 30
0.0
 11
297.85140121657702
 21
520.64375849194812
 31
0.0
  0
LINE
  5
2C1B
  8
0
 10
323.85140121657702
 20
520.64375849194812
 30
0.0
 11
323.85140121657702
 21
484.39375849194812
 31
0.0
  0
LINE
  5
2C1C
  8
0
 10
334.61418875820902
 20
485.59841265563398
 30
0.0
 11
366.12656375820927
 21
485.59841265563398
 31
0.0
  0
LINE
  5
2C1D
  8
0
 10
350.36981375820881
 20
488.7495376556339
 30
0.0
 11
341.05368875820852
 21
488.7495376556339
 31
0.0
  0
LINE
  5
2C1E
  8
0
 10
341.05368875820852
 20
491.90066265563371
 30
0.0
 11
334.61418875820902
 21
485.59841265563398
 31
0.0
  0
LINE
  5
2C1F
  8
0
 10
341.05368875820852
 20
488.7495376556339
 30
0.0
 11
341.05368875820852
 21
491.90066265563371
 31
0.0
  0
LINE
  5
2C20
  8
0
 10
372.428813758209
 20
491.90066265563371
 30
0.0
 11
353.5220637582089
 21
491.90066265563371
 31
0.0
  0
LINE
  5
2C21
  8
0
 10
353.5220637582089
 20
491.90066265563371
 30
0.0
 11
350.36981375820881
 21
488.7495376556339
 31
0.0
  0
LINE
  5
2C22
  8
0
 10
366.12656375820927
 20
485.59841265563398
 30
0.0
 11
372.428813758209
 21
491.90066265563371
 31
0.0
  0
LINE
  5
2C23
  8
0
 10
725.8093181686063
 20
347.63762319983971
 30
0.0
 11
725.8093181686063
 21
387.13762319983971
 31
0.0
  0
LINE
  5
2C24
  8
0
 10
706.04136897617525
 20
381.15901205385092
 30
0.0
 11
706.04136897617525
 21
367.66222303259292
 31
0.0
  0
LINE
  5
2C25
  8
0
 10
699.3093181686063
 20
387.13762319983971
 30
0.0
 11
699.3093181686063
 21
346.63762319983971
 31
0.0
  0
LINE
  5
2C26
  8
0
 10
704.3093181686063
 20
387.13762319983971
 30
0.0
 11
704.3093181686063
 21
306.13762319983971
 31
0.0
  0
LINE
  5
2C27
  8
0
 10
722.80931816860618
 20
395.63762319983971
 30
0.0
 11
722.80931816860618
 21
347.63762319983971
 31
0.0
  0
ARC
  5
2C28
  8
0
 10
600.08404168608013
 20
191.3553524830572
 30
0.0
 40
50.0
 50
91.169382805614035
 51
109.9999999999999
  0
ARC
  5
2C29
  8
0
 10
603.08404168608013
 20
234.7572684641616
 30
0.0
 40
3.0
 50
180.0
 51
266.75997491441632
  0
LINE
  5
2C2A
  8
0
 10
600.08404168608013
 20
240.34514733872081
 30
0.0
 11
600.08404168608013
 21
234.7572684641616
 31
0.0
  0
ARC
  5
2C2B
  8
0
 10
599.08404168608013
 20
240.34514733872081
 30
0.0
 40
1.0
 50
0.000000000000007
 51
91.169382805613765
  0
LINE
  5
2C2C
  8
0
 10
706.04136897617525
 20
228.8553524830572
 30
0.0
 11
704.3093181686063
 21
231.8553524830572
 31
0.0
  0
LINE
  5
2C2D
  8
0
 10
706.04136897617525
 20
228.8553524830572
 30
0.0
 11
720.8093181686063
 21
228.8553524830572
 31
0.0
  0
LINE
  5
2C2E
  8
0
 10
706.04136897617525
 20
225.87674133706841
 30
0.0
 11
706.04136897617525
 21
212.37995231581041
 31
0.0
  0
ARC
  5
2C2F
  8
0
 10
720.8093181686063
 20
230.8553524830572
 30
0.0
 40
2.0
 50
270.0
 51
359.99999999999989
  0
LINE
  5
2C30
  8
0
 10
699.3093181686063
 20
231.8553524830572
 30
0.0
 11
704.3093181686063
 21
231.8553524830572
 31
0.0
  0
LINE
  5
2C31
  8
0
 10
723.80931816860618
 20
241.3553524830572
 30
0.0
 11
724.90905642257758
 21
241.3553524830572
 31
0.0
  0
LINE
  5
2C32
  8
0
 10
725.90356187549867
 20
240.46003726757519
 30
0.0
 11
726.71507446171324
 21
232.7506676985393
 31
0.0
  0
ARC
  5
2C33
  8
0
 10
724.90905642257758
 20
240.3553524830572
 30
0.0
 40
1.0
 50
6.0090059574946286
 51
90.0
  0
ARC
  5
2C34
  8
0
 10
723.80931816860618
 20
240.3553524830572
 30
0.0
 40
1.0
 50
90.0
 51
180.0
  0
LINE
  5
2C35
  8
0
 10
691.76507442240484
 20
352.93055252988091
 30
0.0
 11
660.25269942240459
 21
352.93055252988091
 31
0.0
  0
LINE
  5
2C36
  8
0
 10
653.95044942240474
 20
359.23280252988059
 30
0.0
 11
672.85719942240485
 21
359.23280252988059
 31
0.0
  0
LINE
  5
2C37
  8
0
 10
660.25269942240459
 20
352.93055252988091
 30
0.0
 11
653.95044942240474
 21
359.23280252988059
 31
0.0
  0
LINE
  5
2C38
  8
0
 10
699.3093181686063
 20
346.63762319983971
 30
0.0
 11
699.3093181686063
 21
306.13762319983971
 31
0.0
  0
LINE
  5
2C39
  8
0
 10
722.80931816860618
 20
340.63762319983971
 30
0.0
 11
722.80931816860618
 21
297.63762319983971
 31
0.0
  0
LINE
  5
2C3A
  8
0
 10
725.8093181686063
 20
340.63762319983971
 30
0.0
 11
725.8093181686063
 21
297.20227415753311
 31
0.0
  0
LINE
  5
2C3B
  8
0
 10
706.04136897617525
 20
325.0321153716082
 30
0.0
 11
706.04136897617525
 21
312.11623434582862
 31
0.0
  0
LINE
  5
2C3C
  8
0
 10
707.19606951455444
 20
309.13762319983971
 30
0.0
 11
720.8093181686063
 21
309.13762319983982
 31
0.0
  0
ARC
  5
2C3D
  8
0
 10
707.19606951455444
 20
307.13762319983971
 30
0.0
 40
2.0
 50
90.000000000000114
 51
150.00000000000011
  0
LINE
  5
2C3E
  8
0
 10
705.46401870698583
 20
308.13762319983971
 30
0.0
 11
704.3093181686063
 21
306.13762319983982
 31
0.0
  0
LINE
  5
2C3F
  8
0
 10
699.3093181686063
 20
306.13762319983971
 30
0.0
 11
704.3093181686063
 21
306.13762319983971
 31
0.0
  0
ARC
  5
2C40
  8
0
 10
720.8093181686063
 20
307.13762319983982
 30
0.0
 40
2.0
 50
0.0000000000002554
 51
90.000000000000171
  0
ARC
  5
2C41
  8
0
 10
724.90905642257758
 20
297.63762319983971
 30
0.0
 40
1.0
 50
270.0
 51
353.99099404250541
  0
LINE
  5
2C42
  8
0
 10
723.80931816860618
 20
296.63762319983971
 30
0.0
 11
724.90905642257758
 21
296.63762319983971
 31
0.0
  0
ARC
  5
2C43
  8
0
 10
723.80931816860618
 20
297.63762319983971
 30
0.0
 40
1.0
 50
180.0
 51
270.0
  0
LINE
  5
2C44
  8
0
 10
725.90356187549867
 20
297.53293841532172
 30
0.0
 11
726.71507446171324
 21
305.24230798435781
 31
0.0
  0
LINE
  5
2C45
  8
0
 10
707.30931816860618
 20
329.13762319983971
 30
0.0
 11
719.80931816860618
 21
329.13762319983971
 31
0.0
  0
ARC
  5
2C46
  8
0
 10
707.30931816860618
 20
326.13762319983971
 30
0.0
 40
3.0
 50
90.000000000000185
 51
180.0
  0
ARC
  5
2C47
  8
0
 10
719.80931816860618
 20
326.13762319983971
 30
0.0
 40
3.0
 50
0.0000000000002778
 51
90.000000000000185
  0
LINE
  5
2C48
  8
0
 10
685.32557442240534
 20
359.23280252988059
 30
0.0
 11
691.76507442240484
 21
352.93055252988091
 31
0.0
  0
LINE
  5
2C49
  8
0
 10
676.00944942240505
 20
356.08167752988072
 30
0.0
 11
685.32557442240534
 21
356.08167752988072
 31
0.0
  0
LINE
  5
2C4A
  8
0
 10
672.85719942240485
 20
359.23280252988059
 30
0.0
 11
676.00944942240505
 21
356.08167752988072
 31
0.0
  0
LINE
  5
2C4B
  8
0
 10
685.32557442240534
 20
356.08167752988072
 30
0.0
 11
685.32557442240534
 21
359.23280252988059
 31
0.0
  0
ARC
  5
2C4C
  8
0
 10
726.80931816860618
 20
340.63762319983971
 30
0.0
 40
1.0
 50
90.0
 51
180.0
  0
ARC
  5
2C4D
  8
0
 10
721.8093181686063
 20
340.63762319983971
 30
0.0
 40
1.0
 50
0.0
 51
90.0
  0
ARC
  5
2C4E
  8
0
 10
723.80931816860618
 20
347.63762319983971
 30
0.0
 40
1.0
 50
180.0
 51
270.0
  0
ARC
  5
2C4F
  8
0
 10
724.8093181686063
 20
347.63762319983971
 30
0.0
 40
1.0
 50
270.0
 51
0.0
  0
LINE
  5
2C50
  8
0
 10
707.30931816860618
 20
364.13762319983971
 30
0.0
 11
719.80931816860618
 21
364.13762319983971
 31
0.0
  0
ARC
  5
2C51
  8
0
 10
707.30931816860618
 20
367.13762319983971
 30
0.0
 40
3.0
 50
180.00000000000011
 51
270.0
  0
ARC
  5
2C52
  8
0
 10
719.80931816860618
 20
367.13762319983971
 30
0.0
 40
3.0
 50
270.0
 51
359.99999999999989
  0
LINE
  5
2C53
  8
0
 10
724.07726736103723
 20
462.78825066371638
 30
0.0
 11
724.07726736103723
 21
449.87236963793691
 31
0.0
  0
LINE
  5
2C54
  8
0
 10
699.3093181686063
 20
484.39375849194812
 30
0.0
 11
699.3093181686063
 21
443.89375849194801
 31
0.0
  0
LINE
  5
2C55
  8
0
 10
725.8093181686063
 20
524.89375849194812
 30
0.0
 11
725.8093181686063
 21
443.89375849194801
 31
0.0
  0
LINE
  5
2C56
  8
0
 10
707.30931816860618
 20
478.39375849194812
 30
0.0
 11
707.30931816860618
 21
435.39375849194812
 31
0.0
  0
LINE
  5
2C57
  8
0
 10
704.3093181686063
 20
478.39375849194812
 30
0.0
 11
704.3093181686063
 21
434.95840944964152
 31
0.0
  0
LINE
  5
2C58
  8
0
 10
725.90356187549867
 20
395.74230798435781
 30
0.0
 11
726.71507446171324
 21
388.03293841532172
 31
0.0
  0
LINE
  5
2C59
  8
0
 10
706.04136897617525
 20
384.13762319983971
 30
0.0
 11
720.8093181686063
 21
384.13762319983971
 31
0.0
  0
LINE
  5
2C5A
  8
0
 10
706.04136897617525
 20
384.13762319983971
 30
0.0
 11
704.3093181686063
 21
387.13762319983971
 31
0.0
  0
LINE
  5
2C5B
  8
0
 10
699.3093181686063
 20
387.13762319983971
 30
0.0
 11
704.3093181686063
 21
387.13762319983971
 31
0.0
  0
ARC
  5
2C5C
  8
0
 10
720.8093181686063
 20
386.13762319983971
 30
0.0
 40
2.0
 50
270.0
 51
359.99999999999989
  0
ARC
  5
2C5D
  8
0
 10
724.90905642257758
 20
395.63762319983971
 30
0.0
 40
1.0
 50
6.0090059574946286
 51
90.0
  0
LINE
  5
2C5E
  8
0
 10
723.80931816860618
 20
396.63762319983971
 30
0.0
 11
724.90905642257758
 21
396.63762319983971
 31
0.0
  0
ARC
  5
2C5F
  8
0
 10
723.80931816860618
 20
395.63762319983971
 30
0.0
 40
1.0
 50
90.0
 51
180.0
  0
LINE
  5
2C60
  8
0
 10
704.21507446171381
 20
435.28907370743002
 30
0.0
 11
703.40356187549924
 21
442.99844327646611
 31
0.0
  0
LINE
  5
2C61
  8
0
 10
706.30931816860618
 20
434.39375849194812
 30
0.0
 11
705.20957991463501
 21
434.39375849194812
 31
0.0
  0
ARC
  5
2C62
  8
0
 10
706.30931816860618
 20
435.39375849194812
 30
0.0
 40
1.0
 50
270.0
 51
0.0
  0
ARC
  5
2C63
  8
0
 10
705.20957991463501
 20
435.39375849194812
 30
0.0
 40
1.0
 50
186.00900595749459
 51
270.0
  0
LINE
  5
2C64
  8
0
 10
722.92256682265815
 20
446.89375849194812
 30
0.0
 11
709.3093181686063
 21
446.89375849194812
 31
0.0
  0
ARC
  5
2C65
  8
0
 10
702.40905642257803
 20
442.89375849194812
 30
0.0
 40
1.0
 50
6.0090059574945291
 51
90.0
  0
LINE
  5
2C66
  8
0
 10
702.40905642257803
 20
443.89375849194801
 30
0.0
 11
699.3093181686063
 21
443.89375849194801
 31
0.0
  0
ARC
  5
2C67
  8
0
 10
709.3093181686063
 20
444.89375849194812
 30
0.0
 40
2.0
 50
89.999999999999844
 51
179.99999999999969
  0
ARC
  5
2C68
  8
0
 10
722.92256682265815
 20
444.89375849194812
 30
0.0
 40
2.0
 50
29.999999999999918
 51
89.999999999999915
  0
LINE
  5
2C69
  8
0
 10
724.65461763022665
 20
445.89375849194812
 30
0.0
 11
725.8093181686063
 21
443.89375849194801
 31
0.0
  0
LINE
  5
2C6A
  8
0
 10
699.3093181686063
 20
524.89375849194812
 30
0.0
 11
699.3093181686063
 21
484.39375849194812
 31
0.0
  0
LINE
  5
2C6B
  8
0
 10
704.3093181686063
 20
485.39375849194812
 30
0.0
 11
704.3093181686063
 21
524.89375849194812
 31
0.0
  0
LINE
  5
2C6C
  8
0
 10
707.30931816860618
 20
533.39375849194812
 30
0.0
 11
707.30931816860618
 21
485.39375849194812
 31
0.0
  0
LINE
  5
2C6D
  8
0
 10
722.80931816860618
 20
466.89375849194812
 30
0.0
 11
710.30931816860618
 21
466.89375849194812
 31
0.0
  0
ARC
  5
2C6E
  8
0
 10
710.30931816860618
 20
463.89375849194812
 30
0.0
 40
3.0
 50
89.999999999999815
 51
179.99999999999969
  0
ARC
  5
2C6F
  8
0
 10
722.80931816860618
 20
463.89375849194812
 30
0.0
 40
3.0
 50
360.0
 51
89.999999999999815
  0
ARC
  5
2C70
  8
0
 10
708.3093181686063
 20
478.39375849194812
 30
0.0
 40
1.0
 50
90.0
 51
180.0
  0
ARC
  5
2C71
  8
0
 10
703.30931816860618
 20
478.39375849194812
 30
0.0
 40
1.0
 50
0.0
 51
90.0
  0
ARC
  5
2C72
  8
0
 10
705.3093181686063
 20
485.39375849194812
 30
0.0
 40
1.0
 50
180.0
 51
270.0
  0
ARC
  5
2C73
  8
0
 10
706.30931816860618
 20
485.39375849194812
 30
0.0
 40
1.0
 50
270.0
 51
0.0
  0
LINE
  5
2C74
  8
0
 10
724.07726736103723
 20
518.91514734595933
 30
0.0
 11
724.07726736103723
 21
505.41835832470127
 31
0.0
  0
LINE
  5
2C75
  8
0
 10
722.80931816860618
 20
501.89375849194812
 30
0.0
 11
710.30931816860618
 21
501.89375849194812
 31
0.0
  0
ARC
  5
2C76
  8
0
 10
710.30931816860618
 20
504.89375849194812
 30
0.0
 40
3.0
 50
180.00000000000011
 51
270.0
  0
ARC
  5
2C77
  8
0
 10
722.80931816860618
 20
504.89375849194812
 30
0.0
 40
3.0
 50
270.0
 51
359.99999999999989
  0
LINE
  5
2C78
  8
0
 10
724.07726736103723
 20
521.89375849194812
 30
0.0
 11
709.3093181686063
 21
521.89375849194812
 31
0.0
  0
LINE
  5
2C79
  8
0
 10
706.30931816860618
 20
534.39375849194812
 30
0.0
 11
705.20957991463501
 21
534.39375849194812
 31
0.0
  0
ARC
  5
2C7A
  8
0
 10
706.30931816860618
 20
533.39375849194812
 30
0.0
 40
1.0
 50
0.0
 51
90.0
  0
ARC
  5
2C7B
  8
0
 10
705.20957991463501
 20
533.39375849194812
 30
0.0
 40
1.0
 50
90.0
 51
173.99099404250541
  0
ARC
  5
2C7C
  8
0
 10
709.3093181686063
 20
523.89375849194812
 30
0.0
 40
2.0
 50
180.00000000000011
 51
270.0
  0
ARC
  5
2C7D
  8
0
 10
702.40905642257803
 20
525.89375849194812
 30
0.0
 40
1.0
 50
270.0
 51
353.99099404250552
  0
LINE
  5
2C7E
  8
0
 10
707.30931816860618
 20
524.89375849194812
 30
0.0
 11
699.3093181686063
 21
524.89375849194812
 31
0.0
  0
LINE
  5
2C7F
  8
0
 10
704.21507446171381
 20
533.49844327646599
 30
0.0
 11
703.40356187549924
 21
525.78907370743013
 31
0.0
  0
LINE
  5
2C80
  8
0
 10
724.07726736103723
 20
521.89375849194812
 30
0.0
 11
725.8093181686063
 21
524.89375849194812
 31
0.0
  0
LINE
  5
2C81
  8
0
 10
260.98543395919762
 20
679.07899461797513
 30
0.0
 11
279.89218395919772
 21
679.07899461797513
 31
0.0
  0
LINE
  5
2C82
  8
0
 10
267.28768395919741
 20
672.7767446179754
 30
0.0
 11
260.98543395919762
 21
679.07899461797513
 31
0.0
  0
LINE
  5
2C83
  8
0
 10
258.20830760309678
 20
788.70350130735221
 30
0.0
 11
277.115057603097
 21
788.70350130735221
 31
0.0
  0
LINE
  5
2C84
  8
0
 10
264.51055760309657
 20
782.40125130735237
 30
0.0
 11
258.20830760309678
 21
788.70350130735221
 31
0.0
  0
LINE
  5
2C85
  8
0
 10
219.7318683160056
 20
696.92527654303262
 30
0.0
 11
219.7318683160054
 21
703.53142362331187
 31
0.0
  0
ARC
  5
2C86
  8
0
 10
219.7318683160054
 20
672.54755685365262
 30
0.0
 40
32.0
 50
91.84857164522856
 51
110.0
  0
ARC
  5
2C87
  8
0
 10
248.22748571874581
 20
671.88555948295141
 30
0.0
 40
50.0
 50
142.07399906456749
 51
176.0380320996056
  0
TEXT
  5
2C88
  8
0
 10
125.19759120060139
 20
654.30028993995575
 30
0.0
 40
15.0
  1
正面
  0
CIRCLE
  5
2C89
  8
0
 10
219.7318683160054
 20
672.54755685365262
 30
0.0
 40
21.5
  0
ARC
  5
2C8A
  8
0
 10
220.3938656867065
 20
701.04317425639294
 30
0.0
 40
50.0
 50
232.0739990645676
 51
266.03803209960569
  0
ARC
  5
2C8B
  8
0
 10
219.7318683160054
 20
672.54755685365262
 30
0.0
 40
32.0
 50
181.84857164522859
 51
200.0
  0
LINE
  5
2C8C
  8
0
 10
195.35414862662529
 20
672.54755685365262
 30
0.0
 11
188.7480015463461
 21
672.54755685365262
 31
0.0
  0
ARC
  5
2C8D
  8
0
 10
188.7480015463461
 20
671.54755685365251
 30
0.0
 40
1.0
 50
90.0
 51
181.84857164523009
  0
ARC
  5
2C8E
  8
0
 10
195.35414862662529
 20
675.54755685365251
 30
0.0
 40
3.0
 50
270.0
 51
356.03803209960512
  0
CIRCLE
  5
2C8F
  8
0
 10
219.7318683160054
 20
672.54755685365262
 30
0.0
 40
11.0
  0
ARC
  5
2C90
  8
0
 10
191.2362509132652
 20
673.20955422435372
 30
0.0
 40
50.0
 50
322.0739990645676
 51
356.03803209960557
  0
ARC
  5
2C91
  8
0
 10
220.7318683160054
 20
641.56369008399315
 30
0.0
 40
1.0
 50
180.0
 51
271.84857164522862
  0
ARC
  5
2C92
  8
0
 10
219.7318683160054
 20
672.54755685365262
 30
0.0
 40
32.0
 50
271.84857164522862
 51
290.0
  0
ARC
  5
2C93
  8
0
 10
216.7318683160054
 20
648.16983716427262
 30
0.0
 40
3.0
 50
0.0000000000011011
 51
86.038032099605218
  0
LINE
  5
2C94
  8
0
 10
219.7318683160054
 20
648.16983716427274
 30
0.0
 11
219.7318683160054
 21
641.56369008399315
 31
0.0
  0
ARC
  5
2C95
  8
0
 10
219.0698709453045
 20
644.0519394509123
 30
0.0
 40
50.0
 50
52.073999064567531
 51
86.038032099605573
  0
CIRCLE
  5
2C96
  8
0
 10
219.7318683160054
 20
672.54755685365262
 30
0.0
 40
7.5
  0
ARC
  5
2C97
  8
0
 10
222.7318683160054
 20
696.92527654303262
 30
0.0
 40
3.0
 50
180.0
 51
266.0380320996058
  0
ARC
  5
2C98
  8
0
 10
219.7318683160054
 20
672.54755685365262
 30
0.0
 40
32.0
 50
1.8485716452282039
 51
20.000000000000039
  0
LINE
  5
2C99
  8
0
 10
244.1095880053854
 20
672.54755685365262
 30
0.0
 11
250.71573508566459
 21
672.54755685365228
 31
0.0
  0
ARC
  5
2C9A
  8
0
 10
244.1095880053854
 20
669.54755685365262
 30
0.0
 40
3.0
 50
90.0
 51
176.03803209960509
  0
ARC
  5
2C9B
  8
0
 10
250.71573508566459
 20
673.54755685365228
 30
0.0
 40
1.0
 50
270.0
 51
1.848571645226907
  0
TEXT
  5
2C9C
  8
0
 10
125.19759120060139
 20
772.23293058056015
 30
0.0
 40
15.0
  1
平面
  0
ARC
  5
2C9D
  8
0
 10
218.7318683160054
 20
703.53142362331187
 30
0.0
 40
1.0
 50
0.000000000000007
 51
91.84857164522856
  0
TEXT
  5
2C9E
  8
0
 10
125.19759120060139
 20
877.49404277370957
 30
0.0
 40
15.0
  1
背面
  0
LINE
  5
2C9F
  8
0
 10
708.61865506491347
 20
860.44849053949815
 30
0.0
 11
708.61865506491347
 21
890.94849053949838
 31
0.0
  0
LINE
  5
2CA0
  8
0
 10
706.61865506491358
 20
860.44849053949815
 30
0.0
 11
706.61865506491358
 21
890.94849053949838
 31
0.0
  0
LINE
  5
2CA1
  8
0
 10
308.38686126191828
 20
862.96467900904486
 30
0.0
 11
308.38686126191828
 21
871.44802535191911
 31
0.0
  0
LINE
  5
2CA2
  8
0
 10
310.38686126191811
 20
892.94802535191911
 30
0.0
 11
310.38686126191811
 21
862.96467900904486
 31
0.0
  0
LINE
  5
2CA3
  8
0
 10
372.68441415171492
 20
696.92527654303262
 30
0.0
 11
372.68441415171492
 21
703.53142362331187
 31
0.0
  0
ARC
  5
2CA4
  8
0
 10
372.68441415171492
 20
672.54755685365262
 30
0.0
 40
32.0
 50
69.999999999999986
 51
88.151428354771454
  0
LINE
  5
2CA5
  8
0
 10
314.38686126191811
 20
673.54755685365262
 30
0.0
 11
314.38686126191811
 21
703.53090319652688
 31
0.0
  0
LINE
  5
2CA6
  8
0
 10
316.38686126191777
 20
703.53090319652688
 30
0.0
 11
316.38686126191777
 21
695.04755685365262
 31
0.0
  0
ARC
  5
2CA7
  8
0
 10
344.18879674897471
 20
671.88555948295141
 30
0.0
 40
50.0
 50
3.9619679003943662
 51
37.926000935432462
  0
ARC
  5
2CA8
  8
0
 10
372.02241678101399
 20
701.04317425639294
 30
0.0
 40
50.0
 50
273.96196790039431
 51
307.9260009354324
  0
CIRCLE
  5
2CA9
  8
0
 10
372.68441415171492
 20
672.54755685365262
 30
0.0
 40
21.5
  0
CIRCLE
  5
2CAA
  8
0
 10
372.68441415171492
 20
672.54755685365262
 30
0.0
 40
12.5
  0
CIRCLE
  5
2CAB
  8
0
 10
372.68441415171492
 20
672.54755685365262
 30
0.0
 40
8.75
  0
CIRCLE
  5
2CAC
  8
0
 10
372.68441415171492
 20
672.54755685365262
 30
0.0
 40
7.5
  0
TEXT
  5
2CAD
  8
0
 10
291.23085866027583
 20
601.87173313839355
 30
0.0
 40
12.5
  1
15A
 41
0.8
 11
291.23085866027583
 21
601.87173313839355
 31
0.0
 73
     1
  0
LINE
  5
2CAE
  8
0
 10
312.38686126191811
 20
656.49083159499685
 30
0.0
 11
312.38686126191777
 21
663.54755685365262
 31
0.0
  0
LINE
  5
2CAF
  8
0
 10
309.84059990597387
 20
656.66724836551634
 30
0.0
 11
309.84059990597387
 21
663.54755685365262
 31
0.0
  0
LINE
  5
2CB0
  8
0
 10
320.38686126191811
 20
651.04755685365262
 30
0.0
 11
320.38686126191811
 21
694.04755685365262
 31
0.0
  0
LINE
  5
2CB1
  8
0
 10
307.38686126191811
 20
651.04755685365262
 30
0.0
 11
307.38686126191811
 21
694.04755685365262
 31
0.0
  0
LINE
  5
2CB2
  8
0
 10
304.386861261918
 20
651.04755685365262
 30
0.0
 11
304.386861261918
 21
672.54755685365262
 31
0.0
  0
LINE
  5
2CB3
  8
0
 10
316.38686126191811
 20
641.56421051077825
 30
0.0
 11
316.38686126191777
 21
670.54913903923625
 31
0.0
  0
LINE
  5
2CB4
  8
0
 10
314.38686126191811
 20
641.56421051077825
 30
0.0
 11
314.38686126191811
 21
670.54913903923625
 31
0.0
  0
ARC
  5
2CB5
  8
0
 10
315.38686126191811
 20
641.56421051077825
 30
0.0
 40
1.0
 50
180.0
 51
270.0
  0
ARC
  5
2CB6
  8
0
 10
315.38686126191777
 20
641.56421051077825
 30
0.0
 40
1.0
 50
270.0
 51
0.0
  0
LINE
  5
2CB7
  8
0
 10
304.386861261918
 20
651.04755685365262
 30
0.0
 11
307.38686126191811
 21
651.04755685365262
 31
0.0
  0
ARC
  5
2CB8
  8
0
 10
312.38686126191811
 20
653.29755685365262
 30
0.0
 40
2.0
 50
0.0
 51
90.0
  0
LINE
  5
2CB9
  8
0
 10
310.99530044435329
 20
655.29755685365262
 30
0.0
 11
312.38686126191811
 21
655.29755685365262
 31
0.0
  0
ARC
  5
2CBA
  8
0
 10
310.99530044435329
 20
653.29755685365262
 30
0.0
 40
2.0
 50
90.0
 51
149.9999999999998
  0
ARC
  5
2CBB
  8
0
 10
317.38686126191777
 20
650.04755685365262
 30
0.0
 40
1.0
 50
90.0
 51
180.0
  0
LINE
  5
2CBC
  8
0
 10
317.38686126191777
 20
651.04755685365262
 30
0.0
 11
320.38686126191811
 21
651.04755685365262
 31
0.0
  0
LINE
  5
2CBD
  8
0
 10
309.26324963678411
 20
654.29755685365262
 30
0.0
 11
307.38686126191811
 21
651.04755685365262
 31
0.0
  0
LINE
  5
2CBE
  8
0
 10
298.8000589591976
 20
672.7767446179754
 30
0.0
 11
267.28768395919741
 21
672.7767446179754
 31
0.0
  0
LINE
  5
2CBF
  8
0
 10
283.04443395919782
 20
675.92786961797526
 30
0.0
 11
292.3605589591981
 21
675.92786961797526
 31
0.0
  0
LINE
  5
2CC0
  8
0
 10
279.89218395919772
 20
679.07899461797513
 30
0.0
 11
283.04443395919782
 21
675.92786961797526
 31
0.0
  0
LINE
  5
2CC1
  8
0
 10
312.38686126191777
 20
681.54755685365262
 30
0.0
 11
312.38686126191777
 21
688.60428211230828
 31
0.0
  0
LINE
  5
2CC2
  8
0
 10
309.84059990597387
 20
681.54755685365262
 30
0.0
 11
309.84059990597387
 21
688.42786534178879
 31
0.0
  0
LINE
  5
2CC3
  8
0
 10
304.386861261918
 20
672.54755685365262
 30
0.0
 11
304.386861261918
 21
694.04755685365262
 31
0.0
  0
LINE
  5
2CC4
  8
0
 10
316.38686126191811
 20
673.54755685365262
 30
0.0
 11
316.38686126191811
 21
693.04755685365262
 31
0.0
  0
LINE
  5
2CC5
  8
0
 10
292.3605589591981
 20
679.07899461797513
 30
0.0
 11
298.8000589591976
 21
672.7767446179754
 31
0.0
  0
LINE
  5
2CC6
  8
0
 10
292.3605589591981
 20
675.92786961797526
 30
0.0
 11
292.3605589591981
 21
679.07899461797513
 31
0.0
  0
ARC
  5
2CC7
  8
0
 10
312.38686126191811
 20
680.54755685365262
 30
0.0
 40
2.0
 50
270.0
 51
0.0
  0
ARC
  5
2CC8
  8
0
 10
309.38686126191811
 20
680.54755685365262
 30
0.0
 40
2.0
 50
180.0
 51
270.0
  0
LINE
  5
2CC9
  8
0
 10
309.38686126191811
 20
678.54755685365262
 30
0.0
 11
312.38686126191811
 21
678.54755685365262
 31
0.0
  0
ARC
  5
2CCA
  8
0
 10
312.38686126191811
 20
664.54755685365262
 30
0.0
 40
2.0
 50
0.0
 51
90.0
  0
ARC
  5
2CCB
  8
0
 10
313.38686126191811
 20
670.54913903923625
 30
0.0
 40
1.0
 50
0.0
 51
90.0
  0
ARC
  5
2CCC
  8
0
 10
317.38686126191777
 20
670.54913903923625
 30
0.0
 40
1.0
 50
90.0
 51
180.0
  0
ARC
  5
2CCD
  8
0
 10
315.38686126191777
 20
673.54755685365262
 30
0.0
 40
1.0
 50
270.0
 51
0.0
  0
ARC
  5
2CCE
  8
0
 10
315.38686126191811
 20
673.54755685365262
 30
0.0
 40
1.0
 50
180.0
 51
270.0
  0
ARC
  5
2CCF
  8
0
 10
309.38686126191811
 20
664.54755685365262
 30
0.0
 40
2.0
 50
90.0
 51
180.0
  0
LINE
  5
2CD0
  8
0
 10
309.38686126191811
 20
666.54755685365262
 30
0.0
 11
312.38686126191811
 21
666.54755685365262
 31
0.0
  0
LINE
  5
2CD1
  8
0
 10
304.386861261918
 20
694.04755685365262
 30
0.0
 11
307.38686126191811
 21
694.04755685365262
 31
0.0
  0
LINE
  5
2CD2
  8
0
 10
310.99530044435329
 20
689.79755685365262
 30
0.0
 11
312.38686126191811
 21
689.79755685365262
 31
0.0
  0
ARC
  5
2CD3
  8
0
 10
312.38686126191811
 20
691.79755685365262
 30
0.0
 40
2.0
 50
270.0
 51
0.0
  0
LINE
  5
2CD4
  8
0
 10
314.38686126191811
 20
694.04755685365262
 30
0.0
 11
320.38686126191811
 21
694.04755685365262
 31
0.0
  0
ARC
  5
2CD5
  8
0
 10
317.38686126191811
 20
693.04755685365262
 30
0.0
 40
1.0
 50
90.0
 51
180.0
  0
ARC
  5
2CD6
  8
0
 10
317.38686126191777
 20
695.04755685365262
 30
0.0
 40
1.0
 50
180.0
 51
270.0
  0
LINE
  5
2CD7
  8
0
 10
309.26324963678411
 20
690.79755685365262
 30
0.0
 11
307.38686126191811
 21
694.04755685365262
 31
0.0
  0
ARC
  5
2CD8
  8
0
 10
310.99530044435329
 20
691.79755685365262
 30
0.0
 40
2.0
 50
210.0000000000002
 51
270.0
  0
LINE
  5
2CD9
  8
0
 10
374.93441415171492
 20
662.8039692187001
 30
0.0
 11
374.93441415171492
 21
660.25172422629464
 31
0.0
  0
LINE
  5
2CDA
  8
0
 10
370.43441415171492
 20
662.8039692187001
 30
0.0
 11
370.43441415171492
 21
660.25172422629464
 31
0.0
  0
ARC
  5
2CDB
  8
0
 10
401.1800315544553
 20
673.20955422435372
 30
0.0
 40
50.0
 50
183.9619679003944
 51
217.92600093543251
  0
ARC
  5
2CDC
  8
0
 10
371.68441415171492
 20
641.56369008399315
 30
0.0
 40
1.0
 50
268.1514283547715
 51
0.0
  0
ARC
  5
2CDD
  8
0
 10
372.68441415171492
 20
672.54755685365262
 30
0.0
 40
32.0
 50
250.0
 51
268.1514283547715
  0
LINE
  5
2CDE
  8
0
 10
372.68441415171492
 20
648.16983716427274
 30
0.0
 11
372.68441415171492
 21
641.56369008399315
 31
0.0
  0
ARC
  5
2CDF
  8
0
 10
375.68441415171492
 20
648.16983716427262
 30
0.0
 40
3.0
 50
93.961967900394782
 51
179.99999999999889
  0
ARC
  5
2CE0
  8
0
 10
348.30669446233509
 20
669.54755685365262
 30
0.0
 40
3.0
 50
3.96196790039486
 51
90.0
  0
ARC
  5
2CE1
  8
0
 10
373.34641152241602
 20
644.0519394509123
 30
0.0
 40
50.0
 50
93.961967900394413
 51
127.9260009354324
  0
ARC
  5
2CE2
  8
0
 10
372.68441415171492
 20
672.54755685365262
 30
0.0
 40
32.0
 50
159.99999999999989
 51
178.15142835477181
  0
LINE
  5
2CE3
  8
0
 10
348.30669446233509
 20
672.54755685365262
 30
0.0
 11
341.70054738205567
 21
672.54755685365228
 31
0.0
  0
ARC
  5
2CE4
  8
0
 10
341.70054738205567
 20
673.54755685365228
 30
0.0
 40
1.0
 50
178.15142835477309
 51
270.0
  0
LINE
  5
2CE5
  8
0
 10
362.94082651676263
 20
674.79755685365262
 30
0.0
 11
360.38858152435699
 21
674.79755685365262
 31
0.0
  0
LINE
  5
2CE6
  8
0
 10
362.94082651676263
 20
670.29755685365262
 30
0.0
 11
360.38858152435699
 21
670.29755685365262
 31
0.0
  0
ARC
  5
2CE7
  8
0
 10
372.68441415171492
 20
672.54755685365262
 30
0.0
 40
10.0
 50
166.9971218370861
 51
193.0028781629139
  0
ARC
  5
2CE8
  8
0
 10
372.68441415171492
 20
672.54755685365262
 30
0.0
 40
10.0
 50
256.99712183708613
 51
283.00287816291421
  0
LINE
  5
2CE9
  8
0
 10
370.43441415171492
 20
682.29114448860514
 30
0.0
 11
370.43441415171492
 21
684.84338948101049
 31
0.0
  0
LINE
  5
2CEA
  8
0
 10
374.93441415171492
 20
682.29114448860514
 30
0.0
 11
374.93441415171492
 21
684.84338948101049
 31
0.0
  0
ARC
  5
2CEB
  8
0
 10
372.68441415171492
 20
672.54755685365262
 30
0.0
 40
10.0
 50
76.997121837086041
 51
103.002878162914
  0
ARC
  5
2CEC
  8
0
 10
369.68441415171492
 20
696.92527654303262
 30
0.0
 40
3.0
 50
273.96196790039431
 51
0.0
  0
ARC
  5
2CED
  8
0
 10
372.68441415171492
 20
672.54755685365262
 30
0.0
 40
32.0
 50
339.99999999999989
 51
358.15142835477138
  0
ARC
  5
2CEE
  8
0
 10
397.06213384109492
 20
675.54755685365251
 30
0.0
 40
3.0
 50
183.9619679003948
 51
270.0
  0
LINE
  5
2CEF
  8
0
 10
382.42800178666772
 20
674.79755685365262
 30
0.0
 11
384.98024677907301
 21
674.79755685365262
 31
0.0
  0
LINE
  5
2CF0
  8
0
 10
382.42800178666772
 20
670.29755685365262
 30
0.0
 11
384.98024677907301
 21
670.29755685365262
 31
0.0
  0
ARC
  5
2CF1
  8
0
 10
372.68441415171492
 20
672.54755685365262
 30
0.0
 40
10.0
 50
346.99712183708613
 51
13.00287816291393
  0
ARC
  5
2CF2
  8
0
 10
403.66828092137428
 20
671.54755685365251
 30
0.0
 40
1.0
 50
358.15142835476979
 51
90.0
  0
LINE
  5
2CF3
  8
0
 10
397.06213384109492
 20
672.54755685365262
 30
0.0
 11
403.66828092137428
 21
672.54755685365262
 31
0.0
  0
LINE
  5
2CF4
  8
0
 10
289.58343260309732
 20
788.70350130735221
 30
0.0
 11
296.02293260309682
 21
782.40125130735237
 31
0.0
  0
ARC
  5
2CF5
  8
0
 10
315.38686126191811
 20
785.47002328768804
 30
0.0
 40
1.0
 50
180.0
 51
270.0
  0
ARC
  5
2CF6
  8
0
 10
315.38686126191777
 20
785.47002328768804
 30
0.0
 40
1.0
 50
270.0
 51
0.0
  0
LINE
  5
2CF7
  8
0
 10
304.386861261918
 20
784.47002328768804
 30
0.0
 11
304.386861261918
 21
805.97002328768792
 31
0.0
  0
LINE
  5
2CF8
  8
0
 10
307.38686126191811
 20
762.97002328768804
 30
0.0
 11
307.38686126191811
 21
805.97002328768792
 31
0.0
  0
LINE
  5
2CF9
  8
0
 10
320.38686126191811
 20
762.97002328768804
 30
0.0
 11
320.38686126191811
 21
805.97002328768792
 31
0.0
  0
ARC
  5
2CFA
  8
0
 10
315.38686126191777
 20
703.53090319652688
 30
0.0
 40
1.0
 50
0.0
 51
90.0
  0
ARC
  5
2CFB
  8
0
 10
315.38686126191811
 20
703.53090319652688
 30
0.0
 40
1.0
 50
90.0
 51
180.0
  0
LINE
  5
2CFC
  8
0
 10
296.02293260309682
 20
782.40125130735237
 30
0.0
 11
264.51055760309657
 21
782.40125130735237
 31
0.0
  0
LINE
  5
2CFD
  8
0
 10
309.26324963678411
 20
766.22002328768804
 30
0.0
 11
307.38686126191811
 21
762.97002328768804
 31
0.0
  0
LINE
  5
2CFE
  8
0
 10
304.386861261918
 20
762.97002328768804
 30
0.0
 11
304.386861261918
 21
784.47002328768804
 31
0.0
  0
LINE
  5
2CFF
  8
0
 10
314.38686126191811
 20
753.48667694481378
 30
0.0
 11
314.38686126191811
 21
782.47160547327155
 31
0.0
  0
LINE
  5
2D00
  8
0
 10
316.38686126191811
 20
753.48667694481378
 30
0.0
 11
316.38686126191777
 21
782.47160547327155
 31
0.0
  0
LINE
  5
2D01
  8
0
 10
304.386861261918
 20
762.97002328768804
 30
0.0
 11
307.38686126191811
 21
762.97002328768804
 31
0.0
  0
ARC
  5
2D02
  8
0
 10
317.38686126191777
 20
761.97002328768804
 30
0.0
 40
1.0
 50
90.0
 51
180.0
  0
LINE
  5
2D03
  8
0
 10
317.38686126191777
 20
762.97002328768804
 30
0.0
 11
320.38686126191811
 21
762.97002328768804
 31
0.0
  0
ARC
  5
2D04
  8
0
 10
315.38686126191777
 20
753.48667694481378
 30
0.0
 40
1.0
 50
270.0
 51
0.0
  0
ARC
  5
2D05
  8
0
 10
315.38686126191811
 20
753.48667694481378
 30
0.0
 40
1.0
 50
180.0
 51
270.0
  0
ARC
  5
2D06
  8
0
 10
317.38686126191777
 20
782.47160547327155
 30
0.0
 40
1.0
 50
90.0
 51
180.0
  0
ARC
  5
2D07
  8
0
 10
313.38686126191811
 20
782.47160547327155
 30
0.0
 40
1.0
 50
0.0
 51
90.0
  0
LINE
  5
2D08
  8
0
 10
310.99530044435329
 20
767.22002328768804
 30
0.0
 11
312.38686126191811
 21
767.22002328768804
 31
0.0
  0
ARC
  5
2D09
  8
0
 10
312.38686126191811
 20
765.22002328768804
 30
0.0
 40
2.0
 50
0.0
 51
90.0
  0
LINE
  5
2D0A
  8
0
 10
312.38686126191811
 20
768.41329802903215
 30
0.0
 11
312.38686126191777
 21
775.47002328768804
 31
0.0
  0
ARC
  5
2D0B
  8
0
 10
312.38686126191811
 20
776.47002328768804
 30
0.0
 40
2.0
 50
0.0
 51
90.0
  0
LINE
  5
2D0C
  8
0
 10
309.84059990597387
 20
768.58971479955164
 30
0.0
 11
309.84059990597387
 21
775.47002328768804
 31
0.0
  0
ARC
  5
2D0D
  8
0
 10
309.38686126191811
 20
776.47002328768804
 30
0.0
 40
2.0
 50
90.0
 51
180.0
  0
ARC
  5
2D0E
  8
0
 10
310.99530044435329
 20
765.22002328768804
 30
0.0
 40
2.0
 50
90.0
 51
149.9999999999998
  0
LINE
  5
2D0F
  8
0
 10
309.38686126191811
 20
778.47002328768804
 30
0.0
 11
312.38686126191811
 21
778.47002328768804
 31
0.0
  0
ARC
  5
2D10
  8
0
 10
373.68441415171492
 20
703.53142362331187
 30
0.0
 40
1.0
 50
88.151428354771454
 51
180.0
  0
LINE
  5
2D11
  8
0
 10
277.115057603097
 20
788.70350130735221
 30
0.0
 11
280.26730760309698
 21
785.55237630735235
 31
0.0
  0
LINE
  5
2D12
  8
0
 10
280.26730760309698
 20
785.55237630735235
 30
0.0
 11
289.58343260309732
 21
785.55237630735235
 31
0.0
  0
LINE
  5
2D13
  8
0
 10
289.58343260309732
 20
785.55237630735235
 30
0.0
 11
289.58343260309732
 21
788.70350130735221
 31
0.0
  0
ARC
  5
2D14
  8
0
 10
317.38686126191811
 20
804.97002328768804
 30
0.0
 40
1.0
 50
90.0
 51
180.0
  0
LINE
  5
2D15
  8
0
 10
309.26324963678411
 20
802.72002328768815
 30
0.0
 11
307.38686126191811
 21
805.97002328768792
 31
0.0
  0
LINE
  5
2D16
  8
0
 10
314.38686126191811
 20
785.47002328768804
 30
0.0
 11
314.38686126191811
 21
815.45336963056229
 31
0.0
  0
LINE
  5
2D17
  8
0
 10
310.99530044435329
 20
801.72002328768815
 30
0.0
 11
312.38686126191811
 21
801.72002328768815
 31
0.0
  0
ARC
  5
2D18
  8
0
 10
312.38686126191811
 20
803.72002328768804
 30
0.0
 40
2.0
 50
270.0
 51
0.0
  0
ARC
  5
2D19
  8
0
 10
310.99530044435329
 20
803.72002328768804
 30
0.0
 40
2.0
 50
210.0000000000002
 51
270.0
  0
ARC
  5
2D1A
  8
0
 10
312.38686126191811
 20
792.47002328768804
 30
0.0
 40
2.0
 50
270.0
 51
0.0
  0
ARC
  5
2D1B
  8
0
 10
309.38686126191811
 20
792.47002328768804
 30
0.0
 40
2.0
 50
180.0
 51
270.0
  0
LINE
  5
2D1C
  8
0
 10
309.38686126191811
 20
790.47002328768804
 30
0.0
 11
312.38686126191811
 21
790.47002328768804
 31
0.0
  0
LINE
  5
2D1D
  8
0
 10
312.38686126191777
 20
793.47002328768804
 30
0.0
 11
312.38686126191777
 21
800.52674854634381
 31
0.0
  0
LINE
  5
2D1E
  8
0
 10
309.84059990597387
 20
793.47002328768804
 30
0.0
 11
309.84059990597387
 21
800.35033177582432
 31
0.0
  0
LINE
  5
2D1F
  8
0
 10
316.38686126191811
 20
785.47002328768804
 30
0.0
 11
316.38686126191811
 21
804.97002328768804
 31
0.0
  0
LINE
  5
2D20
  8
0
 10
304.386861261918
 20
805.97002328768792
 30
0.0
 11
307.38686126191811
 21
805.97002328768792
 31
0.0
  0
ARC
  5
2D21
  8
0
 10
317.38686126191777
 20
806.97002328768792
 30
0.0
 40
1.0
 50
180.0
 51
270.0
  0
LINE
  5
2D22
  8
0
 10
314.38686126191811
 20
805.97002328768792
 30
0.0
 11
320.38686126191811
 21
805.97002328768792
 31
0.0
  0
LINE
  5
2D23
  8
0
 10
316.38686126191777
 20
815.45336963056229
 30
0.0
 11
316.38686126191777
 21
806.97002328768792
 31
0.0
  0
ARC
  5
2D24
  8
0
 10
315.38686126191811
 20
815.45336963056229
 30
0.0
 40
1.0
 50
90.0
 51
180.0
  0
ARC
  5
2D25
  8
0
 10
315.38686126191777
 20
815.45336963056229
 30
0.0
 40
1.0
 50
0.0
 51
90.0
  0
ARC
  5
2D26
  8
0
 10
309.38686126191828
 20
862.96467900904486
 30
0.0
 40
1.0
 50
180.0
 51
270.0
  0
ARC
  5
2D27
  8
0
 10
309.38686126191811
 20
862.96467900904486
 30
0.0
 40
1.0
 50
270.0
 51
0.0
  0
LINE
  5
2D28
  8
0
 10
716.61865506491347
 20
706.04709166607358
 30
0.0
 11
716.61865506491347
 21
699.04755685365262
 31
0.0
  0
LINE
  5
2D29
  8
0
 10
714.61865506491358
 20
699.04709166607324
 30
0.0
 11
714.61865506491358
 21
706.04709166607358
 31
0.0
  0
LINE
  5
2D2A
  8
0
 10
614.21015290222113
 20
701.79227837119731
 30
0.0
 11
614.21015290222113
 21
706.03262815415906
 31
0.0
  0
ARC
  5
2D2B
  8
0
 10
637.61481024178784
 20
669.46126849699908
 30
0.0
 40
50.0
 50
134.75583497010101
 51
173.40585550323681
  0
ARC
  5
2D2C
  8
0
 10
617.29644125887444
 20
695.95221419321933
 30
0.0
 40
50.0
 50
224.75583497010101
 51
263.40585550323709
  0
CIRCLE
  5
2D2D
  8
0
 10
614.21015290222113
 20
672.54755685365262
 30
0.0
 40
14.0
  0
CIRCLE
  5
2D2E
  8
0
 10
614.21015290222113
 20
672.54755685365262
 30
0.0
 40
10.0
  0
CIRCLE
  5
2D2F
  8
0
 10
614.21015290222113
 20
672.54755685365262
 30
0.0
 40
26.5
  0
ARC
  5
2D30
  8
0
 10
614.21015290222113
 20
672.54755685365262
 30
0.0
 40
34.5
 50
181.71057588031101
 51
200.00000000000011
  0
LINE
  5
2D31
  8
0
 10
584.96543138467621
 20
672.54755685365262
 30
0.0
 11
580.72508160171435
 21
672.54755685365262
 31
0.0
  0
ARC
  5
2D32
  8
0
 10
580.72508160171435
 20
671.54755685365251
 30
0.0
 40
1.0
 50
90.0
 51
181.71057588031161
  0
ARC
  5
2D33
  8
0
 10
584.96543138467621
 20
675.54755685365251
 30
0.0
 40
3.0
 50
270.0
 51
353.40585550323732
  0
LINE
  5
2D34
  8
0
 10
695.9307860656736
 20
671.38909727740815
 30
0.0
 11
664.41841106567335
 21
671.38909727740815
 31
0.0
  0
LINE
  5
2D35
  8
0
 10
658.11616106567374
 20
677.69134727740789
 30
0.0
 11
677.02291106567384
 21
677.69134727740789
 31
0.0
  0
ARC
  5
2D36
  8
0
 10
590.80549556265441
 20
675.63384521030616
 30
0.0
 40
50.0
 50
314.75583497010109
 51
353.40585550323698
  0
LINE
  5
2D37
  8
0
 10
614.21015290222113
 20
643.30283533610771
 30
0.0
 11
614.21015290222113
 21
639.06248555314619
 31
0.0
  0
ARC
  5
2D38
  8
0
 10
614.21015290222113
 20
672.54755685365262
 30
0.0
 40
34.5
 50
271.71057588031113
 51
290.00000000000011
  0
ARC
  5
2D39
  8
0
 10
615.21015290222101
 20
639.06248555314619
 30
0.0
 40
1.0
 50
180.0
 51
271.7105758803084
  0
ARC
  5
2D3A
  8
0
 10
611.21015290222113
 20
643.30283533610771
 30
0.0
 40
3.0
 50
0.000000000000007
 51
83.405855503236197
  0
ARC
  5
2D3B
  8
0
 10
643.45487441976593
 20
669.54755685365262
 30
0.0
 40
3.0
 50
90.0
 51
173.40585550323701
  0
ARC
  5
2D3C
  8
0
 10
611.12386454556747
 20
649.14289951408591
 30
0.0
 40
50.0
 50
44.75583497010107
 51
83.405855503236822
  0
ARC
  5
2D3D
  8
0
 10
617.21015290222113
 20
701.79227837119731
 30
0.0
 40
3.0
 50
179.99999999999889
 51
263.40585550323601
  0
ARC
  5
2D3E
  8
0
 10
614.21015290222113
 20
672.54755685365262
 30
0.0
 40
34.5
 50
1.7105758803112641
 51
20.000000000000082
  0
ARC
  5
2D3F
  8
0
 10
647.69522420272745
 20
673.54755685365262
 30
0.0
 40
1.0
 50
270.0
 51
1.7105758803116711
  0
LINE
  5
2D40
  8
0
 10
643.45487441976593
 20
672.54755685365262
 30
0.0
 11
647.69522420272745
 21
672.54755685365262
 31
0.0
  0
LINE
  5
2D41
  8
0
 10
664.41841106567335
 20
671.38909727740815
 30
0.0
 11
658.11616106567374
 21
677.69134727740789
 31
0.0
  0
ARC
  5
2D42
  8
0
 10
712.61865506491347
 20
660.04755685365262
 30
0.0
 40
2.0
 50
359.99999999999977
 51
90.0
  0
LINE
  5
2D43
  8
0
 10
708.79408154545627
 20
653.34058102417862
 30
0.0
 11
708.79408154545627
 21
662.04755685365262
 31
0.0
  0
ARC
  5
2D44
  8
0
 10
707.61865506491347
 20
660.04755685365262
 30
0.0
 40
2.0
 50
89.999999999999915
 51
179.99999999999989
  0
LINE
  5
2D45
  8
0
 10
702.11865506491358
 20
672.54755685365262
 30
0.0
 11
702.11865506491358
 21
646.04755685365262
 31
0.0
  0
LINE
  5
2D46
  8
0
 10
714.61865506491358
 20
639.04802204123166
 30
0.0
 11
714.61865506491358
 21
669.54802204123189
 31
0.0
  0
LINE
  5
2D47
  8
0
 10
716.61865506491347
 20
639.04802204123166
 30
0.0
 11
716.61865506491347
 21
669.54802204123189
 31
0.0
  0
LINE
  5
2D48
  8
0
 10
721.11865506491347
 20
672.54755685365262
 30
0.0
 11
721.11865506491347
 21
646.04755685365262
 31
0.0
  0
LINE
  5
2D49
  8
0
 10
705.61865506491358
 20
699.04755685365262
 30
0.0
 11
705.61865506491358
 21
646.04755685365262
 31
0.0
  0
ARC
  5
2D4A
  8
0
 10
715.61865506491358
 20
639.04802204123166
 30
0.0
 40
0.9999999999996589
 50
180.0
 51
0.0
  0
ARC
  5
2D4B
  8
0
 10
712.61865506491347
 20
649.54755685365262
 30
0.0
 40
2.0
 50
0.0
 51
90.0
  0
LINE
  5
2D4C
  8
0
 10
702.11865506491358
 20
646.04755685365262
 30
0.0
 11
705.61865506491358
 21
646.04755685365262
 31
0.0
  0
LINE
  5
2D4D
  8
0
 10
708.21673127626673
 20
650.54755685365251
 30
0.0
 11
705.61865506491358
 21
646.04755685365262
 31
0.0
  0
ARC
  5
2D4E
  8
0
 10
709.94878208383545
 20
649.54755685365262
 30
0.0
 40
2.0
 50
90.000000000000057
 51
150.0000000000004
  0
LINE
  5
2D4F
  8
0
 10
709.94878208383545
 20
651.54755685365262
 30
0.0
 11
712.61865506491347
 21
651.54755685365262
 31
0.0
  0
LINE
  5
2D50
  8
0
 10
716.61865506491347
 20
646.04755685365262
 30
0.0
 11
721.11865506491347
 21
646.04755685365262
 31
0.0
  0
LINE
  5
2D51
  8
0
 10
680.17516106567393
 20
674.54022227740813
 30
0.0
 11
689.49128606567422
 21
674.54022227740813
 31
0.0
  0
LINE
  5
2D52
  8
0
 10
677.02291106567384
 20
677.69134727740789
 30
0.0
 11
680.17516106567393
 21
674.54022227740813
 31
0.0
  0
LINE
  5
2D53
  8
0
 10
689.49128606567422
 20
677.69134727740789
 30
0.0
 11
695.9307860656736
 21
671.38909727740815
 31
0.0
  0
LINE
  5
2D54
  8
0
 10
689.49128606567422
 20
674.54022227740813
 30
0.0
 11
689.49128606567422
 21
677.69134727740789
 31
0.0
  0
LINE
  5
2D55
  8
0
 10
721.11865506491347
 20
699.04755685365262
 30
0.0
 11
721.11865506491347
 21
672.54755685365262
 31
0.0
  0
LINE
  5
2D56
  8
0
 10
702.11865506491358
 20
699.04755685365262
 30
0.0
 11
702.11865506491358
 21
672.54755685365262
 31
0.0
  0
LINE
  5
2D57
  8
0
 10
714.61865506491358
 20
673.54778944744203
 30
0.0
 11
714.61865506491358
 21
699.048022041232
 31
0.0
  0
LINE
  5
2D58
  8
0
 10
716.61865506491347
 20
673.54778944744203
 30
0.0
 11
716.61865506491347
 21
696.04802204123189
 31
0.0
  0
LINE
  5
2D59
  8
0
 10
707.61865506491347
 20
662.04755685365262
 30
0.0
 11
712.61865506491347
 21
662.04755685365262
 31
0.0
  0
ARC
  5
2D5A
  8
0
 10
713.61865506491381
 20
669.54802204123189
 30
0.0
 40
1.0
 50
0.0
 51
90.0
  0
ARC
  5
2D5B
  8
0
 10
717.61865506491347
 20
669.54802204123189
 30
0.0
 40
1.0
 50
90.0
 51
180.0
  0
ARC
  5
2D5C
  8
0
 10
715.61865506491358
 20
673.54778944744203
 30
0.0
 40
0.9999999999996589
 50
180.0
 51
0.0
  0
ARC
  5
2D5D
  8
0
 10
712.61865506491347
 20
695.54755685365262
 30
0.0
 40
2.0
 50
270.0
 51
0.0
  0
ARC
  5
2D5E
  8
0
 10
712.61865506491347
 20
685.04755685365262
 30
0.0
 40
2.0
 50
270.0
 51
0.0000000000002036
  0
LINE
  5
2D5F
  8
0
 10
702.11865506491358
 20
699.04755685365262
 30
0.0
 11
705.61865506491358
 21
699.04755685365262
 31
0.0
  0
ARC
  5
2D60
  8
0
 10
709.94878208383579
 20
695.54755685365262
 30
0.0
 40
2.0
 50
209.9999999999996
 51
270.0
  0
LINE
  5
2D61
  8
0
 10
708.79408154545627
 20
691.75453268312663
 30
0.0
 11
708.79408154545627
 21
683.04755685365262
 31
0.0
  0
ARC
  5
2D62
  8
0
 10
707.61865506491347
 20
685.04755685365262
 30
0.0
 40
2.0
 50
180.0
 51
270.0
  0
LINE
  5
2D63
  8
0
 10
707.61865506491347
 20
683.04755685365262
 30
0.0
 11
712.61865506491347
 21
683.04755685365262
 31
0.0
  0
LINE
  5
2D64
  8
0
 10
709.94878208383579
 20
693.54755685365262
 30
0.0
 11
712.61865506491347
 21
693.54755685365262
 31
0.0
  0
LINE
  5
2D65
  8
0
 10
708.21673127626673
 20
694.54755685365262
 30
0.0
 11
705.61865506491358
 21
699.04755685365262
 31
0.0
  0
ARC
  5
2D66
  8
0
 10
717.61865506491347
 20
696.04802204123189
 30
0.0
 40
1.0
 50
90.0
 51
179.9999999999998
  0
LINE
  5
2D67
  8
0
 10
714.61865506491358
 20
699.04755685365262
 30
0.0
 11
721.11865506491347
 21
699.04755685365262
 31
0.0
  0
ARC
  5
2D68
  8
0
 10
614.21015290222113
 20
672.54755685365262
 30
0.0
 40
34.5
 50
91.710575880310884
 51
110.0000000000001
  0
LINE
  5
2D69
  8
0
 10
675.63432577850574
 20
787.31584131904071
 30
0.0
 11
678.78657577850583
 21
784.16471631904085
 31
0.0
  0
LINE
  5
2D6A
  8
0
 10
688.10270077850612
 20
787.31584131904071
 30
0.0
 11
694.5422007785055
 21
781.01359131904098
 31
0.0
  0
LINE
  5
2D6B
  8
0
 10
688.10270077850612
 20
784.16471631904085
 30
0.0
 11
688.10270077850612
 21
787.31584131904071
 31
0.0
  0
LINE
  5
2D6C
  8
0
 10
663.02982577850526
 20
781.01359131904098
 30
0.0
 11
656.72757577850564
 21
787.31584131904071
 31
0.0
  0
ARC
  5
2D6D
  8
0
 10
715.61865506491358
 20
785.47025588147744
 30
0.0
 40
0.9999999999996589
 50
180.0
 51
0.0
  0
LINE
  5
2D6E
  8
0
 10
721.11865506491347
 20
810.97002328768804
 30
0.0
 11
721.11865506491347
 21
784.47002328768804
 31
0.0
  0
LINE
  5
2D6F
  8
0
 10
702.11865506491358
 20
810.97002328768804
 30
0.0
 11
702.11865506491358
 21
784.47002328768804
 31
0.0
  0
LINE
  5
2D70
  8
0
 10
705.61865506491358
 20
810.97002328768804
 30
0.0
 11
705.61865506491358
 21
757.97002328768804
 31
0.0
  0
LINE
  5
2D71
  8
0
 10
694.5422007785055
 20
781.01359131904098
 30
0.0
 11
663.02982577850526
 21
781.01359131904098
 31
0.0
  0
ARC
  5
2D72
  8
0
 10
613.21015290222113
 20
706.03262815415906
 30
0.0
 40
1.0
 50
0.000000000000007
 51
91.710575880308326
  0
ARC
  5
2D73
  8
0
 10
715.61865506491358
 20
706.04709166607358
 30
0.0
 40
0.9999999999996589
 50
0.0
 51
180.0
  0
LINE
  5
2D74
  8
0
 10
678.78657577850583
 20
784.16471631904085
 30
0.0
 11
688.10270077850612
 21
784.16471631904085
 31
0.0
  0
LINE
  5
2D75
  8
0
 10
702.11865506491358
 20
784.47002328768804
 30
0.0
 11
702.11865506491358
 21
757.97002328768804
 31
0.0
  0
LINE
  5
2D76
  8
0
 10
721.11865506491347
 20
784.47002328768804
 30
0.0
 11
721.11865506491347
 21
757.97002328768804
 31
0.0
  0
LINE
  5
2D77
  8
0
 10
716.61865506491347
 20
750.97048847526708
 30
0.0
 11
716.61865506491347
 21
781.47048847526742
 31
0.0
  0
LINE
  5
2D78
  8
0
 10
714.61865506491358
 20
750.97048847526708
 30
0.0
 11
714.61865506491358
 21
781.47048847526742
 31
0.0
  0
ARC
  5
2D79
  8
0
 10
712.61865506491347
 20
761.47002328768804
 30
0.0
 40
2.0
 50
0.0
 51
90.0
  0
LINE
  5
2D7A
  8
0
 10
702.11865506491358
 20
757.97002328768804
 30
0.0
 11
705.61865506491358
 21
757.97002328768804
 31
0.0
  0
LINE
  5
2D7B
  8
0
 10
708.21673127626673
 20
762.47002328768804
 30
0.0
 11
705.61865506491358
 21
757.97002328768804
 31
0.0
  0
ARC
  5
2D7C
  8
0
 10
709.94878208383545
 20
761.47002328768804
 30
0.0
 40
2.0
 50
90.000000000000057
 51
150.0000000000004
  0
LINE
  5
2D7D
  8
0
 10
709.94878208383545
 20
763.47002328768804
 30
0.0
 11
712.61865506491347
 21
763.47002328768804
 31
0.0
  0
LINE
  5
2D7E
  8
0
 10
716.61865506491347
 20
757.97002328768804
 30
0.0
 11
721.11865506491347
 21
757.97002328768804
 31
0.0
  0
ARC
  5
2D7F
  8
0
 10
715.61865506491358
 20
750.97048847526708
 30
0.0
 40
0.9999999999996589
 50
180.0
 51
0.0
  0
ARC
  5
2D80
  8
0
 10
712.61865506491347
 20
771.97002328768804
 30
0.0
 40
2.0
 50
359.99999999999977
 51
90.0
  0
LINE
  5
2D81
  8
0
 10
708.79408154545627
 20
765.26304745821403
 30
0.0
 11
708.79408154545627
 21
773.97002328768804
 31
0.0
  0
ARC
  5
2D82
  8
0
 10
707.61865506491347
 20
771.97002328768804
 30
0.0
 40
2.0
 50
89.999999999999915
 51
179.99999999999989
  0
LINE
  5
2D83
  8
0
 10
707.61865506491347
 20
773.97002328768804
 30
0.0
 11
712.61865506491347
 21
773.97002328768804
 31
0.0
  0
ARC
  5
2D84
  8
0
 10
717.61865506491347
 20
781.47048847526742
 30
0.0
 40
1.0
 50
90.0
 51
180.0
  0
ARC
  5
2D85
  8
0
 10
713.61865506491381
 20
781.47048847526742
 30
0.0
 40
1.0
 50
0.0
 51
90.0
  0
LINE
  5
2D86
  8
0
 10
656.72757577850564
 20
787.31584131904071
 30
0.0
 11
675.63432577850574
 21
787.31584131904071
 31
0.0
  0
ARC
  5
2D87
  8
0
 10
712.61865506491347
 20
807.47002328768804
 30
0.0
 40
2.0
 50
270.0
 51
0.0
  0
LINE
  5
2D88
  8
0
 10
716.61865506491347
 20
785.47025588147744
 30
0.0
 11
716.61865506491347
 21
807.97048847526742
 31
0.0
  0
LINE
  5
2D89
  8
0
 10
714.61865506491358
 20
785.47025588147744
 30
0.0
 11
714.61865506491358
 21
810.97048847526753
 31
0.0
  0
ARC
  5
2D8A
  8
0
 10
709.94878208383579
 20
807.47002328768804
 30
0.0
 40
2.0
 50
209.9999999999996
 51
270.0
  0
ARC
  5
2D8B
  8
0
 10
712.61865506491347
 20
796.97002328768804
 30
0.0
 40
2.0
 50
270.0
 51
0.0000000000002036
  0
ARC
  5
2D8C
  8
0
 10
707.61865506491347
 20
796.97002328768804
 30
0.0
 40
2.0
 50
180.0
 51
270.0
  0
LINE
  5
2D8D
  8
0
 10
708.79408154545627
 20
803.67699911716204
 30
0.0
 11
708.79408154545627
 21
794.97002328768804
 31
0.0
  0
LINE
  5
2D8E
  8
0
 10
707.61865506491347
 20
794.97002328768804
 30
0.0
 11
712.61865506491347
 21
794.97002328768804
 31
0.0
  0
LINE
  5
2D8F
  8
0
 10
702.11865506491358
 20
810.97002328768804
 30
0.0
 11
705.61865506491358
 21
810.97002328768804
 31
0.0
  0
LINE
  5
2D90
  8
0
 10
708.21673127626673
 20
806.47002328768804
 30
0.0
 11
705.61865506491358
 21
810.97002328768804
 31
0.0
  0
LINE
  5
2D91
  8
0
 10
709.94878208383579
 20
805.47002328768804
 30
0.0
 11
712.61865506491347
 21
805.47002328768804
 31
0.0
  0
LINE
  5
2D92
  8
0
 10
714.61865506491358
 20
810.96955810010866
 30
0.0
 11
714.61865506491358
 21
817.96955810010888
 31
0.0
  0
LINE
  5
2D93
  8
0
 10
716.61865506491347
 20
817.96955810010888
 30
0.0
 11
716.61865506491347
 21
810.97002328768804
 31
0.0
  0
LINE
  5
2D94
  8
0
 10
714.61865506491358
 20
810.97002328768804
 30
0.0
 11
721.11865506491347
 21
810.97002328768804
 31
0.0
  0
ARC
  5
2D95
  8
0
 10
717.61865506491347
 20
807.97048847526742
 30
0.0
 40
1.0
 50
90.0
 51
179.9999999999998
  0
ARC
  5
2D96
  8
0
 10
715.61865506491358
 20
817.96955810010888
 30
0.0
 40
0.9999999999996589
 50
0.0
 51
180.0
  0
ARC
  5
2D97
  8
0
 10
707.61865506491347
 20
860.44849053949815
 30
0.0
 40
0.9999999999996589
 50
180.0
 51
0.0
  0
LINE
  5
2D98
  8
0
 10
312.38686126191811
 20
910.00475061057466
 30
0.0
 11
312.38686126191828
 21
902.948025351919
 31
0.0
  0
LINE
  5
2D99
  8
0
 10
314.93312261786218
 20
909.82833384005539
 30
0.0
 11
314.93312261786218
 21
902.948025351919
 31
0.0
  0
LINE
  5
2D9A
  8
0
 10
308.386861261918
 20
924.93137169479337
 30
0.0
 11
308.38686126191828
 21
895.94644316633537
 31
0.0
  0
LINE
  5
2D9B
  8
0
 10
320.38686126191811
 20
915.448025351919
 30
0.0
 11
320.38686126191811
 21
893.94802535191911
 31
0.0
  0
LINE
  5
2D9C
  8
0
 10
310.38686126191811
 20
924.93137169479337
 30
0.0
 11
310.38686126191811
 21
895.94644316633537
 31
0.0
  0
LINE
  5
2D9D
  8
0
 10
304.386861261918
 20
915.448025351919
 30
0.0
 11
304.386861261918
 21
872.44802535191911
 31
0.0
  0
LINE
  5
2D9E
  8
0
 10
317.38686126191811
 20
915.448025351919
 30
0.0
 11
317.38686126191811
 21
872.44802535191911
 31
0.0
  0
ARC
  5
2D9F
  8
0
 10
315.38686126191811
 20
885.948025351919
 30
0.0
 40
2.0
 50
0.0
 51
90.0
  0
ARC
  5
2DA0
  8
0
 10
312.38686126191811
 20
885.948025351919
 30
0.0
 40
2.0
 50
90.0
 51
180.0
  0
LINE
  5
2DA1
  8
0
 10
308.386861261918
 20
892.94802535191911
 30
0.0
 11
308.386861261918
 21
873.448025351919
 31
0.0
  0
LINE
  5
2DA2
  8
0
 10
320.38686126191811
 20
893.94802535191911
 30
0.0
 11
320.38686126191811
 21
872.44802535191911
 31
0.0
  0
LINE
  5
2DA3
  8
0
 10
310.38686126191811
 20
872.44802535191911
 30
0.0
 11
304.386861261918
 21
872.44802535191911
 31
0.0
  0
LINE
  5
2DA4
  8
0
 10
314.93312261786218
 20
884.94802535191911
 30
0.0
 11
314.93312261786218
 21
878.06771686378272
 31
0.0
  0
LINE
  5
2DA5
  8
0
 10
312.38686126191828
 20
884.94802535191911
 30
0.0
 11
312.38686126191828
 21
877.89130009326345
 31
0.0
  0
ARC
  5
2DA6
  8
0
 10
313.77842207948288
 20
874.69802535191923
 30
0.0
 40
2.0
 50
30.00000000000016
 51
90.0
  0
LINE
  5
2DA7
  8
0
 10
320.38686126191811
 20
872.44802535191911
 30
0.0
 11
317.38686126191811
 21
872.44802535191911
 31
0.0
  0
LINE
  5
2DA8
  8
0
 10
315.510472887052
 20
875.69802535191911
 30
0.0
 11
317.38686126191811
 21
872.44802535191911
 31
0.0
  0
LINE
  5
2DA9
  8
0
 10
313.77842207948288
 20
876.69802535191911
 30
0.0
 11
312.38686126191811
 21
876.69802535191911
 31
0.0
  0
ARC
  5
2DAA
  8
0
 10
307.38686126191811
 20
873.448025351919
 30
0.0
 40
1.0
 50
270.0
 51
0.0
  0
ARC
  5
2DAB
  8
0
 10
307.38686126191828
 20
871.44802535191911
 30
0.0
 40
1.0
 50
0.0
 51
90.0
  0
ARC
  5
2DAC
  8
0
 10
312.38686126191811
 20
874.69802535191923
 30
0.0
 40
2.0
 50
90.0
 51
180.0
  0
ARC
  5
2DAD
  8
0
 10
315.38686126191811
 20
901.94802535191911
 30
0.0
 40
2.0
 50
270.0
 51
0.0
  0
LINE
  5
2DAE
  8
0
 10
315.38686126191811
 20
899.94802535191911
 30
0.0
 11
312.38686126191811
 21
899.94802535191911
 31
0.0
  0
ARC
  5
2DAF
  8
0
 10
309.38686126191828
 20
892.94802535191911
 30
0.0
 40
1.0
 50
90.0
 51
180.0
  0
ARC
  5
2DB0
  8
0
 10
307.38686126191828
 20
895.94644316633537
 30
0.0
 40
1.0
 50
270.0
 51
0.0
  0
ARC
  5
2DB1
  8
0
 10
311.38686126191811
 20
895.94644316633537
 30
0.0
 40
1.0
 50
180.0
 51
270.0
  0
ARC
  5
2DB2
  8
0
 10
309.38686126191811
 20
892.94802535191911
 30
0.0
 40
1.0
 50
0.0
 51
90.0
  0
ARC
  5
2DB3
  8
0
 10
312.38686126191811
 20
901.94802535191911
 30
0.0
 40
2.0
 50
180.0
 51
270.0
  0
LINE
  5
2DB4
  8
0
 10
315.38686126191811
 20
887.948025351919
 30
0.0
 11
312.38686126191811
 21
887.948025351919
 31
0.0
  0
LINE
  5
2DB5
  8
0
 10
307.38686126191828
 20
915.448025351919
 30
0.0
 11
304.386861261918
 21
915.448025351919
 31
0.0
  0
LINE
  5
2DB6
  8
0
 10
320.38686126191811
 20
915.448025351919
 30
0.0
 11
317.38686126191811
 21
915.448025351919
 31
0.0
  0
ARC
  5
2DB7
  8
0
 10
309.38686126191828
 20
924.93137169479337
 30
0.0
 40
1.0
 50
90.0
 51
180.0
  0
ARC
  5
2DB8
  8
0
 10
307.38686126191828
 20
916.448025351919
 30
0.0
 40
1.0
 50
270.0
 51
0.0
  0
ARC
  5
2DB9
  8
0
 10
309.38686126191811
 20
924.93137169479337
 30
0.0
 40
1.0
 50
0.0
 51
90.0
  0
ARC
  5
2DBA
  8
0
 10
313.77842207948288
 20
913.19802535191911
 30
0.0
 40
2.0
 50
270.0
 51
329.99999999999977
  0
LINE
  5
2DBB
  8
0
 10
313.77842207948288
 20
911.198025351919
 30
0.0
 11
312.38686126191811
 21
911.198025351919
 31
0.0
  0
LINE
  5
2DBC
  8
0
 10
315.510472887052
 20
912.19802535191923
 30
0.0
 11
317.38686126191811
 21
915.448025351919
 31
0.0
  0
ARC
  5
2DBD
  8
0
 10
312.38686126191811
 20
913.19802535191911
 30
0.0
 40
2.0
 50
180.0
 51
270.0
  0
LINE
  5
2DBE
  8
0
 10
328.48560747859682
 20
893.49098343756475
 30
0.0
 11
359.99798247859701
 21
893.49098343756475
 31
0.0
  0
LINE
  5
2DBF
  8
0
 10
366.30023247859668
 20
899.79323343756448
 30
0.0
 11
347.39348247859658
 21
899.79323343756448
 31
0.0
  0
LINE
  5
2DC0
  8
0
 10
344.2412324785966
 20
896.64210843756484
 30
0.0
 11
334.9251074785962
 21
896.64210843756484
 31
0.0
  0
LINE
  5
2DC1
  8
0
 10
334.9251074785962
 20
899.79323343756448
 30
0.0
 11
328.48560747859682
 21
893.49098343756475
 31
0.0
  0
LINE
  5
2DC2
  8
0
 10
334.9251074785962
 20
896.64210843756484
 30
0.0
 11
334.9251074785962
 21
899.79323343756448
 31
0.0
  0
LINE
  5
2DC3
  8
0
 10
347.39348247859658
 20
899.79323343756448
 30
0.0
 11
344.2412324785966
 21
896.64210843756484
 31
0.0
  0
LINE
  5
2DC4
  8
0
 10
359.99798247859701
 20
893.49098343756475
 30
0.0
 11
366.30023247859668
 21
899.79323343756448
 31
0.0
  0
LINE
  5
2DC5
  8
0
 10
721.11865506491347
 20
920.44802535191911
 30
0.0
 11
721.11865506491347
 21
893.94802535191911
 31
0.0
  0
LINE
  5
2DC6
  8
0
 10
714.44322858437079
 20
913.15500118139312
 30
0.0
 11
714.44322858437079
 21
904.44802535191911
 31
0.0
  0
LINE
  5
2DC7
  8
0
 10
702.11865506491358
 20
920.44802535191911
 30
0.0
 11
702.11865506491358
 21
893.94802535191911
 31
0.0
  0
LINE
  5
2DC8
  8
0
 10
708.61865506491347
 20
894.94825794570841
 30
0.0
 11
708.61865506491347
 21
920.44849053949838
 31
0.0
  0
LINE
  5
2DC9
  8
0
 10
706.61865506491358
 20
894.94825794570841
 30
0.0
 11
706.61865506491358
 21
917.44849053949827
 31
0.0
  0
LINE
  5
2DCA
  8
0
 10
717.61865506491347
 20
920.44802535191911
 30
0.0
 11
717.61865506491347
 21
867.448025351919
 31
0.0
  0
LINE
  5
2DCB
  8
0
 10
702.11865506491358
 20
893.94802535191911
 30
0.0
 11
702.11865506491358
 21
867.448025351919
 31
0.0
  0
LINE
  5
2DCC
  8
0
 10
721.11865506491347
 20
893.94802535191911
 30
0.0
 11
721.11865506491347
 21
867.448025351919
 31
0.0
  0
LINE
  5
2DCD
  8
0
 10
713.28852804599182
 20
872.94802535191911
 30
0.0
 11
710.61865506491358
 21
872.94802535191911
 31
0.0
  0
LINE
  5
2DCE
  8
0
 10
715.61865506491358
 20
883.448025351919
 30
0.0
 11
710.61865506491358
 21
883.448025351919
 31
0.0
  0
ARC
  5
2DCF
  8
0
 10
710.61865506491358
 20
881.44802535191911
 30
0.0
 40
2.0
 50
90.0
 51
180.0000000000002
  0
ARC
  5
2DD0
  8
0
 10
710.61865506491358
 20
870.948025351919
 30
0.0
 40
2.0
 50
90.0
 51
180.0
  0
LINE
  5
2DD1
  8
0
 10
706.61865506491358
 20
867.448025351919
 30
0.0
 11
702.11865506491358
 21
867.448025351919
 31
0.0
  0
ARC
  5
2DD2
  8
0
 10
715.61865506491358
 20
881.44802535191911
 30
0.0
 40
2.0
 50
0.0000000000001018
 51
90.000000000000099
  0
LINE
  5
2DD3
  8
0
 10
714.44322858437079
 20
874.74104952244522
 30
0.0
 11
714.44322858437079
 21
883.448025351919
 31
0.0
  0
ARC
  5
2DD4
  8
0
 10
713.28852804599182
 20
870.948025351919
 30
0.0
 40
2.0
 50
29.999999999999599
 51
89.999999999999943
  0
LINE
  5
2DD5
  8
0
 10
721.11865506491347
 20
867.448025351919
 30
0.0
 11
717.61865506491347
 21
867.448025351919
 31
0.0
  0
LINE
  5
2DD6
  8
0
 10
715.02057885356044
 20
871.94802535191923
 30
0.0
 11
717.61865506491381
 21
867.448025351919
 31
0.0
  0
LINE
  5
2DD7
  8
0
 10
715.61865506491358
 20
904.44802535191911
 30
0.0
 11
710.61865506491358
 21
904.44802535191911
 31
0.0
  0
ARC
  5
2DD8
  8
0
 10
710.61865506491358
 20
906.44802535191911
 30
0.0
 40
2.0
 50
179.9999999999998
 51
270.0
  0
ARC
  5
2DD9
  8
0
 10
707.61865506491347
 20
894.94825794570841
 30
0.0
 40
0.9999999999996589
 50
180.0
 51
0.0
  0
ARC
  5
2DDA
  8
0
 10
705.61865506491358
 20
890.94849053949838
 30
0.0
 40
1.0
 50
0.0
 51
90.0
  0
ARC
  5
2DDB
  8
0
 10
709.61865506491358
 20
890.94849053949838
 30
0.0
 40
1.0
 50
90.0
 51
180.0
  0
ARC
  5
2DDC
  8
0
 10
715.61865506491358
 20
906.44802535191911
 30
0.0
 40
2.0
 50
270.0
 51
0.0
  0
ARC
  5
2DDD
  8
0
 10
707.61865506491347
 20
927.44756016433996
 30
0.0
 40
0.9999999999996589
 50
0.0
 51
180.0
  0
LINE
  5
2DDE
  8
0
 10
713.2885280459916
 20
914.94802535191911
 30
0.0
 11
710.61865506491358
 21
914.94802535191911
 31
0.0
  0
ARC
  5
2DDF
  8
0
 10
710.61865506491358
 20
916.94802535191911
 30
0.0
 40
2.0
 50
180.0
 51
270.0
  0
LINE
  5
2DE0
  8
0
 10
706.61865506491358
 20
927.44756016433996
 30
0.0
 11
706.61865506491358
 21
920.44802535191911
 31
0.0
  0
LINE
  5
2DE1
  8
0
 10
708.61865506491347
 20
920.44756016433985
 30
0.0
 11
708.61865506491347
 21
927.44756016433996
 31
0.0
  0
LINE
  5
2DE2
  8
0
 10
708.61865506491347
 20
920.44802535191911
 30
0.0
 11
702.11865506491358
 21
920.44802535191911
 31
0.0
  0
ARC
  5
2DE3
  8
0
 10
705.61865506491358
 20
917.44849053949827
 30
0.0
 40
1.0
 50
0.0000000000002036
 51
90.0
  0
LINE
  5
2DE4
  8
0
 10
715.02057885356044
 20
915.94802535191911
 30
0.0
 11
717.61865506491381
 21
920.44802535191911
 31
0.0
  0
ARC
  5
2DE5
  8
0
 10
713.2885280459916
 20
916.94802535191911
 30
0.0
 40
2.0
 50
270.0
 51
330.0000000000004
  0
LINE
  5
2DE6
  8
0
 10
721.11865506491381
 20
920.44802535191911
 30
0.0
 11
717.61865506491347
 21
920.44802535191911
 31
0.0
  0
CIRCLE
  5
2DF1
  8
0
 10
805.56217950180053
 20
191.3553524830572
 30
0.0
 40
28.5
  0
CIRCLE
  5
2DF2
  8
0
 10
805.56217950180053
 20
191.3553524830572
 30
0.0
 40
22.0
  0
CIRCLE
  5
2DF3
  8
0
 10
805.56217950180053
 20
191.3553524830572
 30
0.0
 40
20.0
  0
CIRCLE
  5
2DF5
  8
0
 10
805.56217950180053
 20
191.3553524830572
 30
0.0
 40
40.499999999999993
  0
ARC
  5
2DF6
  8
0
 10
786.06479938499865
 20
190.79465727173871
 30
0.0
 40
60.0
 50
3.2400250855851049
 51
52.41244050859062
  0
ARC
  5
2DF7
  8
0
 10
806.12287471311902
 20
171.8579723662553
 30
0.0
 40
60.0
 50
93.240025085585117
 51
142.41244050859061
  0
LINE
  5
2DFB
  8
0
 10
730.8093181686063
 20
231.8553524830572
 30
0.0
 11
730.8093181686063
 21
191.3553524830572
 31
0.0
  0
ARC
  5
2DFC
  8
0
 10
805.00148429048204
 20
210.85273259985919
 30
0.0
 40
60.0
 50
273.24002508558527
 51
322.41244050859058
  0
ARC
  5
2DFD
  8
0
 10
825.05955961860229
 20
191.91604769437569
 30
0.0
 40
60.0
 50
183.2400250855849
 51
232.41244050859061
  0
LINE
  5
2DFE
  8
0
 10
730.8093181686063
 20
191.3553524830572
 30
0.0
 11
730.8093181686063
 21
150.8553524830572
 31
0.0
  0
LINE
  5
2DFF
  8
0
 10
727.70957991463445
 20
150.8553524830572
 30
0.0
 11
730.8093181686063
 21
150.8553524830572
 31
0.0
  0
ARC
  5
2E00
  8
0
 10
805.56217950180053
 20
191.3553524830572
 30
0.0
 40
50.0
 50
160.00000000000011
 51
178.83061719438589
  0
ARC
  5
2E01
  8
0
 10
756.57238464613692
 20
192.3553524830572
 30
0.0
 40
1.0
 50
178.83061719438621
 51
270.0
  0
ARC
  5
2E02
  8
0
 10
805.56217950180053
 20
191.3553524830572
 30
0.0
 40
23.5
 50
170.81780230114691
 51
189.18219769885229
  0
ARC
  5
2E03
  8
0
 10
762.16026352069605
 20
188.3553524830572
 30
0.0
 40
3.0
 50
3.2400250855850841
 51
90.0
  0
LINE
  5
2E04
  8
0
 10
782.36331099490985
 20
187.6053524830572
 30
0.0
 11
777.30996719904442
 21
187.60535248305729
 31
0.0
  0
LINE
  5
2E05
  8
0
 10
756.57238464613692
 20
191.3553524830572
 30
0.0
 11
762.16026352069605
 21
191.3553524830572
 31
0.0
  0
LINE
  5
2E06
  8
0
 10
782.36331099490985
 20
195.10535248305729
 30
0.0
 11
777.30996719904442
 21
195.1053524830572
 31
0.0
  0
ARC
  5
2E07
  8
0
 10
808.56217950180076
 20
147.95343650195281
 30
0.0
 40
3.0
 50
93.240025085583753
 51
180.0
  0
ARC
  5
2E08
  8
0
 10
805.56217950180053
 20
191.3553524830572
 30
0.0
 40
50.0
 50
250.00000000000011
 51
268.83061719438592
  0
LINE
  5
2E09
  8
0
 10
805.56217950180053
 20
142.3655576273936
 30
0.0
 11
805.56217950180053
 21
147.95343650195281
 31
0.0
  0
ARC
  5
2E0A
  8
0
 10
804.56217950180053
 20
142.3655576273936
 30
0.0
 40
1.0
 50
268.83061719438621
 51
0.0
  0
LINE
  5
2E0B
  8
0
 10
801.81217950180053
 20
168.1564839761665
 30
0.0
 11
801.81217950180053
 21
163.1031401803011
 31
0.0
  0
LINE
  5
2E0C
  8
0
 10
809.31217950180053
 20
168.1564839761665
 30
0.0
 11
809.31217950180053
 21
163.1031401803011
 31
0.0
  0
ARC
  5
2E0D
  8
0
 10
805.56217950180053
 20
191.3553524830572
 30
0.0
 40
23.5
 50
260.81780230114742
 51
279.18219769885258
  0
ARC
  5
2E0E
  8
0
 10
805.56217950180053
 20
191.3553524830572
 30
0.0
 40
23.5
 50
350.81780230114708
 51
9.1821976988521836
  0
LINE
  5
2E0F
  8
0
 10
828.76104800869109
 20
187.605352483057
 30
0.0
 11
833.81439180455675
 21
187.60535248305709
 31
0.0
  0
LINE
  5
2E10
  8
0
 10
828.76104800869109
 20
195.10535248305709
 30
0.0
 11
833.81439180455675
 21
195.105352483057
 31
0.0
  0
ARC
  5
2E11
  8
0
 10
805.56217950180053
 20
191.35535248305729
 30
0.0
 40
50.0
 50
340.00000000000011
 51
358.83061719438592
  0
LINE
  5
2E12
  8
0
 10
854.55197435746425
 20
191.3553524830572
 30
0.0
 11
848.9640954829049
 21
191.3553524830572
 31
0.0
  0
ARC
  5
2E13
  8
0
 10
854.55197435746425
 20
190.3553524830572
 30
0.0
 40
1.0
 50
358.83061719438621
 51
90.0
  0
ARC
  5
2E14
  8
0
 10
848.9640954829049
 20
194.3553524830572
 30
0.0
 40
3.0
 50
183.2400250855851
 51
270.0
  0
LINE
  5
2E3E
  8
0
 10
730.8093181686063
 20
387.13762319983971
 30
0.0
 11
730.8093181686063
 21
346.63762319983971
 31
0.0
  0
ARC
  5
2E3F
  8
0
 10
805.56217950180053
 20
191.3553524830572
 30
0.0
 40
50.0
 50
70.000000000000099
 51
88.830617194385951
  0
ARC
  5
2E40
  8
0
 10
805.56217950180053
 20
191.3553524830572
 30
0.0
 40
23.5
 50
80.817802301147367
 51
99.182197698852633
  0
LINE
  5
2E41
  8
0
 10
809.31217950180053
 20
214.55422098994791
 30
0.0
 11
809.31217950180053
 21
219.60756478581331
 31
0.0
  0
LINE
  5
2E42
  8
0
 10
801.81217950180053
 20
214.55422098994791
 30
0.0
 11
801.81217950180053
 21
219.60756478581331
 31
0.0
  0
LINE
  5
2E43
  8
0
 10
805.56217950180053
 20
240.34514733872081
 30
0.0
 11
805.56217950180053
 21
234.7572684641616
 31
0.0
  0
ARC
  5
2E44
  8
0
 10
802.56217950180064
 20
234.7572684641616
 30
0.0
 40
3.0
 50
273.2400250855838
 51
0.0
  0
ARC
  5
2E45
  8
0
 10
806.56217950180053
 20
240.34514733872081
 30
0.0
 40
1.0
 50
88.830617194386235
 51
180.0
  0
LINE
  5
2E46
  8
0
 10
730.8093181686063
 20
346.63762319983971
 30
0.0
 11
730.8093181686063
 21
306.13762319983971
 31
0.0
  0
LINE
  5
2E47
  8
0
 10
727.70957991463445
 20
306.13762319983971
 30
0.0
 11
730.8093181686063
 21
306.13762319983971
 31
0.0
  0
LINE
  5
2E48
  8
0
 10
730.8093181686063
 20
484.39375849194812
 30
0.0
 11
730.8093181686063
 21
443.89375849194801
 31
0.0
  0
LINE
  5
2E49
  8
0
 10
730.8093181686063
 20
524.89375849194812
 30
0.0
 11
730.8093181686063
 21
484.39375849194812
 31
0.0
  0
LINE
  5
2E4A
  8
0
 10
741.55059727200944
 20
485.59841265563398
 30
0.0
 11
773.06297227200957
 21
485.59841265563398
 31
0.0
  0
LINE
  5
2E4B
  8
0
 10
757.30622227200922
 20
488.7495376556339
 30
0.0
 11
747.99009727200894
 21
488.7495376556339
 31
0.0
  0
LINE
  5
2E4C
  8
0
 10
747.99009727200894
 20
491.90066265563371
 30
0.0
 11
741.55059727200944
 21
485.59841265563398
 31
0.0
  0
LINE
  5
2E4D
  8
0
 10
747.99009727200894
 20
488.7495376556339
 30
0.0
 11
747.99009727200894
 21
491.90066265563371
 31
0.0
  0
LINE
  5
2E4E
  8
0
 10
779.36522227200942
 20
491.90066265563371
 30
0.0
 11
760.45847227200932
 21
491.90066265563371
 31
0.0
  0
LINE
  5
2E4F
  8
0
 10
760.45847227200932
 20
491.90066265563371
 30
0.0
 11
757.30622227200922
 21
488.7495376556339
 31
0.0
  0
LINE
  5
2E50
  8
0
 10
773.06297227200957
 20
485.59841265563398
 30
0.0
 11
779.36522227200942
 21
491.90066265563371
 31
0.0
  0
ARC
  5
2EDB
  8
0
 10
1192.980009224264
 20
920.948025351919
 30
0.0
 40
2.0
 50
190.0
 51
270.00000000000011
  0
ARC
  5
2EDC
  8
0
 10
1192.155684587304
 20
906.44802535191911
 30
0.0
 40
2.0
 50
180.0
 51
270.0
  0
ARC
  5
2EDD
  8
0
 10
1192.155684587304
 20
881.44802535191911
 30
0.0
 40
2.0
 50
90.0
 51
180.0
  0
ARC
  5
2EDE
  8
0
 10
1192.980009224264
 20
866.94802535191911
 30
0.0
 40
2.0
 50
89.999999999999915
 51
170.0
  0
ARC
  5
2EDF
  8
0
 10
1192.063161875416
 20
811.47002328768815
 30
0.0
 40
2.0
 50
210.0
 51
270.0
  0
LINE
  5
2EE0
  8
0
 10
1189.1556845873049
 20
794.97002328768804
 30
0.0
 11
1196.1556845873049
 21
794.97002328768804
 31
0.0
  0
LINE
  5
2EE1
  8
0
 10
1189.1556845873049
 20
773.97002328768804
 30
0.0
 11
1196.1556845873049
 21
773.97002328768804
 31
0.0
  0
ARC
  5
2EE2
  8
0
 10
1192.063161875416
 20
757.47002328768804
 30
0.0
 40
2.0
 50
90.000000000000114
 51
149.99999999999989
  0
ARC
  5
2EE3
  8
0
 10
1192.063161875416
 20
699.54755685365262
 30
0.0
 40
2.0
 50
210.0
 51
270.0
  0
LINE
  5
2EE4
  8
0
 10
1189.1556845873049
 20
683.04755685365262
 30
0.0
 11
1196.1556845873049
 21
683.04755685365262
 31
0.0
  0
LINE
  5
2EE5
  8
0
 10
1189.1556845873049
 20
662.04755685365262
 30
0.0
 11
1196.1556845873049
 21
662.04755685365262
 31
0.0
  0
ARC
  5
2EE6
  8
0
 10
1192.063161875416
 20
645.54755685365262
 30
0.0
 40
2.0
 50
90.000000000000114
 51
149.99999999999989
  0
TEXT
  5
2EE7
  8
0
 10
1179.1200149806871
 20
600.1393580835288
 30
0.0
 40
12.5
  1
25A
 41
0.8
 11
1179.1200149806871
 21
600.1393580835288
 31
0.0
 73
     1
  0
LINE
  5
2EE8
  8
0
 10
1190.301392709139
 20
863.27437717425209
 30
0.0
 11
1191.01039371824
 21
867.29532170725304
 31
0.0
  0
LINE
  5
2EE9
  8
0
 10
1183.1556845873049
 20
862.44802535191911
 30
0.0
 11
1183.1556845873049
 21
893.94802535191911
 31
0.0
  0
LINE
  5
2EEA
  8
0
 10
1188.1556845873049
 20
865.5980253519192
 30
0.0
 11
1188.1556845873049
 21
893.94802535191911
 31
0.0
  0
LINE
  5
2EEB
  8
0
 10
1190.155684587304
 20
854.44802535191911
 30
0.0
 11
1190.155684587304
 21
893.94802535191911
 31
0.0
  0
LINE
  5
2EEC
  8
0
 10
785.5494739369924
 20
701.79227837119731
 30
0.0
 11
785.5494739369924
 21
706.03262815415906
 31
0.0
  0
ARC
  5
2EED
  8
0
 10
762.14481659742569
 20
669.46126849699908
 30
0.0
 40
50.0
 50
6.5941444967631284
 51
45.244165029898923
  0
ARC
  5
2EEE
  8
0
 10
782.5494739369924
 20
701.79227837119731
 30
0.0
 40
3.0
 50
276.59414449676387
 51
0.0000000000010856
  0
ARC
  5
2EEF
  8
0
 10
785.5494739369924
 20
672.54755685365262
 30
0.0
 40
13.0
 50
77.787474731100005
 51
102.2125252688989
  0
ARC
  5
2EF0
  8
0
 10
785.5494739369924
 20
672.54755685365262
 30
0.0
 40
13.0
 50
257.78747473110047
 51
282.21252526889953
  0
ARC
  5
2EF1
  8
0
 10
788.54947393699229
 20
643.30283533610771
 30
0.0
 40
3.0
 50
96.594144496763803
 51
180.0
  0
ARC
  5
2EF2
  8
0
 10
784.54947393699229
 20
639.06248555314619
 30
0.0
 40
1.0
 50
268.28942411969172
 51
0.0
  0
CIRCLE
  5
2EF3
  8
0
 10
785.5494739369924
 20
672.54755685365262
 30
0.0
 40
16.5
  0
CIRCLE
  5
2EF4
  8
0
 10
785.5494739369924
 20
672.54755685365262
 30
0.0
 40
11.5
  0
CIRCLE
  5
2EF5
  8
0
 10
785.5494739369924
 20
672.54755685365262
 30
0.0
 40
10.0
  0
CIRCLE
  5
2EF6
  8
0
 10
785.5494739369924
 20
672.54755685365262
 30
0.0
 40
26.5
  0
ARC
  5
2EF7
  8
0
 10
808.95413127655911
 20
675.63384521030616
 30
0.0
 40
50.0
 50
186.59414449676299
 51
225.24416502989891
  0
ARC
  5
2EF8
  8
0
 10
785.5494739369924
 20
672.54755685365262
 30
0.0
 40
34.5
 50
249.99999999999989
 51
268.28942411968887
  0
LINE
  5
2EF9
  8
0
 10
782.79947393699229
 20
659.84175109407954
 30
0.0
 11
782.79947393699229
 21
656.27833745012856
 31
0.0
  0
ARC
  5
2EFA
  8
0
 10
756.3047524194476
 20
669.54755685365262
 30
0.0
 40
3.0
 50
6.5941444967629828
 51
90.0
  0
ARC
  5
2EFB
  8
0
 10
788.63576229364594
 20
649.14289951408591
 30
0.0
 40
50.0
 50
96.594144496763192
 51
135.24416502989891
  0
ARC
  5
2EFC
  8
0
 10
785.5494739369924
 20
672.54755685365262
 30
0.0
 40
34.5
 50
159.99999999999989
 51
178.2894241196887
  0
LINE
  5
2EFD
  8
0
 10
756.3047524194476
 20
672.54755685365262
 30
0.0
 11
752.06440263648585
 21
672.54755685365262
 31
0.0
  0
ARC
  5
2EFE
  8
0
 10
752.06440263648585
 20
673.54755685365262
 30
0.0
 40
1.0
 50
178.28942411968831
 51
270.0
  0
LINE
  5
2EFF
  8
0
 10
772.8436681774192
 20
675.29755685365262
 30
0.0
 11
769.28025453346845
 21
675.29755685365262
 31
0.0
  0
LINE
  5
2F00
  8
0
 10
772.8436681774192
 20
669.79755685365262
 30
0.0
 11
769.28025453346845
 21
669.79755685365262
 31
0.0
  0
ARC
  5
2F01
  8
0
 10
785.5494739369924
 20
672.54755685365262
 30
0.0
 40
13.0
 50
167.7874747311005
 51
192.2125252688991
  0
LINE
  5
2F02
  8
0
 10
782.79947393699229
 20
685.2533626132257
 30
0.0
 11
782.79947393699229
 21
688.81677625717646
 31
0.0
  0
ARC
  5
2F03
  8
0
 10
785.5494739369924
 20
672.54755685365262
 30
0.0
 40
34.5
 50
339.99999999999989
 51
358.28942411968899
  0
ARC
  5
2F04
  8
0
 10
782.46318558033897
 20
695.95221419321933
 30
0.0
 40
50.0
 50
276.59414449676291
 51
315.24416502989891
  0
LINE
  5
2F05
  8
0
 10
785.5494739369924
 20
643.30283533610771
 30
0.0
 11
785.5494739369924
 21
639.06248555314619
 31
0.0
  0
LINE
  5
2F06
  8
0
 10
788.2994739369924
 20
659.84175109407954
 30
0.0
 11
788.2994739369924
 21
656.27833745012856
 31
0.0
  0
ARC
  5
2F07
  8
0
 10
814.79419545453709
 20
675.54755685365251
 30
0.0
 40
3.0
 50
186.59414449676271
 51
270.0
  0
LINE
  5
2F08
  8
0
 10
798.25527969656559
 20
669.79755685365262
 30
0.0
 11
801.81869334051623
 21
669.79755685365262
 31
0.0
  0
LINE
  5
2F09
  8
0
 10
798.25527969656559
 20
675.29755685365262
 30
0.0
 11
801.81869334051623
 21
675.29755685365262
 31
0.0
  0
ARC
  5
2F0A
  8
0
 10
785.5494739369924
 20
672.54755685365262
 30
0.0
 40
13.0
 50
347.7874747311003
 51
12.212525268899221
  0
LINE
  5
2F0B
  8
0
 10
788.2994739369924
 20
685.2533626132257
 30
0.0
 11
788.2994739369924
 21
688.81677625717646
 31
0.0
  0
LINE
  5
2F0C
  8
0
 10
814.79419545453709
 20
672.54755685365262
 30
0.0
 11
819.03454523749906
 21
672.54755685365262
 31
0.0
  0
ARC
  5
2F0D
  8
0
 10
819.03454523749906
 20
671.54755685365251
 30
0.0
 40
1.0
 50
358.28942411968842
 51
90.0
  0
ARC
  5
2F0E
  8
0
 10
786.5494739369924
 20
706.03262815415906
 30
0.0
 40
1.0
 50
88.289424119691688
 51
180.0
  0
ARC
  5
2F0F
  8
0
 10
785.5494739369924
 20
672.54755685365262
 30
0.0
 40
34.5
 50
69.999999999999915
 51
88.28942411968913
  0
LINE
  5
2F10
  8
0
 10
1187.444359721899
 20
703.54755685365262
 30
0.0
 11
1190.3311110678469
 21
698.54755685365262
 31
0.0
  0
LINE
  5
2F11
  8
0
 10
1183.1556845873049
 20
704.04755685365262
 30
0.0
 11
1183.1556845873049
 21
672.54755685365262
 31
0.0
  0
ARC
  5
2F12
  8
0
 10
1101.537729235361
 20
671.24060024014352
 30
0.0
 40
50.0
 50
129.78095048792369
 51
175.33881419523209
  0
CIRCLE
  5
2F13
  8
0
 10
1083.0548135099809
 20
672.54755685365262
 30
0.0
 40
31.500000000000028
  0
ARC
  5
2F14
  8
0
 10
1081.7478568964721
 20
654.0646411282728
 30
0.0
 40
50.0
 50
39.780950487923768
 51
85.338814195232175
  0
ARC
  5
2F15
  8
0
 10
1080.0548135099809
 20
638.20576127145046
 30
0.0
 40
3.0
 50
0.000000000000007
 51
85.338814195230668
  0
CIRCLE
  5
2F16
  8
0
 10
1083.0548135099809
 20
672.54755685365262
 30
0.0
 40
17.0
  0
CIRCLE
  5
2F17
  8
0
 10
1083.0548135099809
 20
672.54755685365262
 30
0.0
 40
12.5
  0
ARC
  5
2F18
  8
0
 10
1083.0548135099809
 20
672.54755685365262
 30
0.0
 40
39.5
 50
181.4883694520241
 51
200.0000000000002
  0
ARC
  5
2F19
  8
0
 10
1084.36177012349
 20
691.03047257903222
 30
0.0
 40
50.0
 50
219.7809504879238
 51
265.33881419523209
  0
ARC
  5
2F1A
  8
0
 10
1044.56780271413
 20
671.54755685365251
 30
0.0
 40
1.0
 50
90.0
 51
181.48836945202561
  0
LINE
  5
2F1B
  8
0
 10
1044.56780271413
 20
672.54755685365262
 30
0.0
 11
1048.713017927779
 21
672.54755685365262
 31
0.0
  0
ARC
  5
2F1C
  8
0
 10
1048.713017927779
 20
675.54755685365251
 30
0.0
 40
3.0
 50
270.0000000000021
 51
355.33881419523169
  0
ARC
  5
2F1F
  8
0
 10
1064.571897784602
 20
673.85451346716172
 30
0.0
 40
50.0
 50
309.78095048792369
 51
355.33881419523209
  0
ARC
  5
2F20
  8
0
 10
1083.0548135099809
 20
672.54755685365262
 30
0.0
 40
39.5
 50
271.4883694520243
 51
290.00000000000023
  0
LINE
  5
2F21
  8
0
 10
1083.0548135099809
 20
634.06054605780105
 30
0.0
 11
1083.0548135099809
 21
638.20576127145046
 31
0.0
  0
ARC
  5
2F22
  8
0
 10
1084.0548135099809
 20
634.06054605780105
 30
0.0
 40
1.0
 50
180.0
 51
271.48836945202549
  0
ARC
  5
2F23
  8
0
 10
1083.0548135099809
 20
672.54755685365262
 30
0.0
 40
39.5
 50
1.4883694520241759
 51
20.000000000000188
  0
ARC
  5
2F24
  8
0
 10
1121.541824305833
 20
673.54755685365262
 30
0.0
 40
1.0
 50
269.99999999999352
 51
1.4883694520253969
  0
LINE
  5
2F25
  8
0
 10
1121.541824305833
 20
672.54755685365262
 30
0.0
 11
1117.3966090921831
 21
672.54755685365262
 31
0.0
  0
ARC
  5
2F26
  8
0
 10
1117.3966090921831
 20
669.54755685365262
 30
0.0
 40
3.0
 50
90.0
 51
175.33881419523169
  0
ARC
  5
2F27
  8
0
 10
1189.1556845873049
 20
660.04755685365262
 30
0.0
 40
2.0
 50
90.0
 51
180.0
  0
LINE
  5
2F28
  8
0
 10
1183.1556845873049
 20
641.04755685365262
 30
0.0
 11
1183.1556845873049
 21
672.54755685365262
 31
0.0
  0
ARC
  5
2F29
  8
0
 10
1186.5783343181149
 20
642.04755685365262
 30
0.0
 40
1.0
 50
270.0
 51
329.99999999999989
  0
LINE
  5
2F2A
  8
0
 10
1186.5783343181149
 20
641.04755685365262
 30
0.0
 11
1183.1556845873049
 21
641.04755685365262
 31
0.0
  0
LINE
  5
2F2B
  8
0
 10
1187.444359721899
 20
641.54755685365262
 30
0.0
 11
1190.3311110678469
 21
646.54755685365251
 31
0.0
  0
LINE
  5
2F2C
  8
0
 10
1187.155684587304
 20
660.04755685365262
 30
0.0
 11
1187.155684587304
 21
642.9475568536526
 31
0.0
  0
LINE
  5
2F2D
  8
0
 10
1191.063161875416
 20
649.49480004008615
 30
0.0
 11
1191.063161875416
 21
659.83236447478794
 31
0.0
  0
LINE
  5
2F2E
  8
0
 10
1173.598487026771
 20
667.22614260796433
 30
0.0
 11
1142.0861120267709
 21
667.22614260796433
 31
0.0
  0
LINE
  5
2F2F
  8
0
 10
1157.8428620267709
 20
670.37726760796409
 30
0.0
 11
1167.1589870267719
 21
670.37726760796409
 31
0.0
  0
LINE
  5
2F30
  8
0
 10
1135.783862026771
 20
673.52839260796395
 30
0.0
 11
1154.6906120267711
 21
673.52839260796395
 31
0.0
  0
LINE
  5
2F31
  8
0
 10
1142.0861120267709
 20
667.22614260796433
 30
0.0
 11
1135.783862026771
 21
673.52839260796395
 31
0.0
  0
LINE
  5
2F32
  8
0
 10
1154.6906120267711
 20
673.52839260796395
 30
0.0
 11
1157.8428620267709
 21
670.37726760796409
 31
0.0
  0
LINE
  5
2F33
  8
0
 10
1167.1589870267719
 20
673.52839260796395
 30
0.0
 11
1173.598487026771
 21
667.22614260796433
 31
0.0
  0
LINE
  5
2F34
  8
0
 10
1167.1589870267719
 20
670.37726760796409
 30
0.0
 11
1167.1589870267719
 21
673.52839260796395
 31
0.0
  0
ARC
  5
2F35
  8
0
 10
1189.1556845873049
 20
685.04755685365262
 30
0.0
 40
2.0
 50
180.0
 51
270.0
  0
LINE
  5
2F36
  8
0
 10
1191.063161875416
 20
695.60031366721898
 30
0.0
 11
1191.063161875416
 21
685.26274923251731
 31
0.0
  0
LINE
  5
2F37
  8
0
 10
1187.155684587304
 20
685.04755685365262
 30
0.0
 11
1187.155684587304
 21
702.14755685365265
 31
0.0
  0
ARC
  5
2F38
  8
0
 10
1082.0548135099809
 20
711.03456764950408
 30
0.0
 40
1.0
 50
0.000000000000007
 51
91.488369452025495
  0
ARC
  5
2F39
  8
0
 10
1083.0548135099809
 20
672.54755685365262
 30
0.0
 40
39.5
 50
91.488369452023917
 51
110.0000000000001
  0
LINE
  5
2F3A
  8
0
 10
1156.0791752048219
 20
787.31584131904071
 30
0.0
 11
1159.231425204822
 21
784.16471631904085
 31
0.0
  0
LINE
  5
2F3B
  8
0
 10
1168.5475502048221
 20
787.31584131904071
 30
0.0
 11
1174.9870502048209
 21
781.01359131904098
 31
0.0
  0
LINE
  5
2F3C
  8
0
 10
1168.5475502048221
 20
784.16471631904085
 30
0.0
 11
1168.5475502048221
 21
787.31584131904071
 31
0.0
  0
LINE
  5
2F3D
  8
0
 10
1143.4746752048211
 20
781.01359131904098
 30
0.0
 11
1137.1724252048209
 21
787.31584131904071
 31
0.0
  0
LINE
  5
2F3E
  8
0
 10
1183.1556845873049
 20
815.97002328768815
 30
0.0
 11
1183.1556845873049
 21
784.47002328768804
 31
0.0
  0
ARC
  5
2F3F
  8
0
 10
1086.0548135099809
 20
706.88935243585456
 30
0.0
 40
3.0
 50
180.0
 51
265.33881419523283
  0
LINE
  5
2F40
  8
0
 10
1083.0548135099809
 20
711.03456764950408
 30
0.0
 11
1083.0548135099809
 21
706.88935243585456
 31
0.0
  0
ARC
  5
2F41
  8
0
 10
1186.5783343181149
 20
703.04755685365262
 30
0.0
 40
1.0
 50
30.000000000000071
 51
90.0
  0
LINE
  5
2F42
  8
0
 10
1186.5783343181149
 20
704.04755685365262
 30
0.0
 11
1183.1556845873049
 21
704.04755685365262
 31
0.0
  0
LINE
  5
2F43
  8
0
 10
1174.9870502048209
 20
781.01359131904098
 30
0.0
 11
1143.4746752048211
 21
781.01359131904098
 31
0.0
  0
LINE
  5
2F44
  8
0
 10
1159.231425204822
 20
784.16471631904085
 30
0.0
 11
1168.5475502048221
 21
784.16471631904085
 31
0.0
  0
LINE
  5
2F45
  8
0
 10
1191.063161875416
 20
761.41726647412145
 30
0.0
 11
1191.063161875416
 21
771.75483090882335
 31
0.0
  0
LINE
  5
2F46
  8
0
 10
1187.155684587304
 20
771.97002328768804
 30
0.0
 11
1187.155684587304
 21
754.87002328768801
 31
0.0
  0
LINE
  5
2F47
  8
0
 10
1183.1556845873049
 20
752.97002328768804
 30
0.0
 11
1183.1556845873049
 21
784.47002328768804
 31
0.0
  0
ARC
  5
2F48
  8
0
 10
1186.5783343181149
 20
753.97002328768804
 30
0.0
 40
1.0
 50
270.0
 51
329.99999999999989
  0
LINE
  5
2F49
  8
0
 10
1187.444359721899
 20
753.47002328768804
 30
0.0
 11
1190.3311110678469
 21
758.47002328768804
 31
0.0
  0
LINE
  5
2F4A
  8
0
 10
1186.5783343181149
 20
752.97002328768804
 30
0.0
 11
1183.1556845873049
 21
752.97002328768804
 31
0.0
  0
ARC
  5
2F4B
  8
0
 10
1189.1556845873049
 20
771.97002328768804
 30
0.0
 40
2.0
 50
90.0
 51
180.0
  0
LINE
  5
2F4C
  8
0
 10
1137.1724252048209
 20
787.31584131904071
 30
0.0
 11
1156.0791752048219
 21
787.31584131904071
 31
0.0
  0
LINE
  5
2F4D
  8
0
 10
1191.063161875416
 20
807.52278010125451
 30
0.0
 11
1191.063161875416
 21
797.18521566655272
 31
0.0
  0
LINE
  5
2F4E
  8
0
 10
1187.155684587304
 20
796.97002328768804
 30
0.0
 11
1187.155684587304
 21
814.07002328768806
 31
0.0
  0
ARC
  5
2F4F
  8
0
 10
1189.1556845873049
 20
796.97002328768804
 30
0.0
 40
2.0
 50
180.0
 51
270.0
  0
LINE
  5
2F50
  8
0
 10
1187.444359721899
 20
815.47002328768804
 30
0.0
 11
1190.3311110678469
 21
810.47002328768792
 31
0.0
  0
ARC
  5
2F51
  8
0
 10
1186.5783343181149
 20
814.97002328768792
 30
0.0
 40
1.0
 50
30.000000000000071
 51
90.0
  0
LINE
  5
2F52
  8
0
 10
1186.5783343181149
 20
815.97002328768815
 30
0.0
 11
1183.1556845873049
 21
815.97002328768815
 31
0.0
  0
LINE
  5
2F53
  8
0
 10
1188.1556845873049
 20
862.44802535191911
 30
0.0
 11
1188.1556845873049
 21
854.44802535191911
 31
0.0
  0
LINE
  5
2F54
  8
0
 10
1190.155684587304
 20
854.44802535191911
 30
0.0
 11
1188.1556845873049
 21
854.44802535191911
 31
0.0
  0
ARC
  5
2F55
  8
0
 10
1187.2556845873039
 20
865.5980253519192
 30
0.0
 40
0.9
 50
270.00000000000023
 51
0.0
  0
ARC
  5
2F56
  8
0
 10
1189.3165849561269
 20
863.44802535191911
 30
0.0
 40
1.0
 50
270.0
 51
350.0
  0
LINE
  5
2F57
  8
0
 10
1189.3165849561269
 20
862.44802535191911
 30
0.0
 11
1183.1556845873049
 21
862.44802535191911
 31
0.0
  0
LINE
  5
2F58
  8
0
 10
730.51918634329195
 20
892.26607463166692
 30
0.0
 11
762.0315613432922
 21
892.26607463166692
 31
0.0
  0
LINE
  5
2F59
  8
0
 10
768.33381134329204
 20
898.56832463166666
 30
0.0
 11
749.42706134329194
 21
898.56832463166666
 31
0.0
  0
LINE
  5
2F5A
  8
0
 10
746.27481134329184
 20
895.41719963166679
 30
0.0
 11
736.95868634329145
 21
895.41719963166679
 31
0.0
  0
LINE
  5
2F5B
  8
0
 10
736.95868634329145
 20
898.56832463166666
 30
0.0
 11
730.51918634329195
 21
892.26607463166692
 31
0.0
  0
LINE
  5
2F5C
  8
0
 10
736.95868634329145
 20
895.41719963166679
 30
0.0
 11
736.95868634329145
 21
898.56832463166666
 31
0.0
  0
LINE
  5
2F5D
  8
0
 10
749.42706134329194
 20
898.56832463166666
 30
0.0
 11
746.27481134329184
 21
895.41719963166679
 31
0.0
  0
LINE
  5
2F5E
  8
0
 10
762.0315613432922
 20
892.26607463166692
 30
0.0
 11
768.33381134329204
 21
898.56832463166666
 31
0.0
  0
LINE
  5
2F5F
  8
0
 10
1190.155684587304
 20
896.94802535191923
 30
0.0
 11
1190.155684587304
 21
933.448025351919
 31
0.0
  0
LINE
  5
2F60
  8
0
 10
1188.1556845873049
 20
896.94802535191923
 30
0.0
 11
1188.1556845873049
 21
933.448025351919
 31
0.0
  0
LINE
  5
2F61
  8
0
 10
1183.1556845873049
 20
893.94802535191911
 30
0.0
 11
1183.1556845873049
 21
925.448025351919
 31
0.0
  0
ARC
  5
2F62
  8
0
 10
1187.2556845873039
 20
896.94802535191923
 30
0.0
 40
0.9
 50
270.00000000000023
 51
0.0
  0
LINE
  5
2F63
  8
0
 10
1190.155684587304
 20
893.94802535191911
 30
0.0
 11
1188.1556845873049
 21
893.94802535191911
 31
0.0
  0
ARC
  5
2F64
  8
0
 10
1191.055684587305
 20
896.94802535191923
 30
0.0
 40
0.9
 50
180.0
 51
269.99999999999977
  0
LINE
  5
2F65
  8
0
 10
1190.301392709139
 20
924.62167352958613
 30
0.0
 11
1191.01039371824
 21
920.6007289965853
 31
0.0
  0
ARC
  5
2F66
  8
0
 10
1189.3165849561269
 20
924.448025351919
 30
0.0
 40
1.0
 50
9.9999999999999911
 51
32.954835326713471
  0
LINE
  5
2F67
  8
0
 10
1188.1556845873049
 20
925.448025351919
 30
0.0
 11
1183.1556845873049
 21
925.448025351919
 31
0.0
  0
LINE
  5
2F68
  8
0
 10
1190.155684587304
 20
933.448025351919
 30
0.0
 11
1188.1556845873049
 21
933.448025351919
 31
0.0
  0
LINE
  5
2F69
  8
0
 10
1200.8670094527099
 20
862.948025351919
 30
0.0
 11
1197.980258106762
 21
867.94802535191911
 31
0.0
  0
LINE
  5
2F6A
  8
0
 10
1201.1556845873049
 20
881.44802535191911
 30
0.0
 11
1201.1556845873049
 21
864.34802535191909
 31
0.0
  0
LINE
  5
2F6B
  8
0
 10
1205.1556845873049
 20
862.44802535191911
 30
0.0
 11
1205.1556845873049
 21
893.94802535191911
 31
0.0
  0
LINE
  5
2F6C
  8
0
 10
1198.009976465469
 20
703.22120503131953
 30
0.0
 11
1197.3009754563691
 21
699.20026049831881
 31
0.0
  0
LINE
  5
2F6D
  8
0
 10
1198.155684587304
 20
672.54755685365262
 30
0.0
 11
1198.155684587304
 21
712.04755685365262
 31
0.0
  0
LINE
  5
2F6E
  8
0
 10
1205.1556845873049
 20
672.54755685365262
 30
0.0
 11
1205.1556845873049
 21
704.04755685365262
 31
0.0
  0
ARC
  5
2F6F
  8
0
 10
1277.1759046362761
 20
654.0646411282728
 30
0.0
 40
50.0
 50
94.661185804767854
 51
140.2190495120762
  0
CIRCLE
  5
2F70
  8
0
 10
1275.868948022767
 20
672.54755685365262
 30
0.0
 40
31.500000000000028
  0
ARC
  5
2F71
  8
0
 10
1257.3860322973869
 20
671.24060024014352
 30
0.0
 40
50.0
 50
4.6611858047679151
 51
50.219049512076239
  0
ARC
  5
2F72
  8
0
 10
1310.2107436049689
 20
675.54755685365251
 30
0.0
 40
3.0
 50
184.66118580476819
 51
269.99999999999778
  0
ARC
  5
2F73
  8
0
 10
1274.5619914092581
 20
691.03047257903222
 30
0.0
 40
50.0
 50
274.6611858047678
 51
320.2190495120762
  0
ARC
  5
2F74
  8
0
 10
1294.3518637481459
 20
673.85451346716172
 30
0.0
 40
50.0
 50
184.66118580476791
 51
230.2190495120762
  0
ARC
  5
2F75
  8
0
 10
1196.1556845873049
 20
660.04755685365262
 30
0.0
 40
2.0
 50
0.0
 51
90.0
  0
LINE
  5
2F76
  8
0
 10
1205.1556845873049
 20
641.04755685365262
 30
0.0
 11
1205.1556845873049
 21
672.54755685365262
 31
0.0
  0
LINE
  5
2F77
  8
0
 10
1198.155684587304
 20
633.04755685365262
 30
0.0
 11
1198.155684587304
 21
669.54755685365262
 31
0.0
  0
LINE
  5
2F78
  8
0
 10
1200.155684587304
 20
633.04755685365262
 30
0.0
 11
1200.155684587304
 21
669.54755685365262
 31
0.0
  0
LINE
  5
2F79
  8
0
 10
1198.155684587304
 20
633.04755685365262
 30
0.0
 11
1200.155684587304
 21
633.04755685365262
 31
0.0
  0
LINE
  5
2F7A
  8
0
 10
1200.155684587304
 20
641.04755685365262
 30
0.0
 11
1205.1556845873049
 21
641.04755685365262
 31
0.0
  0
LINE
  5
2F7B
  8
0
 10
1198.009976465469
 20
641.87390867598572
 30
0.0
 11
1197.3009754563691
 21
645.89485320898643
 31
0.0
  0
ARC
  5
2F7C
  8
0
 10
1198.994784218482
 20
642.04755685365262
 30
0.0
 40
1.0
 50
190.0
 51
212.95483532671261
  0
LINE
  5
2F7D
  8
0
 10
1192.063161875416
 20
647.54755685365262
 30
0.0
 11
1195.3313599503449
 21
647.54755685365262
 31
0.0
  0
ARC
  5
2F7E
  8
0
 10
1195.3313599503449
 20
645.54755685365262
 30
0.0
 40
2.0
 50
10.0
 51
90.000000000000099
  0
LINE
  5
2F7F
  8
0
 10
1196.6169351697181
 20
649.31674519830699
 30
0.0
 11
1196.6169351697181
 21
659.75654267091727
 31
0.0
  0
LINE
  5
2F80
  8
0
 10
1200.155684587304
 20
700.89755685365265
 30
0.0
 11
1200.155684587304
 21
672.54755685365262
 31
0.0
  0
LINE
  5
2F81
  8
0
 10
1198.155684587304
 20
672.54755685365262
 30
0.0
 11
1200.155684587304
 21
672.54755685365262
 31
0.0
  0
ARC
  5
2F82
  8
0
 10
1201.055684587305
 20
669.54755685365262
 30
0.0
 40
0.9
 50
90.000000000000242
 51
180.0
  0
ARC
  5
2F83
  8
0
 10
1197.2556845873039
 20
669.54755685365262
 30
0.0
 40
0.9
 50
0.0
 51
89.999999999999758
  0
ARC
  5
2F84
  8
0
 10
1201.055684587305
 20
700.89755685365265
 30
0.0
 40
0.9
 50
90.000000000000256
 51
180.0
  0
LINE
  5
2F85
  8
0
 10
1192.063161875416
 20
697.54755685365262
 30
0.0
 11
1195.3313599503449
 21
697.54755685365262
 31
0.0
  0
ARC
  5
2F86
  8
0
 10
1195.3313599503449
 20
699.54755685365262
 30
0.0
 40
2.0
 50
269.99999999999989
 51
350.0
  0
ARC
  5
2F87
  8
0
 10
1196.1556845873049
 20
685.04755685365262
 30
0.0
 40
2.0
 50
270.0
 51
0.0
  0
LINE
  5
2F88
  8
0
 10
1196.6169351697181
 20
695.77836850899826
 30
0.0
 11
1196.6169351697181
 21
685.33857103638798
 31
0.0
  0
ARC
  5
2F89
  8
0
 10
1275.868948022767
 20
672.54755685365262
 30
0.0
 40
39.5
 50
159.9999999999998
 51
178.51163054797581
  0
LINE
  5
2F8A
  8
0
 10
1237.3819372269149
 20
672.54755685365262
 30
0.0
 11
1241.527152440565
 21
672.54755685365262
 31
0.0
  0
ARC
  5
2F8B
  8
0
 10
1237.3819372269149
 20
673.54755685365262
 30
0.0
 40
1.0
 50
178.51163054797459
 51
270.00000000000648
  0
ARC
  5
2F8C
  8
0
 10
1241.527152440565
 20
669.54755685365262
 30
0.0
 40
3.0
 50
4.6611858047682571
 51
90.0
  0
CIRCLE
  5
2F8D
  8
0
 10
1275.868948022767
 20
672.54755685365262
 30
0.0
 40
14.0
  0
CIRCLE
  5
2F8E
  8
0
 10
1275.868948022767
 20
672.54755685365262
 30
0.0
 40
12.5
  0
CIRCLE
  5
2F8F
  8
0
 10
1275.868948022767
 20
672.54755685365262
 30
0.0
 40
20.0
  0
ARC
  5
2F90
  8
0
 10
1275.868948022767
 20
672.54755685365262
 30
0.0
 40
15.5
 50
258.84006312781452
 51
281.15993687218548
  0
ARC
  5
2F91
  8
0
 10
1278.868948022767
 20
638.20576127145046
 30
0.0
 40
3.0
 50
94.661185804769332
 51
180.0
  0
ARC
  5
2F92
  8
0
 10
1275.868948022767
 20
672.54755685365262
 30
0.0
 40
39.5
 50
249.9999999999998
 51
268.51163054797581
  0
LINE
  5
2F93
  8
0
 10
1275.868948022767
 20
634.06054605780105
 30
0.0
 11
1275.868948022767
 21
638.20576127145046
 31
0.0
  0
ARC
  5
2F94
  8
0
 10
1274.868948022767
 20
634.06054605780105
 30
0.0
 40
1.0
 50
268.51163054797462
 51
0.0
  0
LINE
  5
2F95
  8
0
 10
1272.868948022767
 20
657.34065052790709
 30
0.0
 11
1272.868948022767
 21
652.77383692036744
 31
0.0
  0
LINE
  5
2F96
  8
0
 10
1278.868948022767
 20
657.34065052790709
 30
0.0
 11
1278.868948022767
 21
652.77383692036744
 31
0.0
  0
ARC
  5
2F97
  8
0
 10
1275.868948022767
 20
672.54755685365262
 30
0.0
 40
15.5
 50
78.840063127814545
 51
101.1599368721854
  0
LINE
  5
2F98
  8
0
 10
1260.6620416970211
 20
675.54755685365251
 30
0.0
 11
1256.095228089481
 21
675.54755685365251
 31
0.0
  0
LINE
  5
2F99
  8
0
 10
1260.6620416970211
 20
669.54755685365262
 30
0.0
 11
1256.095228089481
 21
669.54755685365262
 31
0.0
  0
ARC
  5
2F9A
  8
0
 10
1275.868948022767
 20
672.54755685365262
 30
0.0
 40
15.5
 50
168.84006312781449
 51
191.1599368721854
  0
LINE
  5
2F9B
  8
0
 10
1272.868948022767
 20
687.75446317939804
 30
0.0
 11
1272.868948022767
 21
692.3212767869378
 31
0.0
  0
LINE
  5
2F9C
  8
0
 10
1291.0758543485119
 20
675.54755685365251
 30
0.0
 11
1295.642667956052
 21
675.54755685365251
 31
0.0
  0
LINE
  5
2F9D
  8
0
 10
1291.0758543485119
 20
669.54755685365262
 30
0.0
 11
1295.642667956052
 21
669.54755685365262
 31
0.0
  0
ARC
  5
2F9E
  8
0
 10
1275.868948022767
 20
672.54755685365262
 30
0.0
 40
15.5
 50
348.84006312781452
 51
11.159936872185449
  0
LINE
  5
2F9F
  8
0
 10
1278.868948022767
 20
687.75446317939804
 30
0.0
 11
1278.868948022767
 21
692.3212767869378
 31
0.0
  0
ARC
  5
2FA0
  8
0
 10
1275.868948022767
 20
672.54755685365262
 30
0.0
 40
39.5
 50
339.99999999999989
 51
358.51163054797593
  0
LINE
  5
2FA1
  8
0
 10
1314.3559588186181
 20
672.54755685365262
 30
0.0
 11
1310.2107436049689
 21
672.54755685365262
 31
0.0
  0
ARC
  5
2FA2
  8
0
 10
1314.3559588186181
 20
671.54755685365251
 30
0.0
 40
1.0
 50
358.51163054797439
 51
90.0
  0
LINE
  5
2FA3
  8
0
 10
1200.155684587304
 20
812.82002328768795
 30
0.0
 11
1200.155684587304
 21
784.47002328768804
 31
0.0
  0
LINE
  5
2FA4
  8
0
 10
1205.1556845873049
 20
784.47002328768804
 30
0.0
 11
1205.1556845873049
 21
815.97002328768815
 31
0.0
  0
LINE
  5
2FA5
  8
0
 10
1198.155684587304
 20
784.47002328768804
 30
0.0
 11
1198.155684587304
 21
823.97002328768815
 31
0.0
  0
LINE
  5
2FA6
  8
0
 10
1198.155684587304
 20
712.04755685365262
 30
0.0
 11
1200.155684587304
 21
712.04755685365262
 31
0.0
  0
LINE
  5
2FA7
  8
0
 10
1198.994784218482
 20
704.04755685365262
 30
0.0
 11
1205.1556845873049
 21
704.04755685365262
 31
0.0
  0
ARC
  5
2FA8
  8
0
 10
1198.994784218482
 20
703.04755685365262
 30
0.0
 40
1.0
 50
90.0
 51
170.0
  0
LINE
  5
2FA9
  8
0
 10
1200.155684587304
 20
704.04755685365262
 30
0.0
 11
1200.155684587304
 21
712.04755685365262
 31
0.0
  0
LINE
  5
2FAA
  8
0
 10
1196.6169351697181
 20
761.2392116323424
 30
0.0
 11
1196.6169351697181
 21
771.67900910495257
 31
0.0
  0
LINE
  5
2FAB
  8
0
 10
1205.1556845873049
 20
752.97002328768804
 30
0.0
 11
1205.1556845873049
 21
784.47002328768804
 31
0.0
  0
LINE
  5
2FAC
  8
0
 10
1198.155684587304
 20
744.97002328768804
 30
0.0
 11
1198.155684587304
 21
781.47002328768804
 31
0.0
  0
LINE
  5
2FAD
  8
0
 10
1200.155684587304
 20
744.97002328768804
 30
0.0
 11
1200.155684587304
 21
781.47002328768804
 31
0.0
  0
LINE
  5
2FAE
  8
0
 10
1192.063161875416
 20
759.47002328768804
 30
0.0
 11
1195.3313599503449
 21
759.47002328768804
 31
0.0
  0
LINE
  5
2FAF
  8
0
 10
1198.155684587304
 20
744.97002328768804
 30
0.0
 11
1200.155684587304
 21
744.97002328768804
 31
0.0
  0
LINE
  5
2FB0
  8
0
 10
1198.009976465469
 20
753.79637511002113
 30
0.0
 11
1197.3009754563691
 21
757.81731964302185
 31
0.0
  0
ARC
  5
2FB1
  8
0
 10
1198.994784218482
 20
753.97002328768804
 30
0.0
 40
1.0
 50
190.0
 51
212.95483532671261
  0
LINE
  5
2FB2
  8
0
 10
1200.155684587304
 20
752.97002328768804
 30
0.0
 11
1205.1556845873049
 21
752.97002328768804
 31
0.0
  0
ARC
  5
2FB3
  8
0
 10
1195.3313599503449
 20
757.47002328768804
 30
0.0
 40
2.0
 50
10.0
 51
90.000000000000099
  0
LINE
  5
2FB4
  8
0
 10
1198.155684587304
 20
784.47002328768804
 30
0.0
 11
1200.155684587304
 21
784.47002328768804
 31
0.0
  0
ARC
  5
2FB5
  8
0
 10
1201.055684587305
 20
781.47002328768804
 30
0.0
 40
0.9
 50
90.000000000000242
 51
180.0
  0
ARC
  5
2FB6
  8
0
 10
1197.2556845873039
 20
781.47002328768804
 30
0.0
 40
0.9
 50
0.0
 51
89.999999999999758
  0
ARC
  5
2FB7
  8
0
 10
1196.1556845873049
 20
771.97002328768804
 30
0.0
 40
2.0
 50
0.0
 51
90.0
  0
ARC
  5
2FB8
  8
0
 10
1275.868948022767
 20
672.54755685365262
 30
0.0
 40
39.5
 50
69.999999999999829
 51
88.511630547976068
  0
LINE
  5
2FB9
  8
0
 10
1275.868948022767
 20
711.03456764950408
 30
0.0
 11
1275.868948022767
 21
706.88935243585456
 31
0.0
  0
ARC
  5
2FBA
  8
0
 10
1276.868948022767
 20
711.03456764950408
 30
0.0
 40
1.0
 50
88.511630547974505
 51
180.0
  0
ARC
  5
2FBB
  8
0
 10
1272.868948022767
 20
706.88935243585456
 30
0.0
 40
3.0
 50
274.66118580476717
 51
0.0
  0
LINE
  5
2FBC
  8
0
 10
1196.6169351697181
 20
807.70083494303356
 30
0.0
 11
1196.6169351697181
 21
797.26103747042339
 31
0.0
  0
ARC
  5
2FBD
  8
0
 10
1196.1556845873049
 20
796.97002328768804
 30
0.0
 40
2.0
 50
270.0
 51
0.0
  0
LINE
  5
2FBE
  8
0
 10
1198.155684587304
 20
823.97002328768815
 30
0.0
 11
1200.155684587304
 21
823.97002328768815
 31
0.0
  0
LINE
  5
2FBF
  8
0
 10
1198.994784218482
 20
815.97002328768815
 30
0.0
 11
1205.1556845873049
 21
815.97002328768815
 31
0.0
  0
LINE
  5
2FC0
  8
0
 10
1198.009976465469
 20
815.14367146535494
 30
0.0
 11
1197.3009754563691
 21
811.12272693235423
 31
0.0
  0
ARC
  5
2FC1
  8
0
 10
1198.994784218482
 20
814.97002328768792
 30
0.0
 40
1.0
 50
90.0
 51
170.0
  0
ARC
  5
2FC2
  8
0
 10
1201.055684587305
 20
812.82002328768795
 30
0.0
 40
0.9
 50
90.000000000000256
 51
180.0
  0
LINE
  5
2FC3
  8
0
 10
1192.063161875416
 20
809.47002328768804
 30
0.0
 11
1195.3313599503449
 21
809.47002328768804
 31
0.0
  0
ARC
  5
2FC4
  8
0
 10
1195.3313599503449
 20
811.47002328768815
 30
0.0
 40
2.0
 50
269.99999999999989
 51
350.0
  0
LINE
  5
2FC5
  8
0
 10
1200.155684587304
 20
815.97002328768815
 30
0.0
 11
1200.155684587304
 21
823.97002328768815
 31
0.0
  0
LINE
  5
2FC6
  8
0
 10
1201.733034856494
 20
862.44802535191911
 30
0.0
 11
1205.1556845873049
 21
862.44802535191911
 31
0.0
  0
ARC
  5
2FC7
  8
0
 10
1201.733034856494
 20
863.44802535191911
 30
0.0
 40
1.0
 50
210.0
 51
270.0
  0
LINE
  5
2FC8
  8
0
 10
1252.4900742489961
 20
901.01812959571805
 30
0.0
 11
1233.583324248996
 21
901.01812959571805
 31
0.0
  0
LINE
  5
2FC9
  8
0
 10
1246.1878242489961
 20
894.71587959571843
 30
0.0
 11
1252.4900742489961
 21
901.01812959571805
 31
0.0
  0
LINE
  5
2FCA
  8
0
 10
1201.1556845873049
 20
906.44802535191911
 30
0.0
 11
1201.1556845873049
 21
923.54802535191902
 31
0.0
  0
LINE
  5
2FCB
  8
0
 10
1197.2482072991929
 20
917.00078216548559
 30
0.0
 11
1197.2482072991929
 21
906.66321773078369
 31
0.0
  0
LINE
  5
2FCC
  8
0
 10
1191.694434004891
 20
917.17883700726475
 30
0.0
 11
1191.694434004891
 21
906.73903953465435
 31
0.0
  0
LINE
  5
2FCD
  8
0
 10
1205.1556845873049
 20
893.94802535191911
 30
0.0
 11
1205.1556845873049
 21
925.448025351919
 31
0.0
  0
LINE
  5
2FCE
  8
0
 10
1214.6754492489961
 20
894.71587959571843
 30
0.0
 11
1246.1878242489961
 21
894.71587959571843
 31
0.0
  0
LINE
  5
2FCF
  8
0
 10
1221.114949248996
 20
901.01812959571805
 30
0.0
 11
1214.6754492489961
 21
894.71587959571843
 31
0.0
  0
ARC
  5
2FD0
  8
0
 10
1199.1556845873049
 20
881.44802535191911
 30
0.0
 40
2.0
 50
0.0
 51
90.0
  0
LINE
  5
2FD1
  8
0
 10
1191.694434004891
 20
870.71721369657337
 30
0.0
 11
1191.694434004891
 21
881.15701116918365
 31
0.0
  0
LINE
  5
2FD2
  8
0
 10
1197.2482072991929
 20
870.89526853835252
 30
0.0
 11
1197.2482072991929
 21
881.23283297305443
 31
0.0
  0
LINE
  5
2FD3
  8
0
 10
1199.1556845873049
 20
883.448025351919
 30
0.0
 11
1192.155684587304
 21
883.448025351919
 31
0.0
  0
LINE
  5
2FD4
  8
0
 10
1196.2482072991929
 20
868.94802535191911
 30
0.0
 11
1192.980009224264
 21
868.94802535191911
 31
0.0
  0
ARC
  5
2FD5
  8
0
 10
1196.2482072991929
 20
866.94802535191911
 30
0.0
 40
2.0
 50
30.000000000000071
 51
89.999999999999872
  0
ARC
  5
2FD6
  8
0
 10
1199.1556845873049
 20
906.44802535191911
 30
0.0
 40
2.0
 50
270.0
 51
0.0
  0
LINE
  5
2FD7
  8
0
 10
1199.1556845873049
 20
904.44802535191911
 30
0.0
 11
1192.155684587304
 21
904.44802535191911
 31
0.0
  0
LINE
  5
2FD8
  8
0
 10
1230.4310742489961
 20
897.8670045957183
 30
0.0
 11
1221.114949248996
 21
897.8670045957183
 31
0.0
  0
LINE
  5
2FD9
  8
0
 10
1221.114949248996
 20
897.8670045957183
 30
0.0
 11
1221.114949248996
 21
901.01812959571805
 31
0.0
  0
LINE
  5
2FDA
  8
0
 10
1233.583324248996
 20
901.01812959571805
 30
0.0
 11
1230.4310742489961
 21
897.8670045957183
 31
0.0
  0
LINE
  5
2FDB
  8
0
 10
1201.733034856494
 20
925.448025351919
 30
0.0
 11
1205.1556845873049
 21
925.448025351919
 31
0.0
  0
LINE
  5
2FDC
  8
0
 10
1200.8670094527099
 20
924.94802535191911
 30
0.0
 11
1197.980258106762
 21
919.948025351919
 31
0.0
  0
ARC
  5
2FDD
  8
0
 10
1201.733034856494
 20
924.448025351919
 30
0.0
 40
1.0
 50
90.0
 51
149.99999999999989
  0
LINE
  5
2FDE
  8
0
 10
1196.2482072991929
 20
918.94802535191911
 30
0.0
 11
1192.980009224264
 21
918.94802535191911
 31
0.0
  0
ARC
  5
2FDF
  8
0
 10
1196.2482072991929
 20
920.948025351919
 30
0.0
 40
2.0
 50
270.0
 51
330.00000000000011
  0
VIEWPORT
  5
41
 67
     1
  8
0
 10
117.358407079646
 20
73.5
 30
0.0
 40
234.716814159292
 41
147.0
 68
     1
 69
     1
1001
ACAD
1000
MVIEW
1002
{
1070
    16
1010
0.0
1020
0.0
1030
0.0
1010
0.0
1020
0.0
1030
1.0
1040
0.0
1040
147.0
1040
117.358407079646
1040
73.5
1040
50.0
1040
0.0
1040
0.0
1070
     0
1070
   100
1070
     1
1070
     1
1070
     0
1070
     0
1070
     0
1070
     0
1040
0.0
1040
0.0
1040
0.0
1040
1.0
1040
1.0
1040
0.0
1040
0.0
1070
     0
1002
{
1002
}
1002
}
  0
ENDSEC
  0
EOF
