  0
SECTION
  2
HEADER
  9
$ACADVER
  1
AC1009
  9
$INSBASE
 10
0.0
 20
0.0
 30
0.0
  9
$EXTMIN
 10
90.0
 20
35.0
 30
0.0
  9
$EXTMAX
 10
2045.0
 20
1410.0
 30
0.0
  9
$LIMMIN
 10
0.0
 20
0.0
  9
$LIMMAX
 10
2100.0
 20
1485.0
  9
$ORTHOMODE
 70
     0
  9
$REGENMODE
 70
     1
  9
$FILLMODE
 70
     1
  9
$QTEXTMODE
 70
     0
  9
$MIRRTEXT
 70
     1
  9
$DRAGMODE
 70
     2
  9
$LTSCALE
 40
20.0
  9
$OSMODE
 70
   163
  9
$ATTMODE
 70
     1
  9
$TEXTSIZE
 40
20.0
  9
$TRACEWID
 40
0.05
  9
$TEXTSTYLE
  7
STANDARD
  9
$CLAYER
  8
0
  9
$CELTYPE
  6
BYLAYER
  9
$CECOLOR
 62
   256
  9
$DIMSCALE
 40
5.0
  9
$DIMASZ
 40
2.7999999999999989
  9
$DIMEXO
 40
1.0
  9
$DIMDLI
 40
5.0
  9
$DIMRND
 40
0.1
  9
$DIMDLE
 40
0.0
  9
$DIMEXE
 40
1.0
  9
$DIMTP
 40
0.0
  9
$DIMTM
 40
0.0
  9
$DIMTXT
 40
2.5
  9
$DIMCEN
 40
0.0
  9
$DIMTSZ
 40
0.0
  9
$DIMTOL
 70
     0
  9
$DIMLIM
 70
     0
  9
$DIMTIH
 70
     0
  9
$DIMTOH
 70
     0
  9
$DIMSE1
 70
     0
  9
$DIMSE2
 70
     0
  9
$DIMTAD
 70
     3
  9
$DIMZIN
 70
     8
  9
$DIMBLK
  1

  9
$DIMASO
 70
     1
  9
$DIMSHO
 70
     1
  9
$DIMPOST
  1

  9
$DIMAPOST
  1

  9
$DIMALT
 70
     0
  9
$DIMALTD
 70
     2
  9
$DIMALTF
 40
1.0
  9
$DIMLFAC
 40
1.0
  9
$DIMTOFL
 70
     1
  9
$DIMTVP
 40
0.0
  9
$DIMTIX
 70
     0
  9
$DIMSOXD
 70
     0
  9
$DIMSAH
 70
     1
  9
$DIMBLK1
  1
OPEN
  9
$DIMBLK2
  1
OPEN
  9
$DIMSTYLE
  2
DIM1
  9
$DIMCLRD
 70
     2
  9
$DIMCLRE
 70
     2
  9
$DIMCLRT
 70
     2
  9
$DIMTFAC
 40
0.7
  9
$DIMGAP
 40
0.85
  9
$LUNITS
 70
     2
  9
$LUPREC
 70
     4
  9
$SKETCHINC
 40
0.1
  9
$FILLETRAD
 40
0.0
  9
$AUNITS
 70
     0
  9
$AUPREC
 70
     0
  9
$MENU
  1
C:\ACADR13\WIN\SUPPORT\ACAD.mnc
  9
$ELEVATION
 40
0.0
  9
$PELEVATION
 40
0.0
  9
$THICKNESS
 40
0.0
  9
$LIMCHECK
 70
     0
  9
$BLIPMODE
 70
     0
  9
$CHAMFERA
 40
0.0
  9
$CHAMFERB
 40
0.0
  9
$SKPOLY
 70
     0
  9
$TDCREATE
 40
2452831.3593925349
  9
$TDUPDATE
 40
2453782.4402976618
  9
$TDINDWG
 40
0.4115815046
  9
$TDUSRTIMER
 40
0.4115815046
  9
$USRTIMER
 70
     1
  9
$ANGBASE
 50
0.0
  9
$ANGDIR
 70
     0
  9
$PDMODE
 70
     0
  9
$PDSIZE
 40
0.0
  9
$PLINEWID
 40
0.0
  9
$COORDS
 70
     0
  9
$SPLFRAME
 70
     0
  9
$SPLINETYPE
 70
     6
  9
$SPLINESEGS
 70
     8
  9
$ATTDIA
 70
     0
  9
$ATTREQ
 70
     1
  9
$HANDLING
 70
     1
  9
$HANDSEED
  5
4964
  9
$SURFTAB1
 70
     6
  9
$SURFTAB2
 70
     6
  9
$SURFTYPE
 70
     6
  9
$SURFU
 70
     6
  9
$SURFV
 70
     6
  9
$UCSNAME
  2

  9
$UCSORG
 10
0.0
 20
0.0
 30
0.0
  9
$UCSXDIR
 10
1.0
 20
0.0
 30
0.0
  9
$UCSYDIR
 10
0.0
 20
1.0
 30
0.0
  9
$PUCSNAME
  2

  9
$PUCSORG
 10
0.0
 20
0.0
 30
0.0
  9
$PUCSXDIR
 10
1.0
 20
0.0
 30
0.0
  9
$PUCSYDIR
 10
0.0
 20
1.0
 30
0.0
  9
$USERI1
 70
     0
  9
$USERI2
 70
     0
  9
$USERI3
 70
     0
  9
$USERI4
 70
     0
  9
$USERI5
 70
     0
  9
$USERR1
 40
0.0
  9
$USERR2
 40
0.0
  9
$USERR3
 40
0.0
  9
$USERR4
 40
0.0
  9
$USERR5
 40
0.0
  9
$WORLDVIEW
 70
     1
  9
$SHADEDGE
 70
     3
  9
$SHADEDIF
 70
    70
  9
$TILEMODE
 70
     1
  9
$MAXACTVP
 70
    16
  9
$PLIMCHECK
 70
     0
  9
$PEXTMIN
 10
1.0000000000000000E+020
 20
1.0000000000000000E+020
 30
1.0000000000000000E+020
  9
$PEXTMAX
 10
-1.0000000000000000E+020
 20
-1.0000000000000000E+020
 30
-1.0000000000000000E+020
  9
$PLIMMIN
 10
0.0
 20
0.0
  9
$PLIMMAX
 10
20.0
 20
147.0
  9
$UNITMODE
 70
     0
  9
$VISRETAIN
 70
     0
  9
$PLINEGEN
 70
     0
  9
$PSLTSCALE
 70
     1
  0
ENDSEC
  0
SECTION
  2
TABLES
  0
TABLE
  2
VPORT
 70
     6
  0
VPORT
  2
*ACTIVE
 70
     0
 10
0.0
 20
0.0
 11
1.0
 21
1.0
 12
1050.0
 22
793.9143446248703
 13
0.0
 23
0.0
 14
1.0
 24
1.0
 15
0.0
 25
0.0
 16
0.0
 26
0.0
 36
1.0
 17
0.0
 27
0.0
 37
0.0
 40
1695.2630119434521
 41
1.247267759562841
 42
50.0
 43
0.0
 44
0.0
 50
0.0
 51
0.0
 71
     0
 72
   100
 73
     1
 74
     1
 75
     0
 76
     0
 77
     0
 78
     0
  0
ENDTAB
  0
TABLE
  2
LTYPE
 70
     1
  0
LTYPE
  2
CONTINUOUS
 70
     0
  3
Solid line
 72
    65
 73
     0
 40
0.0
  0
ENDTAB
  0
TABLE
  2
LAYER
 70
     1
  0
LAYER
  2
0
 70
     0
 62
     7
  6
CONTINUOUS
  0
ENDTAB
  0
TABLE
  2
STYLE
 70
     3
  0
STYLE
  2
STANDARD
 70
     0
 40
0.0
 41
0.8
 50
0.0
 71
     0
 42
20.0
  3
simplex
  4
extfont
  0
STYLE
  2
PTSH
 70
     0
 40
0.0
 41
0.9
 50
0.0
 71
     0
 42
4.0
  3
SIMPLEX
  4
EXTFONT
  0
STYLE
  2
DIM
 70
     0
 40
0.0
 41
0.8
 50
0.0
 71
     0
 42
4.0
  3
simplex
  4
extfont
  0
ENDTAB
  0
TABLE
  2
VIEW
 70
     0
  0
ENDTAB
  0
TABLE
  2
UCS
 70
     0
  0
ENDTAB
  0
TABLE
  2
APPID
 70
     1
  0
APPID
  2
ACAD
 70
     0
  0
ENDTAB
  0
TABLE
  2
DIMSTYLE
 70
     1
  0
DIMSTYLE
  2
DIM1
 70
     0
  3

  4

  5

  6
OPEN
  7
OPEN
 40
5.0
 41
2.7999999999999989
 42
1.0
 43
5.0
 44
1.0
 45
0.1
 46
0.0
 47
0.0
 48
0.0
140
2.5
141
0.0
142
0.0
143
1.0
144
1.0
145
0.0
146
0.7
147
0.85
 71
     0
 72
     0
 73
     0
 74
     0
 75
     0
 76
     0
 77
     3
 78
     8
170
     0
171
     2
172
     1
173
     1
174
     0
175
     0
176
     2
177
     2
178
     2
  0
ENDTAB
  0
ENDSEC
  0
SECTION
  2
BLOCKS
  0
BLOCK
  8
0
  2
$MODEL_SPACE
 70
     0
 10
0.0
 20
0.0
 30
0.0
  3
$MODEL_SPACE
  1

  0
ENDBLK
  5
3D
  8
0
  0
BLOCK
 67
     1
  8
0
  2
$PAPER_SPACE
 70
     0
 10
0.0
 20
0.0
 30
0.0
  3
$PAPER_SPACE
  1

  0
ENDBLK
  5
3B
 67
     1
  8
0
  0
BLOCK
  8
0
  2
_OPEN
 70
     0
 10
0.0
 20
0.0
 30
0.0
  3
_OPEN
  1
H1111.DWG
  0
LINE
  5
244A
  8
0
  6
BYBLOCK
 62
     0
 10
-1.0
 20
0.1666666666666666
 30
0.0
 11
0.0
 21
0.0
 31
0.0
  0
LINE
  5
244B
  8
0
  6
BYBLOCK
 62
     0
 10
0.0
 20
0.0
 30
0.0
 11
-1.0
 21
-0.1666666666666666
 31
0.0
  0
LINE
  5
244C
  8
0
  6
BYBLOCK
 62
     0
 10
0.0
 20
0.0
 30
0.0
 11
-1.0
 21
0.0
 31
0.0
  0
ENDBLK
  5
244D
  8
0
  0
ENDSEC
  0
SECTION
  2
ENTITIES
  0
TEXT
  5
2529
  8
0
  6
CONTINUOUS
 10
1875.375
 20
76.25
 30
0.0
 40
17.5
  1
CKF3MG
 41
0.9
  7
PTSH
 72
     1
 11
1920.0
 21
85.0
 31
0.0
 73
     2
  0
POLYLINE
  5
2563
  8
0
 66
     1
 10
0.0
 20
0.0
 30
0.0
 70
     1
  0
VERTEX
  5
48F9
  8
0
 10
90.0
 20
35.0
 30
0.0
  0
VERTEX
  5
48FA
  8
0
 10
2045.0
 20
35.0
 30
0.0
  0
VERTEX
  5
48FB
  8
0
 10
2045.0
 20
1410.0
 30
0.0
  0
VERTEX
  5
48FC
  8
0
 10
90.0
 20
1410.0
 30
0.0
  0
SEQEND
  5
48FD
  8
0
  0
CIRCLE
  5
2702
  8
0
 10
405.18709468220641
 20
1018.612687639168
 30
0.0
 40
45.499299999999998
  0
ARC
  5
2703
  8
0
 10
408.21429756621609
 20
1042.9257886504979
 30
0.0
 40
70.0
 50
213.92330472207991
 51
265.26401581519298
  0
ARC
  5
2704
  8
0
 10
380.8739936708767
 20
1021.639890523178
 30
0.0
 40
70.0
 50
303.92330472208261
 51
355.26401581519588
  0
ARC
  5
2706
  8
0
 10
402.18709468220658
 20
970.17503040431211
 30
0.0
 40
3.0
 50
0.0
 51
85.264015815192963
  0
LINE
  5
2709
  8
0
 10
405.18709468220652
 20
964.69516303387672
 30
0.0
 11
405.18709468220658
 21
970.17503040431211
 31
0.0
  0
ARC
  5
270A
  8
0
 10
405.17583605374438
 20
1018.654705412612
 30
0.0
 40
57.04349999999998
 50
273.19412714079323
 51
285.0000000000008
  0
ARC
  5
270B
  8
0
 10
408.18709468220652
 20
964.69516303387672
 30
0.0
 40
3.0
 50
180.0
 51
273.19412714079323
  0
ARC
  5
2711
  8
0
 10
429.50019569353623
 20
1015.585484755159
 30
0.0
 40
70.0
 50
123.92330472208261
 51
175.2640158151959
  0
LINE
  5
2712
  8
0
 10
351.28409468220661
 20
1018.615687639168
 30
0.0
 11
356.78609468220662
 21
1018.612687639168
 31
0.0
  0
ARC
  5
2713
  8
0
 10
405.22911245565001
 20
1018.62394626763
 30
0.0
 40
57.04349999999998
 50
183.19412714079951
 51
194.9999999999944
  0
ARC
  5
2714
  8
0
 10
351.26957007691499
 20
1015.612687639168
 30
0.0
 40
3.0
 50
90.0
 51
183.19412714079951
  0
ARC
  5
2715
  8
0
 10
356.74943744735037
 20
1021.612687639168
 30
0.0
 40
3.0
 50
270.0
 51
355.26401581519588
  0
ARC
  5
2716
  8
0
 10
402.18709468220641
 20
1072.53021224446
 30
0.0
 40
3.0
 50
0.0
 51
93.194127140796482
  0
ARC
  5
2718
  8
0
 10
453.62475191706261
 20
1015.612687639168
 30
0.0
 40
3.0
 50
90.0
 51
175.2640158151959
  0
ARC
  5
2719
  8
0
 10
402.15989179819678
 20
994.29958662783849
 30
0.0
 40
70.0
 50
33.923304722079934
 51
85.264015815192963
  0
LINE
  5
2762
  8
0
 10
405.18709468220641
 20
1067.0503448740239
 30
0.0
 11
405.18709468220641
 21
1072.53021224446
 31
0.0
  0
ARC
  5
2763
  8
0
 10
408.18709468220629
 20
1067.0503448740239
 30
0.0
 40
3.0
 50
180.0
 51
265.26401581519298
  0
ARC
  5
2764
  8
0
 10
405.1450769087628
 20
1018.6014290107061
 30
0.0
 40
57.04349999999998
 50
3.1941271407995449
 51
14.999999999994451
  0
ARC
  5
2765
  8
0
 10
459.104619287498
 20
1021.612687639168
 30
0.0
 40
3.0
 50
270.0
 51
3.1941271407995449
  0
LINE
  5
2766
  8
0
 10
459.09009468220643
 20
1018.609687639168
 30
0.0
 11
453.58809468220642
 21
1018.612687639168
 31
0.0
  0
ARC
  5
2767
  8
0
 10
405.19835331066838
 20
1018.570669865725
 30
0.0
 40
57.04349999999998
 50
93.194127140796482
 51
105.0000000000007
  0
CIRCLE
  5
2856
  8
0
 10
405.18709468220641
 20
1018.612687639168
 30
0.0
 40
4.0
  0
LINE
  5
2922
  8
0
 10
568.91017555368308
 20
973.41268763916798
 30
0.0
 11
568.91017555368308
 21
1063.812687639168
 31
0.0
  0
LINE
  5
2923
  8
0
 10
528.91017555368296
 20
1063.6126876391679
 30
0.0
 11
528.91017555368296
 21
973.41268763916798
 31
0.0
  0
LINE
  5
2926
  8
0
 10
529.21017555368314
 20
973.11268763916814
 30
0.0
 11
556.99293238965129
 21
973.11268763916814
 31
0.0
  0
LINE
  5
2927
  8
0
 10
528.91017555368296
 20
973.41268763916798
 30
0.0
 11
529.21017555368314
 21
973.11268763916814
 31
0.0
  0
LINE
  5
2951
  8
0
 10
568.61017555368312
 20
973.11268763916814
 30
0.0
 11
568.91017555368308
 21
973.41268763916798
 31
0.0
  0
LINE
  5
2952
  8
0
 10
557.9891717968593
 20
1065.0260444425171
 30
0.0
 11
558.87017743209503
 21
1075.156009237493
 31
0.0
  0
LINE
  5
2953
  8
0
 10
561.950173675271
 20
1075.156009237493
 30
0.0
 11
562.83117931050685
 21
1065.0260444425171
 31
0.0
  0
ARC
  5
2989
  8
0
 10
556.99293238965129
 20
1065.1126876391679
 30
0.0
 40
1.0
 50
270.0
 51
355.02947824215852
  0
LINE
  5
29A4
  8
0
 10
528.91017555368296
 20
1063.6126876391679
 30
0.0
 11
529.41017555368296
 21
1064.1126876391679
 31
0.0
  0
LINE
  5
29AD
  8
0
 10
529.41017555368296
 20
1064.1126876391679
 30
0.0
 11
568.61017555368335
 21
1064.112687639167
 31
0.0
  0
ARC
  5
29AE
  8
0
 10
563.82741871771475
 20
1065.1126876391679
 30
0.0
 40
1.0
 50
184.9705217578414
 51
270.0
  0
LINE
  5
29AF
  8
0
 10
568.61017555368312
 20
1064.1126876391679
 30
0.0
 11
568.91017555368308
 21
1063.812687639168
 31
0.0
  0
LINE
  5
29B0
  8
0
 10
559.36829713569898
 20
1075.6126876391679
 30
0.0
 11
561.45205397166706
 21
1075.6126876391679
 31
0.0
  0
ARC
  5
29B1
  8
0
 10
559.36829713569898
 20
1075.1126876391679
 30
0.0
 40
0.5
 50
90.0
 51
175.02947824215849
  0
ARC
  5
29B2
  8
0
 10
561.45205397166706
 20
1075.1126876391679
 30
0.0
 40
0.5
 50
4.9705217578414986
 51
90.0
  0
ARC
  5
29FB
  8
0
 10
655.54894131292372
 20
1018.570669865725
 30
0.0
 40
57.04349999999998
 50
74.999999999999275
 51
86.805872859203532
  0
ARC
  5
29FF
  8
0
 10
652.53299705737595
 20
1042.9257886504979
 30
0.0
 40
70.0
 50
274.73598418480702
 51
326.07669527792012
  0
CIRCLE
  5
2A00
  8
0
 10
655.56019994138558
 20
1018.612687639168
 30
0.0
 40
45.499299999999998
  0
ARC
  5
2A02
  8
0
 10
631.24709893005593
 20
1015.585484755159
 30
0.0
 40
70.0
 50
4.7359841848040833
 51
56.076695277917359
  0
LINE
  5
2A03
  8
0
 10
709.46319994138548
 20
1018.615687639168
 30
0.0
 11
703.96119994138553
 21
1018.612687639168
 31
0.0
  0
ARC
  5
2A04
  8
0
 10
655.51818216794197
 20
1018.62394626763
 30
0.0
 40
57.04349999999998
 50
345.00000000000563
 51
356.80587285920052
  0
ARC
  5
2A05
  8
0
 10
709.47772454667711
 20
1015.612687639168
 30
0.0
 40
3.0
 50
356.80587285920052
 51
90.0
  0
ARC
  5
2A06
  8
0
 10
703.99785717624172
 20
1021.612687639168
 30
0.0
 40
3.0
 50
184.7359841848041
 51
270.0
  0
ARC
  5
2A07
  8
0
 10
679.87330095271545
 20
1021.639890523178
 30
0.0
 40
70.0
 50
184.7359841848041
 51
236.07669527791739
  0
ARC
  5
2A09
  8
0
 10
655.57145856984755
 20
1018.654705412612
 30
0.0
 40
57.04349999999998
 50
254.99999999999929
 51
266.80587285920677
  0
ARC
  5
2A0A
  8
0
 10
652.56019994138546
 20
964.69516303387672
 30
0.0
 40
3.0
 50
266.80587285920677
 51
0.000000000000007
  0
LINE
  5
2A0B
  8
0
 10
655.56019994138546
 20
964.69516303387672
 30
0.0
 11
655.56019994138546
 21
970.17503040431211
 31
0.0
  0
ARC
  5
2A0C
  8
0
 10
658.56019994138535
 20
970.17503040431211
 30
0.0
 40
3.0
 50
94.735984184807023
 51
180.0
  0
ARC
  5
2A0D
  8
0
 10
658.5874028253952
 20
994.29958662783849
 30
0.0
 40
70.0
 50
94.735984184807023
 51
146.07669527792009
  0
CIRCLE
  5
2A23
  8
0
 10
655.56019994138558
 20
1018.612687639168
 30
0.0
 40
4.0
  0
LINE
  5
2A24
  8
0
 10
601.65719994138556
 20
1018.609687639168
 30
0.0
 11
607.15919994138562
 21
1018.612687639168
 31
0.0
  0
ARC
  5
2A25
  8
0
 10
607.12254270652943
 20
1015.612687639168
 30
0.0
 40
3.0
 50
4.7359841848040833
 51
90.0
  0
ARC
  5
2A26
  8
0
 10
601.64267533609404
 20
1021.612687639168
 30
0.0
 40
3.0
 50
176.80587285920041
 51
270.0
  0
ARC
  5
2A27
  8
0
 10
655.60221771482918
 20
1018.6014290107061
 30
0.0
 40
57.04349999999998
 50
165.00000000000551
 51
176.80587285920041
  0
ARC
  5
2A28
  8
0
 10
652.56019994138569
 20
1067.0503448740239
 30
0.0
 40
3.0
 50
274.73598418480702
 51
0.000000000000007
  0
LINE
  5
2A3D
  8
0
 10
655.56019994138558
 20
1067.0503448740239
 30
0.0
 11
655.56019994138558
 21
1072.53021224446
 31
0.0
  0
ARC
  5
2A3E
  8
0
 10
658.56019994138569
 20
1072.53021224446
 30
0.0
 40
3.0
 50
86.805872859203532
 51
180.0
  0
CIRCLE
  5
2A3F
  8
0
 10
655.56019994138558
 20
1018.612687639168
 30
0.0
 40
35.275650596409982
  0
ARC
  5
2A41
  8
0
 10
655.56019994138558
 20
1018.612687639168
 30
0.0
 40
31.5
 50
292.39268780540181
 51
67.607312194598364
  0
ARC
  5
2A47
  8
0
 10
655.56019994138558
 20
1018.612687639168
 30
0.0
 40
17.05140787463597
 50
134.72898586842891
 51
225.27101413157141
  0
ARC
  5
2A48
  8
0
 10
655.56019994138558
 20
1018.612687639168
 30
0.0
 40
18.127876617853421
 50
131.44982391103471
 51
228.550176088966
  0
LINE
  5
2A87
  8
0
 10
643.56019994138558
 20
985.44083925834968
 30
0.0
 11
643.56019994138535
 21
1051.784536019986
 31
0.0
  0
LINE
  5
2A88
  8
0
 10
667.56019994138569
 20
985.44083925834968
 30
0.0
 11
667.56019994138558
 21
1051.784536019986
 31
0.0
  0
LINE
  5
2A8A
  8
0
 10
643.56019994138558
 20
992.61268763916792
 30
0.0
 11
667.56019994138558
 21
992.61268763916792
 31
0.0
  0
LINE
  5
2A90
  8
0
 10
647.06019994138603
 20
984.37642725635158
 30
0.0
 11
647.06019994138592
 21
988.49465365041794
 31
0.0
  0
LINE
  5
2A91
  8
0
 10
648.06019994138558
 20
984.14354890609275
 30
0.0
 11
648.06019994138558
 21
988.49465365041794
 31
0.0
  0
ARC
  5
2A95
  8
0
 10
648.56019994138569
 20
988.49465365041794
 30
0.0
 40
0.5
 50
131.81031489577501
 51
180.0
  0
ARC
  5
2A96
  8
0
 10
646.56019994138592
 20
988.49465365041794
 30
0.0
 40
0.5
 50
0.000000000000007
 51
48.189685104224971
  0
ARC
  5
2A97
  8
0
 10
647.5601999413858
 20
989.61268763916814
 30
0.0
 40
1.0
 50
311.81031489577509
 51
228.18968510422991
  0
ARC
  5
2A9A
  8
0
 10
663.56019994138546
 20
1047.6126876391679
 30
0.0
 40
1.0
 50
131.81031489577501
 51
48.189685104229838
  0
LINE
  5
2A9B
  8
0
 10
643.56019994138546
 20
1044.6126876391679
 30
0.0
 11
667.56019994138558
 21
1044.6126876391679
 31
0.0
  0
LINE
  5
2A9D
  8
0
 10
664.06019994138546
 20
1052.8489480219839
 30
0.0
 11
664.06019994138535
 21
1048.730721627918
 31
0.0
  0
ARC
  5
2A9E
  8
0
 10
664.56019994138535
 20
1048.730721627918
 30
0.0
 40
0.5
 50
180.0
 51
228.18968510422499
  0
LINE
  5
2AA1
  8
0
 10
663.06019994138558
 20
1053.0818263722431
 30
0.0
 11
663.06019994138558
 21
1048.730721627918
 31
0.0
  0
ARC
  5
2AA2
  8
0
 10
662.56019994138558
 20
1048.730721627918
 30
0.0
 40
0.5
 50
311.81031489577509
 51
0.000000000000007
  0
ARC
  5
2AD5
  8
0
 10
655.56019994138558
 20
1018.612687639168
 30
0.0
 40
31.5
 50
112.39268780540181
 51
247.60731219459851
  0
ARC
  5
2AD6
  8
0
 10
655.56019994138558
 20
1018.612687639168
 30
0.0
 40
17.05140787463597
 50
314.72898586842871
 51
45.271014131571341
  0
ARC
  5
2AD7
  8
0
 10
655.56019994138558
 20
1018.612687639168
 30
0.0
 40
18.127876617853421
 50
311.44982391103451
 51
48.55017608896555
  0
LINE
  5
2ADC
  8
0
 10
557.90973692151488
 20
1063.7859919604559
 30
0.0
 11
557.90973692151488
 21
1018.609687639168
 31
0.0
  0
LINE
  5
2ADE
  8
0
 10
562.91061418585105
 20
1063.7859919604559
 30
0.0
 11
562.91061418585105
 21
1018.609687639168
 31
0.0
  0
LINE
  5
2AE7
  8
0
 10
564.05498082991198
 20
973.08784276026881
 30
0.0
 11
568.83767788179352
 21
973.11175639498833
 31
0.0
  0
LINE
  5
2AEA
  8
0
 10
559.36829713569898
 20
961.61268763916814
 30
0.0
 11
561.45205397166706
 21
961.61268763916814
 31
0.0
  0
ARC
  5
2AEB
  8
0
 10
559.36829713569898
 20
962.11268763916814
 30
0.0
 40
0.5
 50
184.9705217578414
 51
270.0
  0
LINE
  5
2AEC
  8
0
 10
557.98917179685918
 20
972.19933083581884
 30
0.0
 11
558.87017743209503
 21
962.06936604084285
 31
0.0
  0
ARC
  5
2AED
  8
0
 10
556.99293238965129
 20
972.11268763916803
 30
0.0
 40
1.0
 50
4.9705217578415111
 51
90.000000000000028
  0
ARC
  5
2AEE
  8
0
 10
561.45205397166706
 20
962.11268763916814
 30
0.0
 40
0.5
 50
270.0
 51
355.02947824215852
  0
ARC
  5
2AEF
  8
0
 10
563.82741871771475
 20
972.11268763916803
 30
0.0
 40
1.0
 50
90.000000000000028
 51
175.02947824215849
  0
LINE
  5
2AF0
  8
0
 10
561.950173675271
 20
962.06936604084285
 30
0.0
 11
562.83117931050685
 21
972.19933083581884
 31
0.0
  0
LINE
  5
2AF1
  8
0
 10
563.82741871771475
 20
973.11268763916814
 30
0.0
 11
568.61017555368312
 21
973.11268763916814
 31
0.0
  0
ARC
  5
2AFA
  8
0
 10
565.66292091664525
 20
1018.612687639168
 30
0.0
 40
2.7523067307940892
 50
180.03122605214779
 51
270.0
  0
ARC
  5
2AFB
  8
0
 10
555.1574301907209
 20
1018.612687639168
 30
0.0
 40
2.7523067307940892
 50
270.0
 51
359.96877394785218
  0
LINE
  5
2AFC
  8
0
 10
557.90973692151488
 20
1015.8603809083741
 30
0.0
 11
557.90973692151488
 21
973.11268763916837
 31
0.0
  0
LINE
  5
2AFD
  8
0
 10
562.91061418585127
 20
1015.8603809083741
 30
0.0
 11
562.91061418585127
 21
973.11268763916837
 31
0.0
  0
LINE
  5
2AFE
  8
0
 10
562.91061418585105
 20
1018.609687639168
 30
0.0
 11
557.90973692151488
 21
1018.609687639168
 31
0.0
  0
LINE
  5
2B8B
  8
0
 10
562.91061418585105
 20
1198.773714331993
 30
0.0
 11
562.91061418585105
 21
1153.5989100107049
 31
0.0
  0
LINE
  5
2B8C
  8
0
 10
557.90973692151488
 20
1198.773714331993
 30
0.0
 11
557.90973692151488
 21
1153.5989100107049
 31
0.0
  0
LINE
  5
2B8D
  8
0
 10
528.91017555368296
 20
1198.600410010705
 30
0.0
 11
528.91017555368296
 21
1108.4004100107049
 31
0.0
  0
LINE
  5
2B8E
  8
0
 10
568.91017555368308
 20
1108.4004100107049
 30
0.0
 11
568.91017555368308
 21
1198.800410010705
 31
0.0
  0
ARC
  5
2B90
  8
0
 10
555.1574301907209
 20
1153.600410010705
 30
0.0
 40
2.7523067307940892
 50
270.0
 51
359.96877394785218
  0
ARC
  5
2B91
  8
0
 10
556.99293238965129
 20
1107.100410010705
 30
0.0
 40
1.0
 50
4.9705217578415111
 51
90.000000000000028
  0
LINE
  5
2B92
  8
0
 10
529.21017555368314
 20
1108.100410010705
 30
0.0
 11
556.99293238965129
 21
1108.100410010705
 31
0.0
  0
LINE
  5
2B93
  8
0
 10
528.91017555368296
 20
1108.4004100107049
 30
0.0
 11
529.21017555368314
 21
1108.100410010705
 31
0.0
  0
LINE
  5
2B94
  8
0
 10
557.90973692151488
 20
1150.8481032799109
 30
0.0
 11
557.90973692151488
 21
1108.100410010705
 31
0.0
  0
LINE
  5
2B95
  8
0
 10
562.91061418585127
 20
1150.8481032799109
 30
0.0
 11
562.91061418585127
 21
1108.100410010705
 31
0.0
  0
LINE
  5
2B98
  8
0
 10
568.61017555368312
 20
1108.100410010705
 30
0.0
 11
568.91017555368308
 21
1108.4004100107049
 31
0.0
  0
ARC
  5
2B99
  8
0
 10
559.36829713569898
 20
1097.100410010705
 30
0.0
 40
0.5
 50
184.9705217578414
 51
270.0
  0
LINE
  5
2B9A
  8
0
 10
557.98917179685918
 20
1107.187053207356
 30
0.0
 11
558.87017743209503
 21
1097.0570884123799
 31
0.0
  0
ARC
  5
2B9B
  8
0
 10
561.45205397166706
 20
1097.100410010705
 30
0.0
 40
0.5
 50
270.0
 51
355.02947824215852
  0
ARC
  5
2B9C
  8
0
 10
563.82741871771475
 20
1107.100410010705
 30
0.0
 40
1.0
 50
90.000000000000028
 51
175.02947824215849
  0
LINE
  5
2B9D
  8
0
 10
561.950173675271
 20
1097.0570884123799
 30
0.0
 11
562.83117931050685
 21
1107.187053207356
 31
0.0
  0
LINE
  5
2B9E
  8
0
 10
559.36829713569898
 20
1096.600410010705
 30
0.0
 11
561.45205397166706
 21
1096.600410010705
 31
0.0
  0
LINE
  5
2B9F
  8
0
 10
564.05498082991198
 20
1108.0755651318059
 30
0.0
 11
568.83767788179352
 21
1108.099478766525
 31
0.0
  0
LINE
  5
2BA0
  8
0
 10
563.82741871771475
 20
1108.100410010705
 30
0.0
 11
568.61017555368312
 21
1108.100410010705
 31
0.0
  0
ARC
  5
2BA1
  8
0
 10
565.66292091664525
 20
1153.600410010705
 30
0.0
 40
2.7523067307940892
 50
180.03122605214779
 51
270.0
  0
ARC
  5
2BA4
  8
0
 10
556.99293238965129
 20
1200.100410010705
 30
0.0
 40
1.0
 50
270.0
 51
355.02947824215852
  0
LINE
  5
2BA5
  8
0
 10
529.41017555368296
 20
1199.100410010705
 30
0.0
 11
556.99293238965129
 21
1199.100410010705
 31
0.0
  0
LINE
  5
2BA6
  8
0
 10
528.91017555368296
 20
1198.600410010705
 30
0.0
 11
529.41017555368296
 21
1199.100410010705
 31
0.0
  0
LINE
  5
2BA7
  8
0
 10
568.61017555368312
 20
1199.100410010705
 30
0.0
 11
568.91017555368308
 21
1198.800410010705
 31
0.0
  0
ARC
  5
2BA8
  8
0
 10
559.36829713569898
 20
1210.100410010705
 30
0.0
 40
0.5
 50
90.0
 51
175.02947824215849
  0
LINE
  5
2BA9
  8
0
 10
557.9891717968593
 20
1200.013766814054
 30
0.0
 11
558.87017743209503
 21
1210.1437316090301
 31
0.0
  0
LINE
  5
2BAA
  8
0
 10
561.950173675271
 20
1210.1437316090301
 30
0.0
 11
562.83117931050685
 21
1200.013766814054
 31
0.0
  0
ARC
  5
2BAB
  8
0
 10
563.82741871771475
 20
1200.100410010705
 30
0.0
 40
1.0
 50
184.9705217578414
 51
270.0
  0
ARC
  5
2BAC
  8
0
 10
561.45205397166706
 20
1210.100410010705
 30
0.0
 40
0.5
 50
4.9705217578414986
 51
90.0
  0
LINE
  5
2BAD
  8
0
 10
559.36829713569898
 20
1210.600410010705
 30
0.0
 11
561.45205397166706
 21
1210.600410010705
 31
0.0
  0
LINE
  5
2BAE
  8
0
 10
563.82741871771475
 20
1199.100410010705
 30
0.0
 11
568.61017555368312
 21
1199.100410010705
 31
0.0
  0
LINE
  5
2BDF
  8
0
 10
556.99293238965129
 20
1199.100410010705
 30
0.0
 11
563.82741871771475
 21
1199.100410010705
 31
0.0
  0
LINE
  5
2BE4
  8
0
 10
540.82741871771475
 20
1254.9196465587311
 30
0.0
 11
533.99293238965117
 21
1254.9196465587311
 31
0.0
  0
ARC
  5
2BE5
  8
0
 10
540.82741871771475
 20
1253.9196465587311
 30
0.0
 40
1.0
 50
90.000000000000028
 51
175.02947824215849
  0
ARC
  5
2BE6
  8
0
 10
540.82741871771475
 20
1346.9196465587311
 30
0.0
 40
1.0
 50
184.97052175784151
 51
270.0
  0
ARC
  5
2BE7
  8
0
 10
542.66292091664525
 20
1300.4196465587311
 30
0.0
 40
2.7523067307940892
 50
90.000000000000028
 51
179.9687739478521
  0
LINE
  5
2BE9
  8
0
 10
568.91017555368308
 20
1255.4196465587311
 30
0.0
 11
568.91017555368308
 21
1345.6196465587309
 31
0.0
  0
LINE
  5
2BEA
  8
0
 10
568.61017555368301
 20
1345.9196465587311
 30
0.0
 11
540.82741871771475
 21
1345.9196465587311
 31
0.0
  0
LINE
  5
2BEB
  8
0
 10
568.91017555368308
 20
1345.6196465587309
 30
0.0
 11
568.61017555368301
 21
1345.9196465587311
 31
0.0
  0
LINE
  5
2BEC
  8
0
 10
568.41017555368296
 20
1254.9196465587311
 30
0.0
 11
540.82741871771475
 21
1254.9196465587311
 31
0.0
  0
LINE
  5
2BED
  8
0
 10
568.91017555368308
 20
1255.4196465587311
 30
0.0
 11
568.41017555368296
 21
1254.9196465587311
 31
0.0
  0
LINE
  5
2BF0
  8
0
 10
528.91017555368296
 20
1345.6196465587309
 30
0.0
 11
528.91017555368296
 21
1255.219646558731
 31
0.0
  0
LINE
  5
2BF1
  8
0
 10
539.91061418585127
 20
1255.2463422374431
 30
0.0
 11
539.91061418585105
 21
1300.4211465587309
 31
0.0
  0
LINE
  5
2BF2
  8
0
 10
534.90973692151499
 20
1255.2463422374431
 30
0.0
 11
534.90973692151499
 21
1300.4211465587309
 31
0.0
  0
LINE
  5
2BF5
  8
0
 10
534.90973692151465
 20
1303.1719532895249
 30
0.0
 11
534.90973692151465
 21
1345.9196465587311
 31
0.0
  0
LINE
  5
2BF6
  8
0
 10
539.91061418585105
 20
1303.1719532895249
 30
0.0
 11
539.91061418585105
 21
1345.9196465587311
 31
0.0
  0
LINE
  5
2BF7
  8
0
 10
533.99293238965117
 20
1345.9196465587311
 30
0.0
 11
529.21017555368303
 21
1345.9196465587311
 31
0.0
  0
LINE
  5
2BF8
  8
0
 10
533.76537027745417
 20
1345.9444914376299
 30
0.0
 11
528.98267322557251
 21
1345.9205778029111
 31
0.0
  0
LINE
  5
2BF9
  8
0
 10
538.45205397166706
 20
1357.4196465587311
 30
0.0
 11
536.36829713569898
 21
1357.4196465587311
 31
0.0
  0
LINE
  5
2BFA
  8
0
 10
535.87017743209503
 20
1356.9629681570559
 30
0.0
 11
534.9891717968593
 21
1346.83300336208
 31
0.0
  0
ARC
  5
2BFB
  8
0
 10
533.99293238965117
 20
1346.9196465587311
 30
0.0
 40
1.0
 50
270.0
 51
355.02947824215852
  0
ARC
  5
2BFC
  8
0
 10
536.36829713569898
 20
1356.9196465587311
 30
0.0
 40
0.5
 50
90.000000000000028
 51
175.02947824215849
  0
LINE
  5
2BFD
  8
0
 10
539.83117931050685
 20
1346.83300336208
 30
0.0
 11
538.95017367527112
 21
1356.9629681570559
 31
0.0
  0
ARC
  5
2BFE
  8
0
 10
538.45205397166706
 20
1356.9196465587311
 30
0.0
 40
0.5
 50
4.9705217578414604
 51
90.000000000000028
  0
LINE
  5
2BFF
  8
0
 10
529.21017555368303
 20
1345.9196465587311
 30
0.0
 11
528.91017555368296
 21
1345.6196465587309
 31
0.0
  0
ARC
  5
2C02
  8
0
 10
532.1574301907209
 20
1300.4196465587311
 30
0.0
 40
2.7523067307940892
 50
0.0312260521478401
 51
90.000000000000028
  0
LINE
  5
2C05
  8
0
 10
535.87017743209503
 20
1243.876324960406
 30
0.0
 11
534.9891717968593
 21
1254.0062897553821
 31
0.0
  0
LINE
  5
2C06
  8
0
 10
539.83117931050674
 20
1254.0062897553821
 30
0.0
 11
538.95017367527112
 21
1243.876324960406
 31
0.0
  0
LINE
  5
2C07
  8
0
 10
533.99293238965117
 20
1254.9196465587311
 30
0.0
 11
529.21017555368303
 21
1254.9196465587311
 31
0.0
  0
ARC
  5
2C08
  8
0
 10
533.99293238965117
 20
1253.9196465587311
 30
0.0
 40
1.0
 50
4.9705217578414604
 51
90.000000000000028
  0
LINE
  5
2C09
  8
0
 10
529.21017555368303
 20
1254.9196465587311
 30
0.0
 11
528.91017555368296
 21
1255.219646558731
 31
0.0
  0
LINE
  5
2C0A
  8
0
 10
538.45205397166706
 20
1243.4196465587311
 30
0.0
 11
536.36829713569898
 21
1243.4196465587311
 31
0.0
  0
ARC
  5
2C0B
  8
0
 10
536.36829713569898
 20
1243.9196465587311
 30
0.0
 40
0.5
 50
184.9705217578414
 51
270.0
  0
ARC
  5
2C0C
  8
0
 10
538.45205397166706
 20
1243.9196465587311
 30
0.0
 40
0.5
 50
270.0
 51
355.02947824215852
  0
TEXT
  5
2C1A
  8
0
 10
532.33317827989595
 20
855.72998568227365
 30
0.0
 40
12.5
  1
50A
 41
0.8
 11
532.33317827989595
 21
855.72998568227365
 31
0.0
 73
     1
  0
TEXT
  5
2C1B
  8
0
 10
956.75721061862896
 20
60.131072115927282
 30
0.0
 40
17.5
  1
TLV  CKF3MG(│┤╩░î^)
  0
ARC
  5
2DFD
  8
0
 10
1097.3935633555409
 20
964.31761400516893
 30
0.0
 40
60.0
 50
217.09584472446431
 51
251.6817809920642
  0
CIRCLE
  5
2DFE
  8
0
 10
1078.535902956042
 20
978.3580788573363
 30
0.0
 40
58.000000000000028
  0
ARC
  5
2E01
  8
0
 10
1078.535902956042
 20
912.3580788573363
 30
0.0
 40
5.0
 50
270.0
 51
0.000000000000007
  0
ARC
  5
2E02
  8
0
 10
1088.5359029560429
 20
916.15679269700036
 30
0.0
 40
5.0
 50
99.133197783702414
 51
180.0
  0
LINE
  5
2E03
  8
0
 10
1083.535902956042
 20
912.3580788573363
 30
0.0
 11
1083.535902956042
 21
916.15679269700036
 31
0.0
  0
ARC
  5
2E0A
  8
0
 10
1086.0359029560429
 20
1003.774608911614
 30
0.0
 40
6.0
 50
73.559536883361076
 51
180.0
  0
ARC
  5
2E0B
  8
0
 10
1088.5359029560429
 20
1002.898861240952
 30
0.0
 40
6.0
 50
67.829842836464238
 51
180.0
  0
ARC
  5
2E0C
  8
0
 10
1092.5359029560429
 20
997.14121547218406
 30
0.0
 40
10.0
 50
180.0
 51
233.30101684920339
  0
ARC
  5
2E0D
  8
0
 10
1090.035902956042
 20
995.52105209318916
 30
0.0
 40
10.0
 50
180.0
 51
236.17605330822869
  0
ARC
  5
2E0E
  8
0
 10
1078.535902956042
 20
978.3580788573363
 30
0.0
 40
10.659565588235409
 50
56.176053308228717
 51
123.8239466917713
  0
ARC
  5
2E0F
  8
0
 10
1092.5359029560429
 20
959.57494224248853
 30
0.0
 40
10.0
 50
126.69898315079659
 51
180.0
  0
ARC
  5
2E10
  8
0
 10
1090.035902956042
 20
961.19510562148344
 30
0.0
 40
10.0
 50
123.8239466917713
 51
180.0
  0
ARC
  5
2E11
  8
0
 10
1078.535902956042
 20
978.3580788573363
 30
0.0
 40
10.659565588235409
 50
236.17605330822869
 51
303.8239466917712
  0
CIRCLE
  5
2E12
  8
0
 10
1078.535902956042
 20
978.3580788573363
 30
0.0
 40
8.1245936615807182
  0
CIRCLE
  5
2E13
  8
0
 10
1078.535902956042
 20
978.3580788573363
 30
0.0
 40
5.2499999999999707
  0
ARC
  5
2E14
  8
0
 10
1059.6782425565441
 20
992.39854370950366
 30
0.0
 40
60.0
 50
37.09584472446425
 51
71.681780992064191
  0
CIRCLE
  5
2E16
  8
0
 10
1078.535902956042
 20
978.3580788573363
 30
0.0
 40
43.000000000000028
  0
ARC
  5
2E18
  8
0
 10
1088.5359029560429
 20
953.81729647372026
 30
0.0
 40
6.0
 50
180.0
 51
292.1701571635478
  0
ARC
  5
2E19
  8
0
 10
1086.0359029560429
 20
952.94154880305859
 30
0.0
 40
6.0
 50
180.0
 51
286.44046311663902
  0
ARC
  5
2E1A
  8
0
 10
1078.535902956042
 20
978.3580788573363
 30
0.0
 40
32.499999999999972
 50
286.44046311663902
 51
73.559536883361076
  0
ARC
  5
2E1C
  8
0
 10
1092.5763678082101
 20
997.21573925683447
 30
0.0
 40
60.0
 50
307.09584472446431
 51
341.6817809920642
  0
LINE
  5
2E1D
  8
0
 10
1144.535902956042
 20
983.35807885733618
 30
0.0
 11
1140.7371891163791
 21
983.35807885733618
 31
0.0
  0
ARC
  5
2E1E
  8
0
 10
1144.535902956042
 20
978.3580788573363
 30
0.0
 40
5.0
 50
0.000000000000007
 51
90.0
  0
ARC
  5
2E1F
  8
0
 10
1140.7371891163791
 20
988.3580788573363
 30
0.0
 40
5.0
 50
189.1331977837024
 51
270.0
  0
ARC
  5
2E26
  8
0
 10
1078.535902956042
 20
978.3580788573363
 30
0.0
 40
13.42661352163452
 50
306.69898315079661
 51
53.301016849203421
  0
ARC
  5
2E2F
  8
0
 10
1064.5359029560429
 20
997.14121547218406
 30
0.0
 40
10.0
 50
306.69898315079661
 51
0.000000000000007
  0
ARC
  5
2E30
  8
0
 10
1067.0359029560429
 20
995.52105209318916
 30
0.0
 40
10.0
 50
303.8239466917712
 51
0.000000000000007
  0
ARC
  5
2E31
  8
0
 10
1064.4954381038749
 20
959.50041845783824
 30
0.0
 40
60.0
 50
127.0958447244642
 51
161.6817809920642
  0
ARC
  5
2E32
  8
0
 10
1078.535902956042
 20
978.3580788573363
 30
0.0
 40
32.499999999999972
 50
106.4404631166389
 51
253.55953688336109
  0
LINE
  5
2E34
  8
0
 10
1074.5359029560429
 20
959.57494224248853
 30
0.0
 11
1074.5359029560429
 21
953.81729647372026
 31
0.0
  0
LINE
  5
2E35
  8
0
 10
1077.0359029560429
 20
961.19510562148344
 30
0.0
 11
1077.0359029560429
 21
952.94154880305859
 31
0.0
  0
LINE
  5
2E36
  8
0
 10
1082.5359029560429
 20
959.57494224248853
 30
0.0
 11
1082.5359029560429
 21
953.81729647372026
 31
0.0
  0
LINE
  5
2E37
  8
0
 10
1080.035902956042
 20
961.19510562148344
 30
0.0
 11
1080.035902956042
 21
952.94154880305859
 31
0.0
  0
ARC
  5
2E47
  8
0
 10
1068.5359029560429
 20
953.81729647372026
 30
0.0
 40
6.0
 50
247.82984283646419
 51
0.000000000000007
  0
ARC
  5
2E48
  8
0
 10
1071.0359029560429
 20
952.94154880305859
 30
0.0
 40
6.0
 50
253.55953688336109
 51
0.000000000000007
  0
ARC
  5
2E49
  8
0
 10
1078.535902956042
 20
978.3580788573363
 30
0.0
 40
13.42661352163452
 50
126.69898315079659
 51
233.30101684920339
  0
ARC
  5
2E4B
  8
0
 10
1064.5359029560429
 20
959.57494224248853
 30
0.0
 40
10.0
 50
0.000000000000007
 51
53.301016849203421
  0
ARC
  5
2E4C
  8
0
 10
1067.0359029560429
 20
961.19510562148344
 30
0.0
 40
10.0
 50
0.000000000000007
 51
56.176053308228717
  0
LINE
  5
2E4D
  8
0
 10
1012.5359029560429
 20
973.35807885733618
 30
0.0
 11
1016.334616795707
 21
973.35807885733618
 31
0.0
  0
ARC
  5
2E4E
  8
0
 10
1016.334616795707
 20
968.35807885733641
 30
0.0
 40
5.0
 50
9.1331977837024318
 51
90.0
  0
ARC
  5
2E4F
  8
0
 10
1012.5359029560429
 20
978.3580788573363
 30
0.0
 40
5.0
 50
180.0
 51
270.0
  0
ARC
  5
2E54
  8
0
 10
1068.5359029560429
 20
1002.898861240952
 30
0.0
 40
6.0
 50
0.000000000000007
 51
112.1701571635478
  0
ARC
  5
2E55
  8
0
 10
1071.0359029560429
 20
1003.774608911614
 30
0.0
 40
6.0
 50
0.000000000000007
 51
106.4404631166389
  0
LINE
  5
2E56
  8
0
 10
1074.5359029560429
 20
1002.898861240952
 30
0.0
 11
1074.5359029560429
 21
997.14121547218406
 31
0.0
  0
LINE
  5
2E57
  8
0
 10
1077.0359029560429
 20
1003.774608911614
 30
0.0
 11
1077.0359029560429
 21
995.52105209318916
 31
0.0
  0
LINE
  5
2E58
  8
0
 10
1082.5359029560429
 20
1002.898861240952
 30
0.0
 11
1082.5359029560429
 21
997.14121547218406
 31
0.0
  0
LINE
  5
2E59
  8
0
 10
1080.035902956042
 20
1003.774608911614
 30
0.0
 11
1080.035902956042
 21
995.52105209318916
 31
0.0
  0
ARC
  5
2E60
  8
0
 10
1068.5359029560429
 20
1040.559365017672
 30
0.0
 40
5.0
 50
279.13319778370243
 51
0.000000000000007
  0
ARC
  5
2E64
  8
0
 10
1078.535902956042
 20
1044.3580788573361
 30
0.0
 40
5.0
 50
90.0
 51
180.0
  0
LINE
  5
2E65
  8
0
 10
1073.535902956042
 20
1044.3580788573361
 30
0.0
 11
1073.535902956042
 21
1040.559365017672
 31
0.0
  0
LINE
  5
2E67
  8
0
 10
1278.6039517299671
 20
1035.8580788573361
 30
0.0
 11
1278.6039517299671
 21
920.65827885733631
 31
0.0
  0
LINE
  5
2E68
  8
0
 10
1232.6039517299671
 20
1035.8580788573361
 30
0.0
 11
1232.6039517299671
 21
920.65827885733631
 31
0.0
  0
LINE
  5
2E6E
  8
0
 10
1264.366453756367
 20
920.35827885733602
 30
0.0
 11
1232.903951729967
 21
920.35827885733624
 31
0.0
  0
LINE
  5
2E6F
  8
0
 10
1232.903951729967
 20
920.35827885733624
 30
0.0
 11
1232.6039517299671
 21
920.65827885733631
 31
0.0
  0
ARC
  5
2E70
  8
0
 10
1272.683818848401
 20
908.35807885733618
 30
0.0
 40
1.0
 50
270.0
 51
355.23635830926952
  0
ARC
  5
2E71
  8
0
 10
1269.524084611533
 20
908.35807885733618
 30
0.0
 40
1.0
 50
184.76364169073051
 51
270.0
  0
LINE
  5
2E72
  8
0
 10
1272.683818848401
 20
907.35807885733618
 30
0.0
 11
1269.524084611533
 21
907.35807885733618
 31
0.0
  0
LINE
  5
2E73
  8
0
 10
1268.527538853288
 20
908.27503337748249
 30
0.0
 11
1267.6107950269579
 21
920.35807885733925
 31
0.0
  0
LINE
  5
2E75
  8
0
 10
1273.680364606646
 20
908.27503337748249
 30
0.0
 11
1274.5971084329749
 21
920.35807885733254
 31
0.0
  0
POINT
  5
2E76
  8
0
  6
BYBLOCK
 10
1273.680364606646
 20
908.27503337748249
 30
0.0
  0
LINE
  5
2E77
  8
0
 10
1277.8414497061931
 20
920.35825438546954
 30
0.0
 11
1278.3039517299669
 21
920.35827885733624
 31
0.0
  0
POINT
  5
2E7A
  8
0
  6
BYBLOCK
 10
1278.6039517299671
 20
920.65827885733631
 30
0.0
  0
LINE
  5
2E7B
  8
0
 10
1278.6039517299671
 20
920.65827885733631
 30
0.0
 11
1278.3039517299669
 21
920.35827885733624
 31
0.0
  0
LINE
  5
2E80
  8
0
 10
1266.683818848401
 20
1036.3580788573361
 30
0.0
 11
1233.1039517299671
 21
1036.3580788573361
 31
0.0
  0
LINE
  5
2EC8
  8
0
 10
1232.6039517299671
 20
1035.8580788573361
 30
0.0
 11
1233.1039517299671
 21
1036.3580788573361
 31
0.0
  0
POINT
  5
2EC9
  8
0
  6
BYBLOCK
 10
1232.6039517299671
 20
1035.8580788573361
 30
0.0
  0
LINE
  5
2EE9
  8
0
 10
1278.1039517299671
 20
1036.3580788573361
 30
0.0
 11
1275.524084611533
 21
1036.3580788573361
 31
0.0
  0
LINE
  5
2EEB
  8
0
 10
1278.6039517299671
 20
1035.8580788573361
 30
0.0
 11
1278.1039517299671
 21
1036.3580788573361
 31
0.0
  0
LINE
  5
334B
  8
0
 10
1267.6107950269591
 20
973.2040652490283
 30
0.0
 11
1267.6107950269591
 21
1006.358078857339
 31
0.0
  0
LINE
  5
334C
  8
0
 10
1274.597108432974
 20
973.20406524899067
 30
0.0
 11
1274.5971084329749
 21
1006.358078857339
 31
0.0
  0
LINE
  5
3380
  8
0
 10
1272.683818848401
 20
1049.3580788573361
 30
0.0
 11
1269.524084611533
 21
1049.3580788573361
 31
0.0
  0
LINE
  5
3382
  8
0
 10
1268.527538853288
 20
1048.4411243371901
 30
0.0
 11
1267.6251362752589
 21
1036.5471021705789
 31
0.0
  0
ARC
  5
3383
  8
0
 10
1266.6280020572869
 20
1036.6227550049471
 30
0.0
 40
1.0
 50
270.0
 51
355.66126646860931
  0
POINT
  5
3384
  8
0
  6
BYBLOCK
 10
1267.6107950269591
 20
1036.539709525093
 30
0.0
  0
ARC
  5
3385
  8
0
 10
1266.683818848401
 20
1037.3580788573361
 30
0.0
 40
1.0
 50
270.0
 51
355.23635830926952
  0
ARC
  5
3386
  8
0
 10
1269.524084611533
 20
1048.3580788573361
 30
0.0
 40
1.0
 50
90.000000000000028
 51
175.23635830926949
  0
LINE
  5
3388
  8
0
 10
1273.680364606646
 20
1048.4411243371901
 30
0.0
 11
1274.5827671846739
 21
1036.5471021705789
 31
0.0
  0
ARC
  5
3389
  8
0
 10
1275.579901402647
 20
1036.6227550049471
 30
0.0
 40
1.0
 50
184.33873353139069
 51
270.0
  0
ARC
  5
338B
  8
0
 10
1275.524084611533
 20
1037.3580788573361
 30
0.0
 40
1.0
 50
184.76364169073051
 51
270.0
  0
POINT
  5
338C
  8
0
  6
BYBLOCK
 10
1274.527538853288
 20
1037.2750333774829
 30
0.0
  0
POINT
  5
338E
  8
0
  6
BYBLOCK
 10
1273.680364606646
 20
1048.4411243371901
 30
0.0
  0
ARC
  5
338F
  8
0
 10
1272.683818848401
 20
1048.3580788573361
 30
0.0
 40
1.0
 50
4.7636416907305179
 51
90.000000000000028
  0
LINE
  5
3390
  8
0
 10
1267.6107950269579
 20
928.12860543784234
 30
0.0
 11
1267.6107950269579
 21
920.35807885733925
 31
0.0
  0
LINE
  5
3391
  8
0
 10
1274.5971084329749
 20
928.12860543784234
 30
0.0
 11
1274.5971084329749
 21
920.35807885733254
 31
0.0
  0
ARC
  5
33A6
  8
0
 10
1277.8416348978881
 20
916.85825439036898
 30
0.0
 40
3.5
 50
90.003031629293787
 51
175.6612664686086
  0
ARC
  5
33A7
  8
0
 10
1264.366268562045
 20
916.85827886223569
 30
0.0
 40
3.5
 50
4.3387335313913971
 51
89.996968370706213
  0
LINE
  5
33BB
  8
0
 10
1268.6107950269591
 20
973.35807885733618
 30
0.0
 11
1273.597108432974
 21
973.35807885733641
 31
0.0
  0
LINE
  5
33CB
  8
0
 10
1267.6107950269591
 20
978.35807885733755
 30
0.0
 11
1274.597108432974
 21
978.35807885733766
 31
0.0
  0
ARC
  5
33CC
  8
0
 10
1268.6107950269591
 20
974.35807885733618
 30
0.0
 40
1.0
 50
180.0
 51
270.0
  0
ARC
  5
33CD
  8
0
 10
1273.597108432974
 20
974.35807885733641
 30
0.0
 40
1.0
 50
270.0
 51
0.0
  0
ARC
  5
33D2
  8
0
 10
1266.613660808986
 20
973.27971808339635
 30
0.0
 40
1.0
 50
270.0
 51
355.66126646860931
  0
POINT
  5
33D3
  8
0
  6
BYBLOCK
 10
1267.596453778659
 20
973.19667260354265
 30
0.0
  0
ARC
  5
33D4
  8
0
 10
1275.5942426509471
 20
973.27971808339635
 30
0.0
 40
1.0
 50
184.33873353139069
 51
270.0
  0
ARC
  5
356C
  8
0
 10
417.18709468220641
 20
1034.245885648106
 30
0.0
 40
9.0
 50
180.0
 51
232.49025448506231
  0
ARC
  5
356D
  8
0
 10
393.18709468220641
 20
1034.245885648106
 30
0.0
 40
9.0
 50
307.50974551493772
 51
0.0
  0
ARC
  5
356E
  8
0
 10
394.68709468220641
 20
1032.922683774261
 30
0.0
 40
9.0
 50
306.26946414000611
 51
0.0
  0
ARC
  5
356F
  8
0
 10
415.68709468220629
 20
1032.922683774261
 30
0.0
 40
9.0
 50
180.0
 51
233.73053585999401
  0
ARC
  5
3570
  8
0
 10
405.18709468220641
 20
1018.612687639168
 30
0.0
 40
25.0
 50
288.9655749888484
 51
71.034425011151555
  0
ARC
  5
3571
  8
0
 10
405.18709468220641
 20
1018.612687639168
 30
0.0
 40
25.0
 50
108.9655749888484
 51
251.0344250111516
  0
CIRCLE
  5
3572
  8
0
 10
405.18709468220641
 20
1018.612687639168
 30
0.0
 40
29.999999999999929
  0
LINE
  5
3574
  8
0
 10
406.68709468220641
 20
999.69840731979048
 30
0.0
 11
406.68709468220641
 21
1004.3026915040761
 31
0.0
  0
LINE
  5
3575
  8
0
 10
403.68709468220629
 20
999.69840731979048
 30
0.0
 11
403.68709468220629
 21
1004.3026915040761
 31
0.0
  0
ARC
  5
3576
  8
0
 10
417.18709468220641
 20
1002.97948963023
 30
0.0
 40
9.0
 50
127.50974551493771
 51
180.0
  0
ARC
  5
3577
  8
0
 10
393.18709468220641
 20
1002.97948963023
 30
0.0
 40
9.0
 50
0.0
 51
52.490254485062323
  0
ARC
  5
3578
  8
0
 10
397.18709468220641
 20
1000.282384859345
 30
0.0
 40
5.0
 50
246.4218215217989
 51
0.0
  0
LINE
  5
3579
  8
0
 10
408.18709468220629
 20
1000.282384859345
 30
0.0
 11
408.18709468220629
 21
1002.97948963023
 31
0.0
  0
ARC
  5
357A
  8
0
 10
413.18709468220641
 20
1000.282384859345
 30
0.0
 40
5.0
 50
180.0
 51
293.57817847820121
  0
ARC
  5
357B
  8
0
 10
411.68709468220629
 20
999.69840731979048
 30
0.0
 40
5.0
 50
180.0
 51
288.9655749888484
  0
LINE
  5
357C
  8
0
 10
402.18709468220641
 20
1000.282384859345
 30
0.0
 11
402.18709468220641
 21
1002.97948963023
 31
0.0
  0
ARC
  5
357D
  8
0
 10
398.68709468220641
 20
999.69840731979048
 30
0.0
 40
5.0
 50
251.0344250111516
 51
0.0
  0
ARC
  5
357E
  8
0
 10
405.18709468220641
 20
1018.612687639168
 30
0.0
 40
10.70778729301392
 50
127.50974551493771
 51
232.49025448506231
  0
ARC
  5
357F
  8
0
 10
415.68709468220629
 20
1004.3026915040761
 30
0.0
 40
9.0
 50
126.26946414000599
 51
180.0
  0
ARC
  5
3580
  8
0
 10
405.18709468220641
 20
1018.612687639168
 30
0.0
 40
8.7489715022128642
 50
233.73053585999401
 51
306.26946414000611
  0
ARC
  5
3581
  8
0
 10
394.68709468220641
 20
1004.3026915040761
 30
0.0
 40
9.0
 50
0.0
 51
53.730535859993957
  0
CIRCLE
  5
3582
  8
0
 10
405.18709468220641
 20
1018.612687639168
 30
0.0
 40
6.749999999999857
  0
ARC
  5
3583
  8
0
 10
405.18709468220641
 20
1018.612687639168
 30
0.0
 40
8.7489715022128642
 50
57.496819289712647
 51
126.26946414000599
  0
ARC
  5
3584
  8
0
 10
405.18709468220641
 20
1018.612687639168
 30
0.0
 40
10.70778729301392
 50
307.50974551493772
 51
52.490254485062323
  0
ARC
  5
3585
  8
0
 10
397.18709468220641
 20
1036.942990418991
 30
0.0
 40
5.0
 50
0.0
 51
113.5781784782011
  0
LINE
  5
3598
  8
0
 10
408.18709468220629
 20
1034.245885648106
 30
0.0
 11
408.18709468220629
 21
1036.942990418991
 31
0.0
  0
LINE
  5
3599
  8
0
 10
406.68709468220641
 20
1037.526967958546
 30
0.0
 11
406.68709468220641
 21
1032.922683774261
 31
0.0
  0
ARC
  5
359A
  8
0
 10
413.18709468220641
 20
1036.942990418991
 30
0.0
 40
5.0
 50
66.421821521798833
 51
180.0
  0
ARC
  5
359B
  8
0
 10
411.68709468220629
 20
1037.526967958546
 30
0.0
 40
5.0
 50
71.034425011151555
 51
180.0
  0
LINE
  5
359C
  8
0
 10
402.18709468220641
 20
1034.245885648106
 30
0.0
 11
402.18709468220641
 21
1036.942990418991
 31
0.0
  0
LINE
  5
359D
  8
0
 10
403.68709468220629
 20
1037.526967958546
 30
0.0
 11
403.68709468220629
 21
1032.922683774261
 31
0.0
  0
ARC
  5
359E
  8
0
 10
398.68709468220641
 20
1037.526967958546
 30
0.0
 40
5.0
 50
0.0
 51
108.9655749888484
  0
ARC
  5
359F
  8
0
 10
1416.9593632653
 20
997.21573925683447
 30
0.0
 40
60.0
 50
307.09584472446431
 51
341.6817809920642
  0
CIRCLE
  5
35A1
  8
0
 10
1402.9188984131331
 20
978.3580788573363
 30
0.0
 40
58.000000000000028
  0
ARC
  5
35A2
  8
0
 10
1465.120184573469
 20
988.3580788573363
 30
0.0
 40
5.0
 50
189.1331977837024
 51
270.0
  0
ARC
  5
35A3
  8
0
 10
1468.9188984131331
 20
978.3580788573363
 30
0.0
 40
5.0
 50
0.000000000000007
 51
90.0
  0
LINE
  5
35A4
  8
0
 10
1468.9188984131331
 20
983.35807885733618
 30
0.0
 11
1465.120184573469
 21
983.35807885733618
 31
0.0
  0
ARC
  5
35A5
  8
0
 10
1402.9188984131331
 20
1044.3580788573361
 30
0.0
 40
5.0
 50
90.0
 51
180.0
  0
ARC
  5
35A6
  8
0
 10
1384.0612380136349
 20
992.39854370950366
 30
0.0
 40
60.0
 50
37.09584472446425
 51
71.681780992064191
  0
ARC
  5
35A8
  8
0
 10
1421.776558812631
 20
964.31761400516893
 30
0.0
 40
60.0
 50
217.09584472446431
 51
251.6817809920642
  0
LINE
  5
35A9
  8
0
 10
1407.9188984131331
 20
912.3580788573363
 30
0.0
 11
1407.9188984131331
 21
916.15679269700036
 31
0.0
  0
ARC
  5
35AA
  8
0
 10
1412.9188984131331
 20
916.15679269700036
 30
0.0
 40
5.0
 50
99.133197783702414
 51
180.0
  0
ARC
  5
35AB
  8
0
 10
1402.9188984131331
 20
912.3580788573363
 30
0.0
 40
5.0
 50
270.0
 51
0.000000000000007
  0
ARC
  5
35AC
  8
0
 10
1402.9188984131331
 20
978.3580788573363
 30
0.0
 40
32.499999999999972
 50
303.63127744793002
 51
56.368722552069421
  0
CIRCLE
  5
35AD
  8
0
 10
1402.9188984131331
 20
978.3580788573363
 30
0.0
 40
43.000000000000028
  0
ARC
  5
35B0
  8
0
 10
1402.9188984131331
 20
978.3580788573363
 30
0.0
 40
32.499999999999972
 50
123.6312774479309
 51
236.36872255206859
  0
CIRCLE
  5
35C1
  8
0
 10
1402.9188984131331
 20
978.3580788573363
 30
0.0
 40
5.2499999999999707
  0
ARC
  5
35CD
  8
0
 10
1392.9188984131331
 20
1040.559365017672
 30
0.0
 40
5.0
 50
279.13319778370243
 51
0.000000000000007
  0
LINE
  5
35CE
  8
0
 10
1397.9188984131331
 20
1044.3580788573361
 30
0.0
 11
1397.9188984131331
 21
1040.559365017672
 31
0.0
  0
ARC
  5
35CF
  8
0
 10
1388.878433560966
 20
959.50041845783824
 30
0.0
 40
60.0
 50
127.0958447244642
 51
161.6817809920642
  0
ARC
  5
35D0
  8
0
 10
1336.9188984131331
 20
978.3580788573363
 30
0.0
 40
5.0
 50
180.0
 51
270.0
  0
ARC
  5
35D1
  8
0
 10
1340.7176122527969
 20
968.35807885733641
 30
0.0
 40
5.0
 50
9.1331977837024318
 51
90.0
  0
LINE
  5
35D2
  8
0
 10
1336.9188984131331
 20
973.35807885733618
 30
0.0
 11
1340.7176122527969
 21
973.35807885733618
 31
0.0
  0
LINE
  5
35D4
  8
0
 10
1415.268898413133
 20
1014.2241042611211
 30
0.0
 11
1415.268898413133
 21
1019.546396375778
 31
0.0
  0
LINE
  5
35D7
  8
0
 10
1384.9188984131331
 20
1017.409327236869
 30
0.0
 11
1384.9188984131331
 21
939.30683047780292
 31
0.0
  0
LINE
  5
35DB
  8
0
 10
1420.9188984131331
 20
1017.409327236869
 30
0.0
 11
1420.918898413132
 21
939.30683047780281
 31
0.0
  0
LINE
  5
35DC
  8
0
 10
1420.9188984131331
 20
939.30683047780292
 30
0.0
 11
1420.9188984131331
 21
978.3580788573363
 31
0.0
  0
LINE
  5
35DE
  8
0
 10
1390.568898413133
 20
942.24004486858655
 30
0.0
 11
1390.568898413133
 21
937.1697613388942
 31
0.0
  0
LINE
  5
35DF
  8
0
 10
1389.568898413133
 20
942.24004486858655
 30
0.0
 11
1389.568898413133
 21
937.48293359765546
 31
0.0
  0
LINE
  5
35E6
  8
0
 10
1420.9188984131331
 20
947.3580788573363
 30
0.0
 11
1384.9188984131331
 21
947.3580788573363
 31
0.0
  0
ARC
  5
35E7
  8
0
 10
1389.068898413133
 20
942.24004486858655
 30
0.0
 40
0.5
 50
0.000000000000007
 51
48.189685104220132
  0
ARC
  5
35E8
  8
0
 10
1391.068898413133
 20
942.24004486858655
 30
0.0
 40
0.5
 50
131.8103148957799
 51
180.0
  0
ARC
  5
35E9
  8
0
 10
1390.068898413133
 20
943.35807885733641
 30
0.0
 40
1.0
 50
311.81031489577992
 51
228.1896851042201
  0
LINE
  5
35EA
  8
0
 10
1420.9188984131331
 20
1017.409327236869
 30
0.0
 11
1420.9188984131331
 21
978.3580788573363
 31
0.0
  0
CIRCLE
  5
35EB
  8
0
 10
1402.9188984131331
 20
978.3580788573363
 30
0.0
 40
5.25
  0
LINE
  5
35EC
  8
0
 10
1384.9188984131331
 20
1009.358078857336
 30
0.0
 11
1420.9188984131331
 21
1009.358078857336
 31
0.0
  0
LINE
  5
35EE
  8
0
 10
1416.268898413133
 20
1014.2241042611211
 30
0.0
 11
1416.268898413133
 21
1019.233224117017
 31
0.0
  0
ARC
  5
35F3
  8
0
 10
1415.768898413133
 20
1013.358078857336
 30
0.0
 40
1.0
 50
119.9999999999972
 51
60.0000000000027
  0
LINE
  5
35F4
  8
0
 10
1232.6039517299671
 20
1199.2501446175941
 30
0.0
 11
1232.6039517299671
 21
1084.050344617594
 31
0.0
  0
LINE
  5
35F5
  8
0
 10
1278.6039517299671
 20
1199.2501446175941
 30
0.0
 11
1278.6039517299671
 21
1084.050344617594
 31
0.0
  0
LINE
  5
35F6
  8
0
 10
1264.366453756367
 20
1083.7503446175931
 30
0.0
 11
1232.903951729967
 21
1083.750344617594
 31
0.0
  0
LINE
  5
35F7
  8
0
 10
1232.903951729967
 20
1083.750344617594
 30
0.0
 11
1232.6039517299671
 21
1084.050344617594
 31
0.0
  0
ARC
  5
35F8
  8
0
 10
1277.8416348978881
 20
1080.2503201506261
 30
0.0
 40
3.5
 50
90.003031629293787
 51
175.6612664686086
  0
LINE
  5
35F9
  8
0
 10
1272.683818848401
 20
1070.7501446175929
 30
0.0
 11
1269.524084611533
 21
1070.7501446175929
 31
0.0
  0
LINE
  5
35FA
  8
0
 10
1268.5971084329749
 20
1071.3750244176761
 30
0.0
 11
1268.5971084329749
 21
1091.5206711981
 31
0.0
  0
LINE
  5
35FB
  8
0
 10
1267.6107950269579
 20
1091.5206711981
 30
0.0
 11
1267.6107950269579
 21
1083.750144617597
 31
0.0
  0
ARC
  5
35FC
  8
0
 10
1264.366268562045
 20
1080.250344622493
 30
0.0
 40
3.5
 50
4.3387335313913971
 51
89.996968370706213
  0
LINE
  5
35FD
  8
0
 10
1268.527538853288
 20
1071.66709913774
 30
0.0
 11
1267.6107950269579
 21
1083.750144617597
 31
0.0
  0
ARC
  5
35FE
  8
0
 10
1269.524084611533
 20
1071.7501446175941
 30
0.0
 40
1.0
 50
184.76364169073051
 51
270.0
  0
LINE
  5
35FF
  8
0
 10
1274.5971084329749
 20
1091.5206711981
 30
0.0
 11
1274.5971084329749
 21
1083.75014461759
 31
0.0
  0
LINE
  5
3600
  8
0
 10
1273.6107950269591
 20
1071.3750244176761
 30
0.0
 11
1273.6107950269591
 21
1091.5206711981
 31
0.0
  0
LINE
  5
3601
  8
0
 10
1273.680364606646
 20
1071.66709913774
 30
0.0
 11
1274.5971084329749
 21
1083.75014461759
 31
0.0
  0
POINT
  5
3602
  8
0
  6
BYBLOCK
 10
1273.680364606646
 20
1071.66709913774
 30
0.0
  0
ARC
  5
3603
  8
0
 10
1272.683818848401
 20
1071.7501446175941
 30
0.0
 40
1.0
 50
270.0
 51
355.23635830926952
  0
LINE
  5
3604
  8
0
 10
1277.8414497061931
 20
1083.7503201457271
 30
0.0
 11
1278.3039517299669
 21
1083.750344617594
 31
0.0
  0
LINE
  5
3605
  8
0
 10
1278.6039517299671
 20
1084.050344617594
 30
0.0
 11
1278.3039517299669
 21
1083.750344617594
 31
0.0
  0
POINT
  5
3606
  8
0
  6
BYBLOCK
 10
1278.6039517299671
 20
1084.050344617594
 30
0.0
  0
LINE
  5
3607
  8
0
 10
1268.5971084329749
 20
1169.7501446175961
 30
0.0
 11
1268.5971084329749
 21
1136.596131009286
 31
0.0
  0
LINE
  5
3608
  8
0
 10
1267.6107950269591
 20
1136.596131009286
 30
0.0
 11
1267.6107950269591
 21
1169.7501446175961
 31
0.0
  0
LINE
  5
3609
  8
0
 10
1273.6107950269591
 20
1169.7501446175961
 30
0.0
 11
1273.6107950269591
 21
1136.5961310092889
 31
0.0
  0
LINE
  5
360A
  8
0
 10
1274.597108432974
 20
1136.596131009248
 30
0.0
 11
1274.5971084329749
 21
1169.7501446175961
 31
0.0
  0
ARC
  5
360B
  8
0
 10
1275.5942426509471
 20
1136.6717838436541
 30
0.0
 40
1.0
 50
184.33873353139069
 51
270.0
  0
LINE
  5
360C
  8
0
 10
1269.597108432974
 20
1136.7501446175941
 30
0.0
 11
1272.6107950269591
 21
1136.7501446175941
 31
0.0
  0
LINE
  5
360D
  8
0
 10
1269.228768888896
 20
1141.750144617595
 30
0.0
 11
1272.9791345710371
 21
1141.750144617595
 31
0.0
  0
ARC
  5
360E
  8
0
 10
1267.599974215002
 20
1136.6717838436541
 30
0.0
 40
1.0
 50
270.0
 51
355.66126646860931
  0
POINT
  5
360F
  8
0
  6
BYBLOCK
 10
1267.596453778659
 20
1136.5887383638001
 30
0.0
  0
ARC
  5
3610
  8
0
 10
1266.613660808986
 20
1136.6717838436541
 30
0.0
 40
1.0
 50
270.0
 51
355.66126646860931
  0
ARC
  5
3611
  8
0
 10
1269.597108432974
 20
1137.7501446175941
 30
0.0
 40
1.0
 50
180.0
 51
270.0
  0
ARC
  5
3612
  8
0
 10
1274.6079292449319
 20
1136.6717838436541
 30
0.0
 40
1.0
 50
184.33873353139069
 51
270.0
  0
ARC
  5
3613
  8
0
 10
1272.6107950269591
 20
1137.7501446175941
 30
0.0
 40
1.0
 50
270.0
 51
0.0
  0
LINE
  5
3614
  8
0
 10
1266.683818848401
 20
1199.7501446175941
 30
0.0
 11
1233.1039517299671
 21
1199.7501446175941
 31
0.0
  0
POINT
  5
3615
  8
0
  6
BYBLOCK
 10
1232.6039517299671
 20
1199.2501446175941
 30
0.0
  0
LINE
  5
3616
  8
0
 10
1232.6039517299671
 20
1199.2501446175941
 30
0.0
 11
1233.1039517299671
 21
1199.7501446175941
 31
0.0
  0
LINE
  5
3618
  8
0
 10
1268.527538853288
 20
1211.8331900974481
 30
0.0
 11
1267.6251362752589
 21
1199.939167930836
 31
0.0
  0
LINE
  5
361A
  8
0
 10
1273.680364606646
 20
1211.8331900974481
 30
0.0
 11
1274.5827671846739
 21
1199.939167930836
 31
0.0
  0
LINE
  5
361B
  8
0
 10
1278.1039517299671
 20
1199.7501446175941
 30
0.0
 11
1275.524084611533
 21
1199.7501446175941
 31
0.0
  0
ARC
  5
361C
  8
0
 10
1266.683818848401
 20
1200.7501446175941
 30
0.0
 40
1.0
 50
270.0
 51
355.23635830926952
  0
ARC
  5
361D
  8
0
 10
1266.6280020572869
 20
1200.0148207652039
 30
0.0
 40
1.0
 50
270.0
 51
355.66126646860931
  0
POINT
  5
361E
  8
0
  6
BYBLOCK
 10
1267.6107950269591
 20
1199.931775285351
 30
0.0
  0
ARC
  5
361F
  8
0
 10
1275.579901402647
 20
1200.0148207652039
 30
0.0
 40
1.0
 50
184.33873353139069
 51
270.0
  0
ARC
  5
3620
  8
0
 10
1275.524084611533
 20
1200.7501446175941
 30
0.0
 40
1.0
 50
184.76364169073051
 51
270.0
  0
POINT
  5
3621
  8
0
  6
BYBLOCK
 10
1274.527538853288
 20
1200.66709913774
 30
0.0
  0
LINE
  5
3622
  8
0
 10
1278.6039517299671
 20
1199.2501446175941
 30
0.0
 11
1278.1039517299671
 21
1199.7501446175941
 31
0.0
  0
LINE
  5
3623
  8
0
 10
1272.683818848401
 20
1212.7501446175941
 30
0.0
 11
1269.524084611533
 21
1212.7501446175941
 31
0.0
  0
POINT
  5
3624
  8
0
  6
BYBLOCK
 10
1273.680364606646
 20
1211.8331900974481
 30
0.0
  0
ARC
  5
3625
  8
0
 10
1272.683818848401
 20
1211.7501446175941
 30
0.0
 40
1.0
 50
4.7636416907305179
 51
90.000000000000028
  0
ARC
  5
3626
  8
0
 10
1269.524084611533
 20
1211.7501446175941
 30
0.0
 40
1.0
 50
90.000000000000028
 51
175.23635830926949
  0
LINE
  5
3627
  8
0
 10
1232.6039517299671
 20
1248.591412696449
 30
0.0
 11
1232.6039517299671
 21
1363.7912126964479
 31
0.0
  0
LINE
  5
3628
  8
0
 10
1278.6039517299671
 20
1248.591412696449
 30
0.0
 11
1278.6039517299671
 21
1363.7912126964479
 31
0.0
  0
LINE
  5
3629
  8
0
 10
1246.841449703566
 20
1364.091212696449
 30
0.0
 11
1278.3039517299669
 21
1364.0912126964481
 31
0.0
  0
LINE
  5
362A
  8
0
 10
1278.3039517299669
 20
1364.0912126964481
 30
0.0
 11
1278.6039517299671
 21
1363.7912126964479
 31
0.0
  0
LINE
  5
362C
  8
0
 10
1236.6107950269591
 20
1356.3208861159419
 30
0.0
 11
1236.6107950269591
 21
1364.0914126964519
 31
0.0
  0
LINE
  5
362D
  8
0
 10
1243.5971084329749
 20
1356.3208861159419
 30
0.0
 11
1243.5971084329749
 21
1364.0914126964451
 31
0.0
  0
ARC
  5
362F
  8
0
 10
1233.366268562045
 20
1367.5912371634161
 30
0.0
 40
3.5
 50
270.00303162929379
 51
355.66126646860857
  0
ARC
  5
3630
  8
0
 10
1238.524084611533
 20
1376.0914126964481
 30
0.0
 40
1.0
 50
90.000000000000028
 51
175.23635830926941
  0
POINT
  5
3631
  8
0
  6
BYBLOCK
 10
1237.527538853288
 20
1376.1744581763021
 30
0.0
  0
LINE
  5
3632
  8
0
 10
1237.527538853288
 20
1376.1744581763021
 30
0.0
 11
1236.6107950269591
 21
1364.0914126964519
 31
0.0
  0
ARC
  5
3633
  8
0
 10
1241.6838188484001
 20
1376.0914126964481
 30
0.0
 40
1.0
 50
4.7636416907305179
 51
90.000000000000028
  0
LINE
  5
3634
  8
0
 10
1242.6803646066451
 20
1376.1744581763021
 30
0.0
 11
1243.5971084329749
 21
1364.0914126964451
 31
0.0
  0
ARC
  5
3635
  8
0
 10
1246.841634897889
 20
1367.5912126915489
 30
0.0
 40
3.5
 50
184.3387335313914
 51
269.99696837070621
  0
LINE
  5
3636
  8
0
 10
1238.524084611533
 20
1377.0914126964481
 30
0.0
 11
1241.6838188484001
 21
1377.0914126964481
 31
0.0
  0
POINT
  5
3637
  8
0
  6
BYBLOCK
 10
1232.6039517299671
 20
1363.7912126964479
 30
0.0
  0
LINE
  5
3638
  8
0
 10
1232.6039517299671
 20
1363.7912126964479
 30
0.0
 11
1232.903951729967
 21
1364.0912126964481
 31
0.0
  0
LINE
  5
3639
  8
0
 10
1233.36645375374
 20
1364.091237168315
 30
0.0
 11
1232.903951729967
 21
1364.0912126964481
 31
0.0
  0
LINE
  5
363A
  8
0
 10
1236.6107950269591
 20
1311.2454263047939
 30
0.0
 11
1236.6107950269591
 21
1278.0914126964451
 31
0.0
  0
LINE
  5
363C
  8
0
 10
1243.5971084329749
 20
1311.2454263047559
 30
0.0
 11
1243.5971084329749
 21
1278.0914126964451
 31
0.0
  0
ARC
  5
363E
  8
0
 10
1235.613660808986
 20
1311.169773470388
 30
0.0
 40
1.0
 50
4.3387335313906901
 51
90.000000000000028
  0
ARC
  5
363F
  8
0
 10
1237.6107950269591
 20
1310.0914126964481
 30
0.0
 40
1.0
 50
90.000000000000028
 51
180.0
  0
ARC
  5
3641
  8
0
 10
1242.597108432974
 20
1310.0914126964481
 30
0.0
 40
1.0
 50
0.0
 51
90.000000000000028
  0
ARC
  5
3642
  8
0
 10
1244.5942426509471
 20
1311.169773470388
 30
0.0
 40
1.0
 50
90.000000000000028
 51
175.66126646860931
  0
POINT
  5
3643
  8
0
  6
BYBLOCK
 10
1243.611449681275
 20
1311.252818950242
 30
0.0
  0
LINE
  5
3645
  8
0
 10
1243.597108432974
 20
1306.0914126964469
 30
0.0
 11
1236.6107950269591
 21
1306.0914126964469
 31
0.0
  0
LINE
  5
3646
  8
0
 10
1242.597108432974
 20
1311.091412696449
 30
0.0
 11
1237.6107950269591
 21
1311.091412696449
 31
0.0
  0
LINE
  5
3647
  8
0
 10
1244.524084611533
 20
1248.0914126964481
 30
0.0
 11
1278.1039517299671
 21
1248.0914126964481
 31
0.0
  0
LINE
  5
3648
  8
0
 10
1278.6039517299671
 20
1248.591412696449
 30
0.0
 11
1278.1039517299671
 21
1248.0914126964481
 31
0.0
  0
POINT
  5
3649
  8
0
  6
BYBLOCK
 10
1278.6039517299671
 20
1248.591412696449
 30
0.0
  0
LINE
  5
364A
  8
0
 10
1237.527538853288
 20
1236.008367216594
 30
0.0
 11
1236.680364606646
 21
1247.174458176291
 31
0.0
  0
LINE
  5
364C
  8
0
 10
1242.6803646066451
 20
1236.008367216594
 30
0.0
 11
1243.527538853285
 21
1247.1744581762709
 31
0.0
  0
LINE
  5
364E
  8
0
 10
1233.1039517299671
 20
1248.0914126964481
 30
0.0
 11
1235.6838188484001
 21
1248.0914126964481
 31
0.0
  0
POINT
  5
364F
  8
0
  6
BYBLOCK
 10
1236.680364606646
 20
1247.1744581763021
 30
0.0
  0
ARC
  5
3650
  8
0
 10
1235.6838188484001
 20
1247.0914126964481
 30
0.0
 40
1.0
 50
4.7636416907305179
 51
90.000000000000028
  0
ARC
  5
3654
  8
0
 10
1244.524084611533
 20
1247.0914126964481
 30
0.0
 40
1.0
 50
90.000000000000028
 51
175.23635830926941
  0
LINE
  5
3655
  8
0
 10
1232.6039517299671
 20
1248.591412696449
 30
0.0
 11
1233.1039517299671
 21
1248.0914126964481
 31
0.0
  0
ARC
  5
3656
  8
0
 10
1241.6838188484001
 20
1236.0914126964481
 30
0.0
 40
1.0
 50
270.0
 51
355.23635830926952
  0
ARC
  5
3657
  8
0
 10
1238.524084611533
 20
1236.0914126964481
 30
0.0
 40
1.0
 50
184.76364169073051
 51
270.0
  0
POINT
  5
3658
  8
0
  6
BYBLOCK
 10
1237.527538853288
 20
1236.008367216594
 30
0.0
  0
LINE
  5
3659
  8
0
 10
1238.524084611533
 20
1235.0914126964481
 30
0.0
 11
1241.6838188484001
 21
1235.0914126964481
 31
0.0
  0
TEXT
  5
365C
  8
0
 10
1231.9963252851419
 20
858.43952488096329
 30
0.0
 40
12.5
  1
65A
 41
0.8
 11
1231.9963252851419
 21
858.43952488096329
 31
0.0
 73
     1
  0
ARC
  5
38B0
  8
0
 10
375.92576285490708
 20
171.3353228164529
 30
0.0
 40
5.0
 50
98.096749769794926
 51
180.0
  0
ARC
  5
38B1
  8
0
 10
377.6453586801843
 20
224.4718650665375
 30
0.0
 40
60.0
 50
221.8128411830744
 51
258.73619688815847
  0
CIRCLE
  5
38B4
  8
0
 10
365.92576285490708
 20
241.62756989961281
 30
0.0
 40
66.0
  0
ARC
  5
38B6
  8
0
 10
365.92576285490708
 20
170.62756989961281
 30
0.0
 40
5.0
 50
270.0
 51
0.000000000000007
  0
LINE
  5
38B7
  8
0
 10
370.92576285490708
 20
170.62756989961281
 30
0.0
 11
370.92576285490708
 21
171.3353228164529
 31
0.0
  0
ARC
  5
38B8
  8
0
 10
436.92576285490708
 20
241.62756989961269
 30
0.0
 40
5.0
 50
0.000000000000007
 51
90.0
  0
ARC
  5
38B9
  8
0
 10
383.08146768798252
 20
253.34716572488981
 30
0.0
 40
60.0
 50
311.8128411830744
 51
348.73619688815842
  0
ARC
  5
38BB
  8
0
 10
355.92576285490719
 20
311.91981698277272
 30
0.0
 40
5.0
 50
278.09674976979488
 51
0.000000000000007
  0
ARC
  5
38BC
  8
0
 10
354.20616702963019
 20
258.78327473268808
 30
0.0
 40
60.0
 50
41.812841183074411
 51
78.736196888158403
  0
ARC
  5
38BE
  8
0
 10
365.92576285490708
 20
241.62756989961281
 30
0.0
 40
40.0
 50
288.20995686428279
 51
71.790043135717227
  0
CIRCLE
  5
38C0
  8
0
 10
365.92576285490708
 20
241.62756989961281
 30
0.0
 40
51.999829518362532
  0
ARC
  5
38C2
  8
0
 10
365.92576285490708
 20
241.62756989961281
 30
0.0
 40
14.0
 50
307.16889965600018
 51
52.831100343999822
  0
ARC
  5
38C3
  8
0
 10
365.92576285490708
 20
241.62756989961281
 30
0.0
 40
14.0
 50
127.16889965600009
 51
232.83110034399979
  0
CIRCLE
  5
38C4
  8
0
 10
365.92576285490708
 20
241.62756989961281
 30
0.0
 40
8.3000000000000007
  0
CIRCLE
  5
38C5
  8
0
 10
365.92576285490708
 20
241.62756989961281
 30
0.0
 40
5.2499999999999138
  0
ARC
  5
38C6
  8
0
 10
365.92576285490708
 20
241.62756989961281
 30
0.0
 40
40.0
 50
108.2099568642828
 51
251.79004313571721
  0
ARC
  5
38C8
  8
0
 10
375.92576285490708
 20
211.2302015924715
 30
0.0
 40
8.0
 50
180.0
 51
288.20995686428279
  0
ARC
  5
38C9
  8
0
 10
378.42576285490708
 20
212.169973256302
 30
0.0
 40
8.0
 50
180.0
 51
292.99339431429752
  0
ARC
  5
38CB
  8
0
 10
353.42576285490708
 20
212.169973256302
 30
0.0
 40
8.0
 50
247.00660568570251
 51
0.0
  0
ARC
  5
38CC
  8
0
 10
355.92576285490719
 20
211.2302015924715
 30
0.0
 40
8.0
 50
251.79004313571721
 51
0.0
  0
ARC
  5
38E2
  8
0
 10
365.92576285490708
 20
241.62756989961281
 30
0.0
 40
10.44518475431077
 50
234.06017417350941
 51
305.93982582649318
  0
ARC
  5
38E3
  8
0
 10
353.92576285490708
 20
225.0744560040975
 30
0.0
 40
10.0
 50
0.0
 51
54.06017417350678
  0
ARC
  5
38E4
  8
0
 10
351.42576285490708
 20
222.50297840070749
 30
0.0
 40
10.0
 50
0.0
 51
52.831100343999822
  0
LINE
  5
38E5
  8
0
 10
361.42576285490708
 20
212.169973256302
 30
0.0
 11
361.42576285490708
 21
222.50297840070749
 31
0.0
  0
LINE
  5
38E6
  8
0
 10
363.92576285490708
 20
211.2302015924715
 30
0.0
 11
363.92576285490708
 21
225.0744560040975
 31
0.0
  0
ARC
  5
38E7
  8
0
 10
377.92576285490708
 20
225.0744560040975
 30
0.0
 40
10.0
 50
125.93982582649321
 51
180.0
  0
ARC
  5
38E8
  8
0
 10
380.42576285490708
 20
222.50297840070749
 30
0.0
 40
10.0
 50
127.16889965600009
 51
180.0
  0
LINE
  5
38EA
  8
0
 10
370.42576285490719
 20
212.169973256302
 30
0.0
 11
370.42576285490719
 21
222.50297840070749
 31
0.0
  0
LINE
  5
38EB
  8
0
 10
367.92576285490708
 20
211.2302015924715
 30
0.0
 11
367.92576285490708
 21
225.0744560040975
 31
0.0
  0
ARC
  5
38EC
  8
0
 10
436.2180099380671
 20
251.62756989961269
 30
0.0
 40
5.0
 50
188.09674976979491
 51
270.0
  0
LINE
  5
38ED
  8
0
 10
436.92576285490708
 20
246.62756989961281
 30
0.0
 11
436.2180099380671
 21
246.62756989961281
 31
0.0
  0
ARC
  5
38EE
  8
0
 10
378.42576285490708
 20
271.08516654292367
 30
0.0
 40
8.0
 50
67.006605685702482
 51
180.0
  0
ARC
  5
38EF
  8
0
 10
375.92576285490708
 20
272.02493820675409
 30
0.0
 40
8.0
 50
71.790043135717227
 51
180.0
  0
ARC
  5
38F1
  8
0
 10
353.42576285490708
 20
271.08516654292367
 30
0.0
 40
8.0
 50
0.0
 51
112.9933943142975
  0
ARC
  5
38F2
  8
0
 10
355.92576285490719
 20
272.02493820675409
 30
0.0
 40
8.0
 50
0.0
 51
108.2099568642828
  0
ARC
  5
38F3
  8
0
 10
353.92576285490708
 20
258.18068379512812
 30
0.0
 40
10.0
 50
305.93982582649318
 51
0.0
  0
ARC
  5
38F4
  8
0
 10
365.92576285490708
 20
241.62756989961281
 30
0.0
 40
10.44518475431077
 50
54.06017417350678
 51
125.93982582649051
  0
ARC
  5
38F5
  8
0
 10
351.42576285490708
 20
260.75216139851813
 30
0.0
 40
10.0
 50
307.16889965600018
 51
0.0
  0
LINE
  5
38F6
  8
0
 10
363.92576285490708
 20
258.18068379512812
 30
0.0
 11
363.92576285490708
 21
272.02493820675409
 31
0.0
  0
LINE
  5
38F8
  8
0
 10
361.42576285490708
 20
260.75216139851813
 30
0.0
 11
361.42576285490708
 21
271.08516654292367
 31
0.0
  0
ARC
  5
38F9
  8
0
 10
380.42576285490708
 20
260.75216139851813
 30
0.0
 40
10.0
 50
180.0
 51
232.83110034399979
  0
LINE
  5
38FA
  8
0
 10
367.92576285490708
 20
258.18068379512812
 30
0.0
 11
367.92576285490708
 21
272.02493820675409
 31
0.0
  0
ARC
  5
38FB
  8
0
 10
377.92576285490708
 20
258.18068379512812
 30
0.0
 40
10.0
 50
180.0
 51
234.06017417350941
  0
LINE
  5
38FC
  8
0
 10
370.42576285490719
 20
260.75216139851813
 30
0.0
 11
370.42576285490719
 21
271.08516654292367
 31
0.0
  0
ARC
  5
3912
  8
0
 10
348.7700580218318
 20
229.90797407433581
 30
0.0
 40
60.0
 50
131.812841183079
 51
168.73619688815839
  0
ARC
  5
3913
  8
0
 10
295.63351577174728
 20
231.62756989961281
 30
0.0
 40
5.0
 50
8.0967497697949238
 51
90.0
  0
ARC
  5
3914
  8
0
 10
294.92576285490708
 20
241.62756989961281
 30
0.0
 40
5.0
 50
180.0
 51
270.0
  0
LINE
  5
3915
  8
0
 10
294.92576285490708
 20
236.62756989961281
 30
0.0
 11
295.63351577174728
 21
236.62756989961281
 31
0.0
  0
ARC
  5
3917
  8
0
 10
365.92576285490719
 20
312.62756989961281
 30
0.0
 40
5.0
 50
90.0
 51
180.0
  0
LINE
  5
3918
  8
0
 10
360.9257628549073
 20
312.62756989961281
 30
0.0
 11
360.9257628549073
 21
311.91981698277272
 31
0.0
  0
LINE
  5
3919
  8
0
 10
574.96664310891617
 20
176.12768014043149
 30
0.0
 11
574.96664310891595
 21
307.12745965879418
 31
0.0
  0
LINE
  5
391A
  8
0
 10
524.96664310891617
 20
176.12768014043149
 30
0.0
 11
524.96664310891617
 21
307.12745965879401
 31
0.0
  0
LINE
  5
3922
  8
0
 10
571.87164310891615
 20
175.62768014043149
 30
0.0
 11
574.46664310891629
 21
175.62768014043149
 31
0.0
  0
LINE
  5
3923
  8
0
 10
525.46664310891617
 20
175.62768014043149
 30
0.0
 11
563.0616431089162
 21
175.62768014043149
 31
0.0
  0
LINE
  5
3924
  8
0
 10
524.96664310891617
 20
176.12768014043149
 30
0.0
 11
525.46664310891617
 21
175.62768014043149
 31
0.0
  0
LINE
  5
3929
  8
0
 10
570.87664310891614
 20
174.7271801404315
 30
0.0
 11
570.05664310891609
 21
166.5281801404316
 31
0.0
  0
LINE
  5
392A
  8
0
 10
564.87664310891614
 20
166.5281801404316
 30
0.0
 11
564.05664310891621
 21
174.7271801404315
 31
0.0
  0
LINE
  5
392B
  8
0
 10
569.0616431089162
 20
165.62768014043149
 30
0.0
 11
565.87164310891615
 21
165.62768014043149
 31
0.0
  0
LINE
  5
392C
  8
0
 10
564.94364310891615
 20
166.25598014043149
 30
0.0
 11
564.87664310891614
 21
166.5281801404316
 31
0.0
  0
LINE
  5
392D
  8
0
 10
565.0086431089162
 20
166.1226801404315
 30
0.0
 11
564.94364310891615
 21
166.25598014043149
 31
0.0
  0
LINE
  5
392E
  8
0
 10
565.0946431089161
 20
165.99778014043159
 30
0.0
 11
565.0086431089162
 21
166.1226801404315
 31
0.0
  0
LINE
  5
392F
  8
0
 10
565.2006431089161
 20
165.88618014043149
 30
0.0
 11
565.0946431089161
 21
165.99778014043159
 31
0.0
  0
LINE
  5
3930
  8
0
 10
565.87164310891615
 20
165.62768014043149
 30
0.0
 11
565.73464310891632
 21
165.63708014043149
 31
0.0
  0
LINE
  5
3931
  8
0
 10
565.87164310891615
 20
165.62768014043149
 30
0.0
 11
565.87164310891615
 21
165.62768014043149
 31
0.0
  0
LINE
  5
3932
  8
0
 10
565.45464310891634
 20
165.7185801404315
 30
0.0
 11
565.32164310891631
 21
165.79218014043161
 31
0.0
  0
LINE
  5
3933
  8
0
 10
565.59364310891624
 20
165.66698014043149
 30
0.0
 11
565.45464310891634
 21
165.7185801404315
 31
0.0
  0
LINE
  5
3934
  8
0
 10
565.73464310891632
 20
165.63708014043149
 30
0.0
 11
565.59364310891624
 21
165.66698014043149
 31
0.0
  0
LINE
  5
3935
  8
0
 10
565.32164310891631
 20
165.79218014043161
 30
0.0
 11
565.2006431089161
 21
165.88618014043149
 31
0.0
  0
LINE
  5
3936
  8
0
 10
569.83864310891624
 20
165.99778014043159
 30
0.0
 11
569.73264310891625
 21
165.88618014043149
 31
0.0
  0
LINE
  5
3937
  8
0
 10
569.92464310891626
 20
166.1226801404315
 30
0.0
 11
569.83864310891624
 21
165.99778014043159
 31
0.0
  0
LINE
  5
3938
  8
0
 10
569.9896431089162
 20
166.25598014043149
 30
0.0
 11
569.92464310891626
 21
166.1226801404315
 31
0.0
  0
LINE
  5
3939
  8
0
 10
570.03364310891618
 20
166.39268014043151
 30
0.0
 11
569.9896431089162
 21
166.25598014043149
 31
0.0
  0
LINE
  5
393A
  8
0
 10
570.05664310891609
 20
166.5281801404316
 30
0.0
 11
570.03364310891618
 21
166.39268014043151
 31
0.0
  0
LINE
  5
393B
  8
0
 10
570.05664310891609
 20
166.5281801404316
 30
0.0
 11
570.05664310891609
 21
166.5281801404316
 31
0.0
  0
LINE
  5
393C
  8
0
 10
569.33864310891624
 20
165.66688014043149
 30
0.0
 11
569.0616431089162
 21
165.62768014043149
 31
0.0
  0
LINE
  5
393D
  8
0
 10
569.47864310891623
 20
165.7185801404315
 30
0.0
 11
569.33864310891624
 21
165.66688014043149
 31
0.0
  0
LINE
  5
393E
  8
0
 10
569.61064310891618
 20
165.79218014043161
 30
0.0
 11
569.47864310891623
 21
165.7185801404315
 31
0.0
  0
LINE
  5
393F
  8
0
 10
569.73264310891625
 20
165.88618014043149
 30
0.0
 11
569.61064310891618
 21
165.79218014043161
 31
0.0
  0
LINE
  5
3940
  8
0
 10
563.73264310891625
 20
175.36908014043149
 30
0.0
 11
563.61064310891629
 21
175.46318014043149
 31
0.0
  0
LINE
  5
3941
  8
0
 10
563.83864310891636
 20
175.25758014043149
 30
0.0
 11
563.73264310891625
 21
175.36908014043149
 31
0.0
  0
LINE
  5
3942
  8
0
 10
563.98964310891608
 20
174.9993801404315
 30
0.0
 11
563.92464310891614
 21
175.13268014043149
 31
0.0
  0
LINE
  5
3943
  8
0
 10
564.03364310891629
 20
174.86268014043151
 30
0.0
 11
563.98964310891608
 21
174.9993801404315
 31
0.0
  0
LINE
  5
3944
  8
0
 10
564.05664310891621
 20
174.7271801404315
 30
0.0
 11
564.03364310891629
 21
174.86268014043151
 31
0.0
  0
LINE
  5
3945
  8
0
 10
564.05664310891621
 20
174.7271801404315
 30
0.0
 11
564.05664310891621
 21
174.7271801404315
 31
0.0
  0
LINE
  5
3946
  8
0
 10
563.92464310891614
 20
175.13268014043149
 30
0.0
 11
563.83864310891636
 21
175.25758014043149
 31
0.0
  0
LINE
  5
3947
  8
0
 10
563.47864310891623
 20
175.53678014043149
 30
0.0
 11
563.33864310891624
 21
175.58838014043161
 31
0.0
  0
LINE
  5
3948
  8
0
 10
563.61064310891629
 20
175.46318014043149
 30
0.0
 11
563.47864310891623
 21
175.53678014043149
 31
0.0
  0
LINE
  5
3949
  8
0
 10
563.33864310891624
 20
175.58838014043161
 30
0.0
 11
563.06164310891631
 21
175.62768014043149
 31
0.0
  0
LINE
  5
394A
  8
0
 10
571.87164310891615
 20
175.62768014043149
 30
0.0
 11
571.73464310891632
 21
175.61818014043149
 31
0.0
  0
LINE
  5
394B
  8
0
 10
571.45464310891634
 20
175.53678014043149
 30
0.0
 11
571.32164310891631
 21
175.46318014043149
 31
0.0
  0
LINE
  5
394C
  8
0
 10
571.59364310891624
 20
175.58838014043161
 30
0.0
 11
571.45464310891634
 21
175.53678014043149
 31
0.0
  0
LINE
  5
394D
  8
0
 10
571.73464310891632
 20
175.61818014043149
 30
0.0
 11
571.59364310891624
 21
175.58838014043161
 31
0.0
  0
LINE
  5
394E
  8
0
 10
571.20064310891621
 20
175.36908014043149
 30
0.0
 11
571.09464310891622
 21
175.25758014043149
 31
0.0
  0
LINE
  5
394F
  8
0
 10
570.94364310891615
 20
174.9993801404315
 30
0.0
 11
570.87664310891614
 21
174.7271801404315
 31
0.0
  0
LINE
  5
3950
  8
0
 10
571.0086431089162
 20
175.13268014043149
 30
0.0
 11
570.94364310891615
 21
174.9993801404315
 31
0.0
  0
LINE
  5
3951
  8
0
 10
571.09464310891622
 20
175.25758014043149
 30
0.0
 11
571.0086431089162
 21
175.13268014043149
 31
0.0
  0
LINE
  5
3952
  8
0
 10
571.32164310891631
 20
175.46318014043149
 30
0.0
 11
571.20064310891621
 21
175.36908014043149
 31
0.0
  0
LINE
  5
3954
  8
0
 10
574.46664310891629
 20
175.62768014043149
 30
0.0
 11
574.96664310891595
 21
176.12768014043149
 31
0.0
  0
LINE
  5
3991
  8
0
 10
525.46664310891617
 20
307.62745965879418
 30
0.0
 11
563.9354449059598
 21
307.62745965879412
 31
0.0
  0
LINE
  5
3994
  8
0
 10
524.96664310891617
 20
307.12745965879412
 30
0.0
 11
525.46664310891617
 21
307.62745965879418
 31
0.0
  0
LINE
  5
39C7
  8
0
 10
574.46664310891629
 20
307.62745965879412
 30
0.0
 11
574.96664310891595
 21
307.12745965879418
 31
0.0
  0
LINE
  5
39CB
  8
0
 10
570.94243279767215
 20
307.87014300255981
 30
0.0
 11
570.0566415352323
 21
316.72697539371399
 31
0.0
  0
LINE
  5
39CC
  8
0
 10
564.87664468260004
 20
316.72697539371399
 30
0.0
 11
563.99085342015985
 21
307.87014300255981
 31
0.0
  0
LINE
  5
39CD
  8
0
 10
569.06160554668554
 20
317.62745965879412
 30
0.0
 11
565.87168067114692
 21
317.62745965879412
 31
0.0
  0
ARC
  5
39CE
  8
0
 10
565.87168067114692
 20
316.62745965879412
 30
0.0
 40
1.0
 50
90.0
 51
174.28871496804879
  0
ARC
  5
39CF
  8
0
 10
569.06160554668554
 20
316.62745965879412
 30
0.0
 40
1.0
 50
5.7112850319510944
 51
90.0
  0
LINE
  5
3B73
  8
0
 10
563.96658212586954
 20
274.62756989961269
 30
0.0
 11
563.96658212586954
 21
233.3317952517254
 31
0.0
  0
LINE
  5
3B75
  8
0
 10
570.96670409196281
 20
274.62756989961269
 30
0.0
 11
570.96670409196281
 21
233.3317952517254
 31
0.0
  0
LINE
  5
3B7B
  8
0
 10
564.96658212586954
 20
241.62756989961281
 30
0.0
 11
569.96670409196281
 21
241.62756989961281
 31
0.0
  0
ARC
  5
3B7D
  8
0
 10
564.96658212586954
 20
242.62756989961281
 30
0.0
 40
1.0
 50
180.0
 51
270.0
  0
ARC
  5
3B7E
  8
0
 10
569.96670409196281
 20
242.62756989961281
 30
0.0
 40
1.0
 50
270.0
 51
0.000000000000007
  0
ARC
  5
3B80
  8
0
 10
562.96658212586954
 20
233.3317952517254
 30
0.0
 40
1.0
 50
270.0
 51
0.0
  0
ARC
  5
3B84
  8
0
 10
571.96670409196304
 20
233.3317952517254
 30
0.0
 40
1.0
 50
180.0
 51
270.0
  0
LINE
  5
3B89
  8
0
 10
563.96658212586954
 20
175.62768014043149
 30
0.0
 11
563.96658212586954
 21
184.46989324984131
 31
0.0
  0
LINE
  5
3B8A
  8
0
 10
570.96670409196304
 20
175.62768014043149
 30
0.0
 11
570.96670409196304
 21
184.46989324984131
 31
0.0
  0
LINE
  5
3B8C
  8
0
 10
563.96658212586954
 20
236.62756989961281
 30
0.0
 11
570.96670409196292
 21
236.62756989961289
 31
0.0
  0
CIRCLE
  5
3B8E
  8
0
 10
744.14621347187358
 20
241.62756989961281
 30
0.0
 40
66.0
  0
ARC
  5
3B8F
  8
0
 10
673.85396638871373
 20
231.62756989961281
 30
0.0
 40
5.0
 50
8.0967497697949238
 51
90.0
  0
ARC
  5
3B90
  8
0
 10
726.99050863879825
 20
229.90797407433581
 30
0.0
 40
60.0
 50
131.812841183079
 51
168.73619688815839
  0
CIRCLE
  5
3B94
  8
0
 10
744.14621347187358
 20
241.62756989961281
 30
0.0
 40
51.999829518362532
  0
ARC
  5
3B97
  8
0
 10
761.3019183049488
 20
253.34716572488981
 30
0.0
 40
60.0
 50
311.8128411830744
 51
348.73619688815842
  0
ARC
  5
3B9F
  8
0
 10
755.86580929715069
 20
224.4718650665375
 30
0.0
 40
60.0
 50
221.8128411830744
 51
258.73619688815847
  0
LINE
  5
3BA0
  8
0
 10
749.14621347187358
 20
170.62756989961281
 30
0.0
 11
749.14621347187358
 21
171.3353228164529
 31
0.0
  0
ARC
  5
3BA1
  8
0
 10
744.14621347187358
 20
170.62756989961281
 30
0.0
 40
5.0
 50
270.0
 51
0.000000000000007
  0
ARC
  5
3BA2
  8
0
 10
754.14621347187347
 20
171.3353228164529
 30
0.0
 40
5.0
 50
98.096749769794926
 51
180.0
  0
ARC
  5
3BB6
  8
0
 10
732.42661764659658
 20
258.78327473268808
 30
0.0
 40
60.0
 50
41.812841183074411
 51
78.736196888158403
  0
ARC
  5
3BB8
  8
0
 10
815.14621347187358
 20
241.62756989961269
 30
0.0
 40
5.0
 50
0.000000000000007
 51
90.0
  0
LINE
  5
3BB9
  8
0
 10
815.14621347187358
 20
246.62756989961281
 30
0.0
 11
814.43846055503354
 21
246.62756989961281
 31
0.0
  0
ARC
  5
3BBA
  8
0
 10
814.43846055503354
 20
251.62756989961269
 30
0.0
 40
5.0
 50
188.09674976979491
 51
270.0
  0
ARC
  5
3BE7
  8
0
 10
734.14621347187369
 20
311.91981698277272
 30
0.0
 40
5.0
 50
278.09674976979488
 51
0.000000000000007
  0
ARC
  5
3BE8
  8
0
 10
744.14621347187369
 20
312.62756989961281
 30
0.0
 40
5.0
 50
90.0
 51
180.0
  0
LINE
  5
3BE9
  8
0
 10
739.14621347187369
 20
312.62756989961281
 30
0.0
 11
739.14621347187369
 21
311.91981698277272
 31
0.0
  0
ARC
  5
3BEB
  8
0
 10
673.14621347187358
 20
241.62756989961281
 30
0.0
 40
5.0
 50
180.0
 51
270.0
  0
LINE
  5
3BEC
  8
0
 10
673.14621347187358
 20
236.62756989961281
 30
0.0
 11
673.85396638871373
 21
236.62756989961281
 31
0.0
  0
CIRCLE
  5
3C44
  8
0
 10
744.14621347187358
 20
241.62756989961281
 30
0.0
 40
5.25
  0
LINE
  5
3C46
  8
0
 10
763.1462134718754
 20
193.2232078034267
 30
0.0
 11
763.14621347187426
 21
241.62756989961281
 31
0.0
  0
LINE
  5
3C49
  8
0
 10
729.58621347187477
 20
191.70774748467619
 30
0.0
 11
729.58621347187454
 21
197.50953591086221
 31
0.0
  0
LINE
  5
3C4A
  8
0
 10
730.58621347187488
 20
191.4268859407382
 30
0.0
 11
730.58621347187454
 21
197.5095359108621
 31
0.0
  0
LINE
  5
3C53
  8
0
 10
763.14621347187506
 20
204.12756566232471
 30
0.0
 11
725.14621347187506
 21
204.127565662324
 31
0.0
  0
ARC
  5
3C57
  8
0
 10
730.08621347187454
 20
198.62756989961201
 30
0.0
 40
1.0
 50
311.8103148957772
 51
228.1896851042228
  0
ARC
  5
3C58
  8
0
 10
731.08621347187454
 20
197.5095359108621
 30
0.0
 40
0.5
 50
131.8103148957772
 51
180.00000000000321
  0
ARC
  5
3C59
  8
0
 10
729.08621347187466
 20
197.50953591086221
 30
0.0
 40
0.5
 50
0.0000000000032639
 51
48.189685104222789
  0
LINE
  5
3C5A
  8
0
 10
763.1462134718729
 20
241.62756989961281
 30
0.0
 11
763.1462134718729
 21
290.03193199579988
 31
0.0
  0
LINE
  5
3C5B
  8
0
 10
725.14621347187267
 20
290.03193199579931
 30
0.0
 11
725.14621347187301
 21
193.22320780342619
 31
0.0
  0
LINE
  5
3C5E
  8
0
 10
725.14621347187278
 20
275.12757413690088
 30
0.0
 11
763.1462134718729
 21
275.12757413690088
 31
0.0
  0
LINE
  5
3C61
  8
0
 10
758.70621347187353
 20
291.54739231454897
 30
0.0
 11
758.70621347187353
 21
285.49359530339729
 31
0.0
  0
LINE
  5
3C62
  8
0
 10
757.70621347187353
 20
291.82825385848702
 30
0.0
 11
757.70621347187353
 21
285.49359530339729
 31
0.0
  0
ARC
  5
3C64
  8
0
 10
758.20621347187353
 20
284.62756989961281
 30
0.0
 40
1.0
 50
120.0000000000005
 51
59.99999999999946
  0
TEXT
  5
3D5C
  8
0
 10
532.33317827989595
 20
105.1884696678394
 30
0.0
 40
12.5
  1
80A
 41
0.8
 11
532.33317827989595
 21
105.1884696678394
 31
0.0
 73
     1
  0
CIRCLE
  5
3F89
  8
0
 10
1176.163596260237
 20
239.8810407648798
 30
0.0
 40
78.5
  0
CIRCLE
  5
3F8B
  8
0
 10
1176.163596260237
 20
239.8810407648798
 30
0.0
 40
60.5
  0
ARC
  5
3F90
  8
0
 10
1163.663596260237
 20
201.8843303809532
 30
0.0
 40
10.0
 50
251.79004313571721
 51
0.0
  0
ARC
  5
3F91
  8
0
 10
1161.163596260237
 20
202.80004832940151
 30
0.0
 40
10.0
 50
247.97568716295791
 51
0.0
  0
ARC
  5
3F92
  8
0
 10
1191.1635962602379
 20
202.80004832940151
 30
0.0
 40
10.0
 50
180.0
 51
292.02431283704198
  0
ARC
  5
3F93
  8
0
 10
1188.663596260237
 20
201.8843303809532
 30
0.0
 40
10.0
 50
180.0
 51
288.20995686428279
  0
ARC
  5
3F96
  8
0
 10
1191.6726164729459
 20
215.50370145057801
 30
0.0
 40
70.0
 50
218.5310313563788
 51
256.1960556955483
  0
ARC
  5
3F97
  8
0
 10
1186.1635962602379
 20
156.98200578859061
 30
0.0
 40
5.0
 50
96.878279351173546
 51
180.0
  0
ARC
  5
3F98
  8
0
 10
1176.1635962602379
 20
152.38104076487971
 30
0.0
 40
5.0
 50
256.1960556955483
 51
0.000000000000007
  0
LINE
  5
3F99
  8
0
 10
1181.1635962602379
 20
152.38104076487971
 30
0.0
 11
1181.1635962602379
 21
156.98200578859061
 31
0.0
  0
POINT
  5
3F9A
  8
0
  6
BYBLOCK
 10
1176.1635962602379
 20
145.73704076487971
 30
0.0
  0
LINE
  5
3FAD
  8
0
 10
1263.663596260237
 20
244.8810407648798
 30
0.0
 11
1259.0626312365259
 21
244.8810407648798
 31
0.0
  0
ARC
  5
3FAE
  8
0
 10
1200.5409355745389
 20
255.39006097758849
 30
0.0
 40
70.0
 50
308.53103135636701
 51
346.19605569555301
  0
ARC
  5
3FB0
  8
0
 10
1263.663596260237
 20
239.8810407648798
 30
0.0
 40
5.0
 50
346.19605569555301
 51
90.0
  0
ARC
  5
3FB1
  8
0
 10
1166.1635962602379
 20
322.78007574116901
 30
0.0
 40
5.0
 50
276.8782793511736
 51
0.000000000000007
  0
ARC
  5
3FB3
  8
0
 10
1160.654576047529
 20
264.25838007918162
 30
0.0
 40
70.0
 50
38.53103135637874
 51
76.196055695548239
  0
ARC
  5
3FB7
  8
0
 10
1188.663596260237
 20
277.87775114880651
 30
0.0
 40
10.0
 50
71.790043135717227
 51
180.0
  0
ARC
  5
3FB8
  8
0
 10
1191.1635962602379
 20
276.96203320035812
 30
0.0
 40
10.0
 50
67.975687162957939
 51
180.0
  0
CIRCLE
  5
3FB9
  8
0
 10
1176.163596260237
 20
239.8810407648798
 30
0.0
 40
9.2056643900231165
  0
ARC
  5
3FBA
  8
0
 10
1176.163596260237
 20
239.8810407648798
 30
0.0
 40
13.14252775012134
 50
57.307433134716327
 51
122.6925668652836
  0
ARC
  5
3FBB
  8
0
 10
1176.163596260237
 20
239.8810407648798
 30
0.0
 40
13.14252775012134
 50
237.30743313471629
 51
302.6925668652836
  0
ARC
  5
3FBE
  8
0
 10
1188.663596260237
 20
220.40473231935721
 30
0.0
 40
10.0
 50
122.6925668652836
 51
180.0
  0
ARC
  5
3FBF
  8
0
 10
1191.1635962602379
 20
217.85733124056429
 30
0.0
 40
10.0
 50
124.2581578611472
 51
180.0
  0
ARC
  5
3FC0
  8
0
 10
1191.1635962602379
 20
261.90475028919531
 30
0.0
 40
10.0
 50
180.0
 51
235.7418421388528
  0
ARC
  5
3FC1
  8
0
 10
1188.663596260237
 20
259.35734921040239
 30
0.0
 40
10.0
 50
180.0
 51
237.30743313471629
  0
ARC
  5
3FC3
  8
0
 10
1161.163596260237
 20
261.90475028919531
 30
0.0
 40
10.0
 50
304.2581578611472
 51
0.0
  0
ARC
  5
3FC4
  8
0
 10
1163.663596260237
 20
259.35734921040239
 30
0.0
 40
10.0
 50
302.6925668652836
 51
0.0
  0
ARC
  5
3FC5
  8
0
 10
1176.163596260237
 20
239.8810407648798
 30
0.0
 40
50.0
 50
108.2099568642828
 51
251.79004313571721
  0
ARC
  5
3FC6
  8
0
 10
1259.0626312365259
 20
249.8810407648798
 30
0.0
 40
5.0
 50
186.8782793511667
 51
270.0
  0
ARC
  5
3FC7
  8
0
 10
1163.663596260237
 20
220.40473231935709
 30
0.0
 40
10.0
 50
0.0
 51
57.307433134716327
  0
ARC
  5
3FC8
  8
0
 10
1161.163596260237
 20
217.85733124056429
 30
0.0
 40
10.0
 50
0.0
 51
55.741842138852782
  0
LINE
  5
3FC9
  8
0
 10
1181.1635962602379
 20
202.80004832940151
 30
0.0
 11
1181.1635962602379
 21
217.85733124056429
 31
0.0
  0
LINE
  5
3FCA
  8
0
 10
1178.663596260237
 20
201.8843303809532
 30
0.0
 11
1178.663596260237
 21
220.40473231935721
 31
0.0
  0
LINE
  5
3FCB
  8
0
 10
1171.1635962602379
 20
202.80004832940151
 30
0.0
 11
1171.1635962602379
 21
217.85733124056429
 31
0.0
  0
LINE
  5
3FCC
  8
0
 10
1173.663596260237
 20
201.8843303809532
 30
0.0
 11
1173.663596260237
 21
220.40473231935709
 31
0.0
  0
ARC
  5
3FCD
  8
0
 10
1176.163596260237
 20
239.8810407648798
 30
0.0
 40
16.64664671607721
 50
124.2581578611472
 51
238.3051995178476
  0
CIRCLE
  5
3FCE
  8
0
 10
1176.163596260237
 20
239.8810407648798
 30
0.0
 40
6.0
  0
ARC
  5
3FCF
  8
0
 10
1161.163596260237
 20
276.96203320035812
 30
0.0
 40
10.0
 50
0.0
 51
112.024312837042
  0
ARC
  5
3FD0
  8
0
 10
1163.663596260237
 20
277.87775114880651
 30
0.0
 40
10.0
 50
0.0
 51
108.2099568642828
  0
LINE
  5
3FD1
  8
0
 10
1178.663596260237
 20
277.87775114880651
 30
0.0
 11
1178.663596260237
 21
259.35734921040239
 31
0.0
  0
LINE
  5
3FD2
  8
0
 10
1181.1635962602379
 20
276.96203320035812
 30
0.0
 11
1181.1635962602379
 21
261.90475028919531
 31
0.0
  0
LINE
  5
3FD3
  8
0
 10
1173.663596260237
 20
277.87775114880651
 30
0.0
 11
1173.663596260237
 21
259.35734921040239
 31
0.0
  0
LINE
  5
3FD4
  8
0
 10
1171.1635962602379
 20
276.96203320035812
 30
0.0
 11
1171.1635962602379
 21
261.90475028919531
 31
0.0
  0
ARC
  5
3FE4
  8
0
 10
1151.786256945936
 20
224.37202055217111
 30
0.0
 40
70.0
 50
128.53103135636701
 51
166.19605569555301
  0
ARC
  5
3FE5
  8
0
 10
1176.163596260237
 20
239.8810407648798
 30
0.0
 40
50.0
 50
288.20995686428279
 51
71.790043135717227
  0
ARC
  5
3FE6
  8
0
 10
1176.163596260237
 20
239.8810407648798
 30
0.0
 40
16.64664671607721
 50
301.6948004821524
 51
55.741842138852782
  0
ARC
  5
3FE7
  8
0
 10
1088.663596260237
 20
239.8810407648798
 30
0.0
 40
5.0
 50
166.19605569555301
 51
270.0
  0
ARC
  5
3FE8
  8
0
 10
1093.2645612839481
 20
229.8810407648798
 30
0.0
 40
5.0
 50
6.8782793511666949
 51
90.0
  0
LINE
  5
3FE9
  8
0
 10
1088.663596260237
 20
234.8810407648798
 30
0.0
 11
1093.2645612839481
 21
234.8810407648798
 31
0.0
  0
ARC
  5
3FEF
  8
0
 10
1176.1635962602379
 20
327.3810407648798
 30
0.0
 40
5.0
 50
76.196055695548239
 51
180.0
  0
LINE
  5
3FF0
  8
0
 10
1171.1635962602379
 20
327.3810407648798
 30
0.0
 11
1171.1635962602379
 21
322.78007574116901
 31
0.0
  0
CIRCLE
  5
4286
  8
0
 10
1570.3282219911921
 20
239.8810407648798
 30
0.0
 40
78.5
  0
ARC
  5
4287
  8
0
 10
1554.8192017784841
 20
264.25838007918162
 30
0.0
 40
70.0
 50
38.53103135637874
 51
76.196055695548239
  0
CIRCLE
  5
4288
  8
0
 10
1570.3282219911921
 20
239.8810407648798
 30
0.0
 40
60.5
  0
ARC
  5
4289
  8
0
 10
1585.837242203901
 20
215.50370145057801
 30
0.0
 40
70.0
 50
218.5310313563788
 51
256.1960556955483
  0
ARC
  5
428A
  8
0
 10
1570.3282219911921
 20
239.8810407648798
 30
0.0
 40
50.0
 50
293.57817847820149
 51
66.421821521798464
  0
ARC
  5
428F
  8
0
 10
1570.3282219911921
 20
239.8810407648798
 30
0.0
 40
50.0
 50
113.5781784782024
 51
246.4218215217976
  0
ARC
  5
4290
  8
0
 10
1570.328221991193
 20
152.38104076487971
 30
0.0
 40
5.0
 50
256.1960556955483
 51
0.000000000000007
  0
ARC
  5
4291
  8
0
 10
1580.328221991193
 20
156.98200578859061
 30
0.0
 40
5.0
 50
96.878279351173546
 51
180.0
  0
LINE
  5
4292
  8
0
 10
1575.328221991193
 20
152.38104076487971
 30
0.0
 11
1575.328221991193
 21
156.98200578859061
 31
0.0
  0
POINT
  5
4293
  8
0
  6
BYBLOCK
 10
1570.328221991193
 20
145.73704076487971
 30
0.0
  0
LINE
  5
4294
  8
0
 10
1657.8282219911921
 20
244.8810407648798
 30
0.0
 11
1653.2272569674819
 21
244.8810407648798
 31
0.0
  0
ARC
  5
4295
  8
0
 10
1594.705561305494
 20
255.39006097758849
 30
0.0
 40
70.0
 50
308.53103135636701
 51
346.19605569555301
  0
ARC
  5
4296
  8
0
 10
1657.8282219911921
 20
239.8810407648798
 30
0.0
 40
5.0
 50
346.19605569555301
 51
90.0
  0
ARC
  5
4297
  8
0
 10
1653.2272569674819
 20
249.8810407648798
 30
0.0
 40
5.0
 50
186.8782793511667
 51
270.0
  0
CIRCLE
  5
429F
  8
0
 10
1570.3282219911921
 20
239.8810407648798
 30
0.0
 40
9.2056643900231165
  0
ARC
  5
42B2
  8
0
 10
1545.9508826768911
 20
224.37202055217111
 30
0.0
 40
70.0
 50
128.53103135636701
 51
166.19605569555301
  0
ARC
  5
42B3
  8
0
 10
1487.4291870149029
 20
229.8810407648798
 30
0.0
 40
5.0
 50
6.8782793511666949
 51
90.0
  0
LINE
  5
42B4
  8
0
 10
1482.8282219911921
 20
234.8810407648798
 30
0.0
 11
1487.4291870149029
 21
234.8810407648798
 31
0.0
  0
ARC
  5
42B5
  8
0
 10
1482.8282219911921
 20
239.8810407648798
 30
0.0
 40
5.0
 50
166.19605569555301
 51
270.0
  0
ARC
  5
42B6
  8
0
 10
1570.328221991193
 20
327.3810407648798
 30
0.0
 40
5.0
 50
76.196055695548239
 51
180.0
  0
LINE
  5
42B7
  8
0
 10
1565.328221991193
 20
327.3810407648798
 30
0.0
 11
1565.328221991193
 21
322.78007574116901
 31
0.0
  0
ARC
  5
42B8
  8
0
 10
1560.328221991193
 20
322.78007574116901
 30
0.0
 40
5.0
 50
276.8782793511736
 51
0.000000000000007
  0
CIRCLE
  5
4375
  8
0
 10
1570.3282219911921
 20
239.8810407648798
 30
0.0
 40
6.5
  0
LINE
  5
4376
  8
0
 10
1590.3282219911921
 20
182.78244183285679
 30
0.0
 11
1590.3282219911921
 21
239.8810407648798
 31
0.0
  0
LINE
  5
4377
  8
0
 10
1550.3282219911921
 20
182.78244183285699
 30
0.0
 11
1550.3282219911921
 21
239.8810407648798
 31
0.0
  0
LINE
  5
437B
  8
0
 10
1555.928221991192
 20
188.76300677612991
 30
0.0
 11
1555.9282219911929
 21
181.11974397864469
 31
0.0
  0
LINE
  5
437C
  8
0
 10
1554.928221991192
 20
188.76300677612991
 30
0.0
 11
1554.928221991192
 21
181.37386171820211
 31
0.0
  0
LINE
  5
4387
  8
0
 10
1590.3282219911921
 20
195.3810407648798
 30
0.0
 11
1550.3282219911921
 21
195.3810407648798
 31
0.0
  0
ARC
  5
4389
  8
0
 10
1555.428221991192
 20
189.8810407648798
 30
0.0
 40
1.0
 50
311.81031489578208
 51
228.18968510421789
  0
ARC
  5
438A
  8
0
 10
1556.428221991192
 20
188.76300677612991
 30
0.0
 40
0.5
 50
131.810314895782
 51
180.0
  0
ARC
  5
438B
  8
0
 10
1554.428221991192
 20
188.76300677612991
 30
0.0
 40
0.5
 50
0.000000000000007
 51
48.189685104217972
  0
LINE
  5
438C
  8
0
 10
1550.3282219911921
 20
296.9796396969025
 30
0.0
 11
1550.3282219911921
 21
239.8810407648798
 31
0.0
  0
LINE
  5
438D
  8
0
 10
1590.3282219911921
 20
296.97963969690272
 30
0.0
 11
1590.3282219911921
 21
239.8810407648798
 31
0.0
  0
LINE
  5
4390
  8
0
 10
1550.3282219911921
 20
284.38104076487991
 30
0.0
 11
1590.3282219911921
 21
284.38104076487991
 31
0.0
  0
LINE
  5
4392
  8
0
 10
1584.728221991192
 20
290.74706616866428
 30
0.0
 11
1584.728221991192
 21
298.64233755111491
 31
0.0
  0
LINE
  5
4393
  8
0
 10
1585.728221991192
 20
290.74706616866428
 30
0.0
 11
1585.7282219911931
 21
298.38821981155741
 31
0.0
  0
ARC
  5
4394
  8
0
 10
1585.228221991192
 20
289.8810407648798
 30
0.0
 40
1.0
 50
120.0000000000005
 51
59.99999999999946
  0
LINE
  5
4498
  8
0
 10
1394.6307108257299
 20
506.7320193135476
 30
0.0
 11
1394.6307108257299
 21
459.0808797214728
 31
0.0
  0
LINE
  5
449B
  8
0
 10
1401.630710825729
 20
506.7320193135476
 30
0.0
 11
1401.630710825729
 21
459.0808797214728
 31
0.0
  0
LINE
  5
449C
  8
0
 10
1345.630710825729
 20
389.4820773262631
 30
0.0
 11
1345.630710825729
 21
545.48207732626304
 31
0.0
  0
LINE
  5
449D
  8
0
 10
1405.6307108257299
 20
389.48207732626321
 30
0.0
 11
1405.6307108257299
 21
545.48207732626315
 31
0.0
  0
LINE
  5
449E
  8
0
 10
1346.1307108257299
 20
388.98207732626321
 30
0.0
 11
1393.6995916223279
 21
388.98207732626321
 31
0.0
  0
LINE
  5
449F
  8
0
 10
1345.630710825729
 20
389.4820773262631
 30
0.0
 11
1346.1307108257299
 21
388.9820773262631
 31
0.0
  0
LINE
  5
44A0
  8
0
 10
1401.630710825729
 20
388.98207732626321
 30
0.0
 11
1401.630710825729
 21
399.49904963556008
 31
0.0
  0
LINE
  5
44A1
  8
0
 10
1394.6307108257299
 20
388.98207732626321
 30
0.0
 11
1394.6307108257299
 21
399.49904963556008
 31
0.0
  0
LINE
  5
44A4
  8
0
 10
1396.561830029131
 20
374.9820773262631
 30
0.0
 11
1399.6995916223279
 21
374.98207732626321
 31
0.0
  0
ARC
  5
44A5
  8
0
 10
1393.6995916223279
 20
387.98207732626321
 30
0.0
 40
1.0
 50
4.0856167799744121
 51
90.0
  0
ARC
  5
44A6
  8
0
 10
1396.561830029131
 20
375.9820773262631
 30
0.0
 40
1.0
 50
184.0856167799744
 51
270.0
  0
LINE
  5
44A7
  8
0
 10
1394.6970503221589
 20
388.05332437625111
 30
0.0
 11
1395.5643713293
 21
375.91083027627519
 31
0.0
  0
LINE
  5
44A8
  8
0
 10
1402.561830029131
 20
388.98207732626321
 30
0.0
 11
1405.1307108257299
 21
388.98207732626321
 31
0.0
  0
ARC
  5
44A9
  8
0
 10
1402.561830029131
 20
387.98207732626321
 30
0.0
 40
1.0
 50
90.0
 51
175.91438322002551
  0
LINE
  5
44AA
  8
0
 10
1405.1307108257299
 20
388.98207732626321
 30
0.0
 11
1405.6307108257299
 21
389.4820773262631
 31
0.0
  0
ARC
  5
44AB
  8
0
 10
1399.6995916223279
 20
375.98207732626321
 30
0.0
 40
1.0
 50
270.0
 51
355.91438322002563
  0
LINE
  5
44AC
  8
0
 10
1400.6970503221589
 20
375.91083027627531
 30
0.0
 11
1401.5643713293
 21
388.05332437625111
 31
0.0
  0
LINE
  5
44AD
  8
0
 10
1394.6307108257299
 20
462.4820773262631
 30
0.0
 11
1401.630710825729
 21
462.48207732626281
 31
0.0
  0
LINE
  5
44AE
  8
0
 10
1395.6307108257299
 20
467.4820773262631
 30
0.0
 11
1400.630710825729
 21
467.4820773262631
 31
0.0
  0
ARC
  5
44AF
  8
0
 10
1395.6307108257299
 20
468.4820773262631
 30
0.0
 40
1.0
 50
180.0
 51
270.0
  0
ARC
  5
44B0
  8
0
 10
1393.6307108257299
 20
459.0808797214728
 30
0.0
 40
1.0
 50
270.0
 51
0.0000000000002672
  0
ARC
  5
44B2
  8
0
 10
1400.630710825729
 20
468.4820773262631
 30
0.0
 40
1.0
 50
270.0
 51
0.000000000000007
  0
ARC
  5
44B4
  8
0
 10
1402.630710825729
 20
459.0808797214728
 30
0.0
 40
1.0
 50
179.99999999999969
 51
270.0
  0
LINE
  5
44B5
  8
0
 10
1346.1307108257299
 20
545.98207732626304
 30
0.0
 11
1393.6995916223279
 21
545.98207732626292
 31
0.0
  0
LINE
  5
44B6
  8
0
 10
1346.1307108257299
 20
545.98207732626304
 30
0.0
 11
1345.630710825729
 21
545.48207732626315
 31
0.0
  0
LINE
  5
44B7
  8
0
 10
1396.561830029131
 20
559.98207732626315
 30
0.0
 11
1399.6995916223279
 21
559.98207732626304
 31
0.0
  0
ARC
  5
44B8
  8
0
 10
1393.6995916223279
 20
546.98207732626304
 30
0.0
 40
1.0
 50
270.0
 51
355.91438322002563
  0
LINE
  5
44B9
  8
0
 10
1394.6970503221589
 20
546.91083027627519
 30
0.0
 11
1395.5643713293
 21
559.05332437625111
 31
0.0
  0
ARC
  5
44BC
  8
0
 10
1396.561830029131
 20
558.98207732626315
 30
0.0
 40
1.0
 50
90.0
 51
175.91438322002551
  0
LINE
  5
44BD
  8
0
 10
1402.561830029131
 20
545.98207732626304
 30
0.0
 11
1405.1307108257299
 21
545.98207732626304
 31
0.0
  0
LINE
  5
44BE
  8
0
 10
1402.561830029131
 20
545.98207732626292
 30
0.0
 11
1403.0276353568911
 21
545.98207732626315
 31
0.0
  0
ARC
  5
44BF
  8
0
 10
1402.561830029131
 20
546.98207732626304
 30
0.0
 40
1.0
 50
184.0856167799744
 51
270.0
  0
LINE
  5
44C0
  8
0
 10
1405.1307108257299
 20
545.98207732626304
 30
0.0
 11
1405.6307108257299
 21
545.48207732626292
 31
0.0
  0
LINE
  5
44C1
  8
0
 10
1400.6970503221589
 20
559.05332437625077
 30
0.0
 11
1401.5643713293
 21
546.91083027627519
 31
0.0
  0
ARC
  5
44C4
  8
0
 10
1399.6995916223279
 20
558.98207732626304
 30
0.0
 40
1.0
 50
4.0856167799744121
 51
90.0
  0
ARC
  5
44F5
  8
0
 10
744.14621347187358
 20
241.62756989961281
 30
0.0
 40
40.0
 50
118.3593500281586
 51
241.64064997184511
  0
ARC
  5
44F6
  8
0
 10
744.14621347187358
 20
241.62756989961281
 30
0.0
 40
40.0
 50
298.35935002815779
 51
61.640649971843629
  0
LINE
  5
4505
  8
0
 10
497.17522115645528
 20
1158.8254467343691
 30
0.0
 11
500.32747115645537
 21
1155.674321734369
 31
0.0
  0
LINE
  5
4506
  8
0
 10
516.08309615645521
 20
1152.5231967343691
 30
0.0
 11
484.57072115645491
 21
1152.5231967343691
 31
0.0
  0
LINE
  5
4507
  8
0
 10
484.57072115645491
 20
1152.5231967343691
 30
0.0
 11
478.26847115645518
 21
1158.8254467343691
 31
0.0
  0
LINE
  5
4508
  8
0
 10
478.26847115645518
 20
1158.8254467343691
 30
0.0
 11
497.17522115645528
 21
1158.8254467343691
 31
0.0
  0
LINE
  5
4509
  8
0
 10
509.64359615645571
 20
1158.8254467343691
 30
0.0
 11
516.08309615645521
 21
1152.5231967343691
 31
0.0
  0
LINE
  5
450A
  8
0
 10
509.64359615645571
 20
1155.674321734369
 30
0.0
 11
509.64359615645571
 21
1158.8254467343691
 31
0.0
  0
LINE
  5
450B
  8
0
 10
500.32747115645537
 20
1155.674321734369
 30
0.0
 11
509.64359615645571
 21
1155.674321734369
 31
0.0
  0
LINE
  5
450C
  8
0
 10
516.08309615645521
 20
1014.047057822331
 30
0.0
 11
484.57072115645491
 21
1014.047057822331
 31
0.0
  0
LINE
  5
450D
  8
0
 10
478.26847115645518
 20
1020.34930782233
 30
0.0
 11
497.17522115645528
 21
1020.34930782233
 31
0.0
  0
LINE
  5
450E
  8
0
 10
484.57072115645491
 20
1014.047057822331
 30
0.0
 11
478.26847115645518
 21
1020.34930782233
 31
0.0
  0
LINE
  5
450F
  8
0
 10
509.64359615645571
 20
1020.34930782233
 30
0.0
 11
516.08309615645521
 21
1014.047057822331
 31
0.0
  0
LINE
  5
4510
  8
0
 10
509.64359615645571
 20
1017.198182822331
 30
0.0
 11
509.64359615645571
 21
1020.34930782233
 31
0.0
  0
LINE
  5
4511
  8
0
 10
497.17522115645528
 20
1020.34930782233
 30
0.0
 11
500.32747115645537
 21
1017.198182822331
 31
0.0
  0
LINE
  5
4512
  8
0
 10
500.32747115645537
 20
1017.198182822331
 30
0.0
 11
509.64359615645571
 21
1017.198182822331
 31
0.0
  0
LINE
  5
451A
  8
0
 10
584.17332494263326
 20
1298.495346430617
 30
0.0
 11
577.73382494263376
 21
1292.1930964306171
 31
0.0
  0
LINE
  5
451B
  8
0
 10
609.24619994263401
 20
1292.1930964306171
 30
0.0
 11
615.54844994263385
 21
1298.495346430617
 31
0.0
  0
LINE
  5
451C
  8
0
 10
577.73382494263376
 20
1292.1930964306171
 30
0.0
 11
609.24619994263401
 21
1292.1930964306171
 31
0.0
  0
LINE
  5
451D
  8
0
 10
615.54844994263385
 20
1298.495346430617
 30
0.0
 11
596.64169994263375
 21
1298.495346430617
 31
0.0
  0
LINE
  5
451E
  8
0
 10
593.48944994263366
 20
1295.3442214306169
 30
0.0
 11
584.17332494263326
 21
1295.3442214306169
 31
0.0
  0
LINE
  5
451F
  8
0
 10
596.64169994263375
 20
1298.495346430617
 30
0.0
 11
593.48944994263366
 21
1295.3442214306169
 31
0.0
  0
LINE
  5
4520
  8
0
 10
584.17332494263326
 20
1295.3442214306169
 30
0.0
 11
584.17332494263326
 21
1298.495346430617
 31
0.0
  0
LINE
  5
4521
  8
0
 10
1216.9461192178801
 20
1133.3056244605889
 30
0.0
 11
1185.4337442178801
 21
1133.3056244605889
 31
0.0
  0
LINE
  5
4522
  8
0
 10
1179.1314942178799
 20
1139.6078744605891
 30
0.0
 11
1198.03824421788
 21
1139.6078744605891
 31
0.0
  0
LINE
  5
4523
  8
0
 10
1185.4337442178801
 20
1133.3056244605889
 30
0.0
 11
1179.1314942178799
 21
1139.6078744605891
 31
0.0
  0
LINE
  5
4524
  8
0
 10
1210.5066192178811
 20
1139.6078744605891
 30
0.0
 11
1216.9461192178801
 21
1133.3056244605889
 31
0.0
  0
LINE
  5
4525
  8
0
 10
1210.5066192178811
 20
1136.456749460589
 30
0.0
 11
1210.5066192178811
 21
1139.6078744605891
 31
0.0
  0
LINE
  5
4526
  8
0
 10
1198.03824421788
 20
1139.6078744605891
 30
0.0
 11
1201.190494217881
 21
1136.456749460589
 31
0.0
  0
LINE
  5
4527
  8
0
 10
1201.190494217881
 20
1136.456749460589
 30
0.0
 11
1210.5066192178811
 21
1136.456749460589
 31
0.0
  0
LINE
  5
4528
  8
0
 10
1213.761875950931
 20
980.18556443936075
 30
0.0
 11
1220.2013759509309
 21
973.88331443936113
 31
0.0
  0
LINE
  5
4529
  8
0
 10
1220.2013759509309
 20
973.88331443936113
 30
0.0
 11
1188.68900095093
 21
973.88331443936113
 31
0.0
  0
LINE
  5
452A
  8
0
 10
1182.3867509509309
 20
980.18556443936075
 30
0.0
 11
1201.293500950931
 21
980.18556443936075
 31
0.0
  0
LINE
  5
452B
  8
0
 10
1188.68900095093
 20
973.88331443936113
 30
0.0
 11
1182.3867509509309
 21
980.18556443936075
 31
0.0
  0
LINE
  5
452C
  8
0
 10
1204.4457509509309
 20
977.03443943936099
 30
0.0
 11
1213.761875950931
 21
977.03443943936099
 31
0.0
  0
LINE
  5
452D
  8
0
 10
1201.293500950931
 20
980.18556443936075
 30
0.0
 11
1204.4457509509309
 21
977.03443943936099
 31
0.0
  0
LINE
  5
452E
  8
0
 10
1213.761875950931
 20
977.03443943936099
 30
0.0
 11
1213.761875950931
 21
980.18556443936075
 31
0.0
  0
LINE
  5
452F
  8
0
 10
1326.008515226798
 20
1309.882652459786
 30
0.0
 11
1307.1017652267981
 21
1309.882652459786
 31
0.0
  0
LINE
  5
4530
  8
0
 10
1288.193890226798
 20
1303.5804024597869
 30
0.0
 11
1319.7062652267989
 21
1303.5804024597869
 31
0.0
  0
LINE
  5
4531
  8
0
 10
1294.6333902267979
 20
1309.882652459786
 30
0.0
 11
1288.193890226798
 21
1303.5804024597869
 31
0.0
  0
LINE
  5
4532
  8
0
 10
1294.6333902267979
 20
1306.731527459787
 30
0.0
 11
1294.6333902267979
 21
1309.882652459786
 31
0.0
  0
LINE
  5
4533
  8
0
 10
1307.1017652267981
 20
1309.882652459786
 30
0.0
 11
1303.949515226798
 21
1306.731527459787
 31
0.0
  0
LINE
  5
4534
  8
0
 10
1303.949515226798
 20
1306.731527459787
 30
0.0
 11
1294.6333902267979
 21
1306.731527459787
 31
0.0
  0
LINE
  5
4535
  8
0
 10
1319.7062652267989
 20
1303.5804024597869
 30
0.0
 11
1326.008515226798
 21
1309.882652459786
 31
0.0
  0
LINE
  5
4536
  8
0
 10
504.46952001595298
 20
435.99881893810152
 30
0.0
 11
472.95714501595279
 21
435.99881893810152
 31
0.0
  0
LINE
  5
4537
  8
0
 10
466.65489501595312
 20
442.3010689381012
 30
0.0
 11
485.56164501595322
 21
442.3010689381012
 31
0.0
  0
LINE
  5
4538
  8
0
 10
472.95714501595279
 20
435.99881893810152
 30
0.0
 11
466.65489501595312
 21
442.3010689381012
 31
0.0
  0
LINE
  5
4539
  8
0
 10
498.03002001595348
 20
442.3010689381012
 30
0.0
 11
504.46952001595298
 21
435.99881893810152
 31
0.0
  0
LINE
  5
453A
  8
0
 10
498.03002001595348
 20
439.14994393810127
 30
0.0
 11
498.03002001595348
 21
442.3010689381012
 31
0.0
  0
LINE
  5
453B
  8
0
 10
485.56164501595322
 20
442.3010689381012
 30
0.0
 11
488.71389501595331
 21
439.14994393810127
 31
0.0
  0
LINE
  5
453C
  8
0
 10
488.71389501595331
 20
439.14994393810127
 30
0.0
 11
498.03002001595348
 21
439.14994393810127
 31
0.0
  0
LINE
  5
453D
  8
0
 10
502.88735068801537
 20
235.17087179032339
 30
0.0
 11
471.37497568801518
 21
235.17087179032339
 31
0.0
  0
LINE
  5
453E
  8
0
 10
465.0727256880154
 20
241.47312179032321
 30
0.0
 11
483.9794756880155
 21
241.47312179032321
 31
0.0
  0
LINE
  5
453F
  8
0
 10
471.37497568801518
 20
235.17087179032339
 30
0.0
 11
465.0727256880154
 21
241.47312179032321
 31
0.0
  0
LINE
  5
4540
  8
0
 10
496.44785068801588
 20
241.47312179032321
 30
0.0
 11
502.88735068801537
 21
235.17087179032339
 31
0.0
  0
LINE
  5
4541
  8
0
 10
496.44785068801588
 20
238.32199679032331
 30
0.0
 11
496.44785068801588
 21
241.47312179032321
 31
0.0
  0
LINE
  5
4542
  8
0
 10
483.9794756880155
 20
241.47312179032321
 30
0.0
 11
487.13172568801559
 21
238.32199679032331
 31
0.0
  0
LINE
  5
4543
  8
0
 10
487.13172568801559
 20
238.32199679032331
 30
0.0
 11
496.44785068801588
 21
238.32199679032331
 31
0.0
  0
LINE
  5
454B
  8
0
 10
626.62362911287789
 20
616.94538093698293
 30
0.0
 11
607.71687911287779
 21
616.94538093698293
 31
0.0
  0
LINE
  5
454C
  8
0
 10
588.80900411287803
 20
610.64313093698308
 30
0.0
 11
620.32137911287816
 21
610.64313093698308
 31
0.0
  0
LINE
  5
454D
  8
0
 10
595.24850411287753
 20
616.94538093698293
 30
0.0
 11
588.80900411287803
 21
610.64313093698308
 31
0.0
  0
LINE
  5
454E
  8
0
 10
595.24850411287753
 20
613.79425593698306
 30
0.0
 11
595.24850411287753
 21
616.94538093698293
 31
0.0
  0
LINE
  5
454F
  8
0
 10
607.71687911287779
 20
616.94538093698293
 30
0.0
 11
604.56462911287781
 21
613.79425593698306
 31
0.0
  0
LINE
  5
4550
  8
0
 10
604.56462911287781
 20
613.79425593698306
 30
0.0
 11
595.24850411287753
 21
613.79425593698306
 31
0.0
  0
LINE
  5
4551
  8
0
 10
620.32137911287816
 20
610.64313093698308
 30
0.0
 11
626.62362911287789
 21
616.94538093698293
 31
0.0
  0
LINE
  5
4552
  8
0
 10
1283.2831468188831
 20
470.58492625125967
 30
0.0
 11
1302.189896818883
 21
470.58492625125967
 31
0.0
  0
LINE
  5
4553
  8
0
 10
1321.0977718188831
 20
464.28267625126
 30
0.0
 11
1289.5853968188831
 21
464.28267625126
 31
0.0
  0
LINE
  5
4554
  8
0
 10
1289.5853968188831
 20
464.28267625126
 30
0.0
 11
1283.2831468188831
 21
470.58492625125967
 31
0.0
  0
LINE
  5
4555
  8
0
 10
1305.3421468188831
 20
467.43380125125981
 30
0.0
 11
1314.658271818884
 21
467.43380125125981
 31
0.0
  0
LINE
  5
4556
  8
0
 10
1302.189896818883
 20
470.58492625125967
 30
0.0
 11
1305.3421468188831
 21
467.43380125125981
 31
0.0
  0
LINE
  5
4557
  8
0
 10
1314.658271818884
 20
467.43380125125981
 30
0.0
 11
1314.658271818884
 21
470.58492625125967
 31
0.0
  0
LINE
  5
4558
  8
0
 10
1314.658271818884
 20
470.58492625125967
 30
0.0
 11
1321.0977718188831
 21
464.28267625126
 31
0.0
  0
LINE
  5
4559
  8
0
 10
1327.1618415704399
 20
231.95096762420599
 30
0.0
 11
1295.6494665704399
 21
231.95096762420599
 31
0.0
  0
LINE
  5
455A
  8
0
 10
1289.3472165704411
 20
238.25321762420569
 30
0.0
 11
1308.253966570441
 21
238.25321762420569
 31
0.0
  0
LINE
  5
455B
  8
0
 10
1295.6494665704399
 20
231.95096762420599
 30
0.0
 11
1289.3472165704411
 21
238.25321762420569
 31
0.0
  0
LINE
  5
455C
  8
0
 10
1320.7223415704409
 20
238.25321762420569
 30
0.0
 11
1327.1618415704399
 21
231.95096762420599
 31
0.0
  0
LINE
  5
455D
  8
0
 10
1320.7223415704409
 20
235.10209262420591
 30
0.0
 11
1320.7223415704409
 21
238.25321762420569
 31
0.0
  0
LINE
  5
455E
  8
0
 10
1308.253966570441
 20
238.25321762420569
 30
0.0
 11
1311.4062165704411
 21
235.10209262420591
 31
0.0
  0
LINE
  5
455F
  8
0
 10
1311.4062165704411
 20
235.10209262420591
 30
0.0
 11
1320.7223415704409
 21
235.10209262420591
 31
0.0
  0
LINE
  5
4560
  8
0
 10
1433.3210204189229
 20
674.40252663913395
 30
0.0
 11
1424.0048954189219
 21
674.40252663913395
 31
0.0
  0
LINE
  5
4561
  8
0
 10
1417.5653954189229
 20
671.2514016391342
 30
0.0
 11
1449.0777704189229
 21
671.2514016391342
 31
0.0
  0
LINE
  5
4562
  8
0
 10
1424.0048954189219
 20
674.40252663913395
 30
0.0
 11
1424.0048954189219
 21
677.55365163913393
 31
0.0
  0
LINE
  5
4563
  8
0
 10
1424.0048954189219
 20
677.55365163913393
 30
0.0
 11
1417.5653954189229
 21
671.2514016391342
 31
0.0
  0
LINE
  5
4564
  8
0
 10
1455.3800204189231
 20
677.55365163913393
 30
0.0
 11
1436.473270418923
 21
677.55365163913393
 31
0.0
  0
LINE
  5
4565
  8
0
 10
1436.473270418923
 20
677.55365163913393
 30
0.0
 11
1433.3210204189229
 21
674.40252663913395
 31
0.0
  0
LINE
  5
4566
  8
0
 10
1449.0777704189229
 20
671.2514016391342
 30
0.0
 11
1455.3800204189231
 21
677.55365163913393
 31
0.0
  0
LINE
  5
45E9
  8
0
 10
1396.4589906060819
 20
546.41709823211579
 30
0.0
 11
1399.802431045377
 21
546.41709823211579
 31
0.0
  0
LINE
  5
463C
  8
0
 10
534.90973651276681
 20
1300.4211465587309
 30
0.0
 11
539.91061418585105
 21
1300.4211465587309
 31
0.0
  0
ARC
  5
46D1
  8
0
 10
1244.579901402647
 20
1247.826736548838
 30
0.0
 40
1.0
 50
90.0
 51
175.66126646861031
  0
ARC
  5
46D2
  8
0
 10
1235.628002057286
 20
1247.826736548838
 30
0.0
 40
1.0
 50
4.3387335313896847
 51
90.0
  0
LINE
  5
46DE
  8
0
 10
1346.1307108257299
 20
318.3810407648798
 30
0.0
 11
1393.6995916223279
 21
318.38104076487957
 31
0.0
  0
LINE
  5
46DF
  8
0
 10
1346.1307108257299
 20
161.38104076487991
 30
0.0
 11
1393.6995916223279
 21
161.38104076487991
 31
0.0
  0
LINE
  5
46E0
  8
0
 10
1345.630710825729
 20
161.8810407648798
 30
0.0
 11
1345.630710825729
 21
317.88104076487969
 31
0.0
  0
LINE
  5
46E1
  8
0
 10
1345.630710825729
 20
161.8810407648798
 30
0.0
 11
1346.1307108257299
 21
161.3810407648798
 31
0.0
  0
LINE
  5
46E2
  8
0
 10
1346.1307108257299
 20
318.3810407648798
 30
0.0
 11
1345.630710825729
 21
317.88104076487991
 31
0.0
  0
LINE
  5
46E3
  8
0
 10
1405.6307108257299
 20
161.88104076487991
 30
0.0
 11
1405.6307108257299
 21
317.88104076487991
 31
0.0
  0
LINE
  5
46E4
  8
0
 10
1394.6307108257299
 20
161.38104076487991
 30
0.0
 11
1394.6307108257299
 21
171.8980130741767
 31
0.0
  0
LINE
  5
46E5
  8
0
 10
1401.630710825729
 20
161.38104076487991
 30
0.0
 11
1401.630710825729
 21
171.8980130741767
 31
0.0
  0
LINE
  5
46E6
  8
0
 10
1396.561830029131
 20
147.3810407648798
 30
0.0
 11
1399.6995916223279
 21
147.38104076487991
 31
0.0
  0
LINE
  5
46E7
  8
0
 10
1394.6970503221589
 20
160.45228781486779
 30
0.0
 11
1395.5643713293
 21
148.3097937148919
 31
0.0
  0
ARC
  5
46E8
  8
0
 10
1396.561830029131
 20
148.3810407648798
 30
0.0
 40
1.0
 50
184.0856167799744
 51
270.0
  0
ARC
  5
46E9
  8
0
 10
1393.6995916223279
 20
160.38104076487991
 30
0.0
 40
1.0
 50
4.0856167799744121
 51
90.0
  0
LINE
  5
46EA
  8
0
 10
1400.6970503221589
 20
148.30979371489201
 30
0.0
 11
1401.5643713293
 21
160.45228781486779
 31
0.0
  0
ARC
  5
46EB
  8
0
 10
1399.6995916223279
 20
148.38104076487991
 30
0.0
 40
1.0
 50
270.0
 51
355.91438322002563
  0
LINE
  5
46EC
  8
0
 10
1405.1307108257299
 20
161.38104076487991
 30
0.0
 11
1405.6307108257299
 21
161.8810407648798
 31
0.0
  0
ARC
  5
46ED
  8
0
 10
1402.561830029131
 20
160.38104076487991
 30
0.0
 40
1.0
 50
90.0
 51
175.91438322002551
  0
LINE
  5
46EE
  8
0
 10
1402.561830029131
 20
161.38104076487991
 30
0.0
 11
1405.1307108257299
 21
161.38104076487991
 31
0.0
  0
LINE
  5
46EF
  8
0
 10
1401.630710825729
 20
279.1309827521643
 30
0.0
 11
1401.630710825729
 21
231.47984316008959
 31
0.0
  0
LINE
  5
46F0
  8
0
 10
1394.6307108257299
 20
279.1309827521643
 30
0.0
 11
1394.6307108257299
 21
231.47984316008959
 31
0.0
  0
LINE
  5
46F1
  8
0
 10
1394.6307108257299
 20
234.8810407648798
 30
0.0
 11
1401.630710825729
 21
234.8810407648796
 31
0.0
  0
LINE
  5
46F2
  8
0
 10
1395.6307108257299
 20
239.88104076487991
 30
0.0
 11
1400.630710825729
 21
239.88104076487991
 31
0.0
  0
ARC
  5
46F3
  8
0
 10
1395.6307108257299
 20
240.88104076487991
 30
0.0
 40
1.0
 50
180.0
 51
270.0
  0
ARC
  5
46F4
  8
0
 10
1393.6307108257299
 20
231.47984316008959
 30
0.0
 40
1.0
 50
270.0
 51
0.0000000000002672
  0
ARC
  5
46F5
  8
0
 10
1400.630710825729
 20
240.88104076487991
 30
0.0
 40
1.0
 50
270.0
 51
0.000000000000007
  0
ARC
  5
46F6
  8
0
 10
1402.630710825729
 20
231.47984316008959
 30
0.0
 40
1.0
 50
179.99999999999969
 51
270.0
  0
LINE
  5
46F7
  8
0
 10
1396.4589906060819
 20
318.81606167073261
 30
0.0
 11
1399.802431045377
 21
318.81606167073261
 31
0.0
  0
LINE
  5
46F8
  8
0
 10
1396.561830029131
 20
332.38104076487991
 30
0.0
 11
1399.6995916223279
 21
332.38104076487969
 31
0.0
  0
ARC
  5
46F9
  8
0
 10
1396.561830029131
 20
331.3810407648798
 30
0.0
 40
1.0
 50
90.0
 51
175.91438322002551
  0
LINE
  5
46FA
  8
0
 10
1394.6970503221589
 20
319.3097937148919
 30
0.0
 11
1395.5643713293
 21
331.45228781486782
 31
0.0
  0
ARC
  5
46FB
  8
0
 10
1393.6995916223279
 20
319.38104076487969
 30
0.0
 40
1.0
 50
270.0
 51
355.91438322002563
  0
ARC
  5
46FC
  8
0
 10
1399.6995916223279
 20
331.38104076487969
 30
0.0
 40
1.0
 50
4.0856167799744121
 51
90.0
  0
LINE
  5
46FD
  8
0
 10
1400.6970503221589
 20
331.45228781486759
 30
0.0
 11
1401.5643713293
 21
319.3097937148919
 31
0.0
  0
LINE
  5
46FE
  8
0
 10
1405.1307108257299
 20
318.3810407648798
 30
0.0
 11
1405.6307108257299
 21
317.88104076487957
 31
0.0
  0
ARC
  5
46FF
  8
0
 10
1402.561830029131
 20
319.38104076487969
 30
0.0
 40
1.0
 50
184.0856167799744
 51
270.0
  0
LINE
  5
4700
  8
0
 10
1402.561830029131
 20
318.38104076487957
 30
0.0
 11
1403.0276353568911
 21
318.3810407648798
 31
0.0
  0
LINE
  5
4701
  8
0
 10
1402.561830029131
 20
318.3810407648798
 30
0.0
 11
1405.1307108257299
 21
318.3810407648798
 31
0.0
  0
ARC
  5
4704
  8
0
 10
571.93746878621926
 20
307.96965873747968
 30
0.0
 40
1.0
 50
185.7112850319501
 51
270.0
  0
ARC
  5
4705
  8
0
 10
562.99581743161332
 20
307.96965873747968
 30
0.0
 40
1.0
 50
270.0
 51
354.28871496804987
  0
LINE
  5
4708
  8
0
 10
570.99784131187278
 20
307.62745965879412
 30
0.0
 11
574.4666431089164
 21
307.62745965879412
 31
0.0
  0
LINE
  5
4709
  8
0
 10
564.9297356173538
 20
306.96965873747968
 30
0.0
 11
570.00355060047877
 21
306.96965873747968
 31
0.0
  0
LINE
  5
470B
  8
0
 10
524.96664310891617
 20
369.19078908388701
 30
0.0
 11
524.96664310891617
 21
500.19056860224953
 31
0.0
  0
LINE
  5
470C
  8
0
 10
574.96664310891617
 20
369.19078908388701
 30
0.0
 11
574.96664310891595
 21
500.1905686022497
 31
0.0
  0
LINE
  5
470D
  8
0
 10
525.46664310891617
 20
368.69078908388701
 30
0.0
 11
563.0616431089162
 21
368.69078908388713
 31
0.0
  0
LINE
  5
470E
  8
0
 10
524.96664310891617
 20
369.19078908388701
 30
0.0
 11
525.46664310891617
 21
368.69078908388701
 31
0.0
  0
LINE
  5
470F
  8
0
 10
570.96670409196304
 20
368.69078908388713
 30
0.0
 11
570.96670409196304
 21
377.53300219329691
 31
0.0
  0
LINE
  5
4710
  8
0
 10
563.96658212586954
 20
368.69078908388713
 30
0.0
 11
563.96658212586954
 21
377.53300219329691
 31
0.0
  0
LINE
  5
4711
  8
0
 10
574.46664310891629
 20
368.69078908388701
 30
0.0
 11
574.96664310891595
 21
369.19078908388701
 31
0.0
  0
LINE
  5
4712
  8
0
 10
571.32164310891631
 20
368.52628908388698
 30
0.0
 11
571.20064310891621
 21
368.43218908388701
 31
0.0
  0
LINE
  5
4713
  8
0
 10
571.09464310891622
 20
368.32068908388698
 30
0.0
 11
571.0086431089162
 21
368.19578908388701
 31
0.0
  0
LINE
  5
4714
  8
0
 10
571.0086431089162
 20
368.19578908388701
 30
0.0
 11
570.94364310891615
 21
368.0624890838871
 31
0.0
  0
LINE
  5
4715
  8
0
 10
570.94364310891615
 20
368.0624890838871
 30
0.0
 11
570.87664310891614
 21
367.7902890838871
 31
0.0
  0
LINE
  5
4716
  8
0
 10
571.20064310891621
 20
368.43218908388701
 30
0.0
 11
571.09464310891622
 21
368.32068908388698
 31
0.0
  0
LINE
  5
4717
  8
0
 10
571.73464310891632
 20
368.68128908388701
 30
0.0
 11
571.59364310891624
 21
368.6514890838871
 31
0.0
  0
LINE
  5
4718
  8
0
 10
571.59364310891624
 20
368.6514890838871
 30
0.0
 11
571.45464310891634
 21
368.59988908388709
 31
0.0
  0
LINE
  5
4719
  8
0
 10
571.45464310891634
 20
368.59988908388709
 30
0.0
 11
571.32164310891631
 21
368.52628908388698
 31
0.0
  0
LINE
  5
471A
  8
0
 10
571.87164310891615
 20
368.69078908388701
 30
0.0
 11
571.73464310891632
 21
368.68128908388701
 31
0.0
  0
LINE
  5
471B
  8
0
 10
563.33864310891624
 20
368.6514890838871
 30
0.0
 11
563.06164310891631
 21
368.69078908388701
 31
0.0
  0
LINE
  5
471C
  8
0
 10
563.61064310891629
 20
368.52628908388698
 30
0.0
 11
563.47864310891623
 21
368.59988908388709
 31
0.0
  0
LINE
  5
471D
  8
0
 10
563.47864310891623
 20
368.59988908388709
 30
0.0
 11
563.33864310891624
 21
368.6514890838871
 31
0.0
  0
LINE
  5
471E
  8
0
 10
563.92464310891614
 20
368.19578908388701
 30
0.0
 11
563.83864310891636
 21
368.32068908388698
 31
0.0
  0
LINE
  5
471F
  8
0
 10
564.05664310891621
 20
367.7902890838871
 30
0.0
 11
564.05664310891621
 21
367.7902890838871
 31
0.0
  0
LINE
  5
4720
  8
0
 10
564.05664310891621
 20
367.7902890838871
 30
0.0
 11
564.03364310891629
 21
367.92578908388703
 31
0.0
  0
LINE
  5
4721
  8
0
 10
564.03364310891629
 20
367.92578908388703
 30
0.0
 11
563.98964310891608
 21
368.0624890838871
 31
0.0
  0
LINE
  5
4722
  8
0
 10
563.98964310891608
 20
368.0624890838871
 30
0.0
 11
563.92464310891614
 21
368.19578908388701
 31
0.0
  0
LINE
  5
4723
  8
0
 10
563.83864310891636
 20
368.32068908388698
 30
0.0
 11
563.73264310891625
 21
368.43218908388701
 31
0.0
  0
LINE
  5
4724
  8
0
 10
563.73264310891625
 20
368.43218908388701
 30
0.0
 11
563.61064310891629
 21
368.52628908388698
 31
0.0
  0
LINE
  5
4725
  8
0
 10
569.73264310891625
 20
358.94928908388709
 30
0.0
 11
569.61064310891618
 21
358.8552890838871
 31
0.0
  0
LINE
  5
4726
  8
0
 10
569.61064310891618
 20
358.8552890838871
 30
0.0
 11
569.47864310891623
 21
358.78168908388699
 31
0.0
  0
LINE
  5
4727
  8
0
 10
569.47864310891623
 20
358.78168908388699
 30
0.0
 11
569.33864310891624
 21
358.72998908388712
 31
0.0
  0
LINE
  5
4728
  8
0
 10
569.33864310891624
 20
358.72998908388712
 30
0.0
 11
569.0616431089162
 21
358.69078908388701
 31
0.0
  0
LINE
  5
4729
  8
0
 10
570.05664310891609
 20
359.59128908388709
 30
0.0
 11
570.05664310891609
 21
359.59128908388709
 31
0.0
  0
LINE
  5
472A
  8
0
 10
570.05664310891609
 20
359.59128908388709
 30
0.0
 11
570.03364310891618
 21
359.455789083887
 31
0.0
  0
LINE
  5
472B
  8
0
 10
570.03364310891618
 20
359.455789083887
 30
0.0
 11
569.9896431089162
 21
359.31908908388709
 31
0.0
  0
LINE
  5
472C
  8
0
 10
569.9896431089162
 20
359.31908908388709
 30
0.0
 11
569.92464310891626
 21
359.18578908388702
 31
0.0
  0
LINE
  5
472D
  8
0
 10
569.92464310891626
 20
359.18578908388702
 30
0.0
 11
569.83864310891624
 21
359.0608890838871
 31
0.0
  0
LINE
  5
472E
  8
0
 10
569.83864310891624
 20
359.0608890838871
 30
0.0
 11
569.73264310891625
 21
358.94928908388709
 31
0.0
  0
LINE
  5
472F
  8
0
 10
565.32164310891631
 20
358.8552890838871
 30
0.0
 11
565.2006431089161
 21
358.94928908388709
 31
0.0
  0
LINE
  5
4730
  8
0
 10
565.73464310891632
 20
358.70018908388698
 30
0.0
 11
565.59364310891624
 21
358.73008908388709
 31
0.0
  0
LINE
  5
4731
  8
0
 10
565.59364310891624
 20
358.73008908388709
 30
0.0
 11
565.45464310891634
 21
358.78168908388699
 31
0.0
  0
LINE
  5
4732
  8
0
 10
565.45464310891634
 20
358.78168908388699
 30
0.0
 11
565.32164310891631
 21
358.8552890838871
 31
0.0
  0
LINE
  5
4733
  8
0
 10
565.87164310891615
 20
358.69078908388701
 30
0.0
 11
565.87164310891615
 21
358.69078908388701
 31
0.0
  0
LINE
  5
4734
  8
0
 10
565.87164310891615
 20
358.69078908388701
 30
0.0
 11
565.73464310891632
 21
358.70018908388698
 31
0.0
  0
LINE
  5
4735
  8
0
 10
565.2006431089161
 20
358.94928908388709
 30
0.0
 11
565.0946431089161
 21
359.0608890838871
 31
0.0
  0
LINE
  5
4736
  8
0
 10
565.0946431089161
 20
359.0608890838871
 30
0.0
 11
565.0086431089162
 21
359.18578908388702
 31
0.0
  0
LINE
  5
4737
  8
0
 10
565.0086431089162
 20
359.18578908388702
 30
0.0
 11
564.94364310891615
 21
359.31908908388709
 31
0.0
  0
LINE
  5
4738
  8
0
 10
564.94364310891615
 20
359.31908908388709
 30
0.0
 11
564.87664310891614
 21
359.59128908388709
 31
0.0
  0
LINE
  5
4739
  8
0
 10
569.0616431089162
 20
358.69078908388701
 30
0.0
 11
565.87164310891615
 21
358.69078908388701
 31
0.0
  0
LINE
  5
473A
  8
0
 10
564.87664310891614
 20
359.59128908388709
 30
0.0
 11
564.05664310891621
 21
367.7902890838871
 31
0.0
  0
LINE
  5
473B
  8
0
 10
570.87664310891614
 20
367.7902890838871
 30
0.0
 11
570.05664310891609
 21
359.59128908388709
 31
0.0
  0
LINE
  5
473C
  8
0
 10
571.87164310891615
 20
368.69078908388701
 30
0.0
 11
574.46664310891629
 21
368.69078908388701
 31
0.0
  0
LINE
  5
473D
  8
0
 10
570.96670409196281
 20
467.69067884306821
 30
0.0
 11
570.96670409196281
 21
426.39490419518091
 31
0.0
  0
LINE
  5
473E
  8
0
 10
563.96658212586954
 20
467.69067884306833
 30
0.0
 11
563.96658212586954
 21
426.39490419518091
 31
0.0
  0
LINE
  5
473F
  8
0
 10
563.96658212586954
 20
429.69067884306833
 30
0.0
 11
570.96670409196292
 21
429.69067884306838
 31
0.0
  0
ARC
  5
4740
  8
0
 10
564.96658212586954
 20
435.69067884306833
 30
0.0
 40
1.0
 50
180.0
 51
270.0
  0
LINE
  5
4741
  8
0
 10
564.96658212586954
 20
434.69067884306833
 30
0.0
 11
569.96670409196281
 21
434.69067884306833
 31
0.0
  0
ARC
  5
4742
  8
0
 10
569.96670409196281
 20
435.69067884306833
 30
0.0
 40
1.0
 50
270.0
 51
0.000000000000007
  0
ARC
  5
4743
  8
0
 10
571.96670409196304
 20
426.39490419518091
 30
0.0
 40
1.0
 50
180.0
 51
270.0
  0
ARC
  5
4744
  8
0
 10
562.96658212586954
 20
426.39490419518091
 30
0.0
 40
1.0
 50
270.0
 51
0.0
  0
LINE
  5
4745
  8
0
 10
525.46664310891617
 20
500.6905686022497
 30
0.0
 11
563.9354449059598
 21
500.69056860224958
 31
0.0
  0
LINE
  5
4746
  8
0
 10
524.96664310891617
 20
500.19056860224953
 30
0.0
 11
525.46664310891617
 21
500.6905686022497
 31
0.0
  0
ARC
  5
4747
  8
0
 10
562.99581743161332
 20
501.03276768093519
 30
0.0
 40
1.0
 50
270.0
 51
354.28871496804987
  0
ARC
  5
4748
  8
0
 10
571.93746878621926
 20
501.03276768093519
 30
0.0
 40
1.0
 50
185.7112850319501
 51
270.0
  0
LINE
  5
4749
  8
0
 10
574.46664310891629
 20
500.69056860224958
 30
0.0
 11
574.96664310891595
 21
500.1905686022497
 31
0.0
  0
LINE
  5
474A
  8
0
 10
564.9297356173538
 20
500.03276768093519
 30
0.0
 11
570.00355060047877
 21
500.03276768093519
 31
0.0
  0
LINE
  5
474B
  8
0
 10
570.99784131187278
 20
500.69056860224958
 30
0.0
 11
574.4666431089164
 21
500.69056860224958
 31
0.0
  0
LINE
  5
474C
  8
0
 10
564.87664468260004
 20
509.79008433716962
 30
0.0
 11
563.99085342015985
 21
500.93325194601528
 31
0.0
  0
LINE
  5
474D
  8
0
 10
570.94243279767215
 20
500.93325194601528
 30
0.0
 11
570.0566415352323
 21
509.7900843371695
 31
0.0
  0
ARC
  5
474E
  8
0
 10
569.06160554668554
 20
509.69056860224958
 30
0.0
 40
1.0
 50
5.7112850319510944
 51
90.0
  0
ARC
  5
474F
  8
0
 10
565.87168067114692
 20
509.69056860224958
 30
0.0
 40
1.0
 50
90.0
 51
174.28871496804879
  0
LINE
  5
4750
  8
0
 10
569.06160554668554
 20
510.69056860224953
 30
0.0
 11
565.87168067114692
 21
510.69056860224958
 31
0.0
  0
ARC
  5
4751
  8
0
 10
534.06160554668543
 20
542.02816886337075
 30
0.0
 40
1.0
 50
270.0
 51
354.28871496804891
  0
ARC
  5
4752
  8
0
 10
530.87168067114669
 20
542.02816886337075
 30
0.0
 40
1.0
 50
185.71128503195109
 51
270.0
  0
LINE
  5
4753
  8
0
 10
574.46664310891595
 20
551.02816886337087
 30
0.0
 11
535.99784131187255
 21
551.02816886337087
 31
0.0
  0
LINE
  5
4754
  8
0
 10
574.46664310891595
 20
683.02794838173349
 30
0.0
 11
536.87164310891615
 21
683.02794838173349
 31
0.0
  0
LINE
  5
4755
  8
0
 10
574.96664310891595
 20
682.52794838173338
 30
0.0
 11
574.96664310891617
 21
551.52816886337087
 31
0.0
  0
LINE
  5
4756
  8
0
 10
574.96664310891617
 20
682.52794838173338
 30
0.0
 11
574.46664310891595
 21
683.02794838173349
 31
0.0
  0
LINE
  5
4757
  8
0
 10
574.96664310891617
 20
551.52816886337087
 30
0.0
 11
574.46664310891595
 21
551.02816886337087
 31
0.0
  0
LINE
  5
4758
  8
0
 10
524.96664310891617
 20
682.52794838173338
 30
0.0
 11
524.96664310891617
 21
551.52816886337087
 31
0.0
  0
LINE
  5
4759
  8
0
 10
529.05664310891609
 20
683.92844838173335
 30
0.0
 11
529.87664310891614
 21
692.12744838173342
 31
0.0
  0
LINE
  5
475A
  8
0
 10
535.05664310891621
 20
692.12744838173342
 30
0.0
 11
535.87664310891614
 21
683.92844838173335
 31
0.0
  0
LINE
  5
475B
  8
0
 10
530.87164310891603
 20
693.02794838173349
 30
0.0
 11
534.06164310891597
 21
693.02794838173349
 31
0.0
  0
LINE
  5
475C
  8
0
 10
534.98964310891608
 20
692.39964838173341
 30
0.0
 11
535.05664310891621
 21
692.12744838173342
 31
0.0
  0
LINE
  5
475D
  8
0
 10
534.92464310891614
 20
692.53294838173349
 30
0.0
 11
534.98964310891608
 21
692.39964838173341
 31
0.0
  0
LINE
  5
475E
  8
0
 10
534.83864310891613
 20
692.65784838173329
 30
0.0
 11
534.92464310891614
 21
692.53294838173349
 31
0.0
  0
LINE
  5
475F
  8
0
 10
534.73264310891614
 20
692.76944838173335
 30
0.0
 11
534.83864310891613
 21
692.65784838173329
 31
0.0
  0
LINE
  5
4760
  8
0
 10
534.06164310891597
 20
693.02794838173349
 30
0.0
 11
534.19864310891603
 21
693.01854838173335
 31
0.0
  0
LINE
  5
4761
  8
0
 10
534.06164310891597
 20
693.02794838173349
 30
0.0
 11
534.06164310891597
 21
693.02794838173349
 31
0.0
  0
LINE
  5
4762
  8
0
 10
534.47864310891589
 20
692.93704838173346
 30
0.0
 11
534.61164310891604
 21
692.86344838173341
 31
0.0
  0
LINE
  5
4763
  8
0
 10
534.33964310891611
 20
692.98864838173336
 30
0.0
 11
534.47864310891589
 21
692.93704838173346
 31
0.0
  0
LINE
  5
4764
  8
0
 10
534.19864310891603
 20
693.01854838173335
 30
0.0
 11
534.33964310891611
 21
692.98864838173336
 31
0.0
  0
LINE
  5
4765
  8
0
 10
534.61164310891604
 20
692.86344838173341
 30
0.0
 11
534.73264310891614
 21
692.76944838173335
 31
0.0
  0
LINE
  5
4766
  8
0
 10
530.09464310891588
 20
692.65784838173329
 30
0.0
 11
530.2006431089161
 21
692.76944838173335
 31
0.0
  0
LINE
  5
4767
  8
0
 10
530.00864310891609
 20
692.53294838173349
 30
0.0
 11
530.09464310891588
 21
692.65784838173329
 31
0.0
  0
LINE
  5
4768
  8
0
 10
529.94364310891615
 20
692.39964838173341
 30
0.0
 11
530.00864310891609
 21
692.53294838173349
 31
0.0
  0
LINE
  5
4769
  8
0
 10
529.89964310891605
 20
692.26294838173351
 30
0.0
 11
529.94364310891615
 21
692.39964838173341
 31
0.0
  0
LINE
  5
476A
  8
0
 10
529.87664310891614
 20
692.12744838173342
 30
0.0
 11
529.89964310891605
 21
692.26294838173351
 31
0.0
  0
LINE
  5
476B
  8
0
 10
529.87664310891614
 20
692.12744838173342
 30
0.0
 11
529.87664310891614
 21
692.12744838173342
 31
0.0
  0
LINE
  5
476C
  8
0
 10
530.59464310891599
 20
692.98874838173344
 30
0.0
 11
530.87164310891603
 21
693.02794838173349
 31
0.0
  0
LINE
  5
476D
  8
0
 10
530.45464310891612
 20
692.93704838173346
 30
0.0
 11
530.59464310891599
 21
692.98874838173344
 31
0.0
  0
LINE
  5
476E
  8
0
 10
530.32264310891605
 20
692.86344838173341
 30
0.0
 11
530.45464310891612
 21
692.93704838173346
 31
0.0
  0
LINE
  5
476F
  8
0
 10
530.2006431089161
 20
692.76944838173335
 30
0.0
 11
530.32264310891605
 21
692.86344838173341
 31
0.0
  0
LINE
  5
4770
  8
0
 10
528.06164310891609
 20
683.02794838173349
 30
0.0
 11
525.46664310891606
 21
683.02794838173349
 31
0.0
  0
LINE
  5
4771
  8
0
 10
536.20064310891598
 20
683.2865483817335
 30
0.0
 11
536.32264310891605
 21
683.19244838173336
 31
0.0
  0
LINE
  5
4772
  8
0
 10
536.09464310891599
 20
683.39804838173347
 30
0.0
 11
536.20064310891598
 21
683.2865483817335
 31
0.0
  0
LINE
  5
4773
  8
0
 10
535.94364310891615
 20
683.65624838173335
 30
0.0
 11
536.00864310891598
 21
683.5229483817335
 31
0.0
  0
LINE
  5
4774
  8
0
 10
535.89964310891605
 20
683.79294838173337
 30
0.0
 11
535.94364310891615
 21
683.65624838173335
 31
0.0
  0
LINE
  5
4775
  8
0
 10
535.87664310891614
 20
683.92844838173335
 30
0.0
 11
535.89964310891605
 21
683.79294838173337
 31
0.0
  0
LINE
  5
4776
  8
0
 10
535.87664310891614
 20
683.92844838173335
 30
0.0
 11
535.87664310891614
 21
683.92844838173335
 31
0.0
  0
LINE
  5
4777
  8
0
 10
536.00864310891598
 20
683.5229483817335
 30
0.0
 11
536.09464310891599
 21
683.39804838173347
 31
0.0
  0
LINE
  5
4778
  8
0
 10
536.45464310891612
 20
683.11884838173341
 30
0.0
 11
536.59464310891599
 21
683.06724838173341
 31
0.0
  0
LINE
  5
4779
  8
0
 10
536.32264310891605
 20
683.19244838173336
 30
0.0
 11
536.45464310891612
 21
683.11884838173341
 31
0.0
  0
LINE
  5
477A
  8
0
 10
536.59464310891599
 20
683.06724838173341
 30
0.0
 11
536.87164310891603
 21
683.02794838173349
 31
0.0
  0
LINE
  5
477B
  8
0
 10
528.06164310891609
 20
683.02794838173349
 30
0.0
 11
528.19864310891603
 21
683.0374483817335
 31
0.0
  0
LINE
  5
477C
  8
0
 10
528.478643108916
 20
683.11884838173341
 30
0.0
 11
528.61164310891604
 21
683.19244838173336
 31
0.0
  0
LINE
  5
477D
  8
0
 10
528.33964310891611
 20
683.06724838173341
 30
0.0
 11
528.478643108916
 21
683.11884838173341
 31
0.0
  0
LINE
  5
477E
  8
0
 10
528.19864310891603
 20
683.0374483817335
 30
0.0
 11
528.33964310891611
 21
683.06724838173341
 31
0.0
  0
LINE
  5
477F
  8
0
 10
528.73264310891614
 20
683.2865483817335
 30
0.0
 11
528.83864310891613
 21
683.39804838173347
 31
0.0
  0
LINE
  5
4780
  8
0
 10
528.9896431089162
 20
683.65624838173335
 30
0.0
 11
529.05664310891609
 21
683.92844838173335
 31
0.0
  0
LINE
  5
4781
  8
0
 10
528.92464310891614
 20
683.5229483817335
 30
0.0
 11
528.9896431089162
 21
683.65624838173335
 31
0.0
  0
LINE
  5
4782
  8
0
 10
528.83864310891613
 20
683.39804838173347
 30
0.0
 11
528.92464310891614
 21
683.5229483817335
 31
0.0
  0
LINE
  5
4783
  8
0
 10
528.61164310891604
 20
683.19244838173336
 30
0.0
 11
528.73264310891614
 21
683.2865483817335
 31
0.0
  0
LINE
  5
4784
  8
0
 10
525.46664310891606
 20
683.02794838173349
 30
0.0
 11
524.96664310891617
 21
682.52794838173338
 31
0.0
  0
LINE
  5
4785
  8
0
 10
535.96670409196281
 20
683.02794838173349
 30
0.0
 11
535.96670409196281
 21
674.18573527232365
 31
0.0
  0
LINE
  5
4786
  8
0
 10
528.96658212586931
 20
683.02794838173349
 30
0.0
 11
528.96658212586931
 21
674.18573527232365
 31
0.0
  0
LINE
  5
4787
  8
0
 10
535.96670409196281
 20
584.02805862255218
 30
0.0
 11
535.96670409196281
 21
625.32383327043954
 31
0.0
  0
LINE
  5
4788
  8
0
 10
528.96658212586954
 20
584.02805862255229
 30
0.0
 11
528.96658212586954
 21
625.32383327043954
 31
0.0
  0
ARC
  5
4789
  8
0
 10
536.96670409196281
 20
625.32383327043954
 30
0.0
 40
1.0
 50
89.999999999999986
 51
180.0
  0
ARC
  5
478A
  8
0
 10
527.96658212586931
 20
625.32383327043954
 30
0.0
 40
1.0
 50
0.000000000000007
 51
89.999999999999986
  0
ARC
  5
478B
  8
0
 10
529.96658212586954
 20
616.02805862255207
 30
0.0
 40
1.0
 50
89.999999999999986
 51
180.0
  0
LINE
  5
478C
  8
0
 10
534.9667040919627
 20
617.02805862255218
 30
0.0
 11
529.96658212586954
 21
617.02805862255218
 31
0.0
  0
ARC
  5
478D
  8
0
 10
534.9667040919627
 20
616.02805862255207
 30
0.0
 40
1.0
 50
0.000000000000007
 51
89.999999999999986
  0
LINE
  5
478E
  8
0
 10
535.96670409196281
 20
622.02805862255218
 30
0.0
 11
528.96658212586942
 21
622.02805862255218
 31
0.0
  0
LINE
  5
478F
  8
0
 10
528.99085342015997
 20
550.785485519605
 30
0.0
 11
529.87664468260004
 21
541.92865312845106
 31
0.0
  0
LINE
  5
4790
  8
0
 10
535.05664153523219
 20
541.92865312845095
 30
0.0
 11
535.94243279767227
 21
550.785485519605
 31
0.0
  0
LINE
  5
4791
  8
0
 10
528.93544490595957
 20
551.02816886337087
 30
0.0
 11
525.46664310891583
 21
551.02816886337087
 31
0.0
  0
LINE
  5
4792
  8
0
 10
535.00355060047855
 20
551.68596978468531
 30
0.0
 11
529.92973561735357
 21
551.68596978468531
 31
0.0
  0
LINE
  5
4793
  8
0
 10
525.46664310891606
 20
551.02816886337087
 30
0.0
 11
524.96664310891617
 21
551.52816886337075
 31
0.0
  0
ARC
  5
4794
  8
0
 10
527.99581743161309
 20
550.68596978468531
 30
0.0
 40
1.0
 50
5.7112850319501218
 51
89.999999999999986
  0
ARC
  5
4795
  8
0
 10
536.93746878621891
 20
550.68596978468531
 30
0.0
 40
1.0
 50
89.999999999999986
 51
174.28871496804979
  0
LINE
  5
4796
  8
0
 10
530.87168067114669
 20
541.02816886337075
 30
0.0
 11
534.06160554668543
 21
541.02816886337075
 31
0.0
  0
LINE
  5
4798
  8
0
 10
1405.1307108257299
 20
591.95844042820693
 30
0.0
 11
1357.561830029131
 21
591.95844042820704
 31
0.0
  0
LINE
  5
4799
  8
0
 10
1405.1307108257299
 20
748.95844042820681
 30
0.0
 11
1357.561830029131
 21
748.95844042820681
 31
0.0
  0
LINE
  5
479A
  8
0
 10
1405.6307108257299
 20
748.45844042820681
 30
0.0
 11
1405.6307108257299
 21
592.45844042820693
 31
0.0
  0
LINE
  5
479B
  8
0
 10
1405.6307108257299
 20
748.45844042820681
 30
0.0
 11
1405.1307108257299
 21
748.95844042820681
 31
0.0
  0
LINE
  5
479C
  8
0
 10
1405.1307108257299
 20
591.95844042820693
 30
0.0
 11
1405.6307108257299
 21
592.45844042820681
 31
0.0
  0
LINE
  5
479D
  8
0
 10
1345.6307108257299
 20
748.45844042820681
 30
0.0
 11
1345.630710825729
 21
592.45844042820681
 31
0.0
  0
LINE
  5
479E
  8
0
 10
1356.6307108257299
 20
748.95844042820681
 30
0.0
 11
1356.6307108257299
 21
738.44146811890982
 31
0.0
  0
LINE
  5
479F
  8
0
 10
1349.6307108257299
 20
748.95844042820681
 30
0.0
 11
1349.6307108257299
 21
738.44146811890982
 31
0.0
  0
LINE
  5
47A0
  8
0
 10
1354.6995916223279
 20
762.95844042820681
 30
0.0
 11
1351.561830029131
 21
762.95844042820681
 31
0.0
  0
LINE
  5
47A1
  8
0
 10
1356.5643713293
 20
749.88719337821885
 30
0.0
 11
1355.6970503221589
 21
762.02968747819466
 31
0.0
  0
ARC
  5
47A2
  8
0
 10
1354.6995916223279
 20
761.9584404282067
 30
0.0
 40
1.0
 50
4.0856167799743774
 51
90.000000000000028
  0
ARC
  5
47A3
  8
0
 10
1357.561830029131
 20
749.9584404282067
 30
0.0
 40
1.0
 50
184.0856167799744
 51
270.0
  0
LINE
  5
47A4
  8
0
 10
1350.5643713293
 20
762.02968747819466
 30
0.0
 11
1349.6970503221589
 21
749.88719337821885
 31
0.0
  0
ARC
  5
47A5
  8
0
 10
1351.561830029131
 20
761.9584404282067
 30
0.0
 40
1.0
 50
90.000000000000028
 51
175.91438322002551
  0
LINE
  5
47A6
  8
0
 10
1346.1307108257299
 20
748.95844042820681
 30
0.0
 11
1345.6307108257299
 21
748.45844042820681
 31
0.0
  0
ARC
  5
47A7
  8
0
 10
1348.6995916223279
 20
749.9584404282067
 30
0.0
 40
1.0
 50
270.0
 51
355.91438322002563
  0
LINE
  5
47A8
  8
0
 10
1348.6995916223279
 20
748.95844042820681
 30
0.0
 11
1346.1307108257299
 21
748.95844042820681
 31
0.0
  0
LINE
  5
47A9
  8
0
 10
1349.6307108257299
 20
631.20849844092231
 30
0.0
 11
1349.6307108257299
 21
678.85963803299705
 31
0.0
  0
LINE
  5
47AA
  8
0
 10
1356.6307108257299
 20
631.20849844092231
 30
0.0
 11
1356.630710825729
 21
678.85963803299705
 31
0.0
  0
LINE
  5
47AB
  8
0
 10
1356.630710825729
 20
675.45844042820681
 30
0.0
 11
1349.6307108257311
 21
675.45844042820704
 31
0.0
  0
LINE
  5
47AC
  8
0
 10
1355.630710825729
 20
670.4584404282067
 30
0.0
 11
1350.6307108257299
 21
670.4584404282067
 31
0.0
  0
ARC
  5
47AD
  8
0
 10
1355.630710825729
 20
669.45844042820681
 30
0.0
 40
1.0
 50
0.0
 51
90.000000000000028
  0
ARC
  5
47AE
  8
0
 10
1357.630710825729
 20
678.85963803299705
 30
0.0
 40
1.0
 50
90.000000000000028
 51
180.0000000000002
  0
ARC
  5
47AF
  8
0
 10
1350.6307108257299
 20
669.45844042820681
 30
0.0
 40
1.0
 50
90.000000000000028
 51
180.0
  0
ARC
  5
47B0
  8
0
 10
1348.6307108257299
 20
678.85963803299705
 30
0.0
 40
1.0
 50
359.99999999999972
 51
90.000000000000028
  0
LINE
  5
47B1
  8
0
 10
1354.802431045377
 20
591.52341952235395
 30
0.0
 11
1351.458990606083
 21
591.52341952235395
 31
0.0
  0
LINE
  5
47B2
  8
0
 10
1354.6995916223279
 20
577.95844042820681
 30
0.0
 11
1351.561830029131
 21
577.95844042820681
 31
0.0
  0
ARC
  5
47B3
  8
0
 10
1354.6995916223279
 20
578.9584404282067
 30
0.0
 40
1.0
 50
270.0
 51
355.91438322002563
  0
LINE
  5
47B4
  8
0
 10
1356.5643713293
 20
591.02968747819466
 30
0.0
 11
1355.6970503221589
 21
578.88719337821885
 31
0.0
  0
ARC
  5
47B5
  8
0
 10
1357.561830029131
 20
590.95844042820693
 30
0.0
 40
1.0
 50
90.000000000000028
 51
175.91438322002551
  0
ARC
  5
47B6
  8
0
 10
1351.561830029131
 20
578.95844042820693
 30
0.0
 40
1.0
 50
184.0856167799744
 51
270.0
  0
LINE
  5
47B7
  8
0
 10
1350.5643713293
 20
578.88719337821897
 30
0.0
 11
1349.6970503221589
 21
591.02968747819466
 31
0.0
  0
LINE
  5
47B8
  8
0
 10
1346.1307108257299
 20
591.95844042820693
 30
0.0
 11
1345.630710825729
 21
592.45844042820704
 31
0.0
  0
ARC
  5
47B9
  8
0
 10
1348.6995916223279
 20
590.95844042820693
 30
0.0
 40
1.0
 50
4.0856167799743774
 51
90.000000000000028
  0
LINE
  5
47BA
  8
0
 10
1348.6995916223279
 20
591.95844042820704
 30
0.0
 11
1348.2337862945681
 21
591.95844042820681
 31
0.0
  0
LINE
  5
47BB
  8
0
 10
1348.6995916223279
 20
591.95844042820693
 30
0.0
 11
1346.1307108257299
 21
591.95844042820693
 31
0.0
  0
TEXT
  5
47F9
  8
0
 10
1361.0895746475489
 20
105.1884696678394
 30
0.0
 40
12.5
  1
100A
 41
0.8
 11
1361.0895746475489
 21
105.1884696678394
 31
0.0
 73
     1
  0
TEXT
  5
4956
  8
0
 10
403.85479156049399
 20
790.96751563083831
 30
0.0
 40
17.5
  1
TLV  CKF3MG/CKF3RG(50mmé╠é¦)ü@(│┤╩░î^)
  0
VIEWPORT
  5
41
 67
     1
  8
0
 10
117.358407079646
 20
73.5
 30
0.0
 40
234.716814159292
 41
147.0
 68
     1
 69
     1
1001
ACAD
1000
MVIEW
1002
{
1070
    16
1010
0.0
1020
0.0
1030
0.0
1010
0.0
1020
0.0
1030
1.0
1040
0.0
1040
147.0
1040
117.358407079646
1040
73.5
1040
50.0
1040
0.0
1040
0.0
1070
     0
1070
   100
1070
     1
1070
     1
1070
     0
1070
     0
1070
     0
1070
     0
1040
0.0
1040
0.0
1040
0.0
1040
1.0
1040
1.0
1040
0.0
1040
0.0
1070
     0
1002
{
1002
}
1002
}
  0
ENDSEC
  0
EOF
