  0
SECTION
  2
HEADER
  9
$ACADVER
  1
AC1009
  9
$INSBASE
 10
0.0
 20
0.0
 30
0.0
  9
$EXTMIN
 10
269.9340970138274
 20
104.889918331628
 30
-0.000000000000013
  9
$EXTMAX
 10
6135.3286887930381
 20
4230.1290994662913
 30
0.0000000000000023
  9
$LIMMIN
 10
0.0
 20
0.0
  9
$LIMMAX
 10
6300.0
 20
4455.0
  9
$ORTHOMODE
 70
     1
  9
$REGENMODE
 70
     1
  9
$FILLMODE
 70
     1
  9
$QTEXTMODE
 70
     0
  9
$MIRRTEXT
 70
     1
  9
$DRAGMODE
 70
     2
  9
$LTSCALE
 40
60.0
  9
$OSMODE
 70
     0
  9
$ATTMODE
 70
     1
  9
$TEXTSIZE
 40
60.0
  9
$TRACEWID
 40
0.05
  9
$TEXTSTYLE
  7
STANDARD
  9
$CLAYER
  8
0
  9
$CELTYPE
  6
BYLAYER
  9
$CECOLOR
 62
   256
  9
$DIMSCALE
 40
15.0
  9
$DIMASZ
 40
2.7999999999999989
  9
$DIMEXO
 40
1.0
  9
$DIMDLI
 40
5.0
  9
$DIMRND
 40
0.1
  9
$DIMDLE
 40
0.0
  9
$DIMEXE
 40
1.0
  9
$DIMTP
 40
0.0
  9
$DIMTM
 40
0.0
  9
$DIMTXT
 40
2.5
  9
$DIMCEN
 40
0.0
  9
$DIMTSZ
 40
0.0
  9
$DIMTOL
 70
     0
  9
$DIMLIM
 70
     0
  9
$DIMTIH
 70
     0
  9
$DIMTOH
 70
     0
  9
$DIMSE1
 70
     0
  9
$DIMSE2
 70
     0
  9
$DIMTAD
 70
     3
  9
$DIMZIN
 70
     8
  9
$DIMBLK
  1

  9
$DIMASO
 70
     1
  9
$DIMSHO
 70
     1
  9
$DIMPOST
  1

  9
$DIMAPOST
  1

  9
$DIMALT
 70
     0
  9
$DIMALTD
 70
     2
  9
$DIMALTF
 40
1.0
  9
$DIMLFAC
 40
1.0
  9
$DIMTOFL
 70
     1
  9
$DIMTVP
 40
0.0
  9
$DIMTIX
 70
     0
  9
$DIMSOXD
 70
     0
  9
$DIMSAH
 70
     1
  9
$DIMBLK1
  1
OPEN
  9
$DIMBLK2
  1
OPEN
  9
$DIMSTYLE
  2
DIM1
  9
$DIMCLRD
 70
     2
  9
$DIMCLRE
 70
     2
  9
$DIMCLRT
 70
     2
  9
$DIMTFAC
 40
0.7
  9
$DIMGAP
 40
0.85
  9
$LUNITS
 70
     2
  9
$LUPREC
 70
     4
  9
$SKETCHINC
 40
0.1
  9
$FILLETRAD
 40
0.0
  9
$AUNITS
 70
     0
  9
$AUPREC
 70
     0
  9
$MENU
  1
C:\ACADR13\WIN\SUPPORT\ACAD.mnc
  9
$ELEVATION
 40
0.0
  9
$PELEVATION
 40
0.0
  9
$THICKNESS
 40
0.0
  9
$LIMCHECK
 70
     0
  9
$BLIPMODE
 70
     0
  9
$CHAMFERA
 40
0.0
  9
$CHAMFERB
 40
0.0
  9
$SKPOLY
 70
     0
  9
$TDCREATE
 40
2454761.4825956482
  9
$TDUPDATE
 40
2455428.60083088
  9
$TDINDWG
 40
0.217790081
  9
$TDUSRTIMER
 40
0.2177898958
  9
$USRTIMER
 70
     1
  9
$ANGBASE
 50
0.0
  9
$ANGDIR
 70
     0
  9
$PDMODE
 70
     0
  9
$PDSIZE
 40
0.0
  9
$PLINEWID
 40
0.0
  9
$COORDS
 70
     0
  9
$SPLFRAME
 70
     0
  9
$SPLINETYPE
 70
     6
  9
$SPLINESEGS
 70
     8
  9
$ATTDIA
 70
     0
  9
$ATTREQ
 70
     1
  9
$HANDLING
 70
     1
  9
$HANDSEED
  5
5C2B
  9
$SURFTAB1
 70
     6
  9
$SURFTAB2
 70
     6
  9
$SURFTYPE
 70
     6
  9
$SURFU
 70
     6
  9
$SURFV
 70
     6
  9
$UCSNAME
  2

  9
$UCSORG
 10
0.0
 20
0.0
 30
0.0
  9
$UCSXDIR
 10
1.0
 20
0.0
 30
0.0
  9
$UCSYDIR
 10
0.0
 20
1.0
 30
0.0
  9
$PUCSNAME
  2

  9
$PUCSORG
 10
0.0
 20
0.0
 30
0.0
  9
$PUCSXDIR
 10
1.0
 20
0.0
 30
0.0
  9
$PUCSYDIR
 10
0.0
 20
1.0
 30
0.0
  9
$USERI1
 70
     0
  9
$USERI2
 70
     0
  9
$USERI3
 70
     0
  9
$USERI4
 70
     0
  9
$USERI5
 70
     0
  9
$USERR1
 40
0.0
  9
$USERR2
 40
0.0
  9
$USERR3
 40
0.0
  9
$USERR4
 40
0.0
  9
$USERR5
 40
0.0
  9
$WORLDVIEW
 70
     1
  9
$SHADEDGE
 70
     3
  9
$SHADEDIF
 70
    70
  9
$TILEMODE
 70
     1
  9
$MAXACTVP
 70
    16
  9
$PLIMCHECK
 70
     0
  9
$PEXTMIN
 10
1.0000000000000000E+020
 20
1.0000000000000000E+020
 30
1.0000000000000000E+020
  9
$PEXTMAX
 10
-1.0000000000000000E+020
 20
-1.0000000000000000E+020
 30
-1.0000000000000000E+020
  9
$PLIMMIN
 10
0.0
 20
0.0
  9
$PLIMMAX
 10
20.0
 20
147.0
  9
$UNITMODE
 70
     0
  9
$VISRETAIN
 70
     0
  9
$PLINEGEN
 70
     0
  9
$PSLTSCALE
 70
     1
  0
ENDSEC
  0
SECTION
  2
TABLES
  0
TABLE
  2
VPORT
 70
     1
  0
VPORT
  2
*ACTIVE
 70
     0
 10
0.0
 20
0.0
 11
1.0
 21
1.0
 12
3150.0
 22
2227.5
 13
0.0
 23
0.0
 14
1.0
 24
1.0
 15
0.0
 25
0.0
 16
0.0
 26
0.0
 36
1.0
 17
0.0
 27
0.0
 37
0.0
 40
4598.2914927859611
 41
1.3782668500687749
 42
50.0
 43
0.0
 44
0.0
 50
0.0
 51
0.0
 71
     0
 72
   100
 73
     1
 74
     1
 75
     0
 76
     0
 77
     0
 78
     0
  0
ENDTAB
  0
TABLE
  2
LTYPE
 70
     1
  0
LTYPE
  2
CONTINUOUS
 70
     0
  3
Solid line
 72
    65
 73
     0
 40
0.0
  0
ENDTAB
  0
TABLE
  2
LAYER
 70
     1
  0
LAYER
  2
0
 70
     0
 62
     7
  6
CONTINUOUS
  0
ENDTAB
  0
TABLE
  2
STYLE
 70
     3
  0
STYLE
  2
STANDARD
 70
     0
 40
0.0
 41
0.8
 50
0.0
 71
     0
 42
60.0
  3
simplex
  4
extfont
  0
STYLE
  2
PTSH
 70
     0
 40
0.0
 41
0.9
 50
0.0
 71
     0
 42
4.0
  3
SIMPLEX
  4
EXTFONT
  0
STYLE
  2
DIM
 70
     0
 40
0.0
 41
0.8
 50
0.0
 71
     0
 42
4.0
  3
simplex
  4
extfont
  0
ENDTAB
  0
TABLE
  2
VIEW
 70
     0
  0
ENDTAB
  0
TABLE
  2
UCS
 70
     0
  0
ENDTAB
  0
TABLE
  2
APPID
 70
     6
  0
APPID
  2
ACAD
 70
     0
  0
APPID
  2
ACAD_DSTYLE_DIMTEXT_FILL
 70
     0
  0
APPID
  2
ACAD_MLEADERVER
 70
     0
  0
APPID
  2
ACAD_EXEMPT_FROM_CAD_STANDARDS
 70
     0
  0
APPID
  2
ACADANNOTATIVE
 70
     0
  0
APPID
  2
ACAD_PSEXT
 70
     0
  0
ENDTAB
  0
TABLE
  2
DIMSTYLE
 70
     1
  0
DIMSTYLE
  2
DIM1
 70
     0
  3

  4

  5

  6
OPEN
  7
OPEN
 40
15.0
 41
2.7999999999999989
 42
1.0
 43
5.0
 44
1.0
 45
0.1
 46
0.0
 47
0.0
 48
0.0
140
2.5
141
0.0
142
0.0
143
1.0
144
1.0
145
0.0
146
0.7
147
0.85
 71
     0
 72
     0
 73
     0
 74
     0
 75
     0
 76
     0
 77
     3
 78
     8
170
     0
171
     2
172
     1
173
     1
174
     0
175
     0
176
     2
177
     2
178
     2
  0
ENDTAB
  0
ENDSEC
  0
SECTION
  2
BLOCKS
  0
BLOCK
  8
0
  2
$MODEL_SPACE
 70
     0
 10
0.0
 20
0.0
 30
0.0
  3
$MODEL_SPACE
  1

  0
ENDBLK
  5
3D
  8
0
  0
BLOCK
 67
     1
  8
0
  2
$PAPER_SPACE
 70
     0
 10
0.0
 20
0.0
 30
0.0
  3
$PAPER_SPACE
  1

  0
ENDBLK
  5
3B
 67
     1
  8
0
  0
BLOCK
  8
0
  2
_OPEN
 70
     0
 10
0.0
 20
0.0
 30
0.0
  3
_OPEN
  1
H1111.DWG
  0
LINE
  5
244A
  8
0
  6
BYBLOCK
 62
     0
 10
-1.0
 20
0.1666666666666666
 30
0.0
 11
0.0
 21
0.0
 31
0.0
  0
LINE
  5
244B
  8
0
  6
BYBLOCK
 62
     0
 10
0.0
 20
0.0
 30
0.0
 11
-1.0
 21
-0.1666666666666666
 31
0.0
  0
LINE
  5
244C
  8
0
  6
BYBLOCK
 62
     0
 10
0.0
 20
0.0
 30
0.0
 11
-1.0
 21
0.0
 31
0.0
  0
ENDBLK
  5
244D
  8
0
  0
ENDSEC
  0
SECTION
  2
ENTITIES
  0
TEXT
  5
2529
  8
0
  6
CONTINUOUS
 10
5697.0
 20
228.75
 30
0.0
 40
52.5
  1
DC3
 41
0.9
  7
PTSH
 72
     1
 11
5760.0
 21
255.0
 31
0.0
 73
     2
  0
POLYLINE
  5
2563
  8
0
 66
     1
 10
0.0
 20
0.0
 30
0.0
 70
     1
  0
VERTEX
  5
5C1E
  8
0
 10
270.0
 20
105.0
 30
0.0
  0
VERTEX
  5
5C1F
  8
0
 10
6135.0
 20
105.0
 30
0.0
  0
VERTEX
  5
5C20
  8
0
 10
6135.0
 20
4230.0
 30
0.0
  0
VERTEX
  5
5C21
  8
0
 10
270.0
 20
4230.0
 30
0.0
  0
SEQEND
  5
5C22
  8
0
  0
CIRCLE
  5
54F4
  8
0
 10
2961.8041593429662
 20
1792.959191670411
 30
0.0
 40
20.0
  0
LINE
  5
54F5
  8
0
 10
2691.801159342966
 20
2284.6852761743821
 30
0.0
 11
2691.801159342966
 21
2363.1052761743822
 31
0.0
  0
LINE
  5
54F6
  8
0
 10
3231.7961593429659
 20
2204.5152761743821
 30
0.0
 11
3231.7961593429659
 21
2364.8552761743822
 31
0.0
  0
LINE
  5
54F8
  8
0
 10
3006.4023655849219
 20
2274.6852761743821
 30
0.0
 11
2917.2059531010109
 21
2274.6852761743821
 31
0.0
  0
LINE
  5
54F9
  8
0
 10
3006.4023655849219
 20
2294.6852761743821
 30
0.0
 11
2917.2059531010109
 21
2294.6852761743821
 31
0.0
  0
LINE
  5
54FA
  8
0
 10
2214.4443467946212
 20
1438.918191670411
 30
0.0
 11
1840.135939010074
 21
1438.918191670411
 31
0.0
  0
LINE
  5
54FB
  8
0
 10
2292.2901429023482
 20
1333.918191670411
 30
0.0
 11
1762.290142902348
 21
1333.918191670411
 31
0.0
  0
LINE
  5
54FC
  8
0
 10
1762.290142902348
 20
1333.918191670411
 30
0.0
 11
1762.290142902348
 21
1375.918191670411
 31
0.0
  0
ARC
  5
54FD
  8
0
 10
1765.290142902347
 20
1375.918191670411
 30
0.0
 40
3.0
 50
90.0
 51
180.0
  0
LINE
  5
54FE
  8
0
 10
1765.290142902347
 20
1378.918191670411
 30
0.0
 11
2289.2901429023482
 21
1378.918191670411
 31
0.0
  0
LINE
  5
54FF
  8
0
 10
1807.5291429023471
 20
1378.918191670411
 30
0.0
 11
1807.5291429023471
 21
1378.918191670411
 31
0.0
  0
LINE
  5
5500
  8
0
 10
1807.5291429023471
 20
1378.918191670411
 30
0.0
 11
1808.288142902348
 21
1378.966191670411
 31
0.0
  0
LINE
  5
5501
  8
0
 10
1808.288142902348
 20
1378.966191670411
 30
0.0
 11
1809.063142902347
 21
1379.1171916704111
 31
0.0
  0
LINE
  5
5502
  8
0
 10
1809.063142902347
 20
1379.1171916704111
 30
0.0
 11
1809.8311429023479
 21
1379.3771916704111
 31
0.0
  0
LINE
  5
5503
  8
0
 10
1809.8311429023479
 20
1379.3771916704111
 30
0.0
 11
1810.570142902347
 21
1379.746191670411
 31
0.0
  0
LINE
  5
5504
  8
0
 10
1810.570142902347
 20
1379.746191670411
 30
0.0
 11
1811.259142902348
 21
1380.218191670411
 31
0.0
  0
LINE
  5
5505
  8
0
 10
1811.259142902348
 20
1380.218191670411
 30
0.0
 11
1811.875142902348
 21
1380.7811916704111
 31
0.0
  0
LINE
  5
5506
  8
0
 10
1811.875142902348
 20
1380.7811916704111
 30
0.0
 11
1812.402142902348
 21
1381.418191670411
 31
0.0
  0
LINE
  5
5507
  8
0
 10
1812.402142902348
 20
1381.418191670411
 30
0.0
 11
1812.830142902347
 21
1382.1071916704111
 31
0.0
  0
LINE
  5
5508
  8
0
 10
1812.830142902347
 20
1382.1071916704111
 30
0.0
 11
1813.3721429023481
 21
1383.555191670411
 31
0.0
  0
LINE
  5
5509
  8
0
 10
1813.3721429023481
 20
1383.555191670411
 30
0.0
 11
1826.290142902348
 21
1438.918191670411
 31
0.0
  0
LINE
  5
550A
  8
0
 10
1826.290142902348
 20
1438.918191670411
 30
0.0
 11
1826.290142902348
 21
1571.918191670411
 31
0.0
  0
LINE
  5
550C
  8
0
 10
2872.8041593429662
 20
2373.6852761743821
 30
0.0
 11
2691.799159342967
 21
2373.6852761743821
 31
0.0
  0
LINE
  5
550D
  8
0
 10
3231.8041593429662
 20
2373.6852761743821
 30
0.0
 11
3050.8041593429671
 21
2373.6852761743821
 31
0.0
  0
LINE
  5
550E
  8
0
 10
2506.7311593429658
 20
1711.9001916704119
 30
0.0
 11
2560.7281593429661
 21
1711.9001916704119
 31
0.0
  0
LINE
  5
550F
  8
0
 10
2560.7281593429661
 20
1711.9001916704119
 30
0.0
 11
2569.7281593429661
 21
1702.9001916704119
 31
0.0
  0
LINE
  5
5510
  8
0
 10
2569.7281593429661
 20
1702.9001916704119
 30
0.0
 11
2596.335159342967
 21
1702.9001916704119
 31
0.0
  0
LINE
  5
5511
  8
0
 10
2596.335159342967
 20
1702.9001916704119
 30
0.0
 11
2596.335159342967
 21
1711.9001916704119
 31
0.0
  0
LINE
  5
5512
  8
0
 10
2596.335159342967
 20
1711.9001916704119
 30
0.0
 11
2614.7281593429661
 21
1693.8971916704111
 31
0.0
  0
LINE
  5
5513
  8
0
 10
2614.7281593429661
 20
1693.8971916704111
 30
0.0
 11
2524.7311593429658
 21
1693.8971916704111
 31
0.0
  0
LINE
  5
5514
  8
0
 10
2524.7311593429658
 20
1693.8971916704111
 30
0.0
 11
2506.7311593429658
 21
1711.9001916704119
 31
0.0
  0
LINE
  5
5515
  8
0
 10
2961.8041593429662
 20
1772.959191670411
 30
0.0
 11
2961.8041593429662
 21
1772.959191670411
 31
0.0
  0
LINE
  5
5517
  8
0
 10
2661.8001593429672
 20
1834.4631916704111
 30
0.0
 11
2661.8001593429672
 21
1533.4551916704111
 31
0.0
  0
LINE
  5
5518
  8
0
 10
2661.8001593429672
 20
1784.8011916704111
 30
0.0
 11
2661.8001593429672
 21
1784.8011916704111
 31
0.0
  0
LINE
  5
5519
  8
0
 10
2661.8001593429672
 20
1784.8011916704111
 30
0.0
 11
2661.8381593429672
 21
1784.181191670411
 31
0.0
  0
LINE
  5
551A
  8
0
 10
2661.8381593429672
 20
1784.181191670411
 30
0.0
 11
2661.9591593429659
 21
1783.5501916704111
 31
0.0
  0
LINE
  5
551B
  8
0
 10
2661.9591593429659
 20
1783.5501916704111
 30
0.0
 11
2662.165159342966
 21
1782.9231916704109
 31
0.0
  0
LINE
  5
551C
  8
0
 10
2662.165159342966
 20
1782.9231916704109
 30
0.0
 11
2662.4591593429659
 21
1782.3191916704111
 31
0.0
  0
LINE
  5
551D
  8
0
 10
2662.4591593429659
 20
1782.3191916704111
 30
0.0
 11
2662.835159342967
 21
1781.755191670411
 31
0.0
  0
LINE
  5
551E
  8
0
 10
2662.835159342967
 20
1781.755191670411
 30
0.0
 11
2663.283159342966
 21
1781.246191670411
 31
0.0
  0
LINE
  5
551F
  8
0
 10
2663.283159342966
 20
1781.246191670411
 30
0.0
 11
2663.7911593429671
 21
1780.8071916704109
 31
0.0
  0
LINE
  5
5520
  8
0
 10
2663.7911593429671
 20
1780.8071916704109
 30
0.0
 11
2664.3431593429659
 21
1780.4461916704111
 31
0.0
  0
LINE
  5
5521
  8
0
 10
2664.3431593429659
 20
1780.4461916704111
 30
0.0
 11
2665.511159342966
 21
1779.9701916704109
 31
0.0
  0
LINE
  5
5522
  8
0
 10
2665.511159342966
 20
1779.9701916704109
 30
0.0
 11
2691.799159342966
 21
1772.959191670411
 31
0.0
  0
LINE
  5
5523
  8
0
 10
2691.799159342966
 20
1772.959191670411
 30
0.0
 11
2887.4738156063731
 21
1772.959191670411
 31
0.0
  0
LINE
  5
5524
  8
0
 10
3091.3041593429662
 20
1772.959191670411
 30
0.0
 11
3091.3041593429662
 21
1772.959191670411
 31
0.0
  0
LINE
  5
5525
  8
0
 10
3091.3041593429662
 20
1772.959191670411
 30
0.0
 11
3091.7341593429669
 21
1772.9911916704109
 31
0.0
  0
LINE
  5
5526
  8
0
 10
3091.7341593429669
 20
1772.9911916704109
 30
0.0
 11
3092.1841593429672
 21
1773.092191670411
 31
0.0
  0
LINE
  5
5527
  8
0
 10
3092.1841593429672
 20
1773.092191670411
 30
0.0
 11
3092.6241593429659
 21
1773.267191670411
 31
0.0
  0
LINE
  5
5528
  8
0
 10
3092.6241593429659
 20
1773.267191670411
 30
0.0
 11
3093.0441593429659
 21
1773.5181916704109
 31
0.0
  0
LINE
  5
5529
  8
0
 10
3093.0441593429659
 20
1773.5181916704109
 30
0.0
 11
3093.424159342966
 21
1773.8381916704111
 31
0.0
  0
LINE
  5
552A
  8
0
 10
3093.424159342966
 20
1773.8381916704111
 30
0.0
 11
3093.7441593429662
 21
1774.216191670411
 31
0.0
  0
LINE
  5
552B
  8
0
 10
3093.7441593429662
 20
1774.216191670411
 30
0.0
 11
3093.9941593429662
 21
1774.6361916704111
 31
0.0
  0
LINE
  5
552C
  8
0
 10
3093.9941593429662
 20
1774.6361916704111
 30
0.0
 11
3094.1641593429658
 21
1775.0781916704109
 31
0.0
  0
LINE
  5
552D
  8
0
 10
3094.1641593429658
 20
1775.0781916704109
 30
0.0
 11
3094.3041593429662
 21
1775.959191670411
 31
0.0
  0
LINE
  5
552E
  8
0
 10
3094.3041593429662
 20
1775.959191670411
 30
0.0
 11
3094.3041593429662
 21
1776.959191670411
 31
0.0
  0
LINE
  5
552F
  8
0
 10
3094.3041593429662
 20
1776.959191670411
 30
0.0
 11
3094.3041593429662
 21
1776.959191670411
 31
0.0
  0
LINE
  5
5530
  8
0
 10
3094.3041593429662
 20
1776.959191670411
 30
0.0
 11
3094.3241593429661
 21
1777.2491916704109
 31
0.0
  0
LINE
  5
5531
  8
0
 10
3094.3241593429661
 20
1777.2491916704109
 30
0.0
 11
3094.3841593429661
 21
1777.5471916704109
 31
0.0
  0
LINE
  5
5532
  8
0
 10
3094.3841593429661
 20
1777.5471916704109
 30
0.0
 11
3094.504159342966
 21
1777.842191670411
 31
0.0
  0
LINE
  5
5533
  8
0
 10
3094.504159342966
 20
1777.842191670411
 30
0.0
 11
3094.674159342966
 21
1778.122191670411
 31
0.0
  0
LINE
  5
5534
  8
0
 10
3094.674159342966
 20
1778.122191670411
 30
0.0
 11
3094.8841593429661
 21
1778.3741916704109
 31
0.0
  0
LINE
  5
5535
  8
0
 10
3094.8841593429661
 20
1778.3741916704109
 30
0.0
 11
3095.1341593429661
 21
1778.5871916704109
 31
0.0
  0
LINE
  5
5536
  8
0
 10
3095.1341593429661
 20
1778.5871916704109
 30
0.0
 11
3095.4141593429658
 21
1778.754191670411
 31
0.0
  0
LINE
  5
5537
  8
0
 10
3095.4141593429658
 20
1778.754191670411
 30
0.0
 11
3095.714159342966
 21
1778.871191670411
 31
0.0
  0
LINE
  5
5538
  8
0
 10
3095.714159342966
 20
1778.871191670411
 30
0.0
 11
3096.3041593429662
 21
1778.959191670411
 31
0.0
  0
LINE
  5
5539
  8
0
 10
3096.3041593429662
 20
1778.959191670411
 30
0.0
 11
3147.3041593429662
 21
1778.959191670411
 31
0.0
  0
LINE
  5
553A
  8
0
 10
3147.3041593429662
 20
1778.959191670411
 30
0.0
 11
3147.3041593429662
 21
1778.959191670411
 31
0.0
  0
LINE
  5
553B
  8
0
 10
3147.3041593429662
 20
1778.959191670411
 30
0.0
 11
3147.594159342967
 21
1778.938191670411
 31
0.0
  0
LINE
  5
553C
  8
0
 10
3147.594159342967
 20
1778.938191670411
 30
0.0
 11
3147.8841593429661
 21
1778.871191670411
 31
0.0
  0
LINE
  5
553D
  8
0
 10
3147.8841593429661
 20
1778.871191670411
 30
0.0
 11
3148.1841593429658
 21
1778.754191670411
 31
0.0
  0
LINE
  5
553E
  8
0
 10
3148.1841593429658
 20
1778.754191670411
 30
0.0
 11
3148.464159342966
 21
1778.5871916704109
 31
0.0
  0
LINE
  5
553F
  8
0
 10
3148.464159342966
 20
1778.5871916704109
 30
0.0
 11
3148.714159342966
 21
1778.3741916704109
 31
0.0
  0
LINE
  5
5540
  8
0
 10
3148.714159342966
 20
1778.3741916704109
 30
0.0
 11
3148.924159342966
 21
1778.122191670411
 31
0.0
  0
LINE
  5
5541
  8
0
 10
3148.924159342966
 20
1778.122191670411
 30
0.0
 11
3149.0941593429661
 21
1777.842191670411
 31
0.0
  0
LINE
  5
5542
  8
0
 10
3149.0941593429661
 20
1777.842191670411
 30
0.0
 11
3149.214159342966
 21
1777.5471916704109
 31
0.0
  0
LINE
  5
5543
  8
0
 10
3149.214159342966
 20
1777.5471916704109
 30
0.0
 11
3149.3041593429662
 21
1776.959191670411
 31
0.0
  0
LINE
  5
5544
  8
0
 10
3149.3041593429662
 20
1776.959191670411
 30
0.0
 11
3149.3041593429662
 21
1775.959191670411
 31
0.0
  0
LINE
  5
5545
  8
0
 10
3149.3041593429662
 20
1775.959191670411
 30
0.0
 11
3149.3041593429662
 21
1775.959191670411
 31
0.0
  0
LINE
  5
5546
  8
0
 10
3149.3041593429662
 20
1775.959191670411
 30
0.0
 11
3149.3341593429659
 21
1775.525191670411
 31
0.0
  0
LINE
  5
5547
  8
0
 10
3149.3341593429659
 20
1775.525191670411
 30
0.0
 11
3149.4341593429672
 21
1775.0781916704109
 31
0.0
  0
LINE
  5
5548
  8
0
 10
3149.4341593429672
 20
1775.0781916704109
 30
0.0
 11
3149.6041593429659
 21
1774.6361916704111
 31
0.0
  0
LINE
  5
5549
  8
0
 10
3149.6041593429659
 20
1774.6361916704111
 30
0.0
 11
3149.8541593429668
 21
1774.216191670411
 31
0.0
  0
LINE
  5
554A
  8
0
 10
3149.8541593429668
 20
1774.216191670411
 30
0.0
 11
3150.174159342966
 21
1773.8381916704111
 31
0.0
  0
LINE
  5
554B
  8
0
 10
3150.174159342966
 20
1773.8381916704111
 30
0.0
 11
3150.5541593429662
 21
1773.5181916704109
 31
0.0
  0
LINE
  5
554C
  8
0
 10
3150.5541593429662
 20
1773.5181916704109
 30
0.0
 11
3150.9741593429658
 21
1773.267191670411
 31
0.0
  0
LINE
  5
554D
  8
0
 10
3150.9741593429658
 20
1773.267191670411
 30
0.0
 11
3151.4141593429658
 21
1773.092191670411
 31
0.0
  0
LINE
  5
554E
  8
0
 10
3151.4141593429658
 20
1773.092191670411
 30
0.0
 11
3152.3041593429662
 21
1772.959191670411
 31
0.0
  0
LINE
  5
554F
  8
0
 10
3036.1345030795592
 20
1772.959191670411
 30
0.0
 11
3231.8041593429662
 21
1772.959191670411
 31
0.0
  0
LINE
  5
5550
  8
0
 10
3231.8041593429662
 20
1772.959191670411
 30
0.0
 11
3258.0841593429659
 21
1779.9701916704109
 31
0.0
  0
LINE
  5
5551
  8
0
 10
3258.0841593429659
 20
1779.9701916704109
 30
0.0
 11
3258.0841593429659
 21
1779.9701916704109
 31
0.0
  0
LINE
  5
5552
  8
0
 10
3258.0841593429659
 20
1779.9701916704109
 30
0.0
 11
3258.674159342966
 21
1780.1671916704111
 31
0.0
  0
LINE
  5
5553
  8
0
 10
3258.674159342966
 20
1780.1671916704111
 30
0.0
 11
3259.254159342966
 21
1780.4461916704111
 31
0.0
  0
LINE
  5
5554
  8
0
 10
3259.254159342966
 20
1780.4461916704111
 30
0.0
 11
3259.8041593429662
 21
1780.8071916704109
 31
0.0
  0
LINE
  5
5555
  8
0
 10
3259.8041593429662
 20
1780.8071916704109
 30
0.0
 11
3260.3141593429659
 21
1781.246191670411
 31
0.0
  0
LINE
  5
5556
  8
0
 10
3260.3141593429659
 20
1781.246191670411
 30
0.0
 11
3260.7641593429662
 21
1781.755191670411
 31
0.0
  0
LINE
  5
5557
  8
0
 10
3260.7641593429662
 20
1781.755191670411
 30
0.0
 11
3261.1441593429658
 21
1782.3191916704111
 31
0.0
  0
LINE
  5
5558
  8
0
 10
3261.1441593429658
 20
1782.3191916704111
 30
0.0
 11
3261.4341593429672
 21
1782.9231916704109
 31
0.0
  0
LINE
  5
5559
  8
0
 10
3261.4341593429672
 20
1782.9231916704109
 30
0.0
 11
3261.6441593429658
 21
1783.5501916704111
 31
0.0
  0
LINE
  5
555A
  8
0
 10
3261.6441593429658
 20
1783.5501916704111
 30
0.0
 11
3261.8041593429662
 21
1784.8011916704111
 31
0.0
  0
LINE
  5
555B
  8
0
 10
3261.8041593429662
 20
1533.459191670411
 30
0.0
 11
3261.8041593429662
 21
1834.459191670411
 31
0.0
  0
LINE
  5
555C
  8
0
 10
3261.8041593429662
 20
1834.459191670411
 30
0.0
 11
3263.8041593429662
 21
1836.459191670411
 31
0.0
  0
LINE
  5
555D
  8
0
 10
3263.8041593429662
 20
1836.459191670411
 30
0.0
 11
3289.8041593429662
 21
1836.459191670411
 31
0.0
  0
LINE
  5
555E
  8
0
 10
3289.8041593429662
 20
1836.459191670411
 30
0.0
 11
3289.8041593429662
 21
1683.959191670411
 31
0.0
  0
LINE
  5
555F
  8
0
 10
3289.8041593429662
 20
1683.959191670411
 30
0.0
 11
3289.8041593429662
 21
1531.459191670411
 31
0.0
  0
LINE
  5
5560
  8
0
 10
3289.8041593429662
 20
1531.459191670411
 30
0.0
 11
3263.8041593429662
 21
1531.459191670411
 31
0.0
  0
LINE
  5
5561
  8
0
 10
3263.8041593429662
 20
1531.459191670411
 30
0.0
 11
3261.8041593429662
 21
1533.459191670411
 31
0.0
  0
LINE
  5
5562
  8
0
 10
3261.8041593429662
 20
1583.1181916704111
 30
0.0
 11
3261.8041593429662
 21
1583.1181916704111
 31
0.0
  0
LINE
  5
5563
  8
0
 10
3261.8041593429662
 20
1583.1181916704111
 30
0.0
 11
3261.7641593429662
 21
1583.738191670411
 31
0.0
  0
LINE
  5
5564
  8
0
 10
3261.7641593429662
 20
1583.738191670411
 30
0.0
 11
3261.6441593429658
 21
1584.3691916704111
 31
0.0
  0
LINE
  5
5565
  8
0
 10
3261.6441593429658
 20
1584.3691916704111
 30
0.0
 11
3261.4341593429672
 21
1584.995191670411
 31
0.0
  0
LINE
  5
5566
  8
0
 10
3261.4341593429672
 20
1584.995191670411
 30
0.0
 11
3261.1441593429658
 21
1585.600191670411
 31
0.0
  0
LINE
  5
5567
  8
0
 10
3261.1441593429658
 20
1585.600191670411
 30
0.0
 11
3260.7641593429662
 21
1586.1641916704109
 31
0.0
  0
LINE
  5
5568
  8
0
 10
3260.7641593429662
 20
1586.1641916704109
 30
0.0
 11
3260.3141593429659
 21
1586.6721916704109
 31
0.0
  0
LINE
  5
5569
  8
0
 10
3260.3141593429659
 20
1586.6721916704109
 30
0.0
 11
3259.8041593429662
 21
1587.112191670411
 31
0.0
  0
LINE
  5
556A
  8
0
 10
3259.8041593429662
 20
1587.112191670411
 30
0.0
 11
3259.254159342966
 21
1587.4731916704111
 31
0.0
  0
LINE
  5
556B
  8
0
 10
3259.254159342966
 20
1587.4731916704111
 30
0.0
 11
3258.0841593429659
 21
1587.949191670411
 31
0.0
  0
LINE
  5
556C
  8
0
 10
3258.0841593429659
 20
1587.949191670411
 30
0.0
 11
3231.8041593429662
 21
1594.959191670411
 31
0.0
  0
LINE
  5
556D
  8
0
 10
3231.8041593429662
 20
1594.959191670411
 30
0.0
 11
3193.8041593429662
 21
1594.959191670411
 31
0.0
  0
LINE
  5
556E
  8
0
 10
3162.8041593429662
 20
1571.959191670411
 30
0.0
 11
3162.8041593429662
 21
1438.959191670411
 31
0.0
  0
LINE
  5
556F
  8
0
 10
3162.8041593429662
 20
1438.959191670411
 30
0.0
 11
3175.714159342966
 21
1383.5961916704109
 31
0.0
  0
LINE
  5
5570
  8
0
 10
2699.799159342966
 20
1378.959191670411
 30
0.0
 11
3223.8041593429671
 21
1378.959191670411
 31
0.0
  0
LINE
  5
5571
  8
0
 10
3226.8041593429671
 20
1375.959191670411
 30
0.0
 11
3226.8041593429671
 21
1333.959191670411
 31
0.0
  0
ARC
  5
5572
  8
0
 10
3223.8041593429671
 20
1375.959191670411
 30
0.0
 40
3.0
 50
0.0
 51
90.0
  0
LINE
  5
5573
  8
0
 10
3226.8041593429671
 20
1333.959191670411
 30
0.0
 11
2696.799159342966
 21
1333.959191670411
 31
0.0
  0
LINE
  5
5574
  8
0
 10
2696.799159342966
 20
1333.959191670411
 30
0.0
 11
2696.799159342966
 21
1375.959191670411
 31
0.0
  0
ARC
  5
5575
  8
0
 10
2699.799159342966
 20
1375.959191670411
 30
0.0
 40
3.0
 50
90.0
 51
180.0
  0
LINE
  5
5576
  8
0
 10
2747.8811593429668
 20
1383.5961916704109
 30
0.0
 11
2760.799159342966
 21
1438.959191670411
 31
0.0
  0
LINE
  5
5577
  8
0
 10
2760.799159342966
 20
1438.959191670411
 30
0.0
 11
2760.799159342966
 21
1564.959191670411
 31
0.0
  0
LINE
  5
5578
  8
0
 10
2730.799159342967
 20
1594.959191670411
 30
0.0
 11
2691.799159342966
 21
1594.959191670411
 31
0.0
  0
LINE
  5
5579
  8
0
 10
2691.799159342966
 20
1594.959191670411
 30
0.0
 11
2665.511159342966
 21
1587.949191670411
 31
0.0
  0
LINE
  5
557A
  8
0
 10
2665.511159342966
 20
1587.949191670411
 30
0.0
 11
2665.511159342966
 21
1587.949191670411
 31
0.0
  0
LINE
  5
557B
  8
0
 10
2665.511159342966
 20
1587.949191670411
 30
0.0
 11
2664.9221593429661
 21
1587.752191670412
 31
0.0
  0
LINE
  5
557C
  8
0
 10
2664.9221593429661
 20
1587.752191670412
 30
0.0
 11
2664.3431593429659
 21
1587.4731916704111
 31
0.0
  0
LINE
  5
557D
  8
0
 10
2664.3431593429659
 20
1587.4731916704111
 30
0.0
 11
2663.7911593429671
 21
1587.112191670411
 31
0.0
  0
LINE
  5
557E
  8
0
 10
2663.7911593429671
 20
1587.112191670411
 30
0.0
 11
2663.283159342966
 21
1586.6731916704109
 31
0.0
  0
LINE
  5
557F
  8
0
 10
2663.283159342966
 20
1586.6731916704109
 30
0.0
 11
2662.8341593429659
 21
1586.1641916704109
 31
0.0
  0
LINE
  5
5580
  8
0
 10
2662.8341593429659
 20
1586.1641916704109
 30
0.0
 11
2662.4591593429659
 21
1585.600191670411
 31
0.0
  0
LINE
  5
5581
  8
0
 10
2662.4591593429659
 20
1585.600191670411
 30
0.0
 11
2662.165159342966
 21
1584.995191670411
 31
0.0
  0
LINE
  5
5582
  8
0
 10
2662.165159342966
 20
1584.995191670411
 30
0.0
 11
2661.9581593429662
 21
1584.3691916704111
 31
0.0
  0
LINE
  5
5583
  8
0
 10
2661.9581593429662
 20
1584.3691916704111
 30
0.0
 11
2661.799159342966
 21
1583.1181916704111
 31
0.0
  0
ARC
  5
5584
  8
0
 10
2961.8041593429639
 20
1571.959191670411
 30
0.0
 40
201.0
 50
0.0
 51
180.0
  0
ARC
  5
5585
  8
0
 10
2729.799159342966
 20
1563.959191670411
 30
0.0
 40
31.0
 50
0.0
 51
90.0
  0
ARC
  5
5586
  8
0
 10
3193.8041593429662
 20
1563.959191670411
 30
0.0
 40
31.0
 50
90.0
 51
180.0
  0
LINE
  5
5587
  8
0
 10
2760.8041593429639
 20
1571.959191670411
 30
0.0
 11
2760.799159342966
 21
1564.959191670411
 31
0.0
  0
LINE
  5
5588
  8
0
 10
2661.8041593429662
 20
1834.459191670411
 30
0.0
 11
2659.8041593429671
 21
1836.459191670411
 31
0.0
  0
LINE
  5
5589
  8
0
 10
2659.8041593429671
 20
1836.459191670411
 30
0.0
 11
2633.8041593429662
 21
1836.459191670411
 31
0.0
  0
LINE
  5
558A
  8
0
 10
2633.8041593429662
 20
1836.459191670411
 30
0.0
 11
2633.8041593429662
 21
1683.959191670411
 31
0.0
  0
LINE
  5
558B
  8
0
 10
2633.8041593429662
 20
1683.959191670411
 30
0.0
 11
2633.8041593429671
 21
1531.459191670411
 31
0.0
  0
LINE
  5
558C
  8
0
 10
2633.8041593429671
 20
1531.459191670411
 30
0.0
 11
2659.8041593429671
 21
1531.459191670411
 31
0.0
  0
LINE
  5
558D
  8
0
 10
2659.8041593429671
 20
1531.459191670411
 30
0.0
 11
2661.8041593429662
 21
1533.459191670411
 31
0.0
  0
ARC
  5
558E
  8
0
 10
3181.5572947334658
 20
1384.959191670411
 30
0.0
 40
6.0
 50
193.12613753611609
 51
270.0
  0
ARC
  5
558F
  8
0
 10
2742.0510239524669
 20
1384.959191670411
 30
0.0
 40
6.0
 50
270.0
 51
346.87386246388388
  0
LINE
  5
5590
  8
0
 10
2931.8041593429662
 20
769.95919167040995
 30
0.0
 11
2927.6391593429662
 21
744.96919167041005
 31
0.0
  0
LINE
  5
5591
  8
0
 10
2891.8041593429671
 20
739.95919167041154
 30
0.0
 11
2891.8041593429662
 21
721.9591916704112
 31
0.0
  0
LINE
  5
5593
  8
0
 10
2891.8041593429662
 20
721.9591916704112
 30
0.0
 11
3031.8041593429662
 21
721.9591916704112
 31
0.0
  0
LINE
  5
5594
  8
0
 10
3031.8041593429662
 20
721.9591916704112
 30
0.0
 11
3031.8041593429662
 21
739.95919167041166
 31
0.0
  0
LINE
  5
5597
  8
0
 10
2995.9681593429659
 20
744.96919167041005
 30
0.0
 11
2991.8041593429671
 21
769.95919167040995
 31
0.0
  0
LINE
  5
5598
  8
0
 10
2700.8041593429671
 20
1283.959191670411
 30
0.0
 11
3222.8051593429659
 21
1283.959191670411
 31
0.0
  0
ARC
  5
5599
  8
0
 10
3222.8051593429659
 20
1287.959191670411
 30
0.0
 40
4.0
 50
270.0
 51
0.0
  0
LINE
  5
559A
  8
0
 10
3226.8051593429659
 20
1287.959191670411
 30
0.0
 11
3226.8051593429659
 21
1333.959191670411
 31
0.0
  0
LINE
  5
559B
  8
0
 10
3226.8051593429659
 20
1333.959191670411
 30
0.0
 11
3156.8041593429662
 21
1333.959191670411
 31
0.0
  0
LINE
  5
559C
  8
0
 10
2766.8041593429662
 20
1333.959191670411
 30
0.0
 11
2696.8041593429662
 21
1333.959191670411
 31
0.0
  0
LINE
  5
559D
  8
0
 10
2696.8041593429662
 20
1333.959191670411
 30
0.0
 11
2696.8041593429662
 21
1287.959191670411
 31
0.0
  0
ARC
  5
559E
  8
0
 10
2700.8041593429671
 20
1287.959191670411
 30
0.0
 40
4.0
 50
180.0
 51
270.0
  0
LINE
  5
559F
  8
0
 10
2931.8041593429662
 20
807.36919167041128
 30
0.0
 11
2931.8041593429662
 21
769.95919167040768
 31
0.0
  0
LINE
  5
55A0
  8
0
 10
2991.8041593429671
 20
807.76700236505576
 30
0.0
 11
2991.8041593429671
 21
769.9591916704079
 31
0.0
  0
ARC
  5
55A1
  8
0
 10
2961.8041593429662
 20
963.9591916704112
 30
0.0
 40
144.0
 50
190.29098149402219
 51
349.70884111689389
  0
LINE
  5
55A2
  8
0
 10
2757.9972115497112
 20
1277.3883704449429
 30
0.0
 11
2820.12066290863
 21
938.23397372883687
 31
0.0
  0
ARC
  5
55A3
  8
0
 10
2750.1259061922478
 20
1275.959191670411
 30
0.0
 40
8.0
 50
10.29098149402224
 51
59.923447510712052
  0
LINE
  5
55A4
  8
0
 10
2931.8041593429662
 20
772.95919167041109
 30
0.0
 11
2850.236186496249
 21
872.91751201282727
 31
0.0
  0
LINE
  5
55A5
  8
0
 10
2991.8041593429648
 20
772.95919167041097
 30
0.0
 11
3073.3721321896842
 21
872.91751201282671
 31
0.0
  0
ARC
  5
55A6
  8
0
 10
3011.8041593429662
 20
807.76700236505576
 30
0.0
 40
20.0
 50
107.7508271819259
 51
180.0
  0
ARC
  5
55A7
  8
0
 10
2911.8041593429662
 20
807.76700236505576
 30
0.0
 40
20.0
 50
0.0
 51
72.249172818049303
  0
LINE
  5
55A8
  8
0
 10
3165.6120867918298
 20
1277.3877394523961
 30
0.0
 11
3103.4875761307521
 21
938.23353507357365
 31
0.0
  0
LINE
  5
55A9
  8
0
 10
2715.8801593429662
 20
1264.959191670411
 30
0.0
 11
2750.821159342966
 21
1264.959191670411
 31
0.0
  0
ARC
  5
55AA
  8
0
 10
2733.350159342966
 20
1302.3603006467331
 30
0.0
 40
36.978084857321768
 50
253.67984776578399
 51
286.32015223421598
  0
LINE
  5
55AB
  8
0
 10
2743.7271593429659
 20
1257.959191670411
 30
0.0
 11
2722.9751593429651
 21
1257.959191670411
 31
0.0
  0
LINE
  5
55AC
  8
0
 10
2721.3511593429662
 20
1259.583191670411
 30
0.0
 11
2745.3511593429662
 21
1259.583191670411
 31
0.0
  0
LINE
  5
55AD
  8
0
 10
2712.5661593429659
 20
1283.959191670411
 30
0.0
 11
2712.5661593429659
 21
1266.872191670411
 31
0.0
  0
LINE
  5
55AE
  8
0
 10
2722.9591593429659
 20
1266.872191670411
 30
0.0
 11
2722.9591593429659
 21
1283.959191670411
 31
0.0
  0
LINE
  5
55AF
  8
0
 10
2718.8841593429661
 20
1265.4461916704111
 30
0.0
 11
2717.763159342966
 21
1265.382191670411
 31
0.0
  0
LINE
  5
55B0
  8
0
 10
2712.5661593429659
 20
1266.872191670411
 30
0.0
 11
2715.8801593429662
 21
1264.959191670411
 31
0.0
  0
LINE
  5
55B1
  8
0
 10
2714.4851593429662
 20
1265.9461916704111
 30
0.0
 11
2712.5661593429659
 21
1266.872191670411
 31
0.0
  0
LINE
  5
55B2
  8
0
 10
2715.542159342966
 20
1265.6371916704111
 30
0.0
 11
2714.4851593429662
 21
1265.9461916704111
 31
0.0
  0
LINE
  5
55B3
  8
0
 10
2716.6421593429659
 20
1265.4461916704111
 30
0.0
 11
2715.542159342966
 21
1265.6371916704111
 31
0.0
  0
LINE
  5
55B4
  8
0
 10
2717.763159342966
 20
1265.382191670411
 30
0.0
 11
2716.6421593429659
 21
1265.4461916704111
 31
0.0
  0
LINE
  5
55B5
  8
0
 10
2721.3511593429662
 20
1259.583191670411
 30
0.0
 11
2721.3511593429662
 21
1264.959191670411
 31
0.0
  0
LINE
  5
55B6
  8
0
 10
2722.9751593429651
 20
1257.959191670411
 30
0.0
 11
2722.9751593429651
 21
1264.959191670411
 31
0.0
  0
LINE
  5
55B7
  8
0
 10
2719.9831593429649
 20
1265.6371916704111
 30
0.0
 11
2718.8841593429661
 21
1265.4461916704111
 31
0.0
  0
LINE
  5
55B8
  8
0
 10
2721.040159342966
 20
1265.9461916704111
 30
0.0
 11
2719.9831593429649
 21
1265.6371916704111
 31
0.0
  0
LINE
  5
55B9
  8
0
 10
2722.0371593429659
 20
1266.363191670411
 30
0.0
 11
2721.040159342966
 21
1265.9461916704111
 31
0.0
  0
LINE
  5
55BA
  8
0
 10
2722.9591593429659
 20
1266.872191670411
 30
0.0
 11
2722.0371593429659
 21
1266.363191670411
 31
0.0
  0
LINE
  5
55BB
  8
0
 10
2722.9751593429651
 20
1257.959191670411
 30
0.0
 11
2721.3511593429662
 21
1259.583191670411
 31
0.0
  0
LINE
  5
55BC
  8
0
 10
2750.821159342966
 20
1264.959191670411
 30
0.0
 11
2754.1351593429649
 21
1266.872191670411
 31
0.0
  0
ARC
  5
55BD
  8
0
 10
2748.9381593429648
 20
1275.1891092098399
 30
0.0
 40
9.8071365014292677
 50
237.99993496086921
 51
302.00006503913079
  0
LINE
  5
55BE
  8
0
 10
2743.7411593429651
 20
1266.872191670411
 30
0.0
 11
2743.7411593429651
 21
1283.959191670411
 31
0.0
  0
LINE
  5
55BF
  8
0
 10
2745.3511593429662
 20
1264.959191670411
 30
0.0
 11
2745.3511593429662
 21
1259.583191670411
 31
0.0
  0
LINE
  5
55C0
  8
0
 10
2743.7271593429659
 20
1257.959191670411
 30
0.0
 11
2743.7271593429659
 21
1264.959191670411
 31
0.0
  0
LINE
  5
55C1
  8
0
 10
2745.3511593429662
 20
1259.583191670411
 30
0.0
 11
2743.7271593429659
 21
1257.959191670411
 31
0.0
  0
LINE
  5
55C2
  8
0
 10
2754.1351593429649
 20
1266.872191670411
 30
0.0
 11
2754.1351593429649
 21
1283.959191670411
 31
0.0
  0
LINE
  5
55C3
  8
0
 10
2743.7271593429659
 20
1383.2711916704111
 30
0.0
 11
2722.9751593429651
 21
1383.2711916704111
 31
0.0
  0
LINE
  5
55C4
  8
0
 10
2721.3511593429662
 20
1381.6471916704111
 30
0.0
 11
2745.3511593429662
 21
1381.6471916704111
 31
0.0
  0
LINE
  5
55C5
  8
0
 10
2721.3511593429662
 20
1381.6471916704111
 30
0.0
 11
2721.3511593429662
 21
1378.959191670411
 31
0.0
  0
LINE
  5
55C6
  8
0
 10
2722.9751593429651
 20
1383.2711916704111
 30
0.0
 11
2722.9751593429651
 21
1378.959191670411
 31
0.0
  0
LINE
  5
55C7
  8
0
 10
2722.9751593429651
 20
1383.2711916704111
 30
0.0
 11
2721.3511593429662
 21
1381.6471916704111
 31
0.0
  0
LINE
  5
55C8
  8
0
 10
2745.3511593429662
 20
1378.959191670411
 30
0.0
 11
2745.3511593429662
 21
1381.6471916704111
 31
0.0
  0
LINE
  5
55C9
  8
0
 10
2743.7271593429659
 20
1383.2711916704111
 30
0.0
 11
2743.7271593429659
 21
1378.959191670411
 31
0.0
  0
LINE
  5
55CA
  8
0
 10
2745.3511593429662
 20
1381.6471916704111
 30
0.0
 11
2743.7271593429659
 21
1383.2711916704111
 31
0.0
  0
LINE
  5
55CB
  8
0
 10
2777.0901593429671
 20
1264.959191670411
 30
0.0
 11
2812.031159342966
 21
1264.959191670411
 31
0.0
  0
ARC
  5
55CC
  8
0
 10
2794.560159342966
 20
1302.3603006467331
 30
0.0
 40
36.978084857321768
 50
253.67984776578399
 51
286.32015223421598
  0
LINE
  5
55CD
  8
0
 10
2804.937159342966
 20
1257.959191670411
 30
0.0
 11
2784.185159342966
 21
1257.959191670411
 31
0.0
  0
LINE
  5
55CE
  8
0
 10
2782.5611593429662
 20
1259.583191670411
 30
0.0
 11
2806.5611593429662
 21
1259.583191670411
 31
0.0
  0
LINE
  5
55CF
  8
0
 10
2773.7761593429659
 20
1283.959191670411
 30
0.0
 11
2773.7761593429659
 21
1266.872191670411
 31
0.0
  0
LINE
  5
55D0
  8
0
 10
2784.1691593429659
 20
1266.872191670411
 30
0.0
 11
2784.1691593429659
 21
1283.959191670411
 31
0.0
  0
LINE
  5
55D1
  8
0
 10
2780.0941593429661
 20
1265.4461916704111
 30
0.0
 11
2778.973159342966
 21
1265.382191670411
 31
0.0
  0
LINE
  5
55D2
  8
0
 10
2773.7761593429659
 20
1266.872191670411
 30
0.0
 11
2777.0901593429671
 21
1264.959191670411
 31
0.0
  0
LINE
  5
55D3
  8
0
 10
2775.6951593429658
 20
1265.9461916704111
 30
0.0
 11
2773.7761593429659
 21
1266.872191670411
 31
0.0
  0
LINE
  5
55D4
  8
0
 10
2776.752159342966
 20
1265.6371916704111
 30
0.0
 11
2775.6951593429658
 21
1265.9461916704111
 31
0.0
  0
LINE
  5
55D5
  8
0
 10
2777.8521593429659
 20
1265.4461916704111
 30
0.0
 11
2776.752159342966
 21
1265.6371916704111
 31
0.0
  0
LINE
  5
55D6
  8
0
 10
2778.973159342966
 20
1265.382191670411
 30
0.0
 11
2777.8521593429659
 21
1265.4461916704111
 31
0.0
  0
LINE
  5
55D7
  8
0
 10
2782.5611593429662
 20
1259.583191670411
 30
0.0
 11
2782.5611593429662
 21
1264.959191670411
 31
0.0
  0
LINE
  5
55D8
  8
0
 10
2784.185159342966
 20
1257.959191670411
 30
0.0
 11
2784.185159342966
 21
1264.959191670411
 31
0.0
  0
LINE
  5
55D9
  8
0
 10
2781.1931593429658
 20
1265.6371916704111
 30
0.0
 11
2780.0941593429661
 21
1265.4461916704111
 31
0.0
  0
LINE
  5
55DA
  8
0
 10
2782.2501593429661
 20
1265.9461916704111
 30
0.0
 11
2781.1931593429658
 21
1265.6371916704111
 31
0.0
  0
LINE
  5
55DB
  8
0
 10
2783.2471593429659
 20
1266.363191670411
 30
0.0
 11
2782.2501593429661
 21
1265.9461916704111
 31
0.0
  0
LINE
  5
55DC
  8
0
 10
2784.1691593429659
 20
1266.872191670411
 30
0.0
 11
2783.2471593429659
 21
1266.363191670411
 31
0.0
  0
LINE
  5
55DD
  8
0
 10
2784.185159342966
 20
1257.959191670411
 30
0.0
 11
2782.5611593429662
 21
1259.583191670411
 31
0.0
  0
LINE
  5
55DE
  8
0
 10
2812.031159342966
 20
1264.959191670411
 30
0.0
 11
2815.3451593429668
 21
1266.872191670411
 31
0.0
  0
ARC
  5
55DF
  8
0
 10
2810.1481593429671
 20
1275.1891092098399
 30
0.0
 40
9.8071365014292677
 50
237.99993496086921
 51
302.00006503913079
  0
LINE
  5
55E0
  8
0
 10
2804.9511593429661
 20
1266.872191670411
 30
0.0
 11
2804.9511593429661
 21
1283.959191670411
 31
0.0
  0
LINE
  5
55E1
  8
0
 10
2806.5611593429662
 20
1264.959191670411
 30
0.0
 11
2806.5611593429662
 21
1259.583191670411
 31
0.0
  0
LINE
  5
55E2
  8
0
 10
2804.937159342966
 20
1257.959191670411
 30
0.0
 11
2804.937159342966
 21
1264.959191670411
 31
0.0
  0
LINE
  5
55E3
  8
0
 10
2806.5611593429662
 20
1259.583191670411
 30
0.0
 11
2804.937159342966
 21
1257.959191670411
 31
0.0
  0
LINE
  5
55E4
  8
0
 10
2815.3451593429668
 20
1266.872191670411
 30
0.0
 11
2815.3451593429668
 21
1283.959191670411
 31
0.0
  0
LINE
  5
55E5
  8
0
 10
2804.937159342966
 20
1383.2711916704111
 30
0.0
 11
2784.185159342966
 21
1383.2711916704111
 31
0.0
  0
LINE
  5
55E6
  8
0
 10
2782.5611593429662
 20
1381.6471916704111
 30
0.0
 11
2806.5611593429662
 21
1381.6471916704111
 31
0.0
  0
LINE
  5
55E7
  8
0
 10
2782.5611593429662
 20
1381.6471916704111
 30
0.0
 11
2782.5611593429662
 21
1378.959191670411
 31
0.0
  0
LINE
  5
55E8
  8
0
 10
2784.185159342966
 20
1383.2711916704111
 30
0.0
 11
2784.185159342966
 21
1378.959191670411
 31
0.0
  0
LINE
  5
55E9
  8
0
 10
2784.185159342966
 20
1383.2711916704111
 30
0.0
 11
2782.5611593429662
 21
1381.6471916704111
 31
0.0
  0
LINE
  5
55EA
  8
0
 10
2806.5611593429662
 20
1378.959191670411
 30
0.0
 11
2806.5611593429662
 21
1381.6471916704111
 31
0.0
  0
LINE
  5
55EB
  8
0
 10
2804.937159342966
 20
1383.2711916704111
 30
0.0
 11
2804.937159342966
 21
1378.959191670411
 31
0.0
  0
LINE
  5
55EC
  8
0
 10
2806.5611593429662
 20
1381.6471916704111
 30
0.0
 11
2804.937159342966
 21
1383.2711916704111
 31
0.0
  0
LINE
  5
55ED
  8
0
 10
2883.1101593429662
 20
1264.959191670411
 30
0.0
 11
2918.051159342966
 21
1264.959191670411
 31
0.0
  0
ARC
  5
55EE
  8
0
 10
2900.580159342966
 20
1302.3603006467331
 30
0.0
 40
36.978084857321768
 50
253.67984776578399
 51
286.32015223421598
  0
LINE
  5
55EF
  8
0
 10
2910.957159342966
 20
1257.9591916704121
 30
0.0
 11
2890.205159342966
 21
1257.9591916704121
 31
0.0
  0
LINE
  5
55F0
  8
0
 10
2888.5811593429662
 20
1259.5831916704119
 30
0.0
 11
2912.5811593429648
 21
1259.5831916704119
 31
0.0
  0
LINE
  5
55F1
  8
0
 10
2879.7961593429659
 20
1283.9591916704121
 30
0.0
 11
2879.7961593429659
 21
1266.872191670411
 31
0.0
  0
LINE
  5
55F2
  8
0
 10
2890.1891593429659
 20
1266.872191670411
 30
0.0
 11
2890.1891593429659
 21
1283.9591916704121
 31
0.0
  0
LINE
  5
55F3
  8
0
 10
2886.1141593429661
 20
1265.446191670412
 30
0.0
 11
2884.993159342966
 21
1265.382191670411
 31
0.0
  0
LINE
  5
55F4
  8
0
 10
2879.7961593429659
 20
1266.872191670411
 30
0.0
 11
2883.1101593429662
 21
1264.959191670411
 31
0.0
  0
LINE
  5
55F5
  8
0
 10
2881.7151593429649
 20
1265.946191670412
 30
0.0
 11
2879.7961593429659
 21
1266.872191670411
 31
0.0
  0
LINE
  5
55F6
  8
0
 10
2882.772159342966
 20
1265.6371916704111
 30
0.0
 11
2881.7151593429649
 21
1265.946191670412
 31
0.0
  0
LINE
  5
55F7
  8
0
 10
2883.8721593429659
 20
1265.446191670412
 30
0.0
 11
2882.772159342966
 21
1265.6371916704111
 31
0.0
  0
LINE
  5
55F8
  8
0
 10
2884.993159342966
 20
1265.382191670411
 30
0.0
 11
2883.8721593429659
 21
1265.446191670412
 31
0.0
  0
LINE
  5
55F9
  8
0
 10
2888.5811593429662
 20
1259.5831916704119
 30
0.0
 11
2888.5811593429662
 21
1264.959191670411
 31
0.0
  0
LINE
  5
55FA
  8
0
 10
2890.205159342966
 20
1257.9591916704121
 30
0.0
 11
2890.205159342966
 21
1264.959191670411
 31
0.0
  0
LINE
  5
55FB
  8
0
 10
2887.2131593429658
 20
1265.6371916704111
 30
0.0
 11
2886.1141593429661
 21
1265.446191670412
 31
0.0
  0
LINE
  5
55FC
  8
0
 10
2888.2701593429661
 20
1265.946191670412
 30
0.0
 11
2887.2131593429658
 21
1265.6371916704111
 31
0.0
  0
LINE
  5
55FD
  8
0
 10
2889.2671593429659
 20
1266.3631916704121
 30
0.0
 11
2888.2701593429661
 21
1265.946191670412
 31
0.0
  0
LINE
  5
55FE
  8
0
 10
2890.1891593429659
 20
1266.872191670411
 30
0.0
 11
2889.2671593429659
 21
1266.3631916704121
 31
0.0
  0
LINE
  5
55FF
  8
0
 10
2890.205159342966
 20
1257.9591916704121
 30
0.0
 11
2888.5811593429662
 21
1259.5831916704119
 31
0.0
  0
LINE
  5
5600
  8
0
 10
2918.051159342966
 20
1264.959191670411
 30
0.0
 11
2921.3651593429659
 21
1266.872191670411
 31
0.0
  0
ARC
  5
5601
  8
0
 10
2916.1681593429662
 20
1275.189109209841
 30
0.0
 40
9.8071365014292677
 50
237.99993496086921
 51
302.00006503913079
  0
LINE
  5
5602
  8
0
 10
2910.9711593429661
 20
1266.872191670411
 30
0.0
 11
2910.9711593429661
 21
1283.9591916704121
 31
0.0
  0
LINE
  5
5603
  8
0
 10
2912.5811593429648
 20
1264.959191670411
 30
0.0
 11
2912.5811593429648
 21
1259.5831916704119
 31
0.0
  0
LINE
  5
5604
  8
0
 10
2910.957159342966
 20
1257.9591916704121
 30
0.0
 11
2910.957159342966
 21
1264.959191670411
 31
0.0
  0
LINE
  5
5605
  8
0
 10
2912.5811593429648
 20
1259.5831916704119
 30
0.0
 11
2910.957159342966
 21
1257.9591916704121
 31
0.0
  0
LINE
  5
5606
  8
0
 10
2921.3651593429659
 20
1266.872191670411
 30
0.0
 11
2921.3651593429659
 21
1283.9591916704121
 31
0.0
  0
LINE
  5
5607
  8
0
 10
2910.957159342966
 20
1383.2711916704111
 30
0.0
 11
2890.205159342966
 21
1383.2711916704111
 31
0.0
  0
LINE
  5
5608
  8
0
 10
2888.5811593429662
 20
1381.6471916704111
 30
0.0
 11
2912.5811593429648
 21
1381.6471916704111
 31
0.0
  0
LINE
  5
5609
  8
0
 10
2888.5811593429662
 20
1381.6471916704111
 30
0.0
 11
2888.5811593429662
 21
1378.959191670411
 31
0.0
  0
LINE
  5
560A
  8
0
 10
2890.205159342966
 20
1383.2711916704111
 30
0.0
 11
2890.205159342966
 21
1378.959191670411
 31
0.0
  0
LINE
  5
560B
  8
0
 10
2890.205159342966
 20
1383.2711916704111
 30
0.0
 11
2888.5811593429662
 21
1381.6471916704111
 31
0.0
  0
LINE
  5
560C
  8
0
 10
2912.5811593429648
 20
1378.959191670411
 30
0.0
 11
2912.5811593429648
 21
1381.6471916704111
 31
0.0
  0
LINE
  5
560D
  8
0
 10
2910.957159342966
 20
1383.2711916704111
 30
0.0
 11
2910.957159342966
 21
1378.959191670411
 31
0.0
  0
LINE
  5
560E
  8
0
 10
2912.5811593429648
 20
1381.6471916704111
 30
0.0
 11
2910.957159342966
 21
1383.2711916704111
 31
0.0
  0
LINE
  5
560F
  8
0
 10
3207.723159342966
 20
1264.959191670411
 30
0.0
 11
3172.7821593429671
 21
1264.959191670411
 31
0.0
  0
ARC
  5
5610
  8
0
 10
3190.2531593429671
 20
1302.3603006467331
 30
0.0
 40
36.978084857321768
 50
253.67984776578399
 51
286.32015223421598
  0
LINE
  5
5611
  8
0
 10
3179.8761593429658
 20
1257.959191670411
 30
0.0
 11
3200.6281593429658
 21
1257.959191670411
 31
0.0
  0
LINE
  5
5612
  8
0
 10
3202.2521593429669
 20
1259.583191670411
 30
0.0
 11
3178.2521593429669
 21
1259.583191670411
 31
0.0
  0
LINE
  5
5613
  8
0
 10
3211.0371593429659
 20
1283.959191670411
 30
0.0
 11
3211.0371593429659
 21
1266.872191670411
 31
0.0
  0
LINE
  5
5614
  8
0
 10
3200.6441593429658
 20
1266.872191670411
 30
0.0
 11
3200.6441593429658
 21
1283.959191670411
 31
0.0
  0
LINE
  5
5615
  8
0
 10
3204.7191593429661
 20
1265.4461916704111
 30
0.0
 11
3205.8401593429671
 21
1265.382191670411
 31
0.0
  0
LINE
  5
5616
  8
0
 10
3211.0371593429659
 20
1266.872191670411
 30
0.0
 11
3207.723159342966
 21
1264.959191670411
 31
0.0
  0
LINE
  5
5617
  8
0
 10
3209.1181593429669
 20
1265.9461916704111
 30
0.0
 11
3211.0371593429659
 21
1266.872191670411
 31
0.0
  0
LINE
  5
5618
  8
0
 10
3208.0611593429671
 20
1265.6371916704111
 30
0.0
 11
3209.1181593429669
 21
1265.9461916704111
 31
0.0
  0
LINE
  5
5619
  8
0
 10
3206.9611593429659
 20
1265.4461916704111
 30
0.0
 11
3208.0611593429671
 21
1265.6371916704111
 31
0.0
  0
LINE
  5
561A
  8
0
 10
3205.8401593429671
 20
1265.382191670411
 30
0.0
 11
3206.9611593429659
 21
1265.4461916704111
 31
0.0
  0
LINE
  5
561B
  8
0
 10
3202.2521593429669
 20
1259.583191670411
 30
0.0
 11
3202.2521593429669
 21
1264.959191670411
 31
0.0
  0
LINE
  5
561C
  8
0
 10
3200.6281593429658
 20
1257.959191670411
 30
0.0
 11
3200.6281593429658
 21
1264.959191670411
 31
0.0
  0
LINE
  5
561D
  8
0
 10
3203.620159342966
 20
1265.6371916704111
 30
0.0
 11
3204.7191593429661
 21
1265.4461916704111
 31
0.0
  0
LINE
  5
561E
  8
0
 10
3202.5631593429671
 20
1265.9461916704111
 30
0.0
 11
3203.620159342966
 21
1265.6371916704111
 31
0.0
  0
LINE
  5
561F
  8
0
 10
3201.5661593429659
 20
1266.363191670411
 30
0.0
 11
3202.5631593429671
 21
1265.9461916704111
 31
0.0
  0
LINE
  5
5620
  8
0
 10
3200.6441593429658
 20
1266.872191670411
 30
0.0
 11
3201.5661593429659
 21
1266.363191670411
 31
0.0
  0
LINE
  5
5621
  8
0
 10
3200.6281593429658
 20
1257.959191670411
 30
0.0
 11
3202.2521593429669
 21
1259.583191670411
 31
0.0
  0
LINE
  5
5622
  8
0
 10
3172.7821593429671
 20
1264.959191670411
 30
0.0
 11
3169.4681593429659
 21
1266.872191670411
 31
0.0
  0
ARC
  5
5623
  8
0
 10
3174.665159342966
 20
1275.1891092098399
 30
0.0
 40
9.8071365014292677
 50
237.99993496086921
 51
302.00006503913079
  0
LINE
  5
5624
  8
0
 10
3179.8621593429662
 20
1266.872191670411
 30
0.0
 11
3179.8621593429662
 21
1283.959191670411
 31
0.0
  0
LINE
  5
5625
  8
0
 10
3178.2521593429669
 20
1264.959191670411
 30
0.0
 11
3178.2521593429669
 21
1259.583191670411
 31
0.0
  0
LINE
  5
5626
  8
0
 10
3179.8761593429658
 20
1257.959191670411
 30
0.0
 11
3179.8761593429658
 21
1264.959191670411
 31
0.0
  0
LINE
  5
5627
  8
0
 10
3178.2521593429669
 20
1259.583191670411
 30
0.0
 11
3179.8761593429658
 21
1257.959191670411
 31
0.0
  0
LINE
  5
5628
  8
0
 10
3169.4681593429659
 20
1266.872191670411
 30
0.0
 11
3169.4681593429659
 21
1283.959191670411
 31
0.0
  0
LINE
  5
5629
  8
0
 10
3179.8761593429658
 20
1383.2711916704111
 30
0.0
 11
3200.6281593429658
 21
1383.2711916704111
 31
0.0
  0
LINE
  5
562A
  8
0
 10
3202.2521593429669
 20
1381.6471916704111
 30
0.0
 11
3178.2521593429669
 21
1381.6471916704111
 31
0.0
  0
LINE
  5
562B
  8
0
 10
3202.2521593429669
 20
1381.6471916704111
 30
0.0
 11
3202.2521593429669
 21
1378.959191670411
 31
0.0
  0
LINE
  5
562C
  8
0
 10
3200.6281593429658
 20
1383.2711916704111
 30
0.0
 11
3200.6281593429658
 21
1378.959191670411
 31
0.0
  0
LINE
  5
562D
  8
0
 10
3200.6281593429658
 20
1383.2711916704111
 30
0.0
 11
3202.2521593429669
 21
1381.6471916704111
 31
0.0
  0
LINE
  5
562E
  8
0
 10
3178.2521593429669
 20
1378.959191670411
 30
0.0
 11
3178.2521593429669
 21
1381.6471916704111
 31
0.0
  0
LINE
  5
562F
  8
0
 10
3179.8761593429658
 20
1383.2711916704111
 30
0.0
 11
3179.8761593429658
 21
1378.959191670411
 31
0.0
  0
LINE
  5
5630
  8
0
 10
3178.2521593429669
 20
1381.6471916704111
 30
0.0
 11
3179.8761593429658
 21
1383.2711916704111
 31
0.0
  0
LINE
  5
5631
  8
0
 10
3146.513159342966
 20
1264.959191670411
 30
0.0
 11
3111.5721593429662
 21
1264.959191670411
 31
0.0
  0
ARC
  5
5632
  8
0
 10
3129.0431593429662
 20
1302.3603006467331
 30
0.0
 40
36.978084857321768
 50
253.67984776578399
 51
286.32015223421598
  0
LINE
  5
5633
  8
0
 10
3118.6661593429658
 20
1257.959191670411
 30
0.0
 11
3139.4181593429662
 21
1257.959191670411
 31
0.0
  0
LINE
  5
5634
  8
0
 10
3141.042159342966
 20
1259.583191670411
 30
0.0
 11
3117.042159342966
 21
1259.583191670411
 31
0.0
  0
LINE
  5
5635
  8
0
 10
3149.8271593429658
 20
1283.959191670411
 30
0.0
 11
3149.8271593429658
 21
1266.872191670411
 31
0.0
  0
LINE
  5
5636
  8
0
 10
3139.4341593429658
 20
1266.872191670411
 30
0.0
 11
3139.4341593429658
 21
1283.959191670411
 31
0.0
  0
LINE
  5
5637
  8
0
 10
3143.5091593429661
 20
1265.4461916704111
 30
0.0
 11
3144.6301593429662
 21
1265.382191670411
 31
0.0
  0
LINE
  5
5638
  8
0
 10
3149.8271593429658
 20
1266.872191670411
 30
0.0
 11
3146.513159342966
 21
1264.959191670411
 31
0.0
  0
LINE
  5
5639
  8
0
 10
3147.908159342966
 20
1265.9461916704111
 30
0.0
 11
3149.8271593429658
 21
1266.872191670411
 31
0.0
  0
LINE
  5
563A
  8
0
 10
3146.8511593429662
 20
1265.6371916704111
 30
0.0
 11
3147.908159342966
 21
1265.9461916704111
 31
0.0
  0
LINE
  5
563B
  8
0
 10
3145.7511593429658
 20
1265.4461916704111
 30
0.0
 11
3146.8511593429662
 21
1265.6371916704111
 31
0.0
  0
LINE
  5
563C
  8
0
 10
3144.6301593429662
 20
1265.382191670411
 30
0.0
 11
3145.7511593429658
 21
1265.4461916704111
 31
0.0
  0
LINE
  5
563D
  8
0
 10
3141.042159342966
 20
1259.583191670411
 30
0.0
 11
3141.042159342966
 21
1264.959191670411
 31
0.0
  0
LINE
  5
563E
  8
0
 10
3139.4181593429662
 20
1257.959191670411
 30
0.0
 11
3139.4181593429662
 21
1264.959191670411
 31
0.0
  0
LINE
  5
563F
  8
0
 10
3142.4101593429659
 20
1265.6371916704111
 30
0.0
 11
3143.5091593429661
 21
1265.4461916704111
 31
0.0
  0
LINE
  5
5640
  8
0
 10
3141.3531593429661
 20
1265.9461916704111
 30
0.0
 11
3142.4101593429659
 21
1265.6371916704111
 31
0.0
  0
LINE
  5
5641
  8
0
 10
3140.3561593429658
 20
1266.363191670411
 30
0.0
 11
3141.3531593429661
 21
1265.9461916704111
 31
0.0
  0
LINE
  5
5642
  8
0
 10
3139.4341593429658
 20
1266.872191670411
 30
0.0
 11
3140.3561593429658
 21
1266.363191670411
 31
0.0
  0
LINE
  5
5643
  8
0
 10
3139.4181593429662
 20
1257.959191670411
 30
0.0
 11
3141.042159342966
 21
1259.583191670411
 31
0.0
  0
LINE
  5
5644
  8
0
 10
3111.5721593429662
 20
1264.959191670411
 30
0.0
 11
3108.2581593429659
 21
1266.872191670411
 31
0.0
  0
ARC
  5
5645
  8
0
 10
3113.455159342966
 20
1275.1891092098399
 30
0.0
 40
9.8071365014292677
 50
237.99993496086921
 51
302.00006503913079
  0
LINE
  5
5646
  8
0
 10
3118.6521593429661
 20
1266.872191670411
 30
0.0
 11
3118.6521593429661
 21
1283.959191670411
 31
0.0
  0
LINE
  5
5647
  8
0
 10
3117.042159342966
 20
1264.959191670411
 30
0.0
 11
3117.042159342966
 21
1259.583191670411
 31
0.0
  0
LINE
  5
5648
  8
0
 10
3118.6661593429658
 20
1257.959191670411
 30
0.0
 11
3118.6661593429658
 21
1264.959191670411
 31
0.0
  0
LINE
  5
5649
  8
0
 10
3117.042159342966
 20
1259.583191670411
 30
0.0
 11
3118.6661593429658
 21
1257.959191670411
 31
0.0
  0
LINE
  5
564A
  8
0
 10
3108.2581593429659
 20
1266.872191670411
 30
0.0
 11
3108.2581593429659
 21
1283.959191670411
 31
0.0
  0
LINE
  5
564B
  8
0
 10
3118.6661593429658
 20
1383.2711916704111
 30
0.0
 11
3139.4181593429662
 21
1383.2711916704111
 31
0.0
  0
LINE
  5
564C
  8
0
 10
3141.042159342966
 20
1381.6471916704111
 30
0.0
 11
3117.042159342966
 21
1381.6471916704111
 31
0.0
  0
LINE
  5
564D
  8
0
 10
3141.042159342966
 20
1381.6471916704111
 30
0.0
 11
3141.042159342966
 21
1378.959191670411
 31
0.0
  0
LINE
  5
564E
  8
0
 10
3139.4181593429662
 20
1383.2711916704111
 30
0.0
 11
3139.4181593429662
 21
1378.959191670411
 31
0.0
  0
LINE
  5
564F
  8
0
 10
3139.4181593429662
 20
1383.2711916704111
 30
0.0
 11
3141.042159342966
 21
1381.6471916704111
 31
0.0
  0
LINE
  5
5650
  8
0
 10
3117.042159342966
 20
1378.959191670411
 30
0.0
 11
3117.042159342966
 21
1381.6471916704111
 31
0.0
  0
LINE
  5
5651
  8
0
 10
3118.6661593429658
 20
1383.2711916704111
 30
0.0
 11
3118.6661593429658
 21
1378.959191670411
 31
0.0
  0
LINE
  5
5652
  8
0
 10
3117.042159342966
 20
1381.6471916704111
 30
0.0
 11
3118.6661593429658
 21
1383.2711916704111
 31
0.0
  0
LINE
  5
5653
  8
0
 10
3040.4931593429669
 20
1264.959191670411
 30
0.0
 11
3005.5521593429671
 21
1264.959191670411
 31
0.0
  0
ARC
  5
5654
  8
0
 10
3023.0231593429671
 20
1302.3603006467331
 30
0.0
 40
36.978084857321768
 50
253.67984776578399
 51
286.32015223421598
  0
LINE
  5
5655
  8
0
 10
3012.6461593429658
 20
1257.9591916704121
 30
0.0
 11
3033.3981593429662
 21
1257.9591916704121
 31
0.0
  0
LINE
  5
5656
  8
0
 10
3035.022159342966
 20
1259.5831916704119
 30
0.0
 11
3011.022159342966
 21
1259.5831916704119
 31
0.0
  0
LINE
  5
5657
  8
0
 10
3043.8071593429659
 20
1283.9591916704121
 30
0.0
 11
3043.8071593429659
 21
1266.872191670411
 31
0.0
  0
LINE
  5
5658
  8
0
 10
3033.4141593429658
 20
1266.872191670411
 30
0.0
 11
3033.4141593429658
 21
1283.9591916704121
 31
0.0
  0
LINE
  5
5659
  8
0
 10
3037.489159342967
 20
1265.446191670412
 30
0.0
 11
3038.6101593429662
 21
1265.382191670411
 31
0.0
  0
LINE
  5
565A
  8
0
 10
3043.8071593429659
 20
1266.872191670411
 30
0.0
 11
3040.4931593429669
 21
1264.959191670411
 31
0.0
  0
LINE
  5
565B
  8
0
 10
3041.888159342966
 20
1265.946191670412
 30
0.0
 11
3043.8071593429659
 21
1266.872191670411
 31
0.0
  0
LINE
  5
565C
  8
0
 10
3040.8311593429662
 20
1265.6371916704111
 30
0.0
 11
3041.888159342966
 21
1265.946191670412
 31
0.0
  0
LINE
  5
565D
  8
0
 10
3039.7311593429672
 20
1265.446191670412
 30
0.0
 11
3040.8311593429662
 21
1265.6371916704111
 31
0.0
  0
LINE
  5
565E
  8
0
 10
3038.6101593429662
 20
1265.382191670411
 30
0.0
 11
3039.7311593429672
 21
1265.446191670412
 31
0.0
  0
LINE
  5
565F
  8
0
 10
3035.022159342966
 20
1259.5831916704119
 30
0.0
 11
3035.022159342966
 21
1264.959191670411
 31
0.0
  0
LINE
  5
5660
  8
0
 10
3033.3981593429662
 20
1257.9591916704121
 30
0.0
 11
3033.3981593429662
 21
1264.959191670411
 31
0.0
  0
LINE
  5
5661
  8
0
 10
3036.3901593429659
 20
1265.6371916704111
 30
0.0
 11
3037.489159342967
 21
1265.446191670412
 31
0.0
  0
LINE
  5
5662
  8
0
 10
3035.3331593429662
 20
1265.946191670412
 30
0.0
 11
3036.3901593429659
 21
1265.6371916704111
 31
0.0
  0
LINE
  5
5663
  8
0
 10
3034.3361593429659
 20
1266.3631916704121
 30
0.0
 11
3035.3331593429662
 21
1265.946191670412
 31
0.0
  0
LINE
  5
5664
  8
0
 10
3033.4141593429658
 20
1266.872191670411
 30
0.0
 11
3034.3361593429659
 21
1266.3631916704121
 31
0.0
  0
LINE
  5
5665
  8
0
 10
3033.3981593429662
 20
1257.9591916704121
 30
0.0
 11
3035.022159342966
 21
1259.5831916704119
 31
0.0
  0
LINE
  5
5666
  8
0
 10
3005.5521593429671
 20
1264.959191670411
 30
0.0
 11
3002.2381593429668
 21
1266.872191670411
 31
0.0
  0
ARC
  5
5667
  8
0
 10
3007.435159342966
 20
1275.189109209841
 30
0.0
 40
9.8071365014292677
 50
237.99993496086921
 51
302.00006503913079
  0
LINE
  5
5668
  8
0
 10
3012.632159342967
 20
1266.872191670411
 30
0.0
 11
3012.632159342967
 21
1283.9591916704121
 31
0.0
  0
LINE
  5
5669
  8
0
 10
3011.022159342966
 20
1264.959191670411
 30
0.0
 11
3011.022159342966
 21
1259.5831916704119
 31
0.0
  0
LINE
  5
566A
  8
0
 10
3012.6461593429658
 20
1257.9591916704121
 30
0.0
 11
3012.6461593429658
 21
1264.959191670411
 31
0.0
  0
LINE
  5
566B
  8
0
 10
3011.022159342966
 20
1259.5831916704119
 30
0.0
 11
3012.6461593429658
 21
1257.9591916704121
 31
0.0
  0
LINE
  5
566C
  8
0
 10
3002.2381593429668
 20
1266.872191670411
 30
0.0
 11
3002.2381593429668
 21
1283.9591916704121
 31
0.0
  0
LINE
  5
566D
  8
0
 10
3012.6461593429658
 20
1383.2711916704111
 30
0.0
 11
3033.3981593429662
 21
1383.2711916704111
 31
0.0
  0
LINE
  5
566E
  8
0
 10
3035.022159342966
 20
1381.6471916704111
 30
0.0
 11
3011.022159342966
 21
1381.6471916704111
 31
0.0
  0
LINE
  5
566F
  8
0
 10
3035.022159342966
 20
1381.6471916704111
 30
0.0
 11
3035.022159342966
 21
1378.959191670411
 31
0.0
  0
LINE
  5
5670
  8
0
 10
3033.3981593429662
 20
1383.2711916704111
 30
0.0
 11
3033.3981593429662
 21
1378.959191670411
 31
0.0
  0
LINE
  5
5671
  8
0
 10
3033.3981593429662
 20
1383.2711916704111
 30
0.0
 11
3035.022159342966
 21
1381.6471916704111
 31
0.0
  0
LINE
  5
5672
  8
0
 10
3011.022159342966
 20
1378.959191670411
 30
0.0
 11
3011.022159342966
 21
1381.6471916704111
 31
0.0
  0
LINE
  5
5673
  8
0
 10
3012.6461593429658
 20
1383.2711916704111
 30
0.0
 11
3012.6461593429658
 21
1378.959191670411
 31
0.0
  0
LINE
  5
5674
  8
0
 10
3011.022159342966
 20
1381.6471916704111
 30
0.0
 11
3012.6461593429658
 21
1383.2711916704111
 31
0.0
  0
ARC
  5
5675
  8
0
 10
3173.4766114353069
 20
1275.9380241351471
 30
0.0
 40
8.0
 50
120.0699228918298
 51
169.70328892801109
  0
CIRCLE
  5
5677
  8
0
 10
2961.8046593429672
 20
3807.3301835791708
 30
0.0
 40
20.0
  0
LINE
  5
5678
  8
0
 10
2961.8046593429672
 20
3787.3301835791708
 30
0.0
 11
2961.8046593429672
 21
3787.3301835791708
 31
0.0
  0
LINE
  5
5679
  8
0
 10
2961.8046593429672
 20
3773.3301835791708
 30
0.0
 11
2961.8046593429672
 21
3773.3301835791708
 31
0.0
  0
LINE
  5
567A
  8
0
 10
3261.8086593429662
 20
3848.8341835791712
 30
0.0
 11
3261.8086593429662
 21
3547.8261835791718
 31
0.0
  0
LINE
  5
567B
  8
0
 10
3261.8086593429662
 20
3799.1721835791709
 30
0.0
 11
3261.8086593429662
 21
3799.1721835791709
 31
0.0
  0
LINE
  5
567C
  8
0
 10
3261.8086593429662
 20
3799.1721835791709
 30
0.0
 11
3261.7706593429662
 21
3798.552183579171
 31
0.0
  0
LINE
  5
567D
  8
0
 10
3261.7706593429662
 20
3798.552183579171
 30
0.0
 11
3261.649659342967
 21
3797.9211835791712
 31
0.0
  0
LINE
  5
567E
  8
0
 10
3261.649659342967
 20
3797.9211835791712
 30
0.0
 11
3261.4436593429668
 21
3797.2941835791712
 31
0.0
  0
LINE
  5
567F
  8
0
 10
3261.4436593429668
 20
3797.2941835791712
 30
0.0
 11
3261.1496593429661
 21
3796.6901835791709
 31
0.0
  0
LINE
  5
5680
  8
0
 10
3261.1496593429661
 20
3796.6901835791709
 30
0.0
 11
3260.7736593429659
 21
3796.1261835791711
 31
0.0
  0
LINE
  5
5681
  8
0
 10
3260.7736593429659
 20
3796.1261835791711
 30
0.0
 11
3260.325659342966
 21
3795.6171835791711
 31
0.0
  0
LINE
  5
5682
  8
0
 10
3260.325659342966
 20
3795.6171835791711
 30
0.0
 11
3259.8176593429662
 21
3795.1781835791712
 31
0.0
  0
LINE
  5
5683
  8
0
 10
3259.8176593429662
 20
3795.1781835791712
 30
0.0
 11
3259.265659342967
 21
3794.8171835791709
 31
0.0
  0
LINE
  5
5684
  8
0
 10
3259.265659342967
 20
3794.8171835791709
 30
0.0
 11
3258.0976593429668
 21
3794.3411835791721
 31
0.0
  0
LINE
  5
5685
  8
0
 10
3258.0976593429668
 20
3794.3411835791721
 30
0.0
 11
3231.8096593429668
 21
3787.3301835791708
 31
0.0
  0
LINE
  5
5686
  8
0
 10
3231.8096593429668
 20
3787.3301835791708
 30
0.0
 11
3026.8046593429658
 21
3787.3301835791708
 31
0.0
  0
LINE
  5
5687
  8
0
 10
3026.8046593429658
 20
3787.3301835791708
 30
0.0
 11
3026.8046593429658
 21
3787.3301835791708
 31
0.0
  0
LINE
  5
5688
  8
0
 10
3026.8046593429658
 20
3787.3301835791708
 30
0.0
 11
3023.9146593429659
 21
3787.541183579171
 31
0.0
  0
LINE
  5
5689
  8
0
 10
3023.9146593429659
 20
3787.541183579171
 30
0.0
 11
3020.9346593429659
 21
3788.2131835791702
 31
0.0
  0
LINE
  5
568A
  8
0
 10
3020.9346593429659
 20
3788.2131835791702
 30
0.0
 11
3017.984659342967
 21
3789.3831835791711
 31
0.0
  0
LINE
  5
568B
  8
0
 10
3017.984659342967
 20
3789.3831835791711
 30
0.0
 11
3015.1846593429659
 21
3791.054183579171
 31
0.0
  0
LINE
  5
568C
  8
0
 10
3015.1846593429659
 20
3791.054183579171
 30
0.0
 11
3012.6646593429659
 21
3793.1881835791719
 31
0.0
  0
LINE
  5
568D
  8
0
 10
3012.6646593429659
 20
3793.1881835791719
 30
0.0
 11
3010.5346593429658
 21
3795.708183579171
 31
0.0
  0
LINE
  5
568E
  8
0
 10
3010.5346593429658
 20
3795.708183579171
 30
0.0
 11
3008.8646593429662
 21
3798.505183579171
 31
0.0
  0
LINE
  5
568F
  8
0
 10
3008.8646593429662
 20
3798.505183579171
 30
0.0
 11
3007.694659342967
 21
3801.4541835791711
 31
0.0
  0
LINE
  5
5690
  8
0
 10
3007.694659342967
 20
3801.4541835791711
 30
0.0
 11
3006.8046593429672
 21
3807.3301835791708
 31
0.0
  0
LINE
  5
5691
  8
0
 10
3006.8046593429672
 20
3807.3301835791708
 30
0.0
 11
3006.8046593429672
 21
3807.3301835791708
 31
0.0
  0
LINE
  5
5692
  8
0
 10
3006.8046593429672
 20
3807.3301835791708
 30
0.0
 11
3006.8046593429672
 21
3807.3301835791708
 31
0.0
  0
LINE
  5
5693
  8
0
 10
3006.8046593429672
 20
3807.3301835791708
 30
0.0
 11
3006.8046593429672
 21
3807.3301835791708
 31
0.0
  0
LINE
  5
5694
  8
0
 10
3006.8046593429672
 20
3807.3301835791708
 30
0.0
 11
3006.334659342966
 21
3813.8521835791712
 31
0.0
  0
LINE
  5
5695
  8
0
 10
3006.334659342966
 20
3813.8521835791712
 30
0.0
 11
3004.8246593429672
 21
3820.5521835791719
 31
0.0
  0
LINE
  5
5696
  8
0
 10
3004.8246593429672
 20
3820.5521835791719
 30
0.0
 11
3002.194659342967
 21
3827.1871835791708
 31
0.0
  0
LINE
  5
5697
  8
0
 10
3002.194659342967
 20
3827.1871835791708
 30
0.0
 11
2998.4346593429668
 21
3833.4801835791709
 31
0.0
  0
LINE
  5
5698
  8
0
 10
2998.4346593429668
 20
3833.4801835791709
 30
0.0
 11
2993.624659342966
 21
3839.150183579171
 31
0.0
  0
LINE
  5
5699
  8
0
 10
2993.624659342966
 20
3839.150183579171
 30
0.0
 11
2987.9546593429668
 21
3843.9521835791711
 31
0.0
  0
LINE
  5
569A
  8
0
 10
2987.9546593429668
 20
3843.9521835791711
 30
0.0
 11
2981.6646593429659
 21
3847.7121835791709
 31
0.0
  0
LINE
  5
569B
  8
0
 10
2981.6646593429659
 20
3847.7121835791709
 30
0.0
 11
2975.0346593429672
 21
3850.3441835791709
 31
0.0
  0
LINE
  5
569C
  8
0
 10
2975.0346593429672
 20
3850.3441835791709
 30
0.0
 11
2961.8046593429672
 21
3852.3301835791708
 31
0.0
  0
LINE
  5
569D
  8
0
 10
2961.8046593429672
 20
3852.3301835791708
 30
0.0
 11
2961.8046593429672
 21
3852.3301835791708
 31
0.0
  0
LINE
  5
569E
  8
0
 10
2961.8046593429672
 20
3852.3301835791708
 30
0.0
 11
2955.2846593429672
 21
3851.8551835791709
 31
0.0
  0
LINE
  5
569F
  8
0
 10
2955.2846593429672
 20
3851.8551835791709
 30
0.0
 11
2948.584659342966
 21
3850.3441835791709
 31
0.0
  0
LINE
  5
56A0
  8
0
 10
2948.584659342966
 20
3850.3441835791709
 30
0.0
 11
2941.9546593429668
 21
3847.7121835791709
 31
0.0
  0
LINE
  5
56A1
  8
0
 10
2941.9546593429668
 20
3847.7121835791709
 30
0.0
 11
2935.6546593429662
 21
3843.9521835791711
 31
0.0
  0
LINE
  5
56A2
  8
0
 10
2935.6546593429662
 20
3843.9521835791711
 30
0.0
 11
2929.984659342967
 21
3839.1491835791712
 31
0.0
  0
LINE
  5
56A3
  8
0
 10
2929.984659342967
 20
3839.1491835791712
 30
0.0
 11
2925.1846593429668
 21
3833.4781835791709
 31
0.0
  0
LINE
  5
56A4
  8
0
 10
2925.1846593429668
 20
3833.4781835791709
 30
0.0
 11
2921.4246593429662
 21
3827.1851835791708
 31
0.0
  0
LINE
  5
56A5
  8
0
 10
2921.4246593429662
 20
3827.1851835791708
 30
0.0
 11
2918.794659342966
 21
3820.5491835791709
 31
0.0
  0
LINE
  5
56A6
  8
0
 10
2918.794659342966
 20
3820.5491835791709
 30
0.0
 11
2916.8046593429672
 21
3807.3261835791709
 31
0.0
  0
LINE
  5
56A7
  8
0
 10
2916.8046593429672
 20
3807.3261835791709
 30
0.0
 11
2916.8046593429672
 21
3807.3261835791709
 31
0.0
  0
LINE
  5
56A8
  8
0
 10
2916.8046593429672
 20
3807.3261835791709
 30
0.0
 11
2916.8046593429672
 21
3807.3261835791709
 31
0.0
  0
LINE
  5
56A9
  8
0
 10
2916.8046593429672
 20
3807.3261835791709
 30
0.0
 11
2916.5946593429662
 21
3804.4281835791712
 31
0.0
  0
LINE
  5
56AA
  8
0
 10
2916.5946593429662
 20
3804.4281835791712
 30
0.0
 11
2915.9246593429662
 21
3801.4511835791709
 31
0.0
  0
LINE
  5
56AB
  8
0
 10
2915.9246593429662
 20
3801.4511835791709
 30
0.0
 11
2914.7546593429661
 21
3798.5021835791708
 31
0.0
  0
LINE
  5
56AC
  8
0
 10
2914.7546593429661
 20
3798.5021835791708
 30
0.0
 11
2913.084659342966
 21
3795.706183579171
 31
0.0
  0
LINE
  5
56AD
  8
0
 10
2913.084659342966
 20
3795.706183579171
 30
0.0
 11
2910.9546593429659
 21
3793.1871835791708
 31
0.0
  0
LINE
  5
56AE
  8
0
 10
2910.9546593429659
 20
3793.1871835791708
 30
0.0
 11
2908.4346593429668
 21
3791.0531835791712
 31
0.0
  0
LINE
  5
56AF
  8
0
 10
2908.4346593429668
 20
3791.0531835791712
 30
0.0
 11
2905.644659342966
 21
3789.3821835791709
 31
0.0
  0
LINE
  5
56B0
  8
0
 10
2905.644659342966
 20
3789.3821835791709
 30
0.0
 11
2902.694659342967
 21
3788.2131835791702
 31
0.0
  0
LINE
  5
56B1
  8
0
 10
2902.694659342967
 20
3788.2131835791702
 30
0.0
 11
2896.8146593429669
 21
3787.3301835791708
 31
0.0
  0
LINE
  5
56B2
  8
0
 10
2832.3046593429658
 20
3787.3301835791708
 30
0.0
 11
2832.3046593429658
 21
3787.3301835791708
 31
0.0
  0
LINE
  5
56B3
  8
0
 10
2832.3046593429658
 20
3787.3301835791708
 30
0.0
 11
2831.874659342966
 21
3787.362183579171
 31
0.0
  0
LINE
  5
56B4
  8
0
 10
2831.874659342966
 20
3787.362183579171
 30
0.0
 11
2831.4246593429662
 21
3787.4631835791711
 31
0.0
  0
LINE
  5
56B5
  8
0
 10
2831.4246593429662
 20
3787.4631835791711
 30
0.0
 11
2830.984659342967
 21
3787.6381835791708
 31
0.0
  0
LINE
  5
56B6
  8
0
 10
2830.984659342967
 20
3787.6381835791708
 30
0.0
 11
2830.5646593429669
 21
3787.889183579171
 31
0.0
  0
LINE
  5
56B7
  8
0
 10
2830.5646593429669
 20
3787.889183579171
 30
0.0
 11
2830.1846593429668
 21
3788.2091835791712
 31
0.0
  0
LINE
  5
56B8
  8
0
 10
2830.1846593429668
 20
3788.2091835791712
 30
0.0
 11
2829.8646593429662
 21
3788.5871835791709
 31
0.0
  0
LINE
  5
56B9
  8
0
 10
2829.8646593429662
 20
3788.5871835791709
 30
0.0
 11
2829.6146593429662
 21
3789.0071835791709
 31
0.0
  0
LINE
  5
56BA
  8
0
 10
2829.6146593429662
 20
3789.0071835791709
 30
0.0
 11
2829.4446593429661
 21
3789.4491835791709
 31
0.0
  0
LINE
  5
56BB
  8
0
 10
2829.4446593429661
 20
3789.4491835791709
 30
0.0
 11
2829.3046593429658
 21
3790.3301835791708
 31
0.0
  0
LINE
  5
56BC
  8
0
 10
2829.3046593429658
 20
3790.3301835791708
 30
0.0
 11
2829.3046593429658
 21
3791.3301835791708
 31
0.0
  0
LINE
  5
56BD
  8
0
 10
2829.3046593429658
 20
3791.3301835791708
 30
0.0
 11
2829.3046593429658
 21
3791.3301835791708
 31
0.0
  0
LINE
  5
56BE
  8
0
 10
2829.3046593429658
 20
3791.3301835791708
 30
0.0
 11
2829.2846593429658
 21
3791.6201835791712
 31
0.0
  0
LINE
  5
56BF
  8
0
 10
2829.2846593429658
 20
3791.6201835791712
 30
0.0
 11
2829.2246593429659
 21
3791.9181835791701
 31
0.0
  0
LINE
  5
56C0
  8
0
 10
2829.2246593429659
 20
3791.9181835791701
 30
0.0
 11
2829.1046593429669
 21
3792.2131835791711
 31
0.0
  0
LINE
  5
56C1
  8
0
 10
2829.1046593429669
 20
3792.2131835791711
 30
0.0
 11
2828.9346593429659
 21
3792.4931835791708
 31
0.0
  0
LINE
  5
56C2
  8
0
 10
2828.9346593429659
 20
3792.4931835791708
 30
0.0
 11
2828.7246593429668
 21
3792.7451835791712
 31
0.0
  0
LINE
  5
56C3
  8
0
 10
2828.7246593429668
 20
3792.7451835791712
 30
0.0
 11
2828.4746593429659
 21
3792.958183579171
 31
0.0
  0
LINE
  5
56C4
  8
0
 10
2828.4746593429659
 20
3792.958183579171
 30
0.0
 11
2828.194659342967
 21
3793.1251835791709
 31
0.0
  0
LINE
  5
56C5
  8
0
 10
2828.194659342967
 20
3793.1251835791709
 30
0.0
 11
2827.894659342966
 21
3793.242183579172
 31
0.0
  0
LINE
  5
56C6
  8
0
 10
2827.894659342966
 20
3793.242183579172
 30
0.0
 11
2827.3046593429658
 21
3793.3301835791708
 31
0.0
  0
LINE
  5
56C7
  8
0
 10
2827.3046593429658
 20
3793.3301835791708
 30
0.0
 11
2776.3046593429658
 21
3793.3301835791708
 31
0.0
  0
LINE
  5
56C8
  8
0
 10
2776.3046593429658
 20
3793.3301835791708
 30
0.0
 11
2776.3046593429658
 21
3793.3301835791708
 31
0.0
  0
LINE
  5
56C9
  8
0
 10
2776.3046593429658
 20
3793.3301835791708
 30
0.0
 11
2776.0146593429658
 21
3793.3091835791711
 31
0.0
  0
LINE
  5
56CA
  8
0
 10
2776.0146593429658
 20
3793.3091835791711
 30
0.0
 11
2775.7246593429659
 21
3793.242183579172
 31
0.0
  0
LINE
  5
56CB
  8
0
 10
2775.7246593429659
 20
3793.242183579172
 30
0.0
 11
2775.4246593429671
 21
3793.1251835791709
 31
0.0
  0
LINE
  5
56CC
  8
0
 10
2775.4246593429671
 20
3793.1251835791709
 30
0.0
 11
2775.1446593429669
 21
3792.958183579171
 31
0.0
  0
LINE
  5
56CD
  8
0
 10
2775.1446593429669
 20
3792.958183579171
 30
0.0
 11
2774.8946593429669
 21
3792.7451835791712
 31
0.0
  0
LINE
  5
56CE
  8
0
 10
2774.8946593429669
 20
3792.7451835791712
 30
0.0
 11
2774.6846593429668
 21
3792.4931835791708
 31
0.0
  0
LINE
  5
56CF
  8
0
 10
2774.6846593429668
 20
3792.4931835791708
 30
0.0
 11
2774.5146593429658
 21
3792.2131835791711
 31
0.0
  0
LINE
  5
56D0
  8
0
 10
2774.5146593429658
 20
3792.2131835791711
 30
0.0
 11
2774.3946593429669
 21
3791.9181835791701
 31
0.0
  0
LINE
  5
56D1
  8
0
 10
2774.3946593429669
 20
3791.9181835791701
 30
0.0
 11
2774.3046593429672
 21
3791.3301835791708
 31
0.0
  0
LINE
  5
56D2
  8
0
 10
2774.3046593429672
 20
3791.3301835791708
 30
0.0
 11
2774.3046593429672
 21
3790.3301835791708
 31
0.0
  0
LINE
  5
56D3
  8
0
 10
2774.3046593429672
 20
3790.3301835791708
 30
0.0
 11
2774.3046593429672
 21
3790.3301835791708
 31
0.0
  0
LINE
  5
56D4
  8
0
 10
2774.3046593429672
 20
3790.3301835791708
 30
0.0
 11
2774.274659342967
 21
3789.8961835791711
 31
0.0
  0
LINE
  5
56D5
  8
0
 10
2774.274659342967
 20
3789.8961835791711
 30
0.0
 11
2774.1746593429662
 21
3789.4491835791709
 31
0.0
  0
LINE
  5
56D6
  8
0
 10
2774.1746593429662
 20
3789.4491835791709
 30
0.0
 11
2774.0046593429661
 21
3789.0071835791709
 31
0.0
  0
LINE
  5
56D7
  8
0
 10
2774.0046593429661
 20
3789.0071835791709
 30
0.0
 11
2773.7546593429661
 21
3788.5871835791709
 31
0.0
  0
LINE
  5
56D8
  8
0
 10
2773.7546593429661
 20
3788.5871835791709
 30
0.0
 11
2773.4346593429659
 21
3788.2091835791712
 31
0.0
  0
LINE
  5
56D9
  8
0
 10
2773.4346593429659
 20
3788.2091835791712
 30
0.0
 11
2773.0546593429672
 21
3787.889183579171
 31
0.0
  0
LINE
  5
56DA
  8
0
 10
2773.0546593429672
 20
3787.889183579171
 30
0.0
 11
2772.6346593429662
 21
3787.6381835791708
 31
0.0
  0
LINE
  5
56DB
  8
0
 10
2772.6346593429662
 20
3787.6381835791708
 30
0.0
 11
2772.194659342967
 21
3787.4631835791711
 31
0.0
  0
LINE
  5
56DC
  8
0
 10
2772.194659342967
 20
3787.4631835791711
 30
0.0
 11
2771.3046593429672
 21
3787.3301835791708
 31
0.0
  0
LINE
  5
56DD
  8
0
 10
2896.8146593429692
 20
3787.3301835791708
 30
0.0
 11
2691.8046593429672
 21
3787.3301835791708
 31
0.0
  0
LINE
  5
56DE
  8
0
 10
2691.8046593429672
 20
3787.3301835791708
 30
0.0
 11
2665.524659342967
 21
3794.3411835791708
 31
0.0
  0
LINE
  5
56DF
  8
0
 10
2665.524659342967
 20
3794.3411835791708
 30
0.0
 11
2665.524659342967
 21
3794.3411835791708
 31
0.0
  0
LINE
  5
56E0
  8
0
 10
2665.524659342967
 20
3794.3411835791708
 30
0.0
 11
2664.9346593429668
 21
3794.5381835791709
 31
0.0
  0
LINE
  5
56E1
  8
0
 10
2664.9346593429668
 20
3794.5381835791709
 30
0.0
 11
2664.3546593429669
 21
3794.8171835791709
 31
0.0
  0
LINE
  5
56E2
  8
0
 10
2664.3546593429669
 20
3794.8171835791709
 30
0.0
 11
2663.8046593429672
 21
3795.1781835791712
 31
0.0
  0
LINE
  5
56E3
  8
0
 10
2663.8046593429672
 20
3795.1781835791712
 30
0.0
 11
2663.294659342966
 21
3795.6171835791711
 31
0.0
  0
LINE
  5
56E4
  8
0
 10
2663.294659342966
 20
3795.6171835791711
 30
0.0
 11
2662.8446593429662
 21
3796.1261835791711
 31
0.0
  0
LINE
  5
56E5
  8
0
 10
2662.8446593429662
 20
3796.1261835791711
 30
0.0
 11
2662.4646593429661
 21
3796.69018357917
 31
0.0
  0
LINE
  5
56E6
  8
0
 10
2662.4646593429661
 20
3796.69018357917
 30
0.0
 11
2662.1746593429662
 21
3797.2941835791712
 31
0.0
  0
LINE
  5
56E7
  8
0
 10
2662.1746593429662
 20
3797.2941835791712
 30
0.0
 11
2661.9646593429661
 21
3797.9211835791712
 31
0.0
  0
LINE
  5
56E8
  8
0
 10
2661.9646593429661
 20
3797.9211835791712
 30
0.0
 11
2661.8046593429658
 21
3799.1721835791709
 31
0.0
  0
LINE
  5
56E9
  8
0
 10
2661.8046593429658
 20
3547.8301835791708
 30
0.0
 11
2661.8046593429658
 21
3848.8301835791708
 31
0.0
  0
LINE
  5
56EA
  8
0
 10
2661.8046593429658
 20
3848.8301835791708
 30
0.0
 11
2659.8046593429672
 21
3850.8301835791708
 31
0.0
  0
LINE
  5
56EB
  8
0
 10
2659.8046593429672
 20
3850.8301835791708
 30
0.0
 11
2633.8046593429658
 21
3850.8301835791708
 31
0.0
  0
LINE
  5
56EC
  8
0
 10
2633.8046593429658
 20
3850.8301835791708
 30
0.0
 11
2633.8046593429658
 21
3698.3301835791708
 31
0.0
  0
LINE
  5
56ED
  8
0
 10
2633.8046593429658
 20
3698.3301835791708
 30
0.0
 11
2633.8046593429672
 21
3545.8301835791708
 31
0.0
  0
LINE
  5
56EE
  8
0
 10
2633.8046593429672
 20
3545.8301835791708
 30
0.0
 11
2659.8046593429672
 21
3545.8301835791708
 31
0.0
  0
LINE
  5
56EF
  8
0
 10
2659.8046593429672
 20
3545.8301835791708
 30
0.0
 11
2661.8046593429658
 21
3547.8301835791708
 31
0.0
  0
LINE
  5
56F0
  8
0
 10
2661.8046593429658
 20
3597.48918357917
 30
0.0
 11
2661.8046593429658
 21
3597.48918357917
 31
0.0
  0
LINE
  5
56F1
  8
0
 10
2661.8046593429658
 20
3597.48918357917
 30
0.0
 11
2661.8446593429662
 21
3598.1091835791708
 31
0.0
  0
LINE
  5
56F2
  8
0
 10
2661.8446593429662
 20
3598.1091835791708
 30
0.0
 11
2661.9646593429661
 21
3598.7401835791711
 31
0.0
  0
LINE
  5
56F3
  8
0
 10
2661.9646593429661
 20
3598.7401835791711
 30
0.0
 11
2662.1746593429662
 21
3599.3661835791709
 31
0.0
  0
LINE
  5
56F4
  8
0
 10
2662.1746593429662
 20
3599.3661835791709
 30
0.0
 11
2662.4646593429661
 21
3599.9711835791709
 31
0.0
  0
LINE
  5
56F5
  8
0
 10
2662.4646593429661
 20
3599.9711835791709
 30
0.0
 11
2662.8446593429662
 21
3600.5351835791712
 31
0.0
  0
LINE
  5
56F6
  8
0
 10
2662.8446593429662
 20
3600.5351835791712
 30
0.0
 11
2663.294659342966
 21
3601.043183579171
 31
0.0
  0
LINE
  5
56F7
  8
0
 10
2663.294659342966
 20
3601.043183579171
 30
0.0
 11
2663.8046593429672
 21
3601.4831835791711
 31
0.0
  0
LINE
  5
56F8
  8
0
 10
2663.8046593429672
 20
3601.4831835791711
 30
0.0
 11
2664.3546593429669
 21
3601.8441835791709
 31
0.0
  0
LINE
  5
56F9
  8
0
 10
2664.3546593429669
 20
3601.8441835791709
 30
0.0
 11
2665.524659342967
 21
3602.320183579171
 31
0.0
  0
LINE
  5
56FA
  8
0
 10
2665.524659342967
 20
3602.320183579171
 30
0.0
 11
2691.8046593429672
 21
3609.3301835791708
 31
0.0
  0
LINE
  5
56FB
  8
0
 10
2691.8046593429672
 20
3609.3301835791708
 30
0.0
 11
2729.8046593429672
 21
3609.3301835791708
 31
0.0
  0
LINE
  5
56FC
  8
0
 10
2760.8046593429658
 20
3586.3301835791708
 30
0.0
 11
2760.8046593429658
 21
3453.3301835791708
 31
0.0
  0
LINE
  5
56FD
  8
0
 10
2760.8046593429658
 20
3453.3301835791708
 30
0.0
 11
2747.894659342966
 21
3397.967183579171
 31
0.0
  0
LINE
  5
56FE
  8
0
 10
3223.8096593429668
 20
3393.3301835791708
 30
0.0
 11
2699.8046593429658
 21
3393.3301835791708
 31
0.0
  0
LINE
  5
56FF
  8
0
 10
2696.8046593429658
 20
3390.3301835791708
 30
0.0
 11
2696.8046593429658
 21
3348.3301835791708
 31
0.0
  0
ARC
  5
5700
  8
0
 10
2699.8046593429658
 20
3390.3301835791708
 30
0.0
 40
3.0
 50
90.0
 51
180.0
  0
LINE
  5
5701
  8
0
 10
2696.8046593429658
 20
3348.3301835791708
 30
0.0
 11
3226.8096593429659
 21
3348.3301835791708
 31
0.0
  0
LINE
  5
5702
  8
0
 10
3226.8096593429659
 20
3348.3301835791708
 30
0.0
 11
3226.8096593429659
 21
3390.3301835791708
 31
0.0
  0
ARC
  5
5703
  8
0
 10
3223.8096593429668
 20
3390.3301835791708
 30
0.0
 40
3.0
 50
0.0
 51
90.0
  0
LINE
  5
5704
  8
0
 10
3175.727659342966
 20
3397.967183579171
 30
0.0
 11
3162.8096593429668
 21
3453.3301835791708
 31
0.0
  0
LINE
  5
5705
  8
0
 10
3162.8096593429668
 20
3453.3301835791708
 30
0.0
 11
3162.8096593429668
 21
3579.3301835791708
 31
0.0
  0
LINE
  5
5706
  8
0
 10
3192.8096593429659
 20
3609.3301835791708
 30
0.0
 11
3231.8096593429668
 21
3609.3301835791708
 31
0.0
  0
LINE
  5
5707
  8
0
 10
3231.8096593429668
 20
3609.3301835791708
 30
0.0
 11
3258.0976593429668
 21
3602.320183579171
 31
0.0
  0
LINE
  5
5708
  8
0
 10
3258.0976593429668
 20
3602.320183579171
 30
0.0
 11
3258.0976593429668
 21
3602.320183579171
 31
0.0
  0
LINE
  5
5709
  8
0
 10
3258.0976593429668
 20
3602.320183579171
 30
0.0
 11
3258.6866593429659
 21
3602.1231835791718
 31
0.0
  0
LINE
  5
570A
  8
0
 10
3258.6866593429659
 20
3602.1231835791718
 30
0.0
 11
3259.265659342967
 21
3601.8441835791709
 31
0.0
  0
LINE
  5
570B
  8
0
 10
3259.265659342967
 20
3601.8441835791709
 30
0.0
 11
3259.8176593429662
 21
3601.4831835791711
 31
0.0
  0
LINE
  5
570C
  8
0
 10
3259.8176593429662
 20
3601.4831835791711
 30
0.0
 11
3260.325659342966
 21
3601.0441835791712
 31
0.0
  0
LINE
  5
570D
  8
0
 10
3260.325659342966
 20
3601.0441835791712
 30
0.0
 11
3260.774659342967
 21
3600.5351835791712
 31
0.0
  0
LINE
  5
570E
  8
0
 10
3260.774659342967
 20
3600.5351835791712
 30
0.0
 11
3261.1496593429661
 21
3599.9711835791709
 31
0.0
  0
LINE
  5
570F
  8
0
 10
3261.1496593429661
 20
3599.9711835791709
 30
0.0
 11
3261.4436593429668
 21
3599.3661835791709
 31
0.0
  0
LINE
  5
5710
  8
0
 10
3261.4436593429668
 20
3599.3661835791709
 30
0.0
 11
3261.6506593429658
 21
3598.7401835791711
 31
0.0
  0
LINE
  5
5711
  8
0
 10
3261.6506593429658
 20
3598.7401835791711
 30
0.0
 11
3261.8096593429659
 21
3597.4891835791709
 31
0.0
  0
ARC
  5
5712
  8
0
 10
2961.8046593429681
 20
3586.3301835791708
 30
0.0
 40
201.0
 50
0.0
 51
180.0
  0
ARC
  5
5713
  8
0
 10
3193.8096593429668
 20
3578.3301835791708
 30
0.0
 40
31.0
 50
90.0
 51
180.0
  0
ARC
  5
5714
  8
0
 10
2729.8046593429672
 20
3578.3301835791708
 30
0.0
 40
31.0
 50
0.0
 51
90.0
  0
LINE
  5
5715
  8
0
 10
3162.8046593429681
 20
3586.3301835791708
 30
0.0
 11
3162.8096593429668
 21
3579.3301835791708
 31
0.0
  0
LINE
  5
5716
  8
0
 10
3261.8046593429658
 20
3848.8301835791708
 30
0.0
 11
3263.8046593429658
 21
3850.8301835791708
 31
0.0
  0
LINE
  5
5717
  8
0
 10
3263.8046593429658
 20
3850.8301835791708
 30
0.0
 11
3289.8046593429658
 21
3850.8301835791708
 31
0.0
  0
LINE
  5
5718
  8
0
 10
3289.8046593429658
 20
3850.8301835791708
 30
0.0
 11
3289.8046593429658
 21
3698.3301835791708
 31
0.0
  0
LINE
  5
5719
  8
0
 10
3289.8046593429658
 20
3698.3301835791708
 30
0.0
 11
3289.8046593429658
 21
3545.8301835791708
 31
0.0
  0
LINE
  5
571A
  8
0
 10
3289.8046593429658
 20
3545.8301835791708
 30
0.0
 11
3263.8046593429658
 21
3545.8301835791708
 31
0.0
  0
LINE
  5
571B
  8
0
 10
3263.8046593429658
 20
3545.8301835791708
 30
0.0
 11
3261.8046593429658
 21
3547.8301835791708
 31
0.0
  0
ARC
  5
571C
  8
0
 10
2742.0515239524671
 20
3399.3301835791708
 30
0.0
 40
6.0
 50
270.0
 51
346.87386246388411
  0
ARC
  5
571D
  8
0
 10
3181.5577947334659
 20
3399.3301835791708
 30
0.0
 40
6.0
 50
193.12613753611589
 51
270.0
  0
LINE
  5
5720
  8
0
 10
3222.8046593429658
 20
3298.3301835791708
 30
0.0
 11
2700.8036593429661
 21
3298.3301835791708
 31
0.0
  0
ARC
  5
5721
  8
0
 10
2700.8036593429661
 20
3302.3301835791708
 30
0.0
 40
4.0
 50
180.0
 51
270.0
  0
LINE
  5
5722
  8
0
 10
2696.8036593429661
 20
3302.3301835791708
 30
0.0
 11
2696.8036593429661
 21
3348.3301835791708
 31
0.0
  0
LINE
  5
5723
  8
0
 10
2696.8036593429661
 20
3348.3301835791708
 30
0.0
 11
2766.8046593429658
 21
3348.3301835791708
 31
0.0
  0
LINE
  5
5724
  8
0
 10
3156.8046593429672
 20
3348.3301835791708
 30
0.0
 11
3226.8046593429672
 21
3348.3301835791708
 31
0.0
  0
LINE
  5
5725
  8
0
 10
3226.8046593429672
 20
3348.3301835791708
 30
0.0
 11
3226.8046593429672
 21
3302.3301835791708
 31
0.0
  0
ARC
  5
5726
  8
0
 10
3222.8046593429658
 20
3302.3301835791708
 30
0.0
 40
4.0
 50
270.0
 51
0.0
  0
LINE
  5
5727
  8
0
 10
2991.8046593429672
 20
2821.7401835791702
 30
0.0
 11
2991.8046593429672
 21
2784.3301835791681
 31
0.0
  0
LINE
  5
5728
  8
0
 10
2931.8046593429672
 20
2822.137994273814
 30
0.0
 11
2931.8046593429658
 21
2784.3301835791622
 31
0.0
  0
ARC
  5
5729
  8
0
 10
2961.8046593429672
 20
2978.3301835791699
 30
0.0
 40
144.0
 50
190.29115888310591
 51
349.7090185059775
  0
LINE
  5
572A
  8
0
 10
3165.6116071362221
 20
3291.7593623537018
 30
0.0
 11
3103.4881557773028
 21
2952.6049656375958
 31
0.0
  0
ARC
  5
572B
  8
0
 10
3173.482912493685
 20
3290.3301835791708
 30
0.0
 40
8.0
 50
120.07655248928801
 51
169.70901850597741
  0
LINE
  5
572C
  8
0
 10
2991.8046593429672
 20
2787.3301835791699
 30
0.0
 11
3073.3726321896838
 21
2887.2885039215862
 31
0.0
  0
LINE
  5
572D
  8
0
 10
2931.8046593429672
 20
2787.330183579169
 30
0.0
 11
2850.2366864962491
 21
2887.2885039215848
 31
0.0
  0
ARC
  5
572E
  8
0
 10
2911.8046593429658
 20
2822.137994273814
 30
0.0
 40
20.0
 50
0.0
 51
72.249172818049189
  0
ARC
  5
572F
  8
0
 10
3011.8046593429672
 20
2822.137994273814
 30
0.0
 40
20.0
 50
107.7508271819508
 51
180.0
  0
LINE
  5
5730
  8
0
 10
2757.9967318941021
 20
3291.7587313611562
 30
0.0
 11
2820.1212425551798
 21
2952.6045269823321
 31
0.0
  0
LINE
  5
5731
  8
0
 10
3207.7286593429671
 20
3279.3301835791708
 30
0.0
 11
3172.7876593429669
 21
3279.3301835791708
 31
0.0
  0
ARC
  5
5732
  8
0
 10
3190.2586593429669
 20
3316.7312925554929
 30
0.0
 40
36.978084857321768
 50
253.6798477657839
 51
286.32015223421598
  0
LINE
  5
5733
  8
0
 10
3179.8816593429669
 20
3272.3301835791708
 30
0.0
 11
3200.6336593429678
 21
3272.3301835791708
 31
0.0
  0
LINE
  5
5734
  8
0
 10
3202.2576593429671
 20
3273.9541835791711
 30
0.0
 11
3178.2576593429671
 21
3273.9541835791711
 31
0.0
  0
LINE
  5
5735
  8
0
 10
3211.042659342967
 20
3298.3301835791708
 30
0.0
 11
3211.042659342967
 21
3281.2431835791708
 31
0.0
  0
LINE
  5
5736
  8
0
 10
3200.6496593429679
 20
3281.2431835791708
 30
0.0
 11
3200.6496593429679
 21
3298.3301835791708
 31
0.0
  0
LINE
  5
5737
  8
0
 10
3204.7246593429682
 20
3279.8171835791709
 30
0.0
 11
3205.8456593429669
 21
3279.753183579171
 31
0.0
  0
LINE
  5
5738
  8
0
 10
3211.042659342967
 20
3281.2431835791708
 30
0.0
 11
3207.7286593429671
 21
3279.3301835791708
 31
0.0
  0
LINE
  5
5739
  8
0
 10
3209.1236593429671
 20
3280.3171835791709
 30
0.0
 11
3211.042659342967
 21
3281.2431835791708
 31
0.0
  0
LINE
  5
573A
  8
0
 10
3208.0666593429669
 20
3280.0081835791711
 30
0.0
 11
3209.1236593429671
 21
3280.3171835791709
 31
0.0
  0
LINE
  5
573B
  8
0
 10
3206.966659342967
 20
3279.8171835791709
 30
0.0
 11
3208.0666593429669
 21
3280.0081835791711
 31
0.0
  0
LINE
  5
573C
  8
0
 10
3205.8456593429669
 20
3279.753183579171
 30
0.0
 11
3206.966659342967
 21
3279.8171835791709
 31
0.0
  0
LINE
  5
573D
  8
0
 10
3202.2576593429671
 20
3273.9541835791711
 30
0.0
 11
3202.2576593429671
 21
3279.3301835791708
 31
0.0
  0
LINE
  5
573E
  8
0
 10
3200.6336593429678
 20
3272.3301835791708
 30
0.0
 11
3200.6336593429678
 21
3279.3301835791708
 31
0.0
  0
LINE
  5
573F
  8
0
 10
3203.6256593429671
 20
3280.0081835791711
 30
0.0
 11
3204.7246593429682
 21
3279.8171835791709
 31
0.0
  0
LINE
  5
5740
  8
0
 10
3202.5686593429668
 20
3280.3171835791709
 30
0.0
 11
3203.6256593429671
 21
3280.0081835791711
 31
0.0
  0
LINE
  5
5741
  8
0
 10
3201.571659342967
 20
3280.7341835791708
 30
0.0
 11
3202.5686593429668
 21
3280.3171835791709
 31
0.0
  0
LINE
  5
5742
  8
0
 10
3200.6496593429679
 20
3281.2431835791708
 30
0.0
 11
3201.571659342967
 21
3280.7341835791708
 31
0.0
  0
LINE
  5
5743
  8
0
 10
3200.6336593429678
 20
3272.3301835791708
 30
0.0
 11
3202.2576593429671
 21
3273.9541835791711
 31
0.0
  0
LINE
  5
5744
  8
0
 10
3172.7876593429669
 20
3279.3301835791708
 30
0.0
 11
3169.473659342967
 21
3281.2431835791708
 31
0.0
  0
ARC
  5
5745
  8
0
 10
3174.6706593429672
 20
3289.5601011186
 30
0.0
 40
9.8071365014292677
 50
237.99993496084701
 51
302.00006503913067
  0
LINE
  5
5746
  8
0
 10
3179.8676593429682
 20
3281.2431835791708
 30
0.0
 11
3179.8676593429682
 21
3298.3301835791708
 31
0.0
  0
LINE
  5
5747
  8
0
 10
3178.2576593429671
 20
3279.3301835791708
 30
0.0
 11
3178.2576593429671
 21
3273.9541835791711
 31
0.0
  0
LINE
  5
5748
  8
0
 10
3179.8816593429669
 20
3272.3301835791708
 30
0.0
 11
3179.8816593429669
 21
3279.3301835791708
 31
0.0
  0
LINE
  5
5749
  8
0
 10
3178.2576593429671
 20
3273.9541835791711
 30
0.0
 11
3179.8816593429669
 21
3272.3301835791708
 31
0.0
  0
LINE
  5
574A
  8
0
 10
3169.473659342967
 20
3281.2431835791708
 30
0.0
 11
3169.473659342967
 21
3298.3301835791708
 31
0.0
  0
LINE
  5
574B
  8
0
 10
3179.8816593429669
 20
3397.6421835791712
 30
0.0
 11
3200.6336593429678
 21
3397.6421835791712
 31
0.0
  0
LINE
  5
574C
  8
0
 10
3202.2576593429671
 20
3396.0181835791709
 30
0.0
 11
3178.2576593429671
 21
3396.0181835791709
 31
0.0
  0
LINE
  5
574D
  8
0
 10
3202.2576593429671
 20
3396.0181835791709
 30
0.0
 11
3202.2576593429671
 21
3393.3301835791708
 31
0.0
  0
LINE
  5
574E
  8
0
 10
3200.6336593429678
 20
3397.6421835791712
 30
0.0
 11
3200.6336593429678
 21
3393.3301835791708
 31
0.0
  0
LINE
  5
574F
  8
0
 10
3200.6336593429678
 20
3397.6421835791712
 30
0.0
 11
3202.2576593429671
 21
3396.0181835791709
 31
0.0
  0
LINE
  5
5750
  8
0
 10
3178.2576593429671
 20
3393.3301835791708
 30
0.0
 11
3178.2576593429671
 21
3396.0181835791709
 31
0.0
  0
LINE
  5
5751
  8
0
 10
3179.8816593429669
 20
3397.6421835791712
 30
0.0
 11
3179.8816593429669
 21
3393.3301835791708
 31
0.0
  0
LINE
  5
5752
  8
0
 10
3178.2576593429671
 20
3396.0181835791709
 30
0.0
 11
3179.8816593429669
 21
3397.6421835791712
 31
0.0
  0
LINE
  5
5753
  8
0
 10
3146.5186593429662
 20
3279.3301835791708
 30
0.0
 11
3111.5776593429659
 21
3279.3301835791708
 31
0.0
  0
ARC
  5
5754
  8
0
 10
3129.0486593429669
 20
3316.7312925554929
 30
0.0
 40
36.978084857321768
 50
253.6798477657839
 51
286.32015223421598
  0
LINE
  5
5755
  8
0
 10
3118.6716593429669
 20
3272.3301835791708
 30
0.0
 11
3139.4236593429669
 21
3272.3301835791708
 31
0.0
  0
LINE
  5
5756
  8
0
 10
3141.0476593429671
 20
3273.9541835791711
 30
0.0
 11
3117.0476593429671
 21
3273.9541835791711
 31
0.0
  0
LINE
  5
5757
  8
0
 10
3149.832659342967
 20
3298.3301835791708
 30
0.0
 11
3149.832659342967
 21
3281.2431835791708
 31
0.0
  0
LINE
  5
5758
  8
0
 10
3139.4396593429669
 20
3281.2431835791708
 30
0.0
 11
3139.4396593429669
 21
3298.3301835791708
 31
0.0
  0
LINE
  5
5759
  8
0
 10
3143.5146593429672
 20
3279.8171835791709
 30
0.0
 11
3144.6356593429668
 21
3279.753183579171
 31
0.0
  0
LINE
  5
575A
  8
0
 10
3149.832659342967
 20
3281.2431835791708
 30
0.0
 11
3146.5186593429662
 21
3279.3301835791708
 31
0.0
  0
LINE
  5
575B
  8
0
 10
3147.9136593429671
 20
3280.3171835791709
 30
0.0
 11
3149.832659342967
 21
3281.2431835791708
 31
0.0
  0
LINE
  5
575C
  8
0
 10
3146.8566593429659
 20
3280.0081835791711
 30
0.0
 11
3147.9136593429671
 21
3280.3171835791709
 31
0.0
  0
LINE
  5
575D
  8
0
 10
3145.756659342966
 20
3279.8171835791709
 30
0.0
 11
3146.8566593429659
 21
3280.0081835791711
 31
0.0
  0
LINE
  5
575E
  8
0
 10
3144.6356593429668
 20
3279.753183579171
 30
0.0
 11
3145.756659342966
 21
3279.8171835791709
 31
0.0
  0
LINE
  5
575F
  8
0
 10
3141.0476593429671
 20
3273.9541835791711
 30
0.0
 11
3141.0476593429671
 21
3279.3301835791708
 31
0.0
  0
LINE
  5
5760
  8
0
 10
3139.4236593429669
 20
3272.3301835791708
 30
0.0
 11
3139.4236593429669
 21
3279.3301835791708
 31
0.0
  0
LINE
  5
5761
  8
0
 10
3142.4156593429661
 20
3280.0081835791711
 30
0.0
 11
3143.5146593429672
 21
3279.8171835791709
 31
0.0
  0
LINE
  5
5762
  8
0
 10
3141.3586593429659
 20
3280.3171835791709
 30
0.0
 11
3142.4156593429661
 21
3280.0081835791711
 31
0.0
  0
LINE
  5
5763
  8
0
 10
3140.361659342966
 20
3280.7341835791708
 30
0.0
 11
3141.3586593429659
 21
3280.3171835791709
 31
0.0
  0
LINE
  5
5764
  8
0
 10
3139.4396593429669
 20
3281.2431835791708
 30
0.0
 11
3140.361659342966
 21
3280.7341835791708
 31
0.0
  0
LINE
  5
5765
  8
0
 10
3139.4236593429669
 20
3272.3301835791708
 30
0.0
 11
3141.0476593429671
 21
3273.9541835791711
 31
0.0
  0
LINE
  5
5766
  8
0
 10
3111.5776593429659
 20
3279.3301835791708
 30
0.0
 11
3108.2636593429661
 21
3281.2431835791708
 31
0.0
  0
ARC
  5
5767
  8
0
 10
3113.4606593429662
 20
3289.5601011186
 30
0.0
 40
9.8071365014292677
 50
237.99993496084701
 51
302.00006503913067
  0
LINE
  5
5768
  8
0
 10
3118.6576593429668
 20
3281.2431835791708
 30
0.0
 11
3118.6576593429668
 21
3298.3301835791708
 31
0.0
  0
LINE
  5
5769
  8
0
 10
3117.0476593429671
 20
3279.3301835791708
 30
0.0
 11
3117.0476593429671
 21
3273.9541835791711
 31
0.0
  0
LINE
  5
576A
  8
0
 10
3118.6716593429669
 20
3272.3301835791708
 30
0.0
 11
3118.6716593429669
 21
3279.3301835791708
 31
0.0
  0
LINE
  5
576B
  8
0
 10
3117.0476593429671
 20
3273.9541835791711
 30
0.0
 11
3118.6716593429669
 21
3272.3301835791708
 31
0.0
  0
LINE
  5
576C
  8
0
 10
3108.2636593429661
 20
3281.2431835791708
 30
0.0
 11
3108.2636593429661
 21
3298.3301835791708
 31
0.0
  0
LINE
  5
576D
  8
0
 10
3118.6716593429669
 20
3397.6421835791712
 30
0.0
 11
3139.4236593429669
 21
3397.6421835791712
 31
0.0
  0
LINE
  5
576E
  8
0
 10
3141.0476593429671
 20
3396.0181835791709
 30
0.0
 11
3117.0476593429671
 21
3396.0181835791709
 31
0.0
  0
LINE
  5
576F
  8
0
 10
3141.0476593429671
 20
3396.0181835791709
 30
0.0
 11
3141.0476593429671
 21
3393.3301835791708
 31
0.0
  0
LINE
  5
5770
  8
0
 10
3139.4236593429669
 20
3397.6421835791712
 30
0.0
 11
3139.4236593429669
 21
3393.3301835791708
 31
0.0
  0
LINE
  5
5771
  8
0
 10
3139.4236593429669
 20
3397.6421835791712
 30
0.0
 11
3141.0476593429671
 21
3396.0181835791709
 31
0.0
  0
LINE
  5
5772
  8
0
 10
3117.0476593429671
 20
3393.3301835791708
 30
0.0
 11
3117.0476593429671
 21
3396.0181835791709
 31
0.0
  0
LINE
  5
5773
  8
0
 10
3118.6716593429669
 20
3397.6421835791712
 30
0.0
 11
3118.6716593429669
 21
3393.3301835791708
 31
0.0
  0
LINE
  5
5774
  8
0
 10
3117.0476593429671
 20
3396.0181835791709
 30
0.0
 11
3118.6716593429669
 21
3397.6421835791712
 31
0.0
  0
LINE
  5
5775
  8
0
 10
3040.4986593429671
 20
3279.3301835791722
 30
0.0
 11
3005.5576593429669
 21
3279.3301835791722
 31
0.0
  0
ARC
  5
5776
  8
0
 10
3023.0286593429669
 20
3316.7312925554929
 30
0.0
 40
36.978084857321768
 50
253.6798477657839
 51
286.32015223421598
  0
LINE
  5
5777
  8
0
 10
3012.6516593429669
 20
3272.3301835791722
 30
0.0
 11
3033.4036593429669
 21
3272.3301835791722
 31
0.0
  0
LINE
  5
5778
  8
0
 10
3035.0276593429671
 20
3273.9541835791711
 30
0.0
 11
3011.0276593429671
 21
3273.9541835791711
 31
0.0
  0
LINE
  5
5779
  8
0
 10
3043.812659342967
 20
3298.3301835791708
 30
0.0
 11
3043.812659342967
 21
3281.2431835791708
 31
0.0
  0
LINE
  5
577A
  8
0
 10
3033.419659342967
 20
3281.2431835791708
 30
0.0
 11
3033.419659342967
 21
3298.3301835791708
 31
0.0
  0
LINE
  5
577B
  8
0
 10
3037.4946593429672
 20
3279.8171835791709
 30
0.0
 11
3038.6156593429669
 21
3279.7531835791719
 31
0.0
  0
LINE
  5
577C
  8
0
 10
3043.812659342967
 20
3281.2431835791708
 30
0.0
 11
3040.4986593429671
 21
3279.3301835791722
 31
0.0
  0
LINE
  5
577D
  8
0
 10
3041.8936593429671
 20
3280.3171835791718
 30
0.0
 11
3043.812659342967
 21
3281.2431835791708
 31
0.0
  0
LINE
  5
577E
  8
0
 10
3040.8366593429669
 20
3280.0081835791721
 30
0.0
 11
3041.8936593429671
 21
3280.3171835791718
 31
0.0
  0
LINE
  5
577F
  8
0
 10
3039.736659342967
 20
3279.8171835791709
 30
0.0
 11
3040.8366593429669
 21
3280.0081835791721
 31
0.0
  0
LINE
  5
5780
  8
0
 10
3038.6156593429669
 20
3279.7531835791719
 30
0.0
 11
3039.736659342967
 21
3279.8171835791709
 31
0.0
  0
LINE
  5
5781
  8
0
 10
3035.0276593429671
 20
3273.9541835791711
 30
0.0
 11
3035.0276593429671
 21
3279.3301835791722
 31
0.0
  0
LINE
  5
5782
  8
0
 10
3033.4036593429669
 20
3272.3301835791722
 30
0.0
 11
3033.4036593429669
 21
3279.3301835791722
 31
0.0
  0
LINE
  5
5783
  8
0
 10
3036.3956593429671
 20
3280.0081835791721
 30
0.0
 11
3037.4946593429672
 21
3279.8171835791709
 31
0.0
  0
LINE
  5
5784
  8
0
 10
3035.3386593429668
 20
3280.3171835791718
 30
0.0
 11
3036.3956593429671
 21
3280.0081835791721
 31
0.0
  0
LINE
  5
5785
  8
0
 10
3034.341659342967
 20
3280.7341835791708
 30
0.0
 11
3035.3386593429668
 21
3280.3171835791718
 31
0.0
  0
LINE
  5
5786
  8
0
 10
3033.419659342967
 20
3281.2431835791708
 30
0.0
 11
3034.341659342967
 21
3280.7341835791708
 31
0.0
  0
LINE
  5
5787
  8
0
 10
3033.4036593429669
 20
3272.3301835791722
 30
0.0
 11
3035.0276593429671
 21
3273.9541835791711
 31
0.0
  0
LINE
  5
5788
  8
0
 10
3005.5576593429669
 20
3279.3301835791722
 30
0.0
 11
3002.243659342967
 21
3281.2431835791708
 31
0.0
  0
ARC
  5
5789
  8
0
 10
3007.4406593429671
 20
3289.5601011186
 30
0.0
 40
9.8071365014292677
 50
237.99993496084701
 51
302.00006503915301
  0
LINE
  5
578A
  8
0
 10
3012.6376593429668
 20
3281.2431835791708
 30
0.0
 11
3012.6376593429668
 21
3298.3301835791708
 31
0.0
  0
LINE
  5
578B
  8
0
 10
3011.0276593429671
 20
3279.3301835791722
 30
0.0
 11
3011.0276593429671
 21
3273.9541835791711
 31
0.0
  0
LINE
  5
578C
  8
0
 10
3012.6516593429669
 20
3272.3301835791722
 30
0.0
 11
3012.6516593429669
 21
3279.3301835791722
 31
0.0
  0
LINE
  5
578D
  8
0
 10
3011.0276593429671
 20
3273.9541835791711
 30
0.0
 11
3012.6516593429669
 21
3272.3301835791722
 31
0.0
  0
LINE
  5
578E
  8
0
 10
3002.243659342967
 20
3281.2431835791708
 30
0.0
 11
3002.243659342967
 21
3298.3301835791708
 31
0.0
  0
LINE
  5
578F
  8
0
 10
3012.6516593429669
 20
3397.6421835791712
 30
0.0
 11
3033.4036593429669
 21
3397.6421835791712
 31
0.0
  0
LINE
  5
5790
  8
0
 10
3035.0276593429671
 20
3396.0181835791709
 30
0.0
 11
3011.0276593429671
 21
3396.0181835791709
 31
0.0
  0
LINE
  5
5791
  8
0
 10
3035.0276593429671
 20
3396.0181835791709
 30
0.0
 11
3035.0276593429671
 21
3393.3301835791708
 31
0.0
  0
LINE
  5
5792
  8
0
 10
3033.4036593429669
 20
3397.6421835791712
 30
0.0
 11
3033.4036593429669
 21
3393.3301835791708
 31
0.0
  0
LINE
  5
5793
  8
0
 10
3033.4036593429669
 20
3397.6421835791712
 30
0.0
 11
3035.0276593429671
 21
3396.0181835791709
 31
0.0
  0
LINE
  5
5794
  8
0
 10
3011.0276593429671
 20
3393.3301835791708
 30
0.0
 11
3011.0276593429671
 21
3396.0181835791709
 31
0.0
  0
LINE
  5
5795
  8
0
 10
3012.6516593429669
 20
3397.6421835791712
 30
0.0
 11
3012.6516593429669
 21
3393.3301835791708
 31
0.0
  0
LINE
  5
5796
  8
0
 10
3011.0276593429671
 20
3396.0181835791709
 30
0.0
 11
3012.6516593429669
 21
3397.6421835791712
 31
0.0
  0
LINE
  5
5797
  8
0
 10
2715.8856593429659
 20
3279.3301835791708
 30
0.0
 11
2750.8266593429662
 21
3279.3301835791708
 31
0.0
  0
ARC
  5
5798
  8
0
 10
2733.3556593429662
 20
3316.7312925554929
 30
0.0
 40
36.978084857321768
 50
253.6798477657839
 51
286.32015223421598
  0
LINE
  5
5799
  8
0
 10
2743.7326593429661
 20
3272.3301835791708
 30
0.0
 11
2722.9806593429662
 21
3272.3301835791708
 31
0.0
  0
LINE
  5
579A
  8
0
 10
2721.3566593429659
 20
3273.9541835791711
 30
0.0
 11
2745.3566593429659
 21
3273.9541835791711
 31
0.0
  0
LINE
  5
579B
  8
0
 10
2712.5716593429661
 20
3298.3301835791708
 30
0.0
 11
2712.5716593429661
 21
3281.2431835791708
 31
0.0
  0
LINE
  5
579C
  8
0
 10
2722.964659342967
 20
3281.2431835791708
 30
0.0
 11
2722.964659342967
 21
3298.3301835791708
 31
0.0
  0
LINE
  5
579D
  8
0
 10
2718.8896593429672
 20
3279.8171835791709
 30
0.0
 11
2717.7686593429662
 21
3279.753183579171
 31
0.0
  0
LINE
  5
579E
  8
0
 10
2712.5716593429661
 20
3281.2431835791708
 30
0.0
 11
2715.8856593429659
 21
3279.3301835791708
 31
0.0
  0
LINE
  5
579F
  8
0
 10
2714.490659342966
 20
3280.3171835791709
 30
0.0
 11
2712.5716593429661
 21
3281.2431835791708
 31
0.0
  0
LINE
  5
57A0
  8
0
 10
2715.5476593429662
 20
3280.0081835791711
 30
0.0
 11
2714.490659342966
 21
3280.3171835791709
 31
0.0
  0
LINE
  5
57A1
  8
0
 10
2716.6476593429661
 20
3279.8171835791709
 30
0.0
 11
2715.5476593429662
 21
3280.0081835791711
 31
0.0
  0
LINE
  5
57A2
  8
0
 10
2717.7686593429662
 20
3279.753183579171
 30
0.0
 11
2716.6476593429661
 21
3279.8171835791709
 31
0.0
  0
LINE
  5
57A3
  8
0
 10
2721.3566593429659
 20
3273.9541835791711
 30
0.0
 11
2721.3566593429659
 21
3279.3301835791708
 31
0.0
  0
LINE
  5
57A4
  8
0
 10
2722.9806593429662
 20
3272.3301835791708
 30
0.0
 11
2722.9806593429662
 21
3279.3301835791708
 31
0.0
  0
LINE
  5
57A5
  8
0
 10
2719.9886593429669
 20
3280.0081835791711
 30
0.0
 11
2718.8896593429672
 21
3279.8171835791709
 31
0.0
  0
LINE
  5
57A6
  8
0
 10
2721.0456593429658
 20
3280.3171835791709
 30
0.0
 11
2719.9886593429669
 21
3280.0081835791711
 31
0.0
  0
LINE
  5
57A7
  8
0
 10
2722.0426593429661
 20
3280.7341835791708
 30
0.0
 11
2721.0456593429658
 21
3280.3171835791709
 31
0.0
  0
LINE
  5
57A8
  8
0
 10
2722.964659342967
 20
3281.2431835791708
 30
0.0
 11
2722.0426593429661
 21
3280.7341835791708
 31
0.0
  0
LINE
  5
57A9
  8
0
 10
2722.9806593429662
 20
3272.3301835791708
 30
0.0
 11
2721.3566593429659
 21
3273.9541835791711
 31
0.0
  0
LINE
  5
57AA
  8
0
 10
2750.8266593429662
 20
3279.3301835791708
 30
0.0
 11
2754.140659342967
 21
3281.2431835791708
 31
0.0
  0
ARC
  5
57AB
  8
0
 10
2748.9436593429668
 20
3289.5601011186
 30
0.0
 40
9.8071365014292677
 50
237.9999349608693
 51
302.00006503913067
  0
LINE
  5
57AC
  8
0
 10
2743.7466593429658
 20
3281.2431835791708
 30
0.0
 11
2743.7466593429658
 21
3298.3301835791708
 31
0.0
  0
LINE
  5
57AD
  8
0
 10
2745.3566593429659
 20
3279.3301835791708
 30
0.0
 11
2745.3566593429659
 21
3273.9541835791711
 31
0.0
  0
LINE
  5
57AE
  8
0
 10
2743.7326593429661
 20
3272.3301835791708
 30
0.0
 11
2743.7326593429661
 21
3279.3301835791708
 31
0.0
  0
LINE
  5
57AF
  8
0
 10
2745.3566593429659
 20
3273.9541835791711
 30
0.0
 11
2743.7326593429661
 21
3272.3301835791708
 31
0.0
  0
LINE
  5
57B0
  8
0
 10
2754.140659342967
 20
3281.2431835791708
 30
0.0
 11
2754.140659342967
 21
3298.3301835791708
 31
0.0
  0
LINE
  5
57B1
  8
0
 10
2743.7326593429661
 20
3397.6421835791712
 30
0.0
 11
2722.9806593429662
 21
3397.6421835791712
 31
0.0
  0
LINE
  5
57B2
  8
0
 10
2721.3566593429659
 20
3396.0181835791709
 30
0.0
 11
2745.3566593429659
 21
3396.0181835791709
 31
0.0
  0
LINE
  5
57B3
  8
0
 10
2721.3566593429659
 20
3396.0181835791709
 30
0.0
 11
2721.3566593429659
 21
3393.3301835791708
 31
0.0
  0
LINE
  5
57B4
  8
0
 10
2722.9806593429662
 20
3397.6421835791712
 30
0.0
 11
2722.9806593429662
 21
3393.3301835791708
 31
0.0
  0
LINE
  5
57B5
  8
0
 10
2722.9806593429662
 20
3397.6421835791712
 30
0.0
 11
2721.3566593429659
 21
3396.0181835791709
 31
0.0
  0
LINE
  5
57B6
  8
0
 10
2745.3566593429659
 20
3393.3301835791708
 30
0.0
 11
2745.3566593429659
 21
3396.0181835791709
 31
0.0
  0
LINE
  5
57B7
  8
0
 10
2743.7326593429661
 20
3397.6421835791712
 30
0.0
 11
2743.7326593429661
 21
3393.3301835791708
 31
0.0
  0
LINE
  5
57B8
  8
0
 10
2745.3566593429659
 20
3396.0181835791709
 30
0.0
 11
2743.7326593429661
 21
3397.6421835791712
 31
0.0
  0
LINE
  5
57B9
  8
0
 10
2777.0956593429669
 20
3279.3301835791708
 30
0.0
 11
2812.0366593429671
 21
3279.3301835791708
 31
0.0
  0
ARC
  5
57BA
  8
0
 10
2794.5656593429671
 20
3316.7312925554929
 30
0.0
 40
36.978084857321768
 50
253.6798477657839
 51
286.32015223421598
  0
LINE
  5
57BB
  8
0
 10
2804.9426593429671
 20
3272.3301835791708
 30
0.0
 11
2784.1906593429671
 21
3272.3301835791708
 31
0.0
  0
LINE
  5
57BC
  8
0
 10
2782.5666593429669
 20
3273.9541835791711
 30
0.0
 11
2806.5666593429669
 21
3273.9541835791711
 31
0.0
  0
LINE
  5
57BD
  8
0
 10
2773.781659342967
 20
3298.3301835791708
 30
0.0
 11
2773.781659342967
 21
3281.2431835791708
 31
0.0
  0
LINE
  5
57BE
  8
0
 10
2784.1746593429671
 20
3281.2431835791708
 30
0.0
 11
2784.1746593429671
 21
3298.3301835791708
 31
0.0
  0
LINE
  5
57BF
  8
0
 10
2780.0996593429659
 20
3279.8171835791709
 30
0.0
 11
2778.9786593429671
 21
3279.753183579171
 31
0.0
  0
LINE
  5
57C0
  8
0
 10
2773.781659342967
 20
3281.2431835791708
 30
0.0
 11
2777.0956593429669
 21
3279.3301835791708
 31
0.0
  0
LINE
  5
57C1
  8
0
 10
2775.7006593429669
 20
3280.3171835791709
 30
0.0
 11
2773.781659342967
 21
3281.2431835791708
 31
0.0
  0
LINE
  5
57C2
  8
0
 10
2776.7576593429671
 20
3280.0081835791711
 30
0.0
 11
2775.7006593429669
 21
3280.3171835791709
 31
0.0
  0
LINE
  5
57C3
  8
0
 10
2777.8576593429671
 20
3279.8171835791709
 30
0.0
 11
2776.7576593429671
 21
3280.0081835791711
 31
0.0
  0
LINE
  5
57C4
  8
0
 10
2778.9786593429671
 20
3279.753183579171
 30
0.0
 11
2777.8576593429671
 21
3279.8171835791709
 31
0.0
  0
LINE
  5
57C5
  8
0
 10
2782.5666593429669
 20
3273.9541835791711
 30
0.0
 11
2782.5666593429669
 21
3279.3301835791708
 31
0.0
  0
LINE
  5
57C6
  8
0
 10
2784.1906593429671
 20
3272.3301835791708
 30
0.0
 11
2784.1906593429671
 21
3279.3301835791708
 31
0.0
  0
LINE
  5
57C7
  8
0
 10
2781.1986593429669
 20
3280.0081835791711
 30
0.0
 11
2780.0996593429659
 21
3279.8171835791709
 31
0.0
  0
LINE
  5
57C8
  8
0
 10
2782.2556593429672
 20
3280.3171835791709
 30
0.0
 11
2781.1986593429669
 21
3280.0081835791711
 31
0.0
  0
LINE
  5
57C9
  8
0
 10
2783.252659342967
 20
3280.7341835791708
 30
0.0
 11
2782.2556593429672
 21
3280.3171835791709
 31
0.0
  0
LINE
  5
57CA
  8
0
 10
2784.1746593429671
 20
3281.2431835791708
 30
0.0
 11
2783.252659342967
 21
3280.7341835791708
 31
0.0
  0
LINE
  5
57CB
  8
0
 10
2784.1906593429671
 20
3272.3301835791708
 30
0.0
 11
2782.5666593429669
 21
3273.9541835791711
 31
0.0
  0
LINE
  5
57CC
  8
0
 10
2812.0366593429671
 20
3279.3301835791708
 30
0.0
 11
2815.3506593429661
 21
3281.2431835791708
 31
0.0
  0
ARC
  5
57CD
  8
0
 10
2810.1536593429669
 20
3289.5601011186
 30
0.0
 40
9.8071365014292677
 50
237.9999349608693
 51
302.00006503913067
  0
LINE
  5
57CE
  8
0
 10
2804.9566593429672
 20
3281.2431835791708
 30
0.0
 11
2804.9566593429672
 21
3298.3301835791708
 31
0.0
  0
LINE
  5
57CF
  8
0
 10
2806.5666593429669
 20
3279.3301835791708
 30
0.0
 11
2806.5666593429669
 21
3273.9541835791711
 31
0.0
  0
LINE
  5
57D0
  8
0
 10
2804.9426593429671
 20
3272.3301835791708
 30
0.0
 11
2804.9426593429671
 21
3279.3301835791708
 31
0.0
  0
LINE
  5
57D1
  8
0
 10
2806.5666593429669
 20
3273.9541835791711
 30
0.0
 11
2804.9426593429671
 21
3272.3301835791708
 31
0.0
  0
LINE
  5
57D2
  8
0
 10
2815.3506593429661
 20
3281.2431835791708
 30
0.0
 11
2815.3506593429661
 21
3298.3301835791708
 31
0.0
  0
LINE
  5
57D3
  8
0
 10
2804.9426593429671
 20
3397.6421835791712
 30
0.0
 11
2784.1906593429671
 21
3397.6421835791712
 31
0.0
  0
LINE
  5
57D4
  8
0
 10
2782.5666593429669
 20
3396.0181835791709
 30
0.0
 11
2806.5666593429669
 21
3396.0181835791709
 31
0.0
  0
LINE
  5
57D5
  8
0
 10
2782.5666593429669
 20
3396.0181835791709
 30
0.0
 11
2782.5666593429669
 21
3393.3301835791708
 31
0.0
  0
LINE
  5
57D6
  8
0
 10
2784.1906593429671
 20
3397.6421835791712
 30
0.0
 11
2784.1906593429671
 21
3393.3301835791708
 31
0.0
  0
LINE
  5
57D7
  8
0
 10
2784.1906593429671
 20
3397.6421835791712
 30
0.0
 11
2782.5666593429669
 21
3396.0181835791709
 31
0.0
  0
LINE
  5
57D8
  8
0
 10
2806.5666593429669
 20
3393.3301835791708
 30
0.0
 11
2806.5666593429669
 21
3396.0181835791709
 31
0.0
  0
LINE
  5
57D9
  8
0
 10
2804.9426593429671
 20
3397.6421835791712
 30
0.0
 11
2804.9426593429671
 21
3393.3301835791708
 31
0.0
  0
LINE
  5
57DA
  8
0
 10
2806.5666593429669
 20
3396.0181835791709
 30
0.0
 11
2804.9426593429671
 21
3397.6421835791712
 31
0.0
  0
LINE
  5
57DB
  8
0
 10
2883.115659342966
 20
3279.3301835791722
 30
0.0
 11
2918.0566593429662
 21
3279.3301835791722
 31
0.0
  0
ARC
  5
57DC
  8
0
 10
2900.5856593429662
 20
3316.7312925554929
 30
0.0
 40
36.978084857321768
 50
253.6798477657839
 51
286.32015223421598
  0
LINE
  5
57DD
  8
0
 10
2910.9626593429671
 20
3272.3301835791722
 30
0.0
 11
2890.2106593429671
 21
3272.3301835791722
 31
0.0
  0
LINE
  5
57DE
  8
0
 10
2888.586659342966
 20
3273.9541835791711
 30
0.0
 11
2912.5866593429669
 21
3273.9541835791711
 31
0.0
  0
LINE
  5
57DF
  8
0
 10
2879.8016593429661
 20
3298.3301835791708
 30
0.0
 11
2879.8016593429661
 21
3281.2431835791708
 31
0.0
  0
LINE
  5
57E0
  8
0
 10
2890.194659342967
 20
3281.2431835791708
 30
0.0
 11
2890.194659342967
 21
3298.3301835791708
 31
0.0
  0
LINE
  5
57E1
  8
0
 10
2886.1196593429659
 20
3279.8171835791709
 30
0.0
 11
2884.9986593429662
 21
3279.7531835791719
 31
0.0
  0
LINE
  5
57E2
  8
0
 10
2879.8016593429661
 20
3281.2431835791708
 30
0.0
 11
2883.115659342966
 21
3279.3301835791722
 31
0.0
  0
LINE
  5
57E3
  8
0
 10
2881.7206593429669
 20
3280.3171835791718
 30
0.0
 11
2879.8016593429661
 21
3281.2431835791708
 31
0.0
  0
LINE
  5
57E4
  8
0
 10
2882.7776593429662
 20
3280.0081835791721
 30
0.0
 11
2881.7206593429669
 21
3280.3171835791718
 31
0.0
  0
LINE
  5
57E5
  8
0
 10
2883.8776593429661
 20
3279.8171835791709
 30
0.0
 11
2882.7776593429662
 21
3280.0081835791721
 31
0.0
  0
LINE
  5
57E6
  8
0
 10
2884.9986593429662
 20
3279.7531835791719
 30
0.0
 11
2883.8776593429661
 21
3279.8171835791709
 31
0.0
  0
LINE
  5
57E7
  8
0
 10
2888.586659342966
 20
3273.9541835791711
 30
0.0
 11
2888.586659342966
 21
3279.3301835791722
 31
0.0
  0
LINE
  5
57E8
  8
0
 10
2890.2106593429671
 20
3272.3301835791722
 30
0.0
 11
2890.2106593429671
 21
3279.3301835791722
 31
0.0
  0
LINE
  5
57E9
  8
0
 10
2887.218659342966
 20
3280.0081835791721
 30
0.0
 11
2886.1196593429659
 21
3279.8171835791709
 31
0.0
  0
LINE
  5
57EA
  8
0
 10
2888.2756593429658
 20
3280.3171835791718
 30
0.0
 11
2887.218659342966
 21
3280.0081835791721
 31
0.0
  0
LINE
  5
57EB
  8
0
 10
2889.2726593429661
 20
3280.7341835791708
 30
0.0
 11
2888.2756593429658
 21
3280.3171835791718
 31
0.0
  0
LINE
  5
57EC
  8
0
 10
2890.194659342967
 20
3281.2431835791708
 30
0.0
 11
2889.2726593429661
 21
3280.7341835791708
 31
0.0
  0
LINE
  5
57ED
  8
0
 10
2890.2106593429671
 20
3272.3301835791722
 30
0.0
 11
2888.586659342966
 21
3273.9541835791711
 31
0.0
  0
LINE
  5
57EE
  8
0
 10
2918.0566593429662
 20
3279.3301835791722
 30
0.0
 11
2921.370659342967
 21
3281.2431835791708
 31
0.0
  0
ARC
  5
57EF
  8
0
 10
2916.1736593429659
 20
3289.5601011186
 30
0.0
 40
9.8071365014292677
 50
237.9999349608693
 51
302.00006503913067
  0
LINE
  5
57F0
  8
0
 10
2910.9766593429658
 20
3281.2431835791708
 30
0.0
 11
2910.9766593429658
 21
3298.3301835791708
 31
0.0
  0
LINE
  5
57F1
  8
0
 10
2912.5866593429669
 20
3279.3301835791722
 30
0.0
 11
2912.5866593429669
 21
3273.9541835791711
 31
0.0
  0
LINE
  5
57F2
  8
0
 10
2910.9626593429671
 20
3272.3301835791722
 30
0.0
 11
2910.9626593429671
 21
3279.3301835791722
 31
0.0
  0
LINE
  5
57F3
  8
0
 10
2912.5866593429669
 20
3273.9541835791711
 30
0.0
 11
2910.9626593429671
 21
3272.3301835791722
 31
0.0
  0
LINE
  5
57F4
  8
0
 10
2921.370659342967
 20
3281.2431835791708
 30
0.0
 11
2921.370659342967
 21
3298.3301835791708
 31
0.0
  0
LINE
  5
57F5
  8
0
 10
2910.9626593429671
 20
3397.6421835791712
 30
0.0
 11
2890.2106593429671
 21
3397.6421835791712
 31
0.0
  0
LINE
  5
57F6
  8
0
 10
2888.586659342966
 20
3396.0181835791709
 30
0.0
 11
2912.5866593429669
 21
3396.0181835791709
 31
0.0
  0
LINE
  5
57F7
  8
0
 10
2888.586659342966
 20
3396.0181835791709
 30
0.0
 11
2888.586659342966
 21
3393.3301835791708
 31
0.0
  0
LINE
  5
57F8
  8
0
 10
2890.2106593429671
 20
3397.6421835791712
 30
0.0
 11
2890.2106593429671
 21
3393.3301835791708
 31
0.0
  0
LINE
  5
57F9
  8
0
 10
2890.2106593429671
 20
3397.6421835791712
 30
0.0
 11
2888.586659342966
 21
3396.0181835791709
 31
0.0
  0
LINE
  5
57FA
  8
0
 10
2912.5866593429669
 20
3393.3301835791708
 30
0.0
 11
2912.5866593429669
 21
3396.0181835791709
 31
0.0
  0
LINE
  5
57FB
  8
0
 10
2910.9626593429671
 20
3397.6421835791712
 30
0.0
 11
2910.9626593429671
 21
3393.3301835791708
 31
0.0
  0
LINE
  5
57FC
  8
0
 10
2912.5866593429669
 20
3396.0181835791709
 30
0.0
 11
2910.9626593429671
 21
3397.6421835791712
 31
0.0
  0
ARC
  5
57FD
  8
0
 10
2750.1322072506259
 20
3290.309016043906
 30
0.0
 40
8.0
 50
10.296711071989121
 51
59.930077108170167
  0
ARC
  5
580A
  8
0
 10
2027.2901429023459
 20
1571.959191670411
 30
0.0
 40
201.0
 50
0.0
 51
41.254001454265243
  0
ARC
  5
580B
  8
0
 10
2027.2901429023459
 20
1571.959191670411
 30
0.0
 40
201.0
 50
138.74599854573469
 51
180.0
  0
CIRCLE
  5
580C
  8
0
 10
2027.290142902348
 20
1683.959191670411
 30
0.0
 40
152.5
  0
CIRCLE
  5
580D
  8
0
 10
1993.6436670390201
 20
1558.3888342528321
 30
0.0
 40
12.5
  0
CIRCLE
  5
580E
  8
0
 10
1935.366261348096
 20
1592.03531011616
 30
0.0
 40
12.5
  0
CIRCLE
  5
580F
  8
0
 10
1901.7197854847691
 20
1650.3127158070829
 30
0.0
 40
12.5
  0
CIRCLE
  5
5810
  8
0
 10
1901.7197854847691
 20
1717.6056675337391
 30
0.0
 40
12.5
  0
CIRCLE
  5
5811
  8
0
 10
1935.366261348096
 20
1775.883073224662
 30
0.0
 40
12.5
  0
CIRCLE
  5
5812
  8
0
 10
1993.6436670390201
 20
1809.5295490879901
 30
0.0
 40
12.5
  0
CIRCLE
  5
5813
  8
0
 10
2060.936618765676
 20
1558.3888342528321
 30
0.0
 40
12.5
  0
CIRCLE
  5
5814
  8
0
 10
2119.214024456599
 20
1592.03531011616
 30
0.0
 40
12.5
  0
CIRCLE
  5
5815
  8
0
 10
2152.8605003199282
 20
1650.3127158070829
 30
0.0
 40
12.5
  0
CIRCLE
  5
5816
  8
0
 10
2152.8605003199268
 20
1717.6056675337391
 30
0.0
 40
12.5
  0
CIRCLE
  5
5817
  8
0
 10
2119.214024456599
 20
1775.883073224662
 30
0.0
 40
12.5
  0
CIRCLE
  5
5818
  8
0
 10
2060.936618765676
 20
1809.5295490879901
 30
0.0
 40
12.5
  0
LINE
  5
5819
  8
0
 10
2292.2901429023482
 20
1333.918191670411
 30
0.0
 11
2292.2901429023482
 21
1375.918191670411
 31
0.0
  0
ARC
  5
581A
  8
0
 10
2289.2901429023482
 20
1375.918191670411
 30
0.0
 40
3.0
 50
0.0
 51
90.0
  0
LINE
  5
581B
  8
0
 10
2241.2081429023478
 20
1383.555191670411
 30
0.0
 11
2228.2901429023482
 21
1438.918191670411
 31
0.0
  0
LINE
  5
581C
  8
0
 10
2228.2901429023482
 20
1438.918191670411
 30
0.0
 11
2228.2901429023482
 21
1571.918191670411
 31
0.0
  0
LINE
  5
581F
  8
0
 10
1766.290142902348
 20
1283.959191670411
 30
0.0
 11
2288.2911429023479
 21
1283.959191670411
 31
0.0
  0
ARC
  5
5820
  8
0
 10
2288.2911429023479
 20
1287.959191670411
 30
0.0
 40
4.0
 50
270.0
 51
0.0
  0
LINE
  5
5821
  8
0
 10
2292.2911429023479
 20
1287.959191670411
 30
0.0
 11
2292.2911429023479
 21
1333.959191670411
 31
0.0
  0
LINE
  5
5822
  8
0
 10
1762.290142902348
 20
1333.959191670411
 30
0.0
 11
1762.290142902348
 21
1287.959191670411
 31
0.0
  0
ARC
  5
5823
  8
0
 10
1766.290142902348
 20
1287.959191670411
 30
0.0
 40
4.0
 50
180.0
 51
270.0
  0
LINE
  5
5824
  8
0
 10
1997.290142902348
 20
807.76700236505599
 30
0.0
 11
1997.290142902348
 21
769.95619167040866
 31
0.0
  0
LINE
  5
5825
  8
0
 10
2057.2901429023482
 20
807.76700236505599
 30
0.0
 11
2057.2901429023468
 21
769.96219239087338
 31
0.0
  0
ARC
  5
5826
  8
0
 10
2027.290142902347
 20
963.95919167041143
 30
0.0
 40
144.0
 50
190.29098149402219
 51
349.70884111689389
  0
LINE
  5
5827
  8
0
 10
1823.4831951090921
 20
1277.3883704449429
 30
0.0
 11
1885.6066464680109
 21
938.23397372883687
 31
0.0
  0
ARC
  5
5828
  8
0
 10
1815.611889751629
 20
1275.959191670411
 30
0.0
 40
8.0
 50
10.29098149402224
 51
59.923447510712052
  0
LINE
  5
5829
  8
0
 10
1997.290142902348
 20
772.95919167041143
 30
0.0
 11
1915.7221700556299
 21
872.91751201282761
 31
0.0
  0
LINE
  5
582A
  8
0
 10
2057.2901429023468
 20
772.95919167041143
 30
0.0
 11
2138.8581157490648
 21
872.91751201282705
 31
0.0
  0
ARC
  5
582B
  8
0
 10
2077.2901429023482
 20
807.76700236505599
 30
0.0
 40
20.0
 50
107.7508271819259
 51
180.0
  0
ARC
  5
582C
  8
0
 10
1977.290142902347
 20
807.76700236505599
 30
0.0
 40
20.0
 50
0.0
 51
72.249172818049303
  0
LINE
  5
582D
  8
0
 10
2231.0980703512118
 20
1277.3877394523961
 30
0.0
 11
2168.9735596901342
 21
938.23353507357422
 31
0.0
  0
LINE
  5
582E
  8
0
 10
1781.3661429023471
 20
1264.959191670411
 30
0.0
 11
1816.3071429023471
 21
1264.959191670411
 31
0.0
  0
ARC
  5
582F
  8
0
 10
1798.8361429023471
 20
1302.3603006467331
 30
0.0
 40
36.978084857321768
 50
253.67984776578399
 51
286.32015223421598
  0
LINE
  5
5830
  8
0
 10
1809.213142902347
 20
1257.9591916704121
 30
0.0
 11
1788.4611429023471
 21
1257.9591916704121
 31
0.0
  0
LINE
  5
5831
  8
0
 10
1786.8371429023471
 20
1259.5831916704119
 30
0.0
 11
1810.8371429023471
 21
1259.5831916704119
 31
0.0
  0
LINE
  5
5832
  8
0
 10
1778.052142902347
 20
1283.9591916704121
 30
0.0
 11
1778.052142902347
 21
1266.872191670411
 31
0.0
  0
LINE
  5
5833
  8
0
 10
1788.445142902347
 20
1266.872191670411
 30
0.0
 11
1788.445142902347
 21
1283.9591916704121
 31
0.0
  0
LINE
  5
5834
  8
0
 10
1784.370142902347
 20
1265.446191670412
 30
0.0
 11
1783.2491429023471
 21
1265.382191670411
 31
0.0
  0
LINE
  5
5835
  8
0
 10
1778.052142902347
 20
1266.872191670411
 30
0.0
 11
1781.3661429023471
 21
1264.959191670411
 31
0.0
  0
LINE
  5
5836
  8
0
 10
1779.9711429023471
 20
1265.946191670412
 30
0.0
 11
1778.052142902347
 21
1266.872191670411
 31
0.0
  0
LINE
  5
5837
  8
0
 10
1781.0281429023471
 20
1265.6371916704111
 30
0.0
 11
1779.9711429023471
 21
1265.946191670412
 31
0.0
  0
LINE
  5
5838
  8
0
 10
1782.128142902347
 20
1265.446191670412
 30
0.0
 11
1781.0281429023471
 21
1265.6371916704111
 31
0.0
  0
LINE
  5
5839
  8
0
 10
1783.2491429023471
 20
1265.382191670411
 30
0.0
 11
1782.128142902347
 21
1265.446191670412
 31
0.0
  0
LINE
  5
583A
  8
0
 10
1786.8371429023471
 20
1259.5831916704119
 30
0.0
 11
1786.8371429023471
 21
1264.959191670411
 31
0.0
  0
LINE
  5
583B
  8
0
 10
1788.4611429023471
 20
1257.9591916704121
 30
0.0
 11
1788.4611429023471
 21
1264.959191670411
 31
0.0
  0
LINE
  5
583C
  8
0
 10
1785.4691429023469
 20
1265.6371916704111
 30
0.0
 11
1784.370142902347
 21
1265.446191670412
 31
0.0
  0
LINE
  5
583D
  8
0
 10
1786.5261429023469
 20
1265.946191670412
 30
0.0
 11
1785.4691429023469
 21
1265.6371916704111
 31
0.0
  0
LINE
  5
583E
  8
0
 10
1787.523142902347
 20
1266.3631916704121
 30
0.0
 11
1786.5261429023469
 21
1265.946191670412
 31
0.0
  0
LINE
  5
583F
  8
0
 10
1788.445142902347
 20
1266.872191670411
 30
0.0
 11
1787.523142902347
 21
1266.3631916704121
 31
0.0
  0
LINE
  5
5840
  8
0
 10
1788.4611429023471
 20
1257.9591916704121
 30
0.0
 11
1786.8371429023471
 21
1259.5831916704119
 31
0.0
  0
LINE
  5
5841
  8
0
 10
1816.3071429023471
 20
1264.959191670411
 30
0.0
 11
1819.6211429023469
 21
1266.872191670411
 31
0.0
  0
ARC
  5
5842
  8
0
 10
1814.4241429023471
 20
1275.189109209841
 30
0.0
 40
9.8071365014292677
 50
237.99993496086921
 51
302.00006503913079
  0
LINE
  5
5843
  8
0
 10
1809.2271429023469
 20
1266.872191670411
 30
0.0
 11
1809.2271429023469
 21
1283.9591916704121
 31
0.0
  0
LINE
  5
5844
  8
0
 10
1810.8371429023471
 20
1264.959191670411
 30
0.0
 11
1810.8371429023471
 21
1259.5831916704119
 31
0.0
  0
LINE
  5
5845
  8
0
 10
1809.213142902347
 20
1257.9591916704121
 30
0.0
 11
1809.213142902347
 21
1264.959191670411
 31
0.0
  0
LINE
  5
5846
  8
0
 10
1810.8371429023471
 20
1259.5831916704119
 30
0.0
 11
1809.213142902347
 21
1257.9591916704121
 31
0.0
  0
LINE
  5
5847
  8
0
 10
1819.6211429023469
 20
1266.872191670411
 30
0.0
 11
1819.6211429023469
 21
1283.9591916704121
 31
0.0
  0
LINE
  5
5848
  8
0
 10
1842.576142902348
 20
1264.959191670411
 30
0.0
 11
1877.517142902348
 21
1264.959191670411
 31
0.0
  0
ARC
  5
5849
  8
0
 10
1860.0461429023469
 20
1302.3603006467331
 30
0.0
 40
36.978084857321768
 50
253.67984776578399
 51
286.32015223421598
  0
LINE
  5
584A
  8
0
 10
1870.4231429023471
 20
1257.9591916704121
 30
0.0
 11
1849.671142902348
 21
1257.9591916704121
 31
0.0
  0
LINE
  5
584B
  8
0
 10
1848.047142902348
 20
1259.5831916704119
 30
0.0
 11
1872.0471429023471
 21
1259.5831916704119
 31
0.0
  0
LINE
  5
584C
  8
0
 10
1839.262142902347
 20
1283.9591916704121
 30
0.0
 11
1839.262142902347
 21
1266.872191670411
 31
0.0
  0
LINE
  5
584D
  8
0
 10
1849.655142902348
 20
1266.872191670411
 30
0.0
 11
1849.655142902348
 21
1283.9591916704121
 31
0.0
  0
LINE
  5
584E
  8
0
 10
1845.580142902347
 20
1265.446191670412
 30
0.0
 11
1844.4591429023469
 21
1265.382191670411
 31
0.0
  0
LINE
  5
584F
  8
0
 10
1839.262142902347
 20
1266.872191670411
 30
0.0
 11
1842.576142902348
 21
1264.959191670411
 31
0.0
  0
LINE
  5
5850
  8
0
 10
1841.181142902348
 20
1265.946191670412
 30
0.0
 11
1839.262142902347
 21
1266.872191670411
 31
0.0
  0
LINE
  5
5851
  8
0
 10
1842.2381429023469
 20
1265.6371916704111
 30
0.0
 11
1841.181142902348
 21
1265.946191670412
 31
0.0
  0
LINE
  5
5852
  8
0
 10
1843.338142902348
 20
1265.446191670412
 30
0.0
 11
1842.2381429023469
 21
1265.6371916704111
 31
0.0
  0
LINE
  5
5853
  8
0
 10
1844.4591429023469
 20
1265.382191670411
 30
0.0
 11
1843.338142902348
 21
1265.446191670412
 31
0.0
  0
LINE
  5
5854
  8
0
 10
1848.047142902348
 20
1259.5831916704119
 30
0.0
 11
1848.047142902348
 21
1264.959191670411
 31
0.0
  0
LINE
  5
5855
  8
0
 10
1849.671142902348
 20
1257.9591916704121
 30
0.0
 11
1849.671142902348
 21
1264.959191670411
 31
0.0
  0
LINE
  5
5856
  8
0
 10
1846.6791429023469
 20
1265.6371916704111
 30
0.0
 11
1845.580142902347
 21
1265.446191670412
 31
0.0
  0
LINE
  5
5857
  8
0
 10
1847.7361429023481
 20
1265.946191670412
 30
0.0
 11
1846.6791429023469
 21
1265.6371916704111
 31
0.0
  0
LINE
  5
5858
  8
0
 10
1848.733142902347
 20
1266.3631916704121
 30
0.0
 11
1847.7361429023481
 21
1265.946191670412
 31
0.0
  0
LINE
  5
5859
  8
0
 10
1849.655142902348
 20
1266.872191670411
 30
0.0
 11
1848.733142902347
 21
1266.3631916704121
 31
0.0
  0
LINE
  5
585A
  8
0
 10
1849.671142902348
 20
1257.9591916704121
 30
0.0
 11
1848.047142902348
 21
1259.5831916704119
 31
0.0
  0
LINE
  5
585B
  8
0
 10
1877.517142902348
 20
1264.959191670411
 30
0.0
 11
1880.831142902347
 21
1266.872191670411
 31
0.0
  0
ARC
  5
585C
  8
0
 10
1875.6341429023471
 20
1275.189109209841
 30
0.0
 40
9.8071365014292677
 50
237.99993496086921
 51
302.00006503913079
  0
LINE
  5
585D
  8
0
 10
1870.437142902347
 20
1266.872191670411
 30
0.0
 11
1870.437142902347
 21
1283.9591916704121
 31
0.0
  0
LINE
  5
585E
  8
0
 10
1872.0471429023471
 20
1264.959191670411
 30
0.0
 11
1872.0471429023471
 21
1259.5831916704119
 31
0.0
  0
LINE
  5
585F
  8
0
 10
1870.4231429023471
 20
1257.9591916704121
 30
0.0
 11
1870.4231429023471
 21
1264.959191670411
 31
0.0
  0
LINE
  5
5860
  8
0
 10
1872.0471429023471
 20
1259.5831916704119
 30
0.0
 11
1870.4231429023471
 21
1257.9591916704121
 31
0.0
  0
LINE
  5
5861
  8
0
 10
1880.831142902347
 20
1266.872191670411
 30
0.0
 11
1880.831142902347
 21
1283.9591916704121
 31
0.0
  0
LINE
  5
5862
  8
0
 10
1948.5961429023471
 20
1264.9591916704121
 30
0.0
 11
1983.5371429023469
 21
1264.9591916704121
 31
0.0
  0
ARC
  5
5863
  8
0
 10
1966.0661429023471
 20
1302.3603006467331
 30
0.0
 40
36.978084857321768
 50
253.67984776578399
 51
286.32015223421598
  0
LINE
  5
5864
  8
0
 10
1976.4431429023471
 20
1257.9591916704121
 30
0.0
 11
1955.6911429023471
 21
1257.9591916704121
 31
0.0
  0
LINE
  5
5865
  8
0
 10
1954.0671429023471
 20
1259.5831916704119
 30
0.0
 11
1978.0671429023471
 21
1259.5831916704119
 31
0.0
  0
LINE
  5
5866
  8
0
 10
1945.282142902347
 20
1283.9591916704121
 30
0.0
 11
1945.282142902347
 21
1266.8721916704119
 31
0.0
  0
LINE
  5
5867
  8
0
 10
1955.675142902347
 20
1266.8721916704119
 30
0.0
 11
1955.675142902347
 21
1283.9591916704121
 31
0.0
  0
LINE
  5
5868
  8
0
 10
1951.600142902347
 20
1265.446191670412
 30
0.0
 11
1950.4791429023469
 21
1265.3821916704121
 31
0.0
  0
LINE
  5
5869
  8
0
 10
1945.282142902347
 20
1266.8721916704119
 30
0.0
 11
1948.5961429023471
 21
1264.9591916704121
 31
0.0
  0
LINE
  5
586A
  8
0
 10
1947.2011429023471
 20
1265.946191670412
 30
0.0
 11
1945.282142902347
 21
1266.8721916704119
 31
0.0
  0
LINE
  5
586B
  8
0
 10
1948.2581429023469
 20
1265.637191670412
 30
0.0
 11
1947.2011429023471
 21
1265.946191670412
 31
0.0
  0
LINE
  5
586C
  8
0
 10
1949.358142902347
 20
1265.446191670412
 30
0.0
 11
1948.2581429023469
 21
1265.637191670412
 31
0.0
  0
LINE
  5
586D
  8
0
 10
1950.4791429023469
 20
1265.3821916704121
 30
0.0
 11
1949.358142902347
 21
1265.446191670412
 31
0.0
  0
LINE
  5
586E
  8
0
 10
1954.0671429023471
 20
1259.5831916704119
 30
0.0
 11
1954.0671429023471
 21
1264.9591916704121
 31
0.0
  0
LINE
  5
586F
  8
0
 10
1955.6911429023471
 20
1257.9591916704121
 30
0.0
 11
1955.6911429023471
 21
1264.9591916704121
 31
0.0
  0
LINE
  5
5870
  8
0
 10
1952.6991429023469
 20
1265.637191670412
 30
0.0
 11
1951.600142902347
 21
1265.446191670412
 31
0.0
  0
LINE
  5
5871
  8
0
 10
1953.7561429023469
 20
1265.946191670412
 30
0.0
 11
1952.6991429023469
 21
1265.637191670412
 31
0.0
  0
LINE
  5
5872
  8
0
 10
1954.753142902347
 20
1266.3631916704121
 30
0.0
 11
1953.7561429023469
 21
1265.946191670412
 31
0.0
  0
LINE
  5
5873
  8
0
 10
1955.675142902347
 20
1266.8721916704119
 30
0.0
 11
1954.753142902347
 21
1266.3631916704121
 31
0.0
  0
LINE
  5
5874
  8
0
 10
1955.6911429023471
 20
1257.9591916704121
 30
0.0
 11
1954.0671429023471
 21
1259.5831916704119
 31
0.0
  0
LINE
  5
5875
  8
0
 10
1983.5371429023469
 20
1264.9591916704121
 30
0.0
 11
1986.851142902347
 21
1266.8721916704119
 31
0.0
  0
ARC
  5
5876
  8
0
 10
1981.6541429023471
 20
1275.189109209841
 30
0.0
 40
9.8071365014292677
 50
237.99993496086921
 51
302.00006503913079
  0
LINE
  5
5877
  8
0
 10
1976.457142902347
 20
1266.8721916704119
 30
0.0
 11
1976.457142902347
 21
1283.9591916704121
 31
0.0
  0
LINE
  5
5878
  8
0
 10
1978.0671429023471
 20
1264.9591916704121
 30
0.0
 11
1978.0671429023471
 21
1259.5831916704119
 31
0.0
  0
LINE
  5
5879
  8
0
 10
1976.4431429023471
 20
1257.9591916704121
 30
0.0
 11
1976.4431429023471
 21
1264.9591916704121
 31
0.0
  0
LINE
  5
587A
  8
0
 10
1978.0671429023471
 20
1259.5831916704119
 30
0.0
 11
1976.4431429023471
 21
1257.9591916704121
 31
0.0
  0
LINE
  5
587B
  8
0
 10
1986.851142902347
 20
1266.8721916704119
 30
0.0
 11
1986.851142902347
 21
1283.9591916704121
 31
0.0
  0
LINE
  5
587C
  8
0
 10
2273.209142902348
 20
1264.959191670411
 30
0.0
 11
2238.2681429023478
 21
1264.959191670411
 31
0.0
  0
ARC
  5
587D
  8
0
 10
2255.7391429023478
 20
1302.3603006467331
 30
0.0
 40
36.978084857321768
 50
253.67984776578399
 51
286.32015223421598
  0
LINE
  5
587E
  8
0
 10
2245.3621429023478
 20
1257.9591916704121
 30
0.0
 11
2266.1141429023478
 21
1257.9591916704121
 31
0.0
  0
LINE
  5
587F
  8
0
 10
2267.738142902348
 20
1259.5831916704119
 30
0.0
 11
2243.738142902348
 21
1259.5831916704119
 31
0.0
  0
LINE
  5
5880
  8
0
 10
2276.5231429023479
 20
1283.9591916704121
 30
0.0
 11
2276.5231429023479
 21
1266.872191670411
 31
0.0
  0
LINE
  5
5881
  8
0
 10
2266.1301429023479
 20
1266.872191670411
 30
0.0
 11
2266.1301429023479
 21
1283.9591916704121
 31
0.0
  0
LINE
  5
5882
  8
0
 10
2270.2051429023481
 20
1265.446191670412
 30
0.0
 11
2271.3261429023478
 21
1265.382191670411
 31
0.0
  0
LINE
  5
5883
  8
0
 10
2276.5231429023479
 20
1266.872191670411
 30
0.0
 11
2273.209142902348
 21
1264.959191670411
 31
0.0
  0
LINE
  5
5884
  8
0
 10
2274.604142902348
 20
1265.946191670412
 30
0.0
 11
2276.5231429023479
 21
1266.872191670411
 31
0.0
  0
LINE
  5
5885
  8
0
 10
2273.5471429023478
 20
1265.6371916704111
 30
0.0
 11
2274.604142902348
 21
1265.946191670412
 31
0.0
  0
LINE
  5
5886
  8
0
 10
2272.4471429023479
 20
1265.446191670412
 30
0.0
 11
2273.5471429023478
 21
1265.6371916704111
 31
0.0
  0
LINE
  5
5887
  8
0
 10
2271.3261429023478
 20
1265.382191670411
 30
0.0
 11
2272.4471429023479
 21
1265.446191670412
 31
0.0
  0
LINE
  5
5888
  8
0
 10
2267.738142902348
 20
1259.5831916704119
 30
0.0
 11
2267.738142902348
 21
1264.959191670411
 31
0.0
  0
LINE
  5
5889
  8
0
 10
2266.1141429023478
 20
1257.9591916704121
 30
0.0
 11
2266.1141429023478
 21
1264.959191670411
 31
0.0
  0
LINE
  5
588A
  8
0
 10
2269.106142902348
 20
1265.6371916704111
 30
0.0
 11
2270.2051429023481
 21
1265.446191670412
 31
0.0
  0
LINE
  5
588B
  8
0
 10
2268.0491429023482
 20
1265.946191670412
 30
0.0
 11
2269.106142902348
 21
1265.6371916704111
 31
0.0
  0
LINE
  5
588C
  8
0
 10
2267.0521429023479
 20
1266.3631916704121
 30
0.0
 11
2268.0491429023482
 21
1265.946191670412
 31
0.0
  0
LINE
  5
588D
  8
0
 10
2266.1301429023479
 20
1266.872191670411
 30
0.0
 11
2267.0521429023479
 21
1266.3631916704121
 31
0.0
  0
LINE
  5
588E
  8
0
 10
2266.1141429023478
 20
1257.9591916704121
 30
0.0
 11
2267.738142902348
 21
1259.5831916704119
 31
0.0
  0
LINE
  5
588F
  8
0
 10
2238.2681429023478
 20
1264.959191670411
 30
0.0
 11
2234.954142902347
 21
1266.872191670411
 31
0.0
  0
ARC
  5
5890
  8
0
 10
2240.1511429023481
 20
1275.189109209841
 30
0.0
 40
9.8071365014292677
 50
237.99993496086921
 51
302.00006503913079
  0
LINE
  5
5891
  8
0
 10
2245.3481429023482
 20
1266.872191670411
 30
0.0
 11
2245.3481429023482
 21
1283.9591916704121
 31
0.0
  0
LINE
  5
5892
  8
0
 10
2243.738142902348
 20
1264.959191670411
 30
0.0
 11
2243.738142902348
 21
1259.5831916704119
 31
0.0
  0
LINE
  5
5893
  8
0
 10
2245.3621429023478
 20
1257.9591916704121
 30
0.0
 11
2245.3621429023478
 21
1264.959191670411
 31
0.0
  0
LINE
  5
5894
  8
0
 10
2243.738142902348
 20
1259.5831916704119
 30
0.0
 11
2245.3621429023478
 21
1257.9591916704121
 31
0.0
  0
LINE
  5
5895
  8
0
 10
2234.954142902347
 20
1266.872191670411
 30
0.0
 11
2234.954142902347
 21
1283.9591916704121
 31
0.0
  0
LINE
  5
5896
  8
0
 10
2211.999142902348
 20
1264.959191670411
 30
0.0
 11
2177.0581429023468
 21
1264.959191670411
 31
0.0
  0
ARC
  5
5897
  8
0
 10
2194.5291429023468
 20
1302.3603006467331
 30
0.0
 40
36.978084857321768
 50
253.67984776578399
 51
286.32015223421598
  0
LINE
  5
5898
  8
0
 10
2184.1521429023469
 20
1257.9591916704121
 30
0.0
 11
2204.9041429023468
 21
1257.9591916704121
 31
0.0
  0
LINE
  5
5899
  8
0
 10
2206.5281429023471
 20
1259.5831916704119
 30
0.0
 11
2182.5281429023471
 21
1259.5831916704119
 31
0.0
  0
LINE
  5
589A
  8
0
 10
2215.313142902347
 20
1283.9591916704121
 30
0.0
 11
2215.313142902347
 21
1266.872191670411
 31
0.0
  0
LINE
  5
589B
  8
0
 10
2204.9201429023469
 20
1266.872191670411
 30
0.0
 11
2204.9201429023469
 21
1283.9591916704121
 31
0.0
  0
LINE
  5
589C
  8
0
 10
2208.9951429023472
 20
1265.446191670412
 30
0.0
 11
2210.1161429023468
 21
1265.382191670411
 31
0.0
  0
LINE
  5
589D
  8
0
 10
2215.313142902347
 20
1266.872191670411
 30
0.0
 11
2211.999142902348
 21
1264.959191670411
 31
0.0
  0
LINE
  5
589E
  8
0
 10
2213.3941429023471
 20
1265.946191670412
 30
0.0
 11
2215.313142902347
 21
1266.872191670411
 31
0.0
  0
LINE
  5
589F
  8
0
 10
2212.3371429023468
 20
1265.6371916704111
 30
0.0
 11
2213.3941429023471
 21
1265.946191670412
 31
0.0
  0
LINE
  5
58A0
  8
0
 10
2211.2371429023478
 20
1265.446191670412
 30
0.0
 11
2212.3371429023468
 21
1265.6371916704111
 31
0.0
  0
LINE
  5
58A1
  8
0
 10
2210.1161429023468
 20
1265.382191670411
 30
0.0
 11
2211.2371429023478
 21
1265.446191670412
 31
0.0
  0
LINE
  5
58A2
  8
0
 10
2206.5281429023471
 20
1259.5831916704119
 30
0.0
 11
2206.5281429023471
 21
1264.959191670411
 31
0.0
  0
LINE
  5
58A3
  8
0
 10
2204.9041429023468
 20
1257.9591916704121
 30
0.0
 11
2204.9041429023468
 21
1264.959191670411
 31
0.0
  0
LINE
  5
58A4
  8
0
 10
2207.8961429023479
 20
1265.6371916704111
 30
0.0
 11
2208.9951429023472
 21
1265.446191670412
 31
0.0
  0
LINE
  5
58A5
  8
0
 10
2206.8391429023482
 20
1265.946191670412
 30
0.0
 11
2207.8961429023479
 21
1265.6371916704111
 31
0.0
  0
LINE
  5
58A6
  8
0
 10
2205.8421429023479
 20
1266.3631916704121
 30
0.0
 11
2206.8391429023482
 21
1265.946191670412
 31
0.0
  0
LINE
  5
58A7
  8
0
 10
2204.9201429023469
 20
1266.872191670411
 30
0.0
 11
2205.8421429023479
 21
1266.3631916704121
 31
0.0
  0
LINE
  5
58A8
  8
0
 10
2204.9041429023468
 20
1257.9591916704121
 30
0.0
 11
2206.5281429023471
 21
1259.5831916704119
 31
0.0
  0
LINE
  5
58A9
  8
0
 10
2177.0581429023468
 20
1264.959191670411
 30
0.0
 11
2173.744142902347
 21
1266.872191670411
 31
0.0
  0
ARC
  5
58AA
  8
0
 10
2178.941142902348
 20
1275.189109209841
 30
0.0
 40
9.8071365014292677
 50
237.99993496086921
 51
302.00006503913079
  0
LINE
  5
58AB
  8
0
 10
2184.1381429023481
 20
1266.872191670411
 30
0.0
 11
2184.1381429023481
 21
1283.9591916704121
 31
0.0
  0
LINE
  5
58AC
  8
0
 10
2182.5281429023471
 20
1264.959191670411
 30
0.0
 11
2182.5281429023471
 21
1259.5831916704119
 31
0.0
  0
LINE
  5
58AD
  8
0
 10
2184.1521429023469
 20
1257.9591916704121
 30
0.0
 11
2184.1521429023469
 21
1264.959191670411
 31
0.0
  0
LINE
  5
58AE
  8
0
 10
2182.5281429023471
 20
1259.5831916704119
 30
0.0
 11
2184.1521429023469
 21
1257.9591916704121
 31
0.0
  0
LINE
  5
58AF
  8
0
 10
2173.744142902347
 20
1266.872191670411
 30
0.0
 11
2173.744142902347
 21
1283.9591916704121
 31
0.0
  0
LINE
  5
58B0
  8
0
 10
2105.979142902348
 20
1264.9591916704121
 30
0.0
 11
2071.0381429023482
 21
1264.9591916704121
 31
0.0
  0
ARC
  5
58B1
  8
0
 10
2088.5091429023478
 20
1302.3603006467331
 30
0.0
 40
36.978084857321768
 50
253.67984776578399
 51
286.32015223421598
  0
LINE
  5
58B2
  8
0
 10
2078.1321429023478
 20
1257.9591916704121
 30
0.0
 11
2098.8841429023478
 21
1257.9591916704121
 31
0.0
  0
LINE
  5
58B3
  8
0
 10
2100.508142902348
 20
1259.5831916704119
 30
0.0
 11
2076.508142902348
 21
1259.5831916704119
 31
0.0
  0
LINE
  5
58B4
  8
0
 10
2109.2931429023479
 20
1283.9591916704121
 30
0.0
 11
2109.2931429023479
 21
1266.8721916704119
 31
0.0
  0
LINE
  5
58B5
  8
0
 10
2098.9001429023479
 20
1266.8721916704119
 30
0.0
 11
2098.9001429023479
 21
1283.9591916704121
 31
0.0
  0
LINE
  5
58B6
  8
0
 10
2102.9751429023481
 20
1265.446191670412
 30
0.0
 11
2104.0961429023482
 21
1265.3821916704121
 31
0.0
  0
LINE
  5
58B7
  8
0
 10
2109.2931429023479
 20
1266.8721916704119
 30
0.0
 11
2105.979142902348
 21
1264.9591916704121
 31
0.0
  0
LINE
  5
58B8
  8
0
 10
2107.3741429023471
 20
1265.946191670412
 30
0.0
 11
2109.2931429023479
 21
1266.8721916704119
 31
0.0
  0
LINE
  5
58B9
  8
0
 10
2106.3171429023482
 20
1265.637191670412
 30
0.0
 11
2107.3741429023471
 21
1265.946191670412
 31
0.0
  0
LINE
  5
58BA
  8
0
 10
2105.2171429023479
 20
1265.446191670412
 30
0.0
 11
2106.3171429023482
 21
1265.637191670412
 31
0.0
  0
LINE
  5
58BB
  8
0
 10
2104.0961429023482
 20
1265.3821916704121
 30
0.0
 11
2105.2171429023479
 21
1265.446191670412
 31
0.0
  0
LINE
  5
58BC
  8
0
 10
2100.508142902348
 20
1259.5831916704119
 30
0.0
 11
2100.508142902348
 21
1264.9591916704121
 31
0.0
  0
LINE
  5
58BD
  8
0
 10
2098.8841429023478
 20
1257.9591916704121
 30
0.0
 11
2098.8841429023478
 21
1264.9591916704121
 31
0.0
  0
LINE
  5
58BE
  8
0
 10
2101.876142902348
 20
1265.637191670412
 30
0.0
 11
2102.9751429023481
 21
1265.446191670412
 31
0.0
  0
LINE
  5
58BF
  8
0
 10
2100.8191429023482
 20
1265.946191670412
 30
0.0
 11
2101.876142902348
 21
1265.637191670412
 31
0.0
  0
LINE
  5
58C0
  8
0
 10
2099.8221429023479
 20
1266.3631916704121
 30
0.0
 11
2100.8191429023482
 21
1265.946191670412
 31
0.0
  0
LINE
  5
58C1
  8
0
 10
2098.9001429023479
 20
1266.8721916704119
 30
0.0
 11
2099.8221429023479
 21
1266.3631916704121
 31
0.0
  0
LINE
  5
58C2
  8
0
 10
2098.8841429023478
 20
1257.9591916704121
 30
0.0
 11
2100.508142902348
 21
1259.5831916704119
 31
0.0
  0
LINE
  5
58C3
  8
0
 10
2071.0381429023482
 20
1264.9591916704121
 30
0.0
 11
2067.7241429023479
 21
1266.8721916704119
 31
0.0
  0
ARC
  5
58C4
  8
0
 10
2072.921142902348
 20
1275.189109209841
 30
0.0
 40
9.8071365014292677
 50
237.99993496086921
 51
302.00006503913079
  0
LINE
  5
58C5
  8
0
 10
2078.1181429023482
 20
1266.8721916704119
 30
0.0
 11
2078.1181429023482
 21
1283.9591916704121
 31
0.0
  0
LINE
  5
58C6
  8
0
 10
2076.508142902348
 20
1264.9591916704121
 30
0.0
 11
2076.508142902348
 21
1259.5831916704119
 31
0.0
  0
LINE
  5
58C7
  8
0
 10
2078.1321429023478
 20
1257.9591916704121
 30
0.0
 11
2078.1321429023478
 21
1264.9591916704121
 31
0.0
  0
LINE
  5
58C8
  8
0
 10
2076.508142902348
 20
1259.5831916704119
 30
0.0
 11
2078.1321429023478
 21
1257.9591916704121
 31
0.0
  0
LINE
  5
58C9
  8
0
 10
2067.7241429023479
 20
1266.8721916704119
 30
0.0
 11
2067.7241429023479
 21
1283.9591916704121
 31
0.0
  0
ARC
  5
58CA
  8
0
 10
2238.9625949946881
 20
1275.9380241351471
 30
0.0
 40
8.0
 50
120.0699228918298
 51
169.70328892801109
  0
ARC
  5
58CB
  8
0
 10
2921.7213968126671
 20
745.95919167040984
 30
0.0
 40
6.0
 50
270.0
 51
350.53767779196579
  0
ARC
  5
58CC
  8
0
 10
3001.8869218732639
 20
745.95919167041166
 30
0.0
 40
6.0
 50
189.4623222080341
 51
270.0
  0
ARC
  5
58DD
  8
0
 10
2961.8041593429662
 20
2284.7077919081221
 30
0.0
 40
265.0
 50
199.6293453216974
 51
340.37065467830263
  0
ARC
  5
58DE
  8
0
 10
2961.8041593429662
 20
2284.7077919081221
 30
0.0
 40
265.0
 50
19.619008648918872
 51
160.38099135108109
  0
CIRCLE
  5
58DF
  8
0
 10
2900.5934551762198
 20
2513.126734091747
 30
0.0
 40
12.0
  0
CIRCLE
  5
58E0
  8
0
 10
2900.5934551762198
 20
2513.126734091747
 30
0.0
 40
10.375999999999969
  0
CIRCLE
  5
58E1
  8
0
 10
2794.5734055923481
 20
2451.9160299250002
 30
0.0
 40
12.0
  0
CIRCLE
  5
58E2
  8
0
 10
2794.5734055923481
 20
2451.9160299250002
 30
0.0
 40
10.375999999999969
  0
CIRCLE
  5
58E3
  8
0
 10
2794.573405592349
 20
2117.454522423765
 30
0.0
 40
12.0
  0
CIRCLE
  5
58E4
  8
0
 10
2794.573405592349
 20
2117.454522423765
 30
0.0
 40
10.375999999999969
  0
CIRCLE
  5
58E5
  8
0
 10
2900.5934551762198
 20
2056.243818257019
 30
0.0
 40
12.0
  0
CIRCLE
  5
58E6
  8
0
 10
2900.5934551762198
 20
2056.243818257019
 30
0.0
 40
10.375999999999969
  0
CIRCLE
  5
58E7
  8
0
 10
3023.0148635097121
 20
2056.243818257019
 30
0.0
 40
12.0
  0
CIRCLE
  5
58E8
  8
0
 10
3023.0148635097121
 20
2056.243818257019
 30
0.0
 40
10.375999999999969
  0
CIRCLE
  5
58E9
  8
0
 10
3129.0349130935838
 20
2117.454522423764
 30
0.0
 40
12.0
  0
CIRCLE
  5
58EA
  8
0
 10
3129.0349130935838
 20
2117.454522423764
 30
0.0
 40
10.375999999999969
  0
CIRCLE
  5
58EB
  8
0
 10
3129.0349130935838
 20
2451.9160299250011
 30
0.0
 40
12.0
  0
CIRCLE
  5
58EC
  8
0
 10
3129.0349130935838
 20
2451.9160299250011
 30
0.0
 40
10.375999999999969
  0
CIRCLE
  5
58ED
  8
0
 10
3023.0148635097121
 20
2513.126734091747
 30
0.0
 40
12.0
  0
CIRCLE
  5
58EE
  8
0
 10
3023.0148635097121
 20
2513.126734091747
 30
0.0
 40
10.375999999999969
  0
ARC
  5
58EF
  8
0
 10
2961.8041593429662
 20
2284.6852761743821
 30
0.0
 40
201.0
 50
206.28177891396089
 51
333.71822108603908
  0
ARC
  5
58F0
  8
0
 10
2961.8041593429662
 20
2284.6852761743821
 30
0.0
 40
201.0
 50
26.281778913960849
 51
153.71822108603911
  0
LINE
  5
58F1
  8
0
 10
2661.8001593429672
 20
2435.189276174382
 30
0.0
 11
2661.8001593429672
 21
2134.1812761743822
 31
0.0
  0
LINE
  5
58F2
  8
0
 10
2661.8001593429672
 20
2385.5272761743822
 30
0.0
 11
2661.8001593429672
 21
2385.5272761743822
 31
0.0
  0
LINE
  5
58F3
  8
0
 10
2661.8001593429672
 20
2385.5272761743822
 30
0.0
 11
2661.8381593429672
 21
2384.9072761743828
 31
0.0
  0
LINE
  5
58F4
  8
0
 10
2661.8381593429672
 20
2384.9072761743828
 30
0.0
 11
2661.9591593429659
 21
2384.276276174382
 31
0.0
  0
LINE
  5
58F5
  8
0
 10
2661.9591593429659
 20
2384.276276174382
 30
0.0
 11
2662.165159342966
 21
2383.6492761743821
 31
0.0
  0
LINE
  5
58F6
  8
0
 10
2662.165159342966
 20
2383.6492761743821
 30
0.0
 11
2662.4591593429659
 21
2383.0452761743818
 31
0.0
  0
LINE
  5
58F7
  8
0
 10
2662.4591593429659
 20
2383.0452761743818
 30
0.0
 11
2662.835159342967
 21
2382.4812761743829
 31
0.0
  0
LINE
  5
58F8
  8
0
 10
2662.835159342967
 20
2382.4812761743829
 30
0.0
 11
2663.283159342966
 21
2381.9722761743828
 31
0.0
  0
LINE
  5
58F9
  8
0
 10
2663.283159342966
 20
2381.9722761743828
 30
0.0
 11
2663.7911593429671
 21
2381.5332761743821
 31
0.0
  0
LINE
  5
58FA
  8
0
 10
2663.7911593429671
 20
2381.5332761743821
 30
0.0
 11
2664.3431593429659
 21
2381.1722761743822
 31
0.0
  0
LINE
  5
58FB
  8
0
 10
2664.3431593429659
 20
2381.1722761743822
 30
0.0
 11
2665.511159342966
 21
2380.696276174383
 31
0.0
  0
LINE
  5
58FC
  8
0
 10
2665.511159342966
 20
2380.696276174383
 30
0.0
 11
2691.799159342967
 21
2373.6852761743821
 31
0.0
  0
LINE
  5
58FD
  8
0
 10
2661.8041593429662
 20
2435.1852761743821
 30
0.0
 11
2659.8041593429671
 21
2437.1852761743821
 31
0.0
  0
LINE
  5
58FE
  8
0
 10
2659.8041593429671
 20
2437.1852761743821
 30
0.0
 11
2633.8041593429662
 21
2437.1852761743821
 31
0.0
  0
LINE
  5
58FF
  8
0
 10
2633.8041593429662
 20
2437.1852761743821
 30
0.0
 11
2633.8041593429662
 21
2284.6852761743821
 31
0.0
  0
LINE
  5
5900
  8
0
 10
2633.8041593429662
 20
2284.6852761743821
 30
0.0
 11
2633.8041593429671
 21
2132.1852761743821
 31
0.0
  0
LINE
  5
5901
  8
0
 10
2633.8041593429671
 20
2132.1852761743821
 30
0.0
 11
2659.8041593429671
 21
2132.1852761743821
 31
0.0
  0
LINE
  5
5902
  8
0
 10
2659.8041593429671
 20
2132.1852761743821
 30
0.0
 11
2661.8041593429662
 21
2134.1852761743821
 31
0.0
  0
LINE
  5
5903
  8
0
 10
3231.8041593429662
 20
2373.6852761743821
 30
0.0
 11
3258.0841593429659
 21
2380.6962761743821
 31
0.0
  0
LINE
  5
5904
  8
0
 10
3258.0841593429659
 20
2380.6962761743821
 30
0.0
 11
3258.0841593429659
 21
2380.6962761743821
 31
0.0
  0
LINE
  5
5905
  8
0
 10
3258.0841593429659
 20
2380.6962761743821
 30
0.0
 11
3258.674159342966
 21
2380.8932761743822
 31
0.0
  0
LINE
  5
5906
  8
0
 10
3258.674159342966
 20
2380.8932761743822
 30
0.0
 11
3259.254159342966
 21
2381.1722761743822
 31
0.0
  0
LINE
  5
5907
  8
0
 10
3259.254159342966
 20
2381.1722761743822
 30
0.0
 11
3259.8041593429662
 21
2381.5332761743821
 31
0.0
  0
LINE
  5
5908
  8
0
 10
3259.8041593429662
 20
2381.5332761743821
 30
0.0
 11
3260.3141593429659
 21
2381.9722761743828
 31
0.0
  0
LINE
  5
5909
  8
0
 10
3260.3141593429659
 20
2381.9722761743828
 30
0.0
 11
3260.7641593429662
 21
2382.4812761743829
 31
0.0
  0
LINE
  5
590A
  8
0
 10
3260.7641593429662
 20
2382.4812761743829
 30
0.0
 11
3261.1441593429658
 21
2383.0452761743818
 31
0.0
  0
LINE
  5
590B
  8
0
 10
3261.1441593429658
 20
2383.0452761743818
 30
0.0
 11
3261.4341593429672
 21
2383.6492761743821
 31
0.0
  0
LINE
  5
590C
  8
0
 10
3261.4341593429672
 20
2383.6492761743821
 30
0.0
 11
3261.6441593429658
 21
2384.276276174382
 31
0.0
  0
LINE
  5
590D
  8
0
 10
3261.6441593429658
 20
2384.276276174382
 30
0.0
 11
3261.8041593429662
 21
2385.5272761743822
 31
0.0
  0
LINE
  5
590E
  8
0
 10
3261.8041593429662
 20
2134.1852761743821
 30
0.0
 11
3261.8041593429662
 21
2435.1852761743821
 31
0.0
  0
LINE
  5
590F
  8
0
 10
3261.8041593429662
 20
2435.1852761743821
 30
0.0
 11
3263.8041593429662
 21
2437.1852761743821
 31
0.0
  0
LINE
  5
5910
  8
0
 10
3263.8041593429662
 20
2437.1852761743821
 30
0.0
 11
3289.8041593429662
 21
2437.1852761743821
 31
0.0
  0
LINE
  5
5911
  8
0
 10
3289.8041593429662
 20
2437.1852761743821
 30
0.0
 11
3289.8041593429662
 21
2284.6852761743821
 31
0.0
  0
LINE
  5
5912
  8
0
 10
3289.8041593429662
 20
2284.6852761743821
 30
0.0
 11
3289.8041593429662
 21
2132.1852761743821
 31
0.0
  0
LINE
  5
5913
  8
0
 10
3289.8041593429662
 20
2132.1852761743821
 30
0.0
 11
3263.8041593429662
 21
2132.1852761743821
 31
0.0
  0
LINE
  5
5914
  8
0
 10
3263.8041593429662
 20
2132.1852761743821
 30
0.0
 11
3261.8041593429662
 21
2134.1852761743821
 31
0.0
  0
LINE
  5
5915
  8
0
 10
3231.8041593429662
 20
2195.6852761743821
 30
0.0
 11
3050.8041593429671
 21
2195.6852761743821
 31
0.0
  0
LINE
  5
5916
  8
0
 10
3231.8041593429662
 20
2195.6852761743821
 30
0.0
 11
3258.0841593429659
 21
2188.6742761743822
 31
0.0
  0
LINE
  5
5917
  8
0
 10
3258.0841593429659
 20
2188.6742761743822
 30
0.0
 11
3258.0841593429659
 21
2188.6742761743822
 31
0.0
  0
LINE
  5
5918
  8
0
 10
3258.0841593429659
 20
2188.6742761743822
 30
0.0
 11
3258.674159342966
 21
2188.477276174383
 31
0.0
  0
LINE
  5
5919
  8
0
 10
3258.674159342966
 20
2188.477276174383
 30
0.0
 11
3259.254159342966
 21
2188.198276174382
 31
0.0
  0
LINE
  5
591A
  8
0
 10
3259.254159342966
 20
2188.198276174382
 30
0.0
 11
3259.8041593429662
 21
2187.8372761743822
 31
0.0
  0
LINE
  5
591B
  8
0
 10
3259.8041593429662
 20
2187.8372761743822
 30
0.0
 11
3260.3141593429659
 21
2187.3982761743819
 31
0.0
  0
LINE
  5
591C
  8
0
 10
3260.3141593429659
 20
2187.3982761743819
 30
0.0
 11
3260.7641593429662
 21
2186.8892761743818
 31
0.0
  0
LINE
  5
591D
  8
0
 10
3260.7641593429662
 20
2186.8892761743818
 30
0.0
 11
3261.1441593429658
 21
2186.325276174382
 31
0.0
  0
LINE
  5
591E
  8
0
 10
3261.1441593429658
 20
2186.325276174382
 30
0.0
 11
3261.4341593429672
 21
2185.7212761743822
 31
0.0
  0
LINE
  5
591F
  8
0
 10
3261.4341593429672
 20
2185.7212761743822
 30
0.0
 11
3261.6441593429658
 21
2185.0942761743818
 31
0.0
  0
LINE
  5
5920
  8
0
 10
3261.6441593429658
 20
2185.0942761743818
 30
0.0
 11
3261.8041593429662
 21
2183.843276174382
 31
0.0
  0
LINE
  5
5921
  8
0
 10
3231.7961593429659
 20
2284.6852761743821
 30
0.0
 11
3231.7961593429659
 21
2204.5152761743821
 31
0.0
  0
ARC
  5
5922
  8
0
 10
3050.8041593429671
 20
2284.6852761743821
 30
0.0
 40
89.0
 50
90.0
 51
173.54864872987309
  0
ARC
  5
5923
  8
0
 10
3050.8041593429671
 20
2284.6852761743821
 30
0.0
 40
89.0
 50
186.45135127012691
 51
270.0
  0
LINE
  5
5924
  8
0
 10
2872.8041593429662
 20
2195.6852761743821
 30
0.0
 11
2691.799159342967
 21
2195.6852761743821
 31
0.0
  0
LINE
  5
5925
  8
0
 10
2661.8001593429672
 20
2183.843276174382
 30
0.0
 11
2661.8001593429672
 21
2183.843276174382
 31
0.0
  0
LINE
  5
5926
  8
0
 10
2661.8001593429672
 20
2183.843276174382
 30
0.0
 11
2661.8381593429672
 21
2184.4632761743819
 31
0.0
  0
LINE
  5
5927
  8
0
 10
2661.8381593429672
 20
2184.4632761743819
 30
0.0
 11
2661.9591593429659
 21
2185.0942761743818
 31
0.0
  0
LINE
  5
5928
  8
0
 10
2661.9591593429659
 20
2185.0942761743818
 30
0.0
 11
2662.165159342966
 21
2185.7212761743822
 31
0.0
  0
LINE
  5
5929
  8
0
 10
2662.165159342966
 20
2185.7212761743822
 30
0.0
 11
2662.4591593429659
 21
2186.325276174382
 31
0.0
  0
LINE
  5
592A
  8
0
 10
2662.4591593429659
 20
2186.325276174382
 30
0.0
 11
2662.835159342967
 21
2186.8892761743818
 31
0.0
  0
LINE
  5
592B
  8
0
 10
2662.835159342967
 20
2186.8892761743818
 30
0.0
 11
2663.283159342966
 21
2187.3982761743819
 31
0.0
  0
LINE
  5
592C
  8
0
 10
2663.283159342966
 20
2187.3982761743819
 30
0.0
 11
2663.7911593429671
 21
2187.8372761743822
 31
0.0
  0
LINE
  5
592D
  8
0
 10
2663.7911593429671
 20
2187.8372761743822
 30
0.0
 11
2664.3431593429659
 21
2188.198276174382
 31
0.0
  0
LINE
  5
592E
  8
0
 10
2664.3431593429659
 20
2188.198276174382
 30
0.0
 11
2665.511159342966
 21
2188.6742761743822
 31
0.0
  0
LINE
  5
592F
  8
0
 10
2665.511159342966
 20
2188.6742761743822
 30
0.0
 11
2691.799159342967
 21
2195.6852761743821
 31
0.0
  0
LINE
  5
5930
  8
0
 10
2691.801159342966
 20
2284.6852761743821
 30
0.0
 11
2691.801159342966
 21
2206.2652761743821
 31
0.0
  0
ARC
  5
5931
  8
0
 10
2872.8041593429662
 20
2284.6852761743821
 30
0.0
 40
89.0
 50
270.0
 51
353.54864872987309
  0
ARC
  5
5932
  8
0
 10
2872.8041593429662
 20
2284.6852761743821
 30
0.0
 40
89.0
 50
6.4513512701268922
 51
90.0
  0
ARC
  5
5933
  8
0
 10
2961.8041593429662
 20
1792.959191670411
 30
0.0
 40
45.0
 50
7.6622556607587571
 51
172.3377443392412
  0
ARC
  5
5934
  8
0
 10
3036.1345030795592
 20
1802.959191670411
 30
0.0
 40
30.0
 50
187.66225566075869
 51
270.0
  0
ARC
  5
5935
  8
0
 10
2887.4738156063731
 20
1802.959191670411
 30
0.0
 40
30.0
 50
270.0
 51
352.33774433924123
  0
ARC
  5
5936
  8
0
 10
2917.2059531010109
 20
2324.4174136690199
 30
0.0
 40
29.732137494637069
 50
180.0
 51
270.0
  0
ARC
  5
5937
  8
0
 10
2917.2059531010109
 20
2244.9531386797439
 30
0.0
 40
29.732137494637069
 50
90.0
 51
180.0
  0
ARC
  5
5938
  8
0
 10
3006.4023655849219
 20
2324.4174136690199
 30
0.0
 40
29.732137494637069
 50
270.0
 51
0.0
  0
ARC
  5
5939
  8
0
 10
3006.4023655849219
 20
2244.9531386797439
 30
0.0
 40
29.732137494637069
 50
0.0
 51
90.0
  0
LINE
  5
593A
  8
0
 10
2907.2222332645051
 20
2276.1806740869411
 30
0.0
 11
2907.2222332645051
 21
2293.1898782618232
 31
0.0
  0
LINE
  5
593B
  8
0
 10
3016.3860854214272
 20
2276.1806740869411
 30
0.0
 11
3016.3860854214272
 21
2293.1898782618232
 31
0.0
  0
LINE
  5
593C
  8
0
 10
3148.9558632352391
 20
1438.959191670411
 30
0.0
 11
2774.6474554506931
 21
1438.959191670411
 31
0.0
  0
ARC
  5
593D
  8
0
 10
2247.045778292847
 20
1384.918191670411
 30
0.0
 40
6.0
 50
193.12613753611609
 51
270.0
  0
ARC
  5
593E
  8
0
 10
1807.5395075118479
 20
1384.918191670411
 30
0.0
 40
6.0
 50
270.0
 51
346.87386246388388
  0
LINE
  5
593F
  8
0
 10
1809.2156429023471
 20
1383.2301916704109
 30
0.0
 11
1788.4636429023469
 21
1383.2301916704109
 31
0.0
  0
LINE
  5
5940
  8
0
 10
1786.8396429023469
 20
1381.6061916704109
 30
0.0
 11
1810.8396429023469
 21
1381.6061916704109
 31
0.0
  0
LINE
  5
5941
  8
0
 10
1786.8396429023469
 20
1381.6061916704109
 30
0.0
 11
1786.8396429023469
 21
1378.918191670411
 31
0.0
  0
LINE
  5
5942
  8
0
 10
1788.4636429023469
 20
1383.2301916704109
 30
0.0
 11
1788.4636429023469
 21
1378.918191670411
 31
0.0
  0
LINE
  5
5943
  8
0
 10
1788.4636429023469
 20
1383.2301916704109
 30
0.0
 11
1786.8396429023469
 21
1381.6061916704109
 31
0.0
  0
LINE
  5
5944
  8
0
 10
1810.8396429023469
 20
1378.918191670411
 30
0.0
 11
1810.8396429023469
 21
1381.6061916704109
 31
0.0
  0
LINE
  5
5945
  8
0
 10
1809.2156429023471
 20
1383.2301916704109
 30
0.0
 11
1809.2156429023471
 21
1378.918191670411
 31
0.0
  0
LINE
  5
5946
  8
0
 10
1810.8396429023469
 20
1381.6061916704109
 30
0.0
 11
1809.2156429023471
 21
1383.2301916704109
 31
0.0
  0
LINE
  5
5947
  8
0
 10
1870.425642902348
 20
1383.2301916704109
 30
0.0
 11
1849.6736429023481
 21
1383.2301916704109
 31
0.0
  0
LINE
  5
5948
  8
0
 10
1848.0496429023469
 20
1381.6061916704109
 30
0.0
 11
1872.0496429023481
 21
1381.6061916704109
 31
0.0
  0
LINE
  5
5949
  8
0
 10
1848.0496429023469
 20
1381.6061916704109
 30
0.0
 11
1848.0496429023469
 21
1378.918191670411
 31
0.0
  0
LINE
  5
594A
  8
0
 10
1849.6736429023481
 20
1383.2301916704109
 30
0.0
 11
1849.6736429023481
 21
1378.918191670411
 31
0.0
  0
LINE
  5
594B
  8
0
 10
1849.6736429023481
 20
1383.2301916704109
 30
0.0
 11
1848.0496429023469
 21
1381.6061916704109
 31
0.0
  0
LINE
  5
594C
  8
0
 10
1872.0496429023481
 20
1378.918191670411
 30
0.0
 11
1872.0496429023481
 21
1381.6061916704109
 31
0.0
  0
LINE
  5
594D
  8
0
 10
1870.425642902348
 20
1383.2301916704109
 30
0.0
 11
1870.425642902348
 21
1378.918191670411
 31
0.0
  0
LINE
  5
594E
  8
0
 10
1872.0496429023481
 20
1381.6061916704109
 30
0.0
 11
1870.425642902348
 21
1383.2301916704109
 31
0.0
  0
LINE
  5
594F
  8
0
 10
1976.4456429023469
 20
1383.2301916704109
 30
0.0
 11
1955.6936429023469
 21
1383.2301916704109
 31
0.0
  0
LINE
  5
5950
  8
0
 10
1954.0696429023469
 20
1381.6061916704109
 30
0.0
 11
1978.0696429023469
 21
1381.6061916704109
 31
0.0
  0
LINE
  5
5951
  8
0
 10
1954.0696429023469
 20
1381.6061916704109
 30
0.0
 11
1954.0696429023469
 21
1378.918191670411
 31
0.0
  0
LINE
  5
5952
  8
0
 10
1955.6936429023469
 20
1383.2301916704109
 30
0.0
 11
1955.6936429023469
 21
1378.918191670411
 31
0.0
  0
LINE
  5
5953
  8
0
 10
1955.6936429023469
 20
1383.2301916704109
 30
0.0
 11
1954.0696429023469
 21
1381.6061916704109
 31
0.0
  0
LINE
  5
5954
  8
0
 10
1978.0696429023469
 20
1378.918191670411
 30
0.0
 11
1978.0696429023469
 21
1381.6061916704109
 31
0.0
  0
LINE
  5
5955
  8
0
 10
1976.4456429023469
 20
1383.2301916704109
 30
0.0
 11
1976.4456429023469
 21
1378.918191670411
 31
0.0
  0
LINE
  5
5956
  8
0
 10
1978.0696429023469
 20
1381.6061916704109
 30
0.0
 11
1976.4456429023469
 21
1383.2301916704109
 31
0.0
  0
LINE
  5
5957
  8
0
 10
2245.3646429023479
 20
1383.2301916704109
 30
0.0
 11
2266.1166429023478
 21
1383.2301916704109
 31
0.0
  0
LINE
  5
5958
  8
0
 10
2267.7406429023481
 20
1381.6061916704109
 30
0.0
 11
2243.7406429023481
 21
1381.6061916704109
 31
0.0
  0
LINE
  5
5959
  8
0
 10
2267.7406429023481
 20
1381.6061916704109
 30
0.0
 11
2267.7406429023481
 21
1378.918191670411
 31
0.0
  0
LINE
  5
595A
  8
0
 10
2266.1166429023478
 20
1383.2301916704109
 30
0.0
 11
2266.1166429023478
 21
1378.918191670411
 31
0.0
  0
LINE
  5
595B
  8
0
 10
2266.1166429023478
 20
1383.2301916704109
 30
0.0
 11
2267.7406429023481
 21
1381.6061916704109
 31
0.0
  0
LINE
  5
595C
  8
0
 10
2243.7406429023481
 20
1378.918191670411
 30
0.0
 11
2243.7406429023481
 21
1381.6061916704109
 31
0.0
  0
LINE
  5
595D
  8
0
 10
2245.3646429023479
 20
1383.2301916704109
 30
0.0
 11
2245.3646429023479
 21
1378.918191670411
 31
0.0
  0
LINE
  5
595E
  8
0
 10
2243.7406429023481
 20
1381.6061916704109
 30
0.0
 11
2245.3646429023479
 21
1383.2301916704109
 31
0.0
  0
LINE
  5
595F
  8
0
 10
2184.1546429023469
 20
1383.2301916704109
 30
0.0
 11
2204.9066429023469
 21
1383.2301916704109
 31
0.0
  0
LINE
  5
5960
  8
0
 10
2206.5306429023481
 20
1381.6061916704109
 30
0.0
 11
2182.5306429023481
 21
1381.6061916704109
 31
0.0
  0
LINE
  5
5961
  8
0
 10
2206.5306429023481
 20
1381.6061916704109
 30
0.0
 11
2206.5306429023481
 21
1378.918191670411
 31
0.0
  0
LINE
  5
5962
  8
0
 10
2204.9066429023469
 20
1383.2301916704109
 30
0.0
 11
2204.9066429023469
 21
1378.918191670411
 31
0.0
  0
LINE
  5
5963
  8
0
 10
2204.9066429023469
 20
1383.2301916704109
 30
0.0
 11
2206.5306429023481
 21
1381.6061916704109
 31
0.0
  0
LINE
  5
5964
  8
0
 10
2182.5306429023481
 20
1378.918191670411
 30
0.0
 11
2182.5306429023481
 21
1381.6061916704109
 31
0.0
  0
LINE
  5
5965
  8
0
 10
2184.1546429023469
 20
1383.2301916704109
 30
0.0
 11
2184.1546429023469
 21
1378.918191670411
 31
0.0
  0
LINE
  5
5966
  8
0
 10
2182.5306429023481
 20
1381.6061916704109
 30
0.0
 11
2184.1546429023469
 21
1383.2301916704109
 31
0.0
  0
LINE
  5
5967
  8
0
 10
2078.1346429023479
 20
1383.2301916704109
 30
0.0
 11
2098.8866429023478
 21
1383.2301916704109
 31
0.0
  0
LINE
  5
5968
  8
0
 10
2100.5106429023481
 20
1381.6061916704109
 30
0.0
 11
2076.5106429023481
 21
1381.6061916704109
 31
0.0
  0
LINE
  5
5969
  8
0
 10
2100.5106429023481
 20
1381.6061916704109
 30
0.0
 11
2100.5106429023481
 21
1378.918191670411
 31
0.0
  0
LINE
  5
596A
  8
0
 10
2098.8866429023478
 20
1383.2301916704109
 30
0.0
 11
2098.8866429023478
 21
1378.918191670411
 31
0.0
  0
LINE
  5
596B
  8
0
 10
2098.8866429023478
 20
1383.2301916704109
 30
0.0
 11
2100.5106429023481
 21
1381.6061916704109
 31
0.0
  0
LINE
  5
596C
  8
0
 10
2076.5106429023481
 20
1378.918191670411
 30
0.0
 11
2076.5106429023481
 21
1381.6061916704109
 31
0.0
  0
LINE
  5
596D
  8
0
 10
2078.1346429023479
 20
1383.2301916704109
 30
0.0
 11
2078.1346429023479
 21
1378.918191670411
 31
0.0
  0
LINE
  5
596E
  8
0
 10
2076.5106429023481
 20
1381.6061916704109
 30
0.0
 11
2078.1346429023479
 21
1383.2301916704109
 31
0.0
  0
LINE
  5
5970
  8
0
 10
3709.1649718913109
 20
1438.918191670411
 30
0.0
 11
4083.4733796758578
 21
1438.918191670411
 31
0.0
  0
LINE
  5
5971
  8
0
 10
3631.3191757835839
 20
1333.918191670411
 30
0.0
 11
4161.3191757835839
 21
1333.918191670411
 31
0.0
  0
LINE
  5
5972
  8
0
 10
4161.3191757835839
 20
1333.918191670411
 30
0.0
 11
4161.3191757835839
 21
1375.918191670411
 31
0.0
  0
ARC
  5
5973
  8
0
 10
4158.3191757835839
 20
1375.918191670411
 30
0.0
 40
3.0
 50
0.000000000000007
 51
90.0
  0
LINE
  5
5974
  8
0
 10
4158.3191757835839
 20
1378.918191670411
 30
0.0
 11
3634.3191757835848
 21
1378.918191670411
 31
0.0
  0
LINE
  5
5975
  8
0
 10
4116.0801757835861
 20
1378.918191670411
 30
0.0
 11
4116.0801757835861
 21
1378.918191670411
 31
0.0
  0
LINE
  5
5976
  8
0
 10
4116.0801757835861
 20
1378.918191670411
 30
0.0
 11
4115.3211757835852
 21
1378.966191670411
 31
0.0
  0
LINE
  5
5977
  8
0
 10
4115.3211757835852
 20
1378.966191670411
 30
0.0
 11
4114.5461757835837
 21
1379.1171916704111
 31
0.0
  0
LINE
  5
5978
  8
0
 10
4114.5461757835837
 20
1379.1171916704111
 30
0.0
 11
4113.7781757835837
 21
1379.3771916704111
 31
0.0
  0
LINE
  5
5979
  8
0
 10
4113.7781757835837
 20
1379.3771916704111
 30
0.0
 11
4113.0391757835851
 21
1379.746191670411
 31
0.0
  0
LINE
  5
597A
  8
0
 10
4113.0391757835851
 20
1379.746191670411
 30
0.0
 11
4112.3501757835847
 21
1380.218191670411
 31
0.0
  0
LINE
  5
597B
  8
0
 10
4112.3501757835847
 20
1380.218191670411
 30
0.0
 11
4111.7341757835839
 21
1380.7811916704111
 31
0.0
  0
LINE
  5
597C
  8
0
 10
4111.7341757835839
 20
1380.7811916704111
 30
0.0
 11
4111.2071757835847
 21
1381.418191670411
 31
0.0
  0
LINE
  5
597D
  8
0
 10
4111.2071757835847
 20
1381.418191670411
 30
0.0
 11
4110.7791757835839
 21
1382.1071916704111
 31
0.0
  0
LINE
  5
597E
  8
0
 10
4110.7791757835839
 20
1382.1071916704111
 30
0.0
 11
4110.2371757835836
 21
1383.555191670411
 31
0.0
  0
LINE
  5
597F
  8
0
 10
4110.2371757835836
 20
1383.555191670411
 30
0.0
 11
4097.3191757835839
 21
1438.918191670411
 31
0.0
  0
LINE
  5
5980
  8
0
 10
4097.3191757835839
 20
1438.918191670411
 30
0.0
 11
4097.3191757835839
 21
1571.918191670411
 31
0.0
  0
ARC
  5
5981
  8
0
 10
3896.3191757835871
 20
1571.959191670411
 30
0.0
 40
201.0
 50
138.7459985457358
 51
180.0
  0
ARC
  5
5982
  8
0
 10
3896.3191757835871
 20
1571.959191670411
 30
0.0
 40
201.0
 50
0.000000000000007
 51
41.25400145426417
  0
CIRCLE
  5
5983
  8
0
 10
3896.3191757835848
 20
1683.959191670411
 30
0.0
 40
152.5
  0
CIRCLE
  5
5984
  8
0
 10
3929.9656516469122
 20
1558.3888342528321
 30
0.0
 40
12.5
  0
CIRCLE
  5
5985
  8
0
 10
3988.243057337836
 20
1592.03531011616
 30
0.0
 40
12.5
  0
CIRCLE
  5
5986
  8
0
 10
4021.889533201163
 20
1650.3127158070829
 30
0.0
 40
12.5
  0
CIRCLE
  5
5987
  8
0
 10
4021.889533201163
 20
1717.6056675337391
 30
0.0
 40
12.5
  0
CIRCLE
  5
5988
  8
0
 10
3988.243057337836
 20
1775.883073224662
 30
0.0
 40
12.5
  0
CIRCLE
  5
5989
  8
0
 10
3929.9656516469122
 20
1809.5295490879901
 30
0.0
 40
12.5
  0
CIRCLE
  5
598A
  8
0
 10
3862.6726999202569
 20
1558.3888342528321
 30
0.0
 40
12.5
  0
CIRCLE
  5
598B
  8
0
 10
3804.3952942293331
 20
1592.03531011616
 30
0.0
 40
12.5
  0
CIRCLE
  5
598C
  8
0
 10
3770.7488183660048
 20
1650.3127158070829
 30
0.0
 40
12.5
  0
CIRCLE
  5
598D
  8
0
 10
3770.7488183660062
 20
1717.6056675337391
 30
0.0
 40
12.5
  0
CIRCLE
  5
598E
  8
0
 10
3804.3952942293331
 20
1775.883073224662
 30
0.0
 40
12.5
  0
CIRCLE
  5
598F
  8
0
 10
3862.6726999202569
 20
1809.5295490879901
 30
0.0
 40
12.5
  0
LINE
  5
5990
  8
0
 10
3631.3191757835839
 20
1333.918191670411
 30
0.0
 11
3631.3191757835839
 21
1375.918191670411
 31
0.0
  0
ARC
  5
5991
  8
0
 10
3634.3191757835848
 20
1375.918191670411
 30
0.0
 40
3.0
 50
90.0
 51
180.0
  0
LINE
  5
5992
  8
0
 10
3682.4011757835851
 20
1383.555191670411
 30
0.0
 11
3695.3191757835848
 21
1438.918191670411
 31
0.0
  0
LINE
  5
5993
  8
0
 10
3695.3191757835848
 20
1438.918191670411
 30
0.0
 11
3695.3191757835848
 21
1571.918191670411
 31
0.0
  0
LINE
  5
5996
  8
0
 10
4157.3191757835848
 20
1283.959191670411
 30
0.0
 11
3635.318175783585
 21
1283.959191670411
 31
0.0
  0
ARC
  5
5997
  8
0
 10
3635.318175783585
 20
1287.959191670411
 30
0.0
 40
4.0
 50
180.0
 51
270.0
  0
LINE
  5
5998
  8
0
 10
3631.318175783585
 20
1287.959191670411
 30
0.0
 11
3631.318175783585
 21
1333.959191670411
 31
0.0
  0
LINE
  5
5999
  8
0
 10
4161.3191757835839
 20
1333.959191670411
 30
0.0
 11
4161.3191757835839
 21
1287.959191670411
 31
0.0
  0
ARC
  5
599A
  8
0
 10
4157.3191757835848
 20
1287.959191670411
 30
0.0
 40
4.0
 50
270.0
 51
0.000000000000007
  0
LINE
  5
599B
  8
0
 10
3926.3191757835848
 20
807.36919167041151
 30
0.0
 11
3926.3191757835862
 21
769.95919167040722
 31
0.0
  0
LINE
  5
599C
  8
0
 10
3866.3191757835848
 20
807.76700236505599
 30
0.0
 11
3866.3191757835848
 21
769.95919167040915
 31
0.0
  0
ARC
  5
599D
  8
0
 10
3896.3191757835848
 20
963.95919167041143
 30
0.0
 40
144.0
 50
190.2911588831079
 51
349.709018505975
  0
LINE
  5
599E
  8
0
 10
4100.1261235768388
 20
1277.3883704449429
 30
0.0
 11
4038.00267221792
 21
938.23397372883687
 31
0.0
  0
ARC
  5
599F
  8
0
 10
4107.9974289343027
 20
1275.959191670411
 30
0.0
 40
8.0
 50
120.07655248929071
 51
169.709018505975
  0
LINE
  5
59A0
  8
0
 10
3926.3191757835848
 20
772.95919167041143
 30
0.0
 11
4007.8871486303019
 21
872.91751201282761
 31
0.0
  0
LINE
  5
59A1
  8
0
 10
3866.3191757835862
 20
772.95919167041143
 30
0.0
 11
3784.7512029368668
 21
872.91751201282705
 31
0.0
  0
ARC
  5
59A2
  8
0
 10
3846.3191757835848
 20
807.76700236505599
 30
0.0
 40
20.0
 50
0.000000000000007
 51
72.249172818050241
  0
ARC
  5
59A3
  8
0
 10
3946.3191757835848
 20
807.76700236505599
 30
0.0
 40
20.0
 50
107.750827181952
 51
180.0
  0
LINE
  5
59A4
  8
0
 10
3692.5112483347211
 20
1277.3877394523961
 30
0.0
 11
3754.6357589957988
 21
938.23353507357422
 31
0.0
  0
LINE
  5
59A5
  8
0
 10
4142.2431757835857
 20
1264.959191670411
 30
0.0
 11
4107.302175783585
 21
1264.959191670411
 31
0.0
  0
ARC
  5
59A6
  8
0
 10
4124.7731757835863
 20
1302.3603006467331
 30
0.0
 40
36.978084857321768
 50
253.67984776578609
 51
286.32015223421388
  0
LINE
  5
59A7
  8
0
 10
4114.3961757835859
 20
1257.9591916704121
 30
0.0
 11
4135.1481757835854
 21
1257.9591916704121
 31
0.0
  0
LINE
  5
59A8
  8
0
 10
4136.7721757835852
 20
1259.5831916704119
 30
0.0
 11
4112.7721757835852
 21
1259.5831916704119
 31
0.0
  0
LINE
  5
59A9
  8
0
 10
4145.557175783586
 20
1283.9591916704121
 30
0.0
 11
4145.557175783586
 21
1266.872191670411
 31
0.0
  0
LINE
  5
59AA
  8
0
 10
4135.1641757835851
 20
1266.872191670411
 30
0.0
 11
4135.1641757835851
 21
1283.9591916704121
 31
0.0
  0
LINE
  5
59AB
  8
0
 10
4139.2391757835849
 20
1265.446191670412
 30
0.0
 11
4140.3601757835859
 21
1265.382191670411
 31
0.0
  0
LINE
  5
59AC
  8
0
 10
4145.557175783586
 20
1266.872191670411
 30
0.0
 11
4142.2431757835857
 21
1264.959191670411
 31
0.0
  0
LINE
  5
59AD
  8
0
 10
4143.6381757835852
 20
1265.946191670412
 30
0.0
 11
4145.557175783586
 21
1266.872191670411
 31
0.0
  0
LINE
  5
59AE
  8
0
 10
4142.5811757835854
 20
1265.6371916704111
 30
0.0
 11
4143.6381757835852
 21
1265.946191670412
 31
0.0
  0
LINE
  5
59AF
  8
0
 10
4141.4811757835841
 20
1265.446191670412
 30
0.0
 11
4142.5811757835854
 21
1265.6371916704111
 31
0.0
  0
LINE
  5
59B0
  8
0
 10
4140.3601757835859
 20
1265.382191670411
 30
0.0
 11
4141.4811757835841
 21
1265.446191670412
 31
0.0
  0
LINE
  5
59B1
  8
0
 10
4136.7721757835852
 20
1259.5831916704119
 30
0.0
 11
4136.7721757835852
 21
1264.959191670411
 31
0.0
  0
LINE
  5
59B2
  8
0
 10
4135.1481757835854
 20
1257.9591916704121
 30
0.0
 11
4135.1481757835854
 21
1264.959191670411
 31
0.0
  0
LINE
  5
59B3
  8
0
 10
4138.1401757835847
 20
1265.6371916704111
 30
0.0
 11
4139.2391757835849
 21
1265.446191670412
 31
0.0
  0
LINE
  5
59B4
  8
0
 10
4137.0831757835858
 20
1265.946191670412
 30
0.0
 11
4138.1401757835847
 21
1265.6371916704111
 31
0.0
  0
LINE
  5
59B5
  8
0
 10
4136.0861757835846
 20
1266.3631916704121
 30
0.0
 11
4137.0831757835858
 21
1265.946191670412
 31
0.0
  0
LINE
  5
59B6
  8
0
 10
4135.1641757835851
 20
1266.872191670411
 30
0.0
 11
4136.0861757835846
 21
1266.3631916704121
 31
0.0
  0
LINE
  5
59B7
  8
0
 10
4135.1481757835854
 20
1257.9591916704121
 30
0.0
 11
4136.7721757835852
 21
1259.5831916704119
 31
0.0
  0
LINE
  5
59B8
  8
0
 10
4107.302175783585
 20
1264.959191670411
 30
0.0
 11
4103.9881757835856
 21
1266.872191670411
 31
0.0
  0
ARC
  5
59B9
  8
0
 10
4109.1851757835848
 20
1275.189109209841
 30
0.0
 40
9.8071365014292677
 50
237.99993496084949
 51
302.00006503915051
  0
LINE
  5
59BA
  8
0
 10
4114.3821757835849
 20
1266.872191670411
 30
0.0
 11
4114.3821757835849
 21
1283.9591916704121
 31
0.0
  0
LINE
  5
59BB
  8
0
 10
4112.7721757835852
 20
1264.959191670411
 30
0.0
 11
4112.7721757835852
 21
1259.5831916704119
 31
0.0
  0
LINE
  5
59BC
  8
0
 10
4114.3961757835859
 20
1257.9591916704121
 30
0.0
 11
4114.3961757835859
 21
1264.959191670411
 31
0.0
  0
LINE
  5
59BD
  8
0
 10
4112.7721757835852
 20
1259.5831916704119
 30
0.0
 11
4114.3961757835859
 21
1257.9591916704121
 31
0.0
  0
LINE
  5
59BE
  8
0
 10
4103.9881757835856
 20
1266.872191670411
 30
0.0
 11
4103.9881757835856
 21
1283.9591916704121
 31
0.0
  0
LINE
  5
59BF
  8
0
 10
4081.0331757835838
 20
1264.959191670411
 30
0.0
 11
4046.092175783584
 21
1264.959191670411
 31
0.0
  0
ARC
  5
59C0
  8
0
 10
4063.5631757835849
 20
1302.3603006467331
 30
0.0
 40
36.978084857321768
 50
253.67984776578609
 51
286.32015223421388
  0
LINE
  5
59C1
  8
0
 10
4053.186175783585
 20
1257.9591916704121
 30
0.0
 11
4073.9381757835849
 21
1257.9591916704121
 31
0.0
  0
LINE
  5
59C2
  8
0
 10
4075.5621757835852
 20
1259.5831916704119
 30
0.0
 11
4051.5621757835852
 21
1259.5831916704119
 31
0.0
  0
LINE
  5
59C3
  8
0
 10
4084.347175783585
 20
1283.9591916704121
 30
0.0
 11
4084.347175783585
 21
1266.872191670411
 31
0.0
  0
LINE
  5
59C4
  8
0
 10
4073.954175783585
 20
1266.872191670411
 30
0.0
 11
4073.954175783585
 21
1283.9591916704121
 31
0.0
  0
LINE
  5
59C5
  8
0
 10
4078.0291757835839
 20
1265.446191670412
 30
0.0
 11
4079.1501757835849
 21
1265.382191670411
 31
0.0
  0
LINE
  5
59C6
  8
0
 10
4084.347175783585
 20
1266.872191670411
 30
0.0
 11
4081.0331757835838
 21
1264.959191670411
 31
0.0
  0
LINE
  5
59C7
  8
0
 10
4082.4281757835861
 20
1265.946191670412
 30
0.0
 11
4084.347175783585
 21
1266.872191670411
 31
0.0
  0
LINE
  5
59C8
  8
0
 10
4081.371175783584
 20
1265.6371916704111
 30
0.0
 11
4082.4281757835861
 21
1265.946191670412
 31
0.0
  0
LINE
  5
59C9
  8
0
 10
4080.271175783585
 20
1265.446191670412
 30
0.0
 11
4081.371175783584
 21
1265.6371916704111
 31
0.0
  0
LINE
  5
59CA
  8
0
 10
4079.1501757835849
 20
1265.382191670411
 30
0.0
 11
4080.271175783585
 21
1265.446191670412
 31
0.0
  0
LINE
  5
59CB
  8
0
 10
4075.5621757835852
 20
1259.5831916704119
 30
0.0
 11
4075.5621757835852
 21
1264.959191670411
 31
0.0
  0
LINE
  5
59CC
  8
0
 10
4073.9381757835849
 20
1257.9591916704121
 30
0.0
 11
4073.9381757835849
 21
1264.959191670411
 31
0.0
  0
LINE
  5
59CD
  8
0
 10
4076.9301757835842
 20
1265.6371916704111
 30
0.0
 11
4078.0291757835839
 21
1265.446191670412
 31
0.0
  0
LINE
  5
59CE
  8
0
 10
4075.873175783584
 20
1265.946191670412
 30
0.0
 11
4076.9301757835842
 21
1265.6371916704111
 31
0.0
  0
LINE
  5
59CF
  8
0
 10
4074.876175783585
 20
1266.3631916704121
 30
0.0
 11
4075.873175783584
 21
1265.946191670412
 31
0.0
  0
LINE
  5
59D0
  8
0
 10
4073.954175783585
 20
1266.872191670411
 30
0.0
 11
4074.876175783585
 21
1266.3631916704121
 31
0.0
  0
LINE
  5
59D1
  8
0
 10
4073.9381757835849
 20
1257.9591916704121
 30
0.0
 11
4075.5621757835852
 21
1259.5831916704119
 31
0.0
  0
LINE
  5
59D2
  8
0
 10
4046.092175783584
 20
1264.959191670411
 30
0.0
 11
4042.7781757835842
 21
1266.872191670411
 31
0.0
  0
ARC
  5
59D3
  8
0
 10
4047.9751757835852
 20
1275.189109209841
 30
0.0
 40
9.8071365014292677
 50
237.99993496084949
 51
302.00006503915051
  0
LINE
  5
59D4
  8
0
 10
4053.1721757835849
 20
1266.872191670411
 30
0.0
 11
4053.1721757835849
 21
1283.9591916704121
 31
0.0
  0
LINE
  5
59D5
  8
0
 10
4051.5621757835852
 20
1264.959191670411
 30
0.0
 11
4051.5621757835852
 21
1259.5831916704119
 31
0.0
  0
LINE
  5
59D6
  8
0
 10
4053.186175783585
 20
1257.9591916704121
 30
0.0
 11
4053.186175783585
 21
1264.959191670411
 31
0.0
  0
LINE
  5
59D7
  8
0
 10
4051.5621757835852
 20
1259.5831916704119
 30
0.0
 11
4053.186175783585
 21
1257.9591916704121
 31
0.0
  0
LINE
  5
59D8
  8
0
 10
4042.7781757835842
 20
1266.872191670411
 30
0.0
 11
4042.7781757835842
 21
1283.9591916704121
 31
0.0
  0
LINE
  5
59D9
  8
0
 10
3975.0131757835852
 20
1264.9591916704121
 30
0.0
 11
3940.0721757835859
 21
1264.9591916704121
 31
0.0
  0
ARC
  5
59DA
  8
0
 10
3957.5431757835859
 20
1302.3603006467331
 30
0.0
 40
36.978084857321768
 50
253.67984776578609
 51
286.32015223421388
  0
LINE
  5
59DB
  8
0
 10
3947.1661757835859
 20
1257.9591916704121
 30
0.0
 11
3967.9181757835859
 21
1257.9591916704121
 31
0.0
  0
LINE
  5
59DC
  8
0
 10
3969.5421757835861
 20
1259.5831916704119
 30
0.0
 11
3945.5421757835861
 21
1259.5831916704119
 31
0.0
  0
LINE
  5
59DD
  8
0
 10
3978.327175783586
 20
1283.9591916704121
 30
0.0
 11
3978.327175783586
 21
1266.8721916704119
 31
0.0
  0
LINE
  5
59DE
  8
0
 10
3967.9341757835859
 20
1266.8721916704119
 30
0.0
 11
3967.9341757835859
 21
1283.9591916704121
 31
0.0
  0
LINE
  5
59DF
  8
0
 10
3972.0091757835849
 20
1265.446191670412
 30
0.0
 11
3973.1301757835859
 21
1265.3821916704121
 31
0.0
  0
LINE
  5
59E0
  8
0
 10
3978.327175783586
 20
1266.8721916704119
 30
0.0
 11
3975.0131757835852
 21
1264.9591916704121
 31
0.0
  0
LINE
  5
59E1
  8
0
 10
3976.4081757835861
 20
1265.946191670412
 30
0.0
 11
3978.327175783586
 21
1266.8721916704119
 31
0.0
  0
LINE
  5
59E2
  8
0
 10
3975.3511757835849
 20
1265.637191670412
 30
0.0
 11
3976.4081757835861
 21
1265.946191670412
 31
0.0
  0
LINE
  5
59E3
  8
0
 10
3974.2511757835859
 20
1265.446191670412
 30
0.0
 11
3975.3511757835849
 21
1265.637191670412
 31
0.0
  0
LINE
  5
59E4
  8
0
 10
3973.1301757835859
 20
1265.3821916704121
 30
0.0
 11
3974.2511757835859
 21
1265.446191670412
 31
0.0
  0
LINE
  5
59E5
  8
0
 10
3969.5421757835861
 20
1259.5831916704119
 30
0.0
 11
3969.5421757835861
 21
1264.9591916704121
 31
0.0
  0
LINE
  5
59E6
  8
0
 10
3967.9181757835859
 20
1257.9591916704121
 30
0.0
 11
3967.9181757835859
 21
1264.9591916704121
 31
0.0
  0
LINE
  5
59E7
  8
0
 10
3970.9101757835851
 20
1265.637191670412
 30
0.0
 11
3972.0091757835849
 21
1265.446191670412
 31
0.0
  0
LINE
  5
59E8
  8
0
 10
3969.8531757835849
 20
1265.946191670412
 30
0.0
 11
3970.9101757835851
 21
1265.637191670412
 31
0.0
  0
LINE
  5
59E9
  8
0
 10
3968.8561757835851
 20
1266.3631916704121
 30
0.0
 11
3969.8531757835849
 21
1265.946191670412
 31
0.0
  0
LINE
  5
59EA
  8
0
 10
3967.9341757835859
 20
1266.8721916704119
 30
0.0
 11
3968.8561757835851
 21
1266.3631916704121
 31
0.0
  0
LINE
  5
59EB
  8
0
 10
3967.9181757835859
 20
1257.9591916704121
 30
0.0
 11
3969.5421757835861
 21
1259.5831916704119
 31
0.0
  0
LINE
  5
59EC
  8
0
 10
3940.0721757835859
 20
1264.9591916704121
 30
0.0
 11
3936.7581757835851
 21
1266.8721916704119
 31
0.0
  0
ARC
  5
59ED
  8
0
 10
3941.9551757835861
 20
1275.189109209841
 30
0.0
 40
9.8071365014292677
 50
237.99993496084949
 51
302.00006503915051
  0
LINE
  5
59EE
  8
0
 10
3947.1521757835849
 20
1266.8721916704119
 30
0.0
 11
3947.1521757835849
 21
1283.9591916704121
 31
0.0
  0
LINE
  5
59EF
  8
0
 10
3945.5421757835861
 20
1264.9591916704121
 30
0.0
 11
3945.5421757835861
 21
1259.5831916704119
 31
0.0
  0
LINE
  5
59F0
  8
0
 10
3947.1661757835859
 20
1257.9591916704121
 30
0.0
 11
3947.1661757835859
 21
1264.9591916704121
 31
0.0
  0
LINE
  5
59F1
  8
0
 10
3945.5421757835861
 20
1259.5831916704119
 30
0.0
 11
3947.1661757835859
 21
1257.9591916704121
 31
0.0
  0
LINE
  5
59F2
  8
0
 10
3936.7581757835851
 20
1266.8721916704119
 30
0.0
 11
3936.7581757835851
 21
1283.9591916704121
 31
0.0
  0
LINE
  5
59F3
  8
0
 10
3650.4001757835849
 20
1264.959191670411
 30
0.0
 11
3685.3411757835852
 21
1264.959191670411
 31
0.0
  0
ARC
  5
59F4
  8
0
 10
3667.8701757835852
 20
1302.3603006467331
 30
0.0
 40
36.978084857321768
 50
253.67984776578609
 51
286.32015223421388
  0
LINE
  5
59F5
  8
0
 10
3678.2471757835851
 20
1257.9591916704121
 30
0.0
 11
3657.4951757835852
 21
1257.9591916704121
 31
0.0
  0
LINE
  5
59F6
  8
0
 10
3655.871175783584
 20
1259.5831916704119
 30
0.0
 11
3679.8711757835849
 21
1259.5831916704119
 31
0.0
  0
LINE
  5
59F7
  8
0
 10
3647.0861757835851
 20
1283.9591916704121
 30
0.0
 11
3647.0861757835851
 21
1266.872191670411
 31
0.0
  0
LINE
  5
59F8
  8
0
 10
3657.4791757835851
 20
1266.872191670411
 30
0.0
 11
3657.4791757835851
 21
1283.9591916704121
 31
0.0
  0
LINE
  5
59F9
  8
0
 10
3653.4041757835848
 20
1265.446191670412
 30
0.0
 11
3652.2831757835852
 21
1265.382191670411
 31
0.0
  0
LINE
  5
59FA
  8
0
 10
3647.0861757835851
 20
1266.872191670411
 30
0.0
 11
3650.4001757835849
 21
1264.959191670411
 31
0.0
  0
LINE
  5
59FB
  8
0
 10
3649.005175783584
 20
1265.946191670412
 30
0.0
 11
3647.0861757835851
 21
1266.872191670411
 31
0.0
  0
LINE
  5
59FC
  8
0
 10
3650.0621757835852
 20
1265.6371916704111
 30
0.0
 11
3649.005175783584
 21
1265.946191670412
 31
0.0
  0
LINE
  5
59FD
  8
0
 10
3651.1621757835851
 20
1265.446191670412
 30
0.0
 11
3650.0621757835852
 21
1265.6371916704111
 31
0.0
  0
LINE
  5
59FE
  8
0
 10
3652.2831757835852
 20
1265.382191670411
 30
0.0
 11
3651.1621757835851
 21
1265.446191670412
 31
0.0
  0
LINE
  5
59FF
  8
0
 10
3655.871175783584
 20
1259.5831916704119
 30
0.0
 11
3655.871175783584
 21
1264.959191670411
 31
0.0
  0
LINE
  5
5A00
  8
0
 10
3657.4951757835852
 20
1257.9591916704121
 30
0.0
 11
3657.4951757835852
 21
1264.959191670411
 31
0.0
  0
LINE
  5
5A01
  8
0
 10
3654.503175783585
 20
1265.6371916704111
 30
0.0
 11
3653.4041757835848
 21
1265.446191670412
 31
0.0
  0
LINE
  5
5A02
  8
0
 10
3655.5601757835848
 20
1265.946191670412
 30
0.0
 11
3654.503175783585
 21
1265.6371916704111
 31
0.0
  0
LINE
  5
5A03
  8
0
 10
3656.5571757835851
 20
1266.3631916704121
 30
0.0
 11
3655.5601757835848
 21
1265.946191670412
 31
0.0
  0
LINE
  5
5A04
  8
0
 10
3657.4791757835851
 20
1266.872191670411
 30
0.0
 11
3656.5571757835851
 21
1266.3631916704121
 31
0.0
  0
LINE
  5
5A05
  8
0
 10
3657.4951757835852
 20
1257.9591916704121
 30
0.0
 11
3655.871175783584
 21
1259.5831916704119
 31
0.0
  0
LINE
  5
5A06
  8
0
 10
3685.3411757835852
 20
1264.959191670411
 30
0.0
 11
3688.6551757835859
 21
1266.872191670411
 31
0.0
  0
ARC
  5
5A07
  8
0
 10
3683.4581757835849
 20
1275.189109209841
 30
0.0
 40
9.8071365014292677
 50
237.99993496084949
 51
302.00006503915051
  0
LINE
  5
5A08
  8
0
 10
3678.2611757835848
 20
1266.872191670411
 30
0.0
 11
3678.2611757835848
 21
1283.9591916704121
 31
0.0
  0
LINE
  5
5A09
  8
0
 10
3679.8711757835849
 20
1264.959191670411
 30
0.0
 11
3679.8711757835849
 21
1259.5831916704119
 31
0.0
  0
LINE
  5
5A0A
  8
0
 10
3678.2471757835851
 20
1257.9591916704121
 30
0.0
 11
3678.2471757835851
 21
1264.959191670411
 31
0.0
  0
LINE
  5
5A0B
  8
0
 10
3679.8711757835849
 20
1259.5831916704119
 30
0.0
 11
3678.2471757835851
 21
1257.9591916704121
 31
0.0
  0
LINE
  5
5A0C
  8
0
 10
3688.6551757835859
 20
1266.872191670411
 30
0.0
 11
3688.6551757835859
 21
1283.9591916704121
 31
0.0
  0
LINE
  5
5A0D
  8
0
 10
3711.610175783585
 20
1264.959191670411
 30
0.0
 11
3746.5511757835861
 21
1264.959191670411
 31
0.0
  0
ARC
  5
5A0E
  8
0
 10
3729.0801757835852
 20
1302.3603006467331
 30
0.0
 40
36.978084857321768
 50
253.67984776578609
 51
286.32015223421388
  0
LINE
  5
5A0F
  8
0
 10
3739.4571757835861
 20
1257.9591916704121
 30
0.0
 11
3718.7051757835852
 21
1257.9591916704121
 31
0.0
  0
LINE
  5
5A10
  8
0
 10
3717.0811757835859
 20
1259.5831916704119
 30
0.0
 11
3741.081175783585
 21
1259.5831916704119
 31
0.0
  0
LINE
  5
5A11
  8
0
 10
3708.296175783586
 20
1283.9591916704121
 30
0.0
 11
3708.296175783586
 21
1266.872191670411
 31
0.0
  0
LINE
  5
5A12
  8
0
 10
3718.6891757835851
 20
1266.872191670411
 30
0.0
 11
3718.6891757835851
 21
1283.9591916704121
 31
0.0
  0
LINE
  5
5A13
  8
0
 10
3714.6141757835849
 20
1265.446191670412
 30
0.0
 11
3713.4931757835848
 21
1265.382191670411
 31
0.0
  0
LINE
  5
5A14
  8
0
 10
3708.296175783586
 20
1266.872191670411
 30
0.0
 11
3711.610175783585
 21
1264.959191670411
 31
0.0
  0
LINE
  5
5A15
  8
0
 10
3710.2151757835859
 20
1265.946191670412
 30
0.0
 11
3708.296175783586
 21
1266.872191670411
 31
0.0
  0
LINE
  5
5A16
  8
0
 10
3711.2721757835852
 20
1265.6371916704111
 30
0.0
 11
3710.2151757835859
 21
1265.946191670412
 31
0.0
  0
LINE
  5
5A17
  8
0
 10
3712.3721757835851
 20
1265.446191670412
 30
0.0
 11
3711.2721757835852
 21
1265.6371916704111
 31
0.0
  0
LINE
  5
5A18
  8
0
 10
3713.4931757835848
 20
1265.382191670411
 30
0.0
 11
3712.3721757835851
 21
1265.446191670412
 31
0.0
  0
LINE
  5
5A19
  8
0
 10
3717.0811757835859
 20
1259.5831916704119
 30
0.0
 11
3717.0811757835859
 21
1264.959191670411
 31
0.0
  0
LINE
  5
5A1A
  8
0
 10
3718.7051757835852
 20
1257.9591916704121
 30
0.0
 11
3718.7051757835852
 21
1264.959191670411
 31
0.0
  0
LINE
  5
5A1B
  8
0
 10
3715.713175783585
 20
1265.6371916704111
 30
0.0
 11
3714.6141757835849
 21
1265.446191670412
 31
0.0
  0
LINE
  5
5A1C
  8
0
 10
3716.7701757835848
 20
1265.946191670412
 30
0.0
 11
3715.713175783585
 21
1265.6371916704111
 31
0.0
  0
LINE
  5
5A1D
  8
0
 10
3717.7671757835851
 20
1266.3631916704121
 30
0.0
 11
3716.7701757835848
 21
1265.946191670412
 31
0.0
  0
LINE
  5
5A1E
  8
0
 10
3718.6891757835851
 20
1266.872191670411
 30
0.0
 11
3717.7671757835851
 21
1266.3631916704121
 31
0.0
  0
LINE
  5
5A1F
  8
0
 10
3718.7051757835852
 20
1257.9591916704121
 30
0.0
 11
3717.0811757835859
 21
1259.5831916704119
 31
0.0
  0
LINE
  5
5A20
  8
0
 10
3746.5511757835861
 20
1264.959191670411
 30
0.0
 11
3749.8651757835851
 21
1266.872191670411
 31
0.0
  0
ARC
  5
5A21
  8
0
 10
3744.668175783585
 20
1275.189109209841
 30
0.0
 40
9.8071365014292677
 50
237.99993496084949
 51
302.00006503915051
  0
LINE
  5
5A22
  8
0
 10
3739.4711757835848
 20
1266.872191670411
 30
0.0
 11
3739.4711757835848
 21
1283.9591916704121
 31
0.0
  0
LINE
  5
5A23
  8
0
 10
3741.081175783585
 20
1264.959191670411
 30
0.0
 11
3741.081175783585
 21
1259.5831916704119
 31
0.0
  0
LINE
  5
5A24
  8
0
 10
3739.4571757835861
 20
1257.9591916704121
 30
0.0
 11
3739.4571757835861
 21
1264.959191670411
 31
0.0
  0
LINE
  5
5A25
  8
0
 10
3741.081175783585
 20
1259.5831916704119
 30
0.0
 11
3739.4571757835861
 21
1257.9591916704121
 31
0.0
  0
LINE
  5
5A26
  8
0
 10
3749.8651757835851
 20
1266.872191670411
 30
0.0
 11
3749.8651757835851
 21
1283.9591916704121
 31
0.0
  0
LINE
  5
5A27
  8
0
 10
3817.630175783584
 20
1264.9591916704121
 30
0.0
 11
3852.5711757835852
 21
1264.9591916704121
 31
0.0
  0
ARC
  5
5A28
  8
0
 10
3835.1001757835852
 20
1302.3603006467331
 30
0.0
 40
36.978084857321768
 50
253.67984776578609
 51
286.32015223421388
  0
LINE
  5
5A29
  8
0
 10
3845.4771757835852
 20
1257.9591916704121
 30
0.0
 11
3824.7251757835852
 21
1257.9591916704121
 31
0.0
  0
LINE
  5
5A2A
  8
0
 10
3823.1011757835849
 20
1259.5831916704119
 30
0.0
 11
3847.1011757835849
 21
1259.5831916704119
 31
0.0
  0
LINE
  5
5A2B
  8
0
 10
3814.3161757835851
 20
1283.9591916704121
 30
0.0
 11
3814.3161757835851
 21
1266.8721916704119
 31
0.0
  0
LINE
  5
5A2C
  8
0
 10
3824.7091757835851
 20
1266.8721916704119
 30
0.0
 11
3824.7091757835851
 21
1283.9591916704121
 31
0.0
  0
LINE
  5
5A2D
  8
0
 10
3820.6341757835849
 20
1265.446191670412
 30
0.0
 11
3819.5131757835852
 21
1265.3821916704121
 31
0.0
  0
LINE
  5
5A2E
  8
0
 10
3814.3161757835851
 20
1266.8721916704119
 30
0.0
 11
3817.630175783584
 21
1264.9591916704121
 31
0.0
  0
LINE
  5
5A2F
  8
0
 10
3816.235175783585
 20
1265.946191670412
 30
0.0
 11
3814.3161757835851
 21
1266.8721916704119
 31
0.0
  0
LINE
  5
5A30
  8
0
 10
3817.2921757835852
 20
1265.637191670412
 30
0.0
 11
3816.235175783585
 21
1265.946191670412
 31
0.0
  0
LINE
  5
5A31
  8
0
 10
3818.3921757835851
 20
1265.446191670412
 30
0.0
 11
3817.2921757835852
 21
1265.637191670412
 31
0.0
  0
LINE
  5
5A32
  8
0
 10
3819.5131757835852
 20
1265.3821916704121
 30
0.0
 11
3818.3921757835851
 21
1265.446191670412
 31
0.0
  0
LINE
  5
5A33
  8
0
 10
3823.1011757835849
 20
1259.5831916704119
 30
0.0
 11
3823.1011757835849
 21
1264.9591916704121
 31
0.0
  0
LINE
  5
5A34
  8
0
 10
3824.7251757835852
 20
1257.9591916704121
 30
0.0
 11
3824.7251757835852
 21
1264.9591916704121
 31
0.0
  0
LINE
  5
5A35
  8
0
 10
3821.733175783585
 20
1265.637191670412
 30
0.0
 11
3820.6341757835849
 21
1265.446191670412
 31
0.0
  0
LINE
  5
5A36
  8
0
 10
3822.7901757835848
 20
1265.946191670412
 30
0.0
 11
3821.733175783585
 21
1265.637191670412
 31
0.0
  0
LINE
  5
5A37
  8
0
 10
3823.7871757835851
 20
1266.3631916704121
 30
0.0
 11
3822.7901757835848
 21
1265.946191670412
 31
0.0
  0
LINE
  5
5A38
  8
0
 10
3824.7091757835851
 20
1266.8721916704119
 30
0.0
 11
3823.7871757835851
 21
1266.3631916704121
 31
0.0
  0
LINE
  5
5A39
  8
0
 10
3824.7251757835852
 20
1257.9591916704121
 30
0.0
 11
3823.1011757835849
 21
1259.5831916704119
 31
0.0
  0
LINE
  5
5A3A
  8
0
 10
3852.5711757835852
 20
1264.9591916704121
 30
0.0
 11
3855.8851757835851
 21
1266.8721916704119
 31
0.0
  0
ARC
  5
5A3B
  8
0
 10
3850.6881757835849
 20
1275.189109209841
 30
0.0
 40
9.8071365014292677
 50
237.99993496084949
 51
302.00006503915051
  0
LINE
  5
5A3C
  8
0
 10
3845.4911757835848
 20
1266.8721916704119
 30
0.0
 11
3845.4911757835848
 21
1283.9591916704121
 31
0.0
  0
LINE
  5
5A3D
  8
0
 10
3847.1011757835849
 20
1264.9591916704121
 30
0.0
 11
3847.1011757835849
 21
1259.5831916704119
 31
0.0
  0
LINE
  5
5A3E
  8
0
 10
3845.4771757835852
 20
1257.9591916704121
 30
0.0
 11
3845.4771757835852
 21
1264.9591916704121
 31
0.0
  0
LINE
  5
5A3F
  8
0
 10
3847.1011757835849
 20
1259.5831916704119
 30
0.0
 11
3845.4771757835852
 21
1257.9591916704121
 31
0.0
  0
LINE
  5
5A40
  8
0
 10
3855.8851757835851
 20
1266.8721916704119
 30
0.0
 11
3855.8851757835851
 21
1283.9591916704121
 31
0.0
  0
ARC
  5
5A41
  8
0
 10
3684.646723691244
 20
1275.9380241351471
 30
0.0
 40
8.0
 50
10.29671107198557
 51
59.930077108166799
  0
ARC
  5
5A4A
  8
0
 10
3676.563540393086
 20
1384.918191670411
 30
0.0
 40
6.0
 50
270.0
 51
346.87386246387848
  0
ARC
  5
5A4B
  8
0
 10
4116.069811174084
 20
1384.918191670411
 30
0.0
 40
6.0
 50
193.12613753612149
 51
270.0
  0
LINE
  5
5A4C
  8
0
 10
4114.3936757835854
 20
1383.2301916704109
 30
0.0
 11
4135.1456757835858
 21
1383.2301916704109
 31
0.0
  0
LINE
  5
5A4D
  8
0
 10
4136.7696757835847
 20
1381.6061916704109
 30
0.0
 11
4112.7696757835847
 21
1381.6061916704109
 31
0.0
  0
LINE
  5
5A4E
  8
0
 10
4136.7696757835847
 20
1381.6061916704109
 30
0.0
 11
4136.7696757835847
 21
1378.918191670411
 31
0.0
  0
LINE
  5
5A4F
  8
0
 10
4135.1456757835858
 20
1383.2301916704109
 30
0.0
 11
4135.1456757835858
 21
1378.918191670411
 31
0.0
  0
LINE
  5
5A50
  8
0
 10
4135.1456757835858
 20
1383.2301916704109
 30
0.0
 11
4136.7696757835847
 21
1381.6061916704109
 31
0.0
  0
LINE
  5
5A51
  8
0
 10
4112.7696757835847
 20
1378.918191670411
 30
0.0
 11
4112.7696757835847
 21
1381.6061916704109
 31
0.0
  0
LINE
  5
5A52
  8
0
 10
4114.3936757835854
 20
1383.2301916704109
 30
0.0
 11
4114.3936757835854
 21
1378.918191670411
 31
0.0
  0
LINE
  5
5A53
  8
0
 10
4112.7696757835847
 20
1381.6061916704109
 30
0.0
 11
4114.3936757835854
 21
1383.2301916704109
 31
0.0
  0
LINE
  5
5A54
  8
0
 10
4053.1836757835849
 20
1383.2301916704109
 30
0.0
 11
4073.9356757835849
 21
1383.2301916704109
 31
0.0
  0
LINE
  5
5A55
  8
0
 10
4075.5596757835842
 20
1381.6061916704109
 30
0.0
 11
4051.5596757835842
 21
1381.6061916704109
 31
0.0
  0
LINE
  5
5A56
  8
0
 10
4075.5596757835842
 20
1381.6061916704109
 30
0.0
 11
4075.5596757835842
 21
1378.918191670411
 31
0.0
  0
LINE
  5
5A57
  8
0
 10
4073.9356757835849
 20
1383.2301916704109
 30
0.0
 11
4073.9356757835849
 21
1378.918191670411
 31
0.0
  0
LINE
  5
5A58
  8
0
 10
4073.9356757835849
 20
1383.2301916704109
 30
0.0
 11
4075.5596757835842
 21
1381.6061916704109
 31
0.0
  0
LINE
  5
5A59
  8
0
 10
4051.5596757835842
 20
1378.918191670411
 30
0.0
 11
4051.5596757835842
 21
1381.6061916704109
 31
0.0
  0
LINE
  5
5A5A
  8
0
 10
4053.1836757835849
 20
1383.2301916704109
 30
0.0
 11
4053.1836757835849
 21
1378.918191670411
 31
0.0
  0
LINE
  5
5A5B
  8
0
 10
4051.5596757835842
 20
1381.6061916704109
 30
0.0
 11
4053.1836757835849
 21
1383.2301916704109
 31
0.0
  0
LINE
  5
5A5C
  8
0
 10
3947.1636757835849
 20
1383.2301916704109
 30
0.0
 11
3967.9156757835858
 21
1383.2301916704109
 31
0.0
  0
LINE
  5
5A5D
  8
0
 10
3969.5396757835852
 20
1381.6061916704109
 30
0.0
 11
3945.5396757835852
 21
1381.6061916704109
 31
0.0
  0
LINE
  5
5A5E
  8
0
 10
3969.5396757835852
 20
1381.6061916704109
 30
0.0
 11
3969.5396757835852
 21
1378.918191670411
 31
0.0
  0
LINE
  5
5A5F
  8
0
 10
3967.9156757835858
 20
1383.2301916704109
 30
0.0
 11
3967.9156757835858
 21
1378.918191670411
 31
0.0
  0
LINE
  5
5A60
  8
0
 10
3967.9156757835858
 20
1383.2301916704109
 30
0.0
 11
3969.5396757835852
 21
1381.6061916704109
 31
0.0
  0
LINE
  5
5A61
  8
0
 10
3945.5396757835852
 20
1378.918191670411
 30
0.0
 11
3945.5396757835852
 21
1381.6061916704109
 31
0.0
  0
LINE
  5
5A62
  8
0
 10
3947.1636757835849
 20
1383.2301916704109
 30
0.0
 11
3947.1636757835849
 21
1378.918191670411
 31
0.0
  0
LINE
  5
5A63
  8
0
 10
3945.5396757835852
 20
1381.6061916704109
 30
0.0
 11
3947.1636757835849
 21
1383.2301916704109
 31
0.0
  0
LINE
  5
5A64
  8
0
 10
3678.2446757835851
 20
1383.2301916704109
 30
0.0
 11
3657.4926757835851
 21
1383.2301916704109
 31
0.0
  0
LINE
  5
5A65
  8
0
 10
3655.8686757835849
 20
1381.6061916704109
 30
0.0
 11
3679.8686757835849
 21
1381.6061916704109
 31
0.0
  0
LINE
  5
5A66
  8
0
 10
3655.8686757835849
 20
1381.6061916704109
 30
0.0
 11
3655.8686757835849
 21
1378.918191670411
 31
0.0
  0
LINE
  5
5A67
  8
0
 10
3657.4926757835851
 20
1383.2301916704109
 30
0.0
 11
3657.4926757835851
 21
1378.918191670411
 31
0.0
  0
LINE
  5
5A68
  8
0
 10
3657.4926757835851
 20
1383.2301916704109
 30
0.0
 11
3655.8686757835849
 21
1381.6061916704109
 31
0.0
  0
LINE
  5
5A69
  8
0
 10
3679.8686757835849
 20
1378.918191670411
 30
0.0
 11
3679.8686757835849
 21
1381.6061916704109
 31
0.0
  0
LINE
  5
5A6A
  8
0
 10
3678.2446757835851
 20
1383.2301916704109
 30
0.0
 11
3678.2446757835851
 21
1378.918191670411
 31
0.0
  0
LINE
  5
5A6B
  8
0
 10
3679.8686757835849
 20
1381.6061916704109
 30
0.0
 11
3678.2446757835851
 21
1383.2301916704109
 31
0.0
  0
LINE
  5
5A6C
  8
0
 10
3739.454675783586
 20
1383.2301916704109
 30
0.0
 11
3718.7026757835852
 21
1383.2301916704109
 31
0.0
  0
LINE
  5
5A6D
  8
0
 10
3717.0786757835849
 20
1381.6061916704109
 30
0.0
 11
3741.0786757835849
 21
1381.6061916704109
 31
0.0
  0
LINE
  5
5A6E
  8
0
 10
3717.0786757835849
 20
1381.6061916704109
 30
0.0
 11
3717.0786757835849
 21
1378.918191670411
 31
0.0
  0
LINE
  5
5A6F
  8
0
 10
3718.7026757835852
 20
1383.2301916704109
 30
0.0
 11
3718.7026757835852
 21
1378.918191670411
 31
0.0
  0
LINE
  5
5A70
  8
0
 10
3718.7026757835852
 20
1383.2301916704109
 30
0.0
 11
3717.0786757835849
 21
1381.6061916704109
 31
0.0
  0
LINE
  5
5A71
  8
0
 10
3741.0786757835849
 20
1378.918191670411
 30
0.0
 11
3741.0786757835849
 21
1381.6061916704109
 31
0.0
  0
LINE
  5
5A72
  8
0
 10
3739.454675783586
 20
1383.2301916704109
 30
0.0
 11
3739.454675783586
 21
1378.918191670411
 31
0.0
  0
LINE
  5
5A73
  8
0
 10
3741.0786757835849
 20
1381.6061916704109
 30
0.0
 11
3739.454675783586
 21
1383.2301916704109
 31
0.0
  0
LINE
  5
5A74
  8
0
 10
3845.4746757835851
 20
1383.2301916704109
 30
0.0
 11
3824.7226757835851
 21
1383.2301916704109
 31
0.0
  0
LINE
  5
5A75
  8
0
 10
3823.0986757835849
 20
1381.6061916704109
 30
0.0
 11
3847.098675783584
 21
1381.6061916704109
 31
0.0
  0
LINE
  5
5A76
  8
0
 10
3823.0986757835849
 20
1381.6061916704109
 30
0.0
 11
3823.0986757835849
 21
1378.918191670411
 31
0.0
  0
LINE
  5
5A77
  8
0
 10
3824.7226757835851
 20
1383.2301916704109
 30
0.0
 11
3824.7226757835851
 21
1378.918191670411
 31
0.0
  0
LINE
  5
5A78
  8
0
 10
3824.7226757835851
 20
1383.2301916704109
 30
0.0
 11
3823.0986757835849
 21
1381.6061916704109
 31
0.0
  0
LINE
  5
5A79
  8
0
 10
3847.098675783584
 20
1378.918191670411
 30
0.0
 11
3847.098675783584
 21
1381.6061916704109
 31
0.0
  0
LINE
  5
5A7A
  8
0
 10
3845.4746757835851
 20
1383.2301916704109
 30
0.0
 11
3845.4746757835851
 21
1378.918191670411
 31
0.0
  0
LINE
  5
5A7B
  8
0
 10
3847.098675783584
 20
1381.6061916704109
 30
0.0
 11
3845.4746757835851
 21
1383.2301916704109
 31
0.0
  0
TEXT
  5
5A81
  8
0
 10
2589.7014334759101
 20
232.71854362075689
 30
0.0
 40
65.333333333333314
  1
TLV  DC3 (JIS20K)
  0
TEXT
  5
5A82
  8
0
 10
2888.3153360959241
 20
487.68133193757041
 30
0.0
 40
65.333333333333314
  1
150
 72
     4
 11
2966.0931138737019
 21
520.34799860423709
 31
0.0
  0
TEXT
  5
5A83
  8
0
 10
2945.8708916514788
 20
384.42973271273132
 30
0.0
 40
65.333333333333314
  1
6
 72
     4
 11
2966.0931138737019
 21
417.09639937939789
 31
0.0
  0
LINE
  5
5A84
  8
0
 10
2506.7311593429658
 20
2316.659558558757
 30
0.0
 11
2560.7281593429661
 21
2316.659558558757
 31
0.0
  0
LINE
  5
5A85
  8
0
 10
2560.7281593429661
 20
2316.659558558757
 30
0.0
 11
2569.7281593429661
 21
2307.6595585587579
 31
0.0
  0
LINE
  5
5A86
  8
0
 10
2569.7281593429661
 20
2307.6595585587579
 30
0.0
 11
2596.335159342967
 21
2307.6595585587579
 31
0.0
  0
LINE
  5
5A87
  8
0
 10
2596.335159342967
 20
2307.6595585587579
 30
0.0
 11
2596.335159342967
 21
2316.659558558757
 31
0.0
  0
LINE
  5
5A88
  8
0
 10
2596.335159342967
 20
2316.659558558757
 30
0.0
 11
2614.7281593429661
 21
2298.6565585587568
 31
0.0
  0
LINE
  5
5A89
  8
0
 10
2614.7281593429661
 20
2298.6565585587568
 30
0.0
 11
2524.7311593429658
 21
2298.6565585587568
 31
0.0
  0
LINE
  5
5A8A
  8
0
 10
2524.7311593429658
 20
2298.6565585587568
 30
0.0
 11
2506.7311593429658
 21
2316.659558558757
 31
0.0
  0
LINE
  5
5A95
  8
0
 10
3434.5310537646292
 20
3717.924271121562
 30
0.0
 11
3380.5340537646289
 21
3717.924271121562
 31
0.0
  0
LINE
  5
5A96
  8
0
 10
3380.5340537646289
 20
3717.924271121562
 30
0.0
 11
3371.5340537646289
 21
3708.924271121562
 31
0.0
  0
LINE
  5
5A97
  8
0
 10
3371.5340537646289
 20
3708.924271121562
 30
0.0
 11
3344.927053764628
 21
3708.924271121562
 31
0.0
  0
LINE
  5
5A98
  8
0
 10
3344.927053764628
 20
3708.924271121562
 30
0.0
 11
3344.927053764628
 21
3717.924271121562
 31
0.0
  0
LINE
  5
5A99
  8
0
 10
3344.927053764628
 20
3717.924271121562
 30
0.0
 11
3326.5340537646289
 21
3699.9212711215609
 31
0.0
  0
LINE
  5
5A9A
  8
0
 10
3326.5340537646289
 20
3699.9212711215609
 30
0.0
 11
3416.5310537646292
 21
3699.9212711215609
 31
0.0
  0
LINE
  5
5A9B
  8
0
 10
3416.5310537646292
 20
3699.9212711215609
 30
0.0
 11
3434.5310537646292
 21
3717.924271121562
 31
0.0
  0
LINE
  5
5BDE
  8
0
 10
2891.8041593429671
 20
739.95919167041154
 30
0.0
 11
3031.8041593429662
 21
739.95919167041166
 31
0.0
  0
LINE
  5
5BE0
  8
0
 10
1997.2906429023469
 20
769.95919167040995
 30
0.0
 11
1993.125642902347
 21
744.96919167041005
 31
0.0
  0
LINE
  5
5BE1
  8
0
 10
1957.2906429023481
 20
739.95919167041154
 30
0.0
 11
1957.2906429023481
 21
721.9591916704112
 31
0.0
  0
LINE
  5
5BE2
  8
0
 10
1957.2906429023481
 20
721.9591916704112
 30
0.0
 11
2097.2906429023478
 21
721.9591916704112
 31
0.0
  0
LINE
  5
5BE3
  8
0
 10
2097.2906429023478
 20
721.9591916704112
 30
0.0
 11
2097.2906429023478
 21
739.95919167041166
 31
0.0
  0
LINE
  5
5BE4
  8
0
 10
2061.454642902348
 20
744.96919167041005
 30
0.0
 11
2057.2906429023478
 21
769.95919167040995
 31
0.0
  0
ARC
  5
5BE5
  8
0
 10
1987.2078803720481
 20
745.95919167040984
 30
0.0
 40
6.0
 50
270.0
 51
350.53767779196579
  0
ARC
  5
5BE6
  8
0
 10
2067.3734054326451
 20
745.95919167041166
 30
0.0
 40
6.0
 50
189.46232220803421
 51
270.0
  0
LINE
  5
5BE7
  8
0
 10
1957.2906429023481
 20
739.95919167041154
 30
0.0
 11
2097.2906429023478
 21
739.95919167041166
 31
0.0
  0
LINE
  5
5BF0
  8
0
 10
3866.3191757835848
 20
769.95919167041018
 30
0.0
 11
3862.1541757835839
 21
744.96919167041028
 31
0.0
  0
LINE
  5
5BF1
  8
0
 10
3826.3191757835862
 20
739.95919167041166
 30
0.0
 11
3826.3191757835848
 21
721.95919167041143
 31
0.0
  0
LINE
  5
5BF2
  8
0
 10
3826.3191757835848
 20
721.95919167041143
 30
0.0
 11
3966.3191757835848
 21
721.95919167041143
 31
0.0
  0
LINE
  5
5BF3
  8
0
 10
3966.3191757835848
 20
721.95919167041143
 30
0.0
 11
3966.3191757835848
 21
739.95919167041177
 31
0.0
  0
LINE
  5
5BF4
  8
0
 10
3930.483175783585
 20
744.96919167041028
 30
0.0
 11
3926.3191757835848
 21
769.95919167041018
 31
0.0
  0
ARC
  5
5BF5
  8
0
 10
3856.2364132532862
 20
745.95919167040995
 30
0.0
 40
6.0
 50
270.0
 51
350.53767779196579
  0
ARC
  5
5BF6
  8
0
 10
3936.401938313883
 20
745.95919167041188
 30
0.0
 40
6.0
 50
189.46232220803421
 51
270.0
  0
LINE
  5
5BF7
  8
0
 10
3826.3191757835862
 20
739.95919167041166
 30
0.0
 11
3966.3191757835848
 21
739.95919167041177
 31
0.0
  0
LINE
  5
5BF9
  8
0
 10
2931.8046593429672
 20
2784.3301835791699
 30
0.0
 11
2927.6396593429658
 21
2759.3401835791692
 31
0.0
  0
LINE
  5
5BFA
  8
0
 10
2891.8046593429672
 20
2754.3301835791708
 30
0.0
 11
2891.8046593429672
 21
2736.3301835791699
 31
0.0
  0
LINE
  5
5BFB
  8
0
 10
2891.8046593429672
 20
2736.3301835791699
 30
0.0
 11
3031.8046593429672
 21
2736.3301835791699
 31
0.0
  0
LINE
  5
5BFC
  8
0
 10
3031.8046593429672
 20
2736.3301835791699
 30
0.0
 11
3031.8046593429672
 21
2754.3301835791708
 31
0.0
  0
LINE
  5
5BFD
  8
0
 10
2995.9686593429669
 20
2759.3401835791692
 30
0.0
 11
2991.8046593429672
 21
2784.3301835791699
 31
0.0
  0
ARC
  5
5C00
  8
0
 10
2921.7218968126681
 20
2760.330183579169
 30
0.0
 40
6.0
 50
270.0
 51
350.5376777919659
  0
ARC
  5
5C01
  8
0
 10
3001.887421873264
 20
2760.3301835791708
 30
0.0
 40
6.0
 50
189.4623222080341
 51
270.0
  0
LINE
  5
5C02
  8
0
 10
2891.8046593429672
 20
2754.3301835791708
 30
0.0
 11
3031.8046593429672
 21
2754.3301835791708
 31
0.0
  0
CIRCLE
  5
5C08
  8
0
 10
3121.8041593429662
 20
2284.6852761743821
 30
0.0
 40
27.5
  0
VIEWPORT
  5
41
 67
     1
  8
0
 10
117.358407079646
 20
73.5
 30
0.0
 40
234.716814159292
 41
147.0
 68
     1
 69
     1
1001
ACAD
1000
MVIEW
1002
{
1070
    16
1010
0.0
1020
0.0
1030
0.0
1010
0.0
1020
0.0
1030
1.0
1040
0.0
1040
147.0
1040
117.358407079646
1040
73.5
1040
50.0
1040
0.0
1040
0.0
1070
     0
1070
   100
1070
     1
1070
     1
1070
     0
1070
     0
1070
     0
1070
     0
1040
0.0
1040
0.0
1040
0.0
1040
1.0
1040
1.0
1040
0.0
1040
0.0
1070
     0
1002
{
1002
}
1002
}
  0
ENDSEC
  0
EOF
