  0
SECTION
  2
HEADER
  9
$ACADVER
  1
AC1012
  9
$DWGCODEPAGE
  3
dos932
  9
$INSBASE
 10
0.0
 20
0.0
 30
0.0
  9
$EXTMIN
 10
132.0
 20
60.0
 30
0.0
  9
$EXTMAX
 10
3432.0
 20
2292.0
 30
0.0
  9
$LIMMIN
 10
0.0
 20
0.0
  9
$LIMMAX
 10
3564.0
 20
2520.0
  9
$ORTHOMODE
 70
     1
  9
$REGENMODE
 70
     1
  9
$FILLMODE
 70
     1
  9
$QTEXTMODE
 70
     0
  9
$MIRRTEXT
 70
     1
  9
$DRAGMODE
 70
     2
  9
$LTSCALE
 40
48.0
  9
$OSMODE
 70
    35
  9
$ATTMODE
 70
     1
  9
$TEXTSIZE
 40
48.0
  9
$TRACEWID
 40
0.05
  9
$TEXTSTYLE
  7
STANDARD
  9
$CLAYER
  8
0
  9
$CELTYPE
  6
BYLAYER
  9
$CECOLOR
 62
   256
  9
$CELTSCALE
 40
1.0
  9
$DELOBJ
 70
     1
  9
$DISPSILH
 70
     0
  9
$DIMSCALE
 40
12.0
  9
$DIMASZ
 40
2.8
  9
$DIMEXO
 40
1.0
  9
$DIMDLI
 40
5.0
  9
$DIMRND
 40
0.1
  9
$DIMDLE
 40
0.0
  9
$DIMEXE
 40
1.0
  9
$DIMTP
 40
0.0
  9
$DIMTM
 40
0.0
  9
$DIMTXT
 40
2.5
  9
$DIMCEN
 40
0.0
  9
$DIMTSZ
 40
0.0
  9
$DIMTOL
 70
     0
  9
$DIMLIM
 70
     0
  9
$DIMTIH
 70
     0
  9
$DIMTOH
 70
     0
  9
$DIMSE1
 70
     0
  9
$DIMSE2
 70
     0
  9
$DIMTAD
 70
     3
  9
$DIMZIN
 70
     8
  9
$DIMBLK
  1

  9
$DIMASO
 70
     1
  9
$DIMSHO
 70
     1
  9
$DIMPOST
  1
 
  9
$DIMAPOST
  1

  9
$DIMALT
 70
     0
  9
$DIMALTD
 70
     2
  9
$DIMALTF
 40
1.0
  9
$DIMLFAC
 40
1.0
  9
$DIMTOFL
 70
     1
  9
$DIMTVP
 40
0.0
  9
$DIMTIX
 70
     0
  9
$DIMSOXD
 70
     0
  9
$DIMSAH
 70
     1
  9
$DIMBLK1
  1
_OPEN
  9
$DIMBLK2
  1
_OPEN
  9
$DIMSTYLE
  2
DIM1
  9
$DIMCLRD
 70
     2
  9
$DIMCLRE
 70
     2
  9
$DIMCLRT
 70
     2
  9
$DIMTFAC
 40
0.7
  9
$DIMGAP
 40
0.85
  9
$DIMJUST
 70
     0
  9
$DIMSD1
 70
     0
  9
$DIMSD2
 70
     0
  9
$DIMTOLJ
 70
     1
  9
$DIMTZIN
 70
     8
  9
$DIMALTZ
 70
     8
  9
$DIMALTTZ
 70
     8
  9
$DIMFIT
 70
     0
  9
$DIMUPT
 70
     0
  9
$DIMUNIT
 70
     2
  9
$DIMDEC
 70
     2
  9
$DIMTDEC
 70
     3
  9
$DIMALTU
 70
     2
  9
$DIMALTTD
 70
     3
  9
$DIMTXSTY
  7
DIM
  9
$DIMAUNIT
 70
     0
  9
$LUNITS
 70
     2
  9
$LUPREC
 70
     4
  9
$SKETCHINC
 40
0.1
  9
$FILLETRAD
 40
5.0
  9
$AUNITS
 70
     0
  9
$AUPREC
 70
     0
  9
$MENU
  1
C:\ACADR13\WIN\SUPPORT\ACAD.mnc
  9
$ELEVATION
 40
0.0
  9
$PELEVATION
 40
0.0
  9
$THICKNESS
 40
0.0
  9
$LIMCHECK
 70
     0
  9
$BLIPMODE
 70
     1
  9
$CHAMFERA
 40
0.0
  9
$CHAMFERB
 40
0.0
  9
$CHAMFERC
 40
0.0
  9
$CHAMFERD
 40
0.0
  9
$SKPOLY
 70
     0
  9
$TDCREATE
 40
2451564.492637881
  9
$TDUPDATE
 40
2451981.563101852
  9
$TDINDWG
 40
0.4512793634
  9
$TDUSRTIMER
 40
0.4512793634
  9
$USRTIMER
 70
     1
  9
$ANGBASE
 50
0.0
  9
$ANGDIR
 70
     0
  9
$PDMODE
 70
     0
  9
$PDSIZE
 40
0.0
  9
$PLINEWID
 40
0.0
  9
$COORDS
 70
     1
  9
$SPLFRAME
 70
     0
  9
$SPLINETYPE
 70
     6
  9
$SPLINESEGS
 70
     8
  9
$ATTDIA
 70
     0
  9
$ATTREQ
 70
     1
  9
$HANDLING
 70
     1
  9
$HANDSEED
  5
11219
  9
$SURFTAB1
 70
     6
  9
$SURFTAB2
 70
     6
  9
$SURFTYPE
 70
     6
  9
$SURFU
 70
     6
  9
$SURFV
 70
     6
  9
$UCSNAME
  2

  9
$UCSORG
 10
0.0
 20
0.0
 30
0.0
  9
$UCSXDIR
 10
1.0
 20
0.0
 30
0.0
  9
$UCSYDIR
 10
0.0
 20
1.0
 30
0.0
  9
$PUCSNAME
  2

  9
$PUCSORG
 10
0.0
 20
0.0
 30
0.0
  9
$PUCSXDIR
 10
1.0
 20
0.0
 30
0.0
  9
$PUCSYDIR
 10
0.0
 20
1.0
 30
0.0
  9
$USERI1
 70
     0
  9
$USERI2
 70
     0
  9
$USERI3
 70
     0
  9
$USERI4
 70
     0
  9
$USERI5
 70
     0
  9
$USERR1
 40
0.0
  9
$USERR2
 40
0.0
  9
$USERR3
 40
0.0
  9
$USERR4
 40
0.0
  9
$USERR5
 40
0.0
  9
$WORLDVIEW
 70
     1
  9
$SHADEDGE
 70
     3
  9
$SHADEDIF
 70
    70
  9
$TILEMODE
 70
     1
  9
$MAXACTVP
 70
    16
  9
$PINSBASE
 10
0.0
 20
0.0
 30
0.0
  9
$PLIMCHECK
 70
     0
  9
$PEXTMIN
 10
1.000000E+20
 20
1.000000E+20
 30
1.000000E+20
  9
$PEXTMAX
 10
-1.000000E+20
 20
-1.000000E+20
 30
-1.000000E+20
  9
$PLIMMIN
 10
0.0
 20
0.0
  9
$PLIMMAX
 10
20.0
 20
147.0
  9
$UNITMODE
 70
     0
  9
$VISRETAIN
 70
     0
  9
$PLINEGEN
 70
     0
  9
$PSLTSCALE
 70
     1
  9
$TREEDEPTH
 70
  3020
  9
$PICKSTYLE
 70
     1
  9
$CMLSTYLE
  2
STANDARD
  9
$CMLJUST
 70
     0
  9
$CMLSCALE
 40
1.0
  9
$SAVEIMAGES
 70
     1
  0
ENDSEC
  0
SECTION
  2
CLASSES
  0
CLASS
  1
LWPOLYLINE
  2
AcDbPolyline
  3
"AutoCAD"
 90
    32768
280
     0
281
     1
  0
ENDSEC
  0
SECTION
  2
TABLES
  0
TABLE
  2
VPORT
  5
8
100
AcDbSymbolTable
 70
     2
  0
VPORT
  5
11218
100
AcDbSymbolTableRecord
100
AcDbViewportTableRecord
  2
*ACTIVE
 70
     0
 10
0.0
 20
0.0
 11
1.0
 21
1.0
 12
2302.197092
 22
1306.534894
 13
0.0
 23
0.0
 14
1.0
 24
1.0
 15
0.0
 25
0.0
 16
0.0
 26
0.0
 36
1.0
 17
0.0
 27
0.0
 37
0.0
 40
2613.069787
 41
1.762063
 42
50.0
 43
0.0
 44
0.0
 50
0.0
 51
0.0
 71
     0
 72
   100
 73
     1
 74
     1
 75
     0
 76
     0
 77
     0
 78
     0
  0
ENDTAB
  0
TABLE
  2
LTYPE
  5
5
100
AcDbSymbolTable
 70
     1
  0
LTYPE
  5
12
100
AcDbSymbolTableRecord
100
AcDbLinetypeTableRecord
  2
BYBLOCK
 70
     0
  3

 72
    65
 73
     0
 40
0.0
  0
LTYPE
  5
13
100
AcDbSymbolTableRecord
100
AcDbLinetypeTableRecord
  2
BYLAYER
 70
     0
  3

 72
    65
 73
     0
 40
0.0
  0
LTYPE
  5
14
100
AcDbSymbolTableRecord
100
AcDbLinetypeTableRecord
  2
CONTINUOUS
 70
     0
  3
Solid line
 72
    65
 73
     0
 40
0.0
  0
ENDTAB
  0
TABLE
  2
LAYER
  5
2
100
AcDbSymbolTable
 70
     1
  0
LAYER
  5
F
100
AcDbSymbolTableRecord
100
AcDbLayerTableRecord
  2
0
 70
     0
 62
     7
  6
CONTINUOUS
  0
ENDTAB
  0
TABLE
  2
STYLE
  5
3
100
AcDbSymbolTable
 70
     3
  0
STYLE
  5
10
100
AcDbSymbolTableRecord
100
AcDbTextStyleTableRecord
  2
STANDARD
 70
     0
 40
0.0
 41
0.8
 50
0.0
 71
     0
 42
48.0
  3
simplex
  4
extfont
  0
STYLE
  5
237C
100
AcDbSymbolTableRecord
100
AcDbTextStyleTableRecord
  2
PTSH
 70
     0
 40
0.0
 41
0.9
 50
0.0
 71
     0
 42
4.0
  3
SIMPLEX
  4
EXTFONT
  0
STYLE
  5
2592
100
AcDbSymbolTableRecord
100
AcDbTextStyleTableRecord
  2
DIM
 70
     0
 40
0.0
 41
0.8
 50
0.0
 71
     0
 42
4.0
  3
simplex
  4
extfont
  0
ENDTAB
  0
TABLE
  2
VIEW
  5
6
100
AcDbSymbolTable
 70
     0
  0
ENDTAB
  0
TABLE
  2
UCS
  5
7
100
AcDbSymbolTable
 70
     0
  0
ENDTAB
  0
TABLE
  2
APPID
  5
9
100
AcDbSymbolTable
 70
     1
  0
APPID
  5
11
100
AcDbSymbolTableRecord
100
AcDbRegAppTableRecord
  2
ACAD
 70
     0
  0
ENDTAB
  0
TABLE
  2
DIMSTYLE
  5
A
100
AcDbSymbolTable
 70
     1
  0
DIMSTYLE
105
2237
100
AcDbSymbolTableRecord
100
AcDbDimStyleTableRecord
  2
DIM1
 70
     0
  3
 
  4

  5

  6
_OPEN
  7
_OPEN
 40
12.0
 41
2.8
 42
1.0
 43
5.0
 44
1.0
 45
0.1
 46
0.0
 47
0.0
 48
0.0
140
2.5
141
0.0
142
0.0
143
1.0
144
1.0
145
0.0
146
0.7
147
0.85
 71
     0
 72
     0
 73
     0
 74
     0
 75
     0
 76
     0
 77
     3
 78
     8
170
     0
171
     2
172
     1
173
     1
174
     0
175
     0
176
     2
177
     2
178
     2
270
     2
271
     2
272
     3
273
     2
274
     3
340
2592
275
     0
280
     0
281
     0
282
     0
283
     1
284
     8
285
     8
286
     8
287
     0
288
     0
  0
ENDTAB
  0
TABLE
  2
BLOCK_RECORD
  5
1
100
AcDbSymbolTable
 70
     2
  0
BLOCK_RECORD
  5
18
100
AcDbSymbolTableRecord
100
AcDbBlockTableRecord
  2
*MODEL_SPACE
  0
BLOCK_RECORD
  5
15
100
AcDbSymbolTableRecord
100
AcDbBlockTableRecord
  2
*PAPER_SPACE
  0
BLOCK_RECORD
  5
2448
100
AcDbSymbolTableRecord
100
AcDbBlockTableRecord
  2
_OPEN
  0
BLOCK_RECORD
  5
9259
100
AcDbSymbolTableRecord
100
AcDbBlockTableRecord
  2
YA
  0
ENDTAB
  0
ENDSEC
  0
SECTION
  2
BLOCKS
  0
BLOCK
  5
3C
100
AcDbEntity
  8
0
100
AcDbBlockBegin
  2
*MODEL_SPACE
 70
     0
 10
0.0
 20
0.0
 30
0.0
  3
*MODEL_SPACE
  1

  0
ENDBLK
  5
3D
100
AcDbEntity
  8
0
100
AcDbBlockEnd
  0
BLOCK
  5
3A
100
AcDbEntity
 67
     1
  8
0
100
AcDbBlockBegin
  2
*PAPER_SPACE
 70
     0
 10
0.0
 20
0.0
 30
0.0
  3
*PAPER_SPACE
  1

  0
ENDBLK
  5
3B
100
AcDbEntity
 67
     1
  8
0
100
AcDbBlockEnd
  0
BLOCK
  5
2449
100
AcDbEntity
  8
0
 48
4.0
100
AcDbBlockBegin
  2
_OPEN
 70
     0
 10
0.0
 20
0.0
 30
0.0
  3
_OPEN
  1
H1111.DWG
  0
LINE
  5
244A
100
AcDbEntity
  8
0
  6
BYBLOCK
 62
     0
 48
4.0
100
AcDbLine
 10
-1.0
 20
0.166667
 30
0.0
 11
0.0
 21
0.0
 31
0.0
  0
LINE
  5
244B
100
AcDbEntity
  8
0
  6
BYBLOCK
 62
     0
 48
4.0
100
AcDbLine
 10
0.0
 20
0.0
 30
0.0
 11
-1.0
 21
-0.166667
 31
0.0
  0
LINE
  5
244C
100
AcDbEntity
  8
0
  6
BYBLOCK
 62
     0
 48
4.0
100
AcDbLine
 10
0.0
 20
0.0
 30
0.0
 11
-1.0
 21
0.0
 31
0.0
  0
ENDBLK
  5
244D
100
AcDbEntity
  8
0
 48
4.0
100
AcDbBlockEnd
  0
BLOCK
  5
9261
100
AcDbEntity
  8
0
100
AcDbBlockBegin
  2
YA
 70
     0
 10
0.0
 20
0.0
 30
0.0
  3
YA
  1

  0
LINE
  5
925A
100
AcDbEntity
  8
0
100
AcDbLine
 10
-16.8065
 20
2.801
 30
0.0
 11
-8.4035
 21
2.801
 31
0.0
  0
LINE
  5
925B
100
AcDbEntity
  8
0
100
AcDbLine
 10
-8.4035
 20
2.801
 30
0.0
 11
-7.0025
 21
1.4005
 31
0.0
  0
LINE
  5
925C
100
AcDbEntity
  8
0
100
AcDbLine
 10
-7.0025
 20
1.4005
 30
0.0
 11
-2.862
 21
1.4005
 31
0.0
  0
LINE
  5
925D
100
AcDbEntity
  8
0
100
AcDbLine
 10
-2.862
 20
1.4005
 30
0.0
 11
-2.862
 21
2.801
 31
0.0
  0
LINE
  5
925E
100
AcDbEntity
  8
0
100
AcDbLine
 10
-2.862
 20
2.801
 30
0.0
 11
0.0
 21
0.0
 31
0.0
  0
LINE
  5
925F
100
AcDbEntity
  8
0
100
AcDbLine
 10
0.0
 20
0.0
 30
0.0
 11
-14.0055
 21
0.0
 31
0.0
  0
LINE
  5
9260
100
AcDbEntity
  8
0
100
AcDbLine
 10
-14.0055
 20
0.0
 30
0.0
 11
-16.8065
 21
2.801
 31
0.0
  0
ENDBLK
  5
9262
100
AcDbEntity
  8
0
100
AcDbBlockEnd
  0
ENDSEC
  0
SECTION
  2
ENTITIES
  0
MTEXT
  5
ADA
100
AcDbEntity
  8
0
100
AcDbMText
 10
4561.671357
 20
598.155734
 30
0.0
 40
2.4
 41
566.717578
 71
     1
 72
     1
  1

  0
MTEXT
  5
ADB
100
AcDbEntity
  8
0
100
AcDbMText
 10
4668.599198
 20
694.209525
 30
0.0
 40
2.4
 41
545.33201
 71
     1
 72
     1
  1

  0
MTEXT
  5
ADC
100
AcDbEntity
  8
0
100
AcDbMText
 10
4604.442494
 20
-575.834957
 30
0.0
 40
2.4
 41
620.181499
 71
     1
 72
     1
  1

  0
TEXT
  5
2529
100
AcDbEntity
  8
0
  6
CONTINUOUS
100
AcDbText
 10
3038.742857
 20
84.0
 30
0.0
 40
36.0
  1
DC3AH,SH-F2
 41
0.9
  7
PTSH
 72
     2
 11
3372.0
 21
102.0
 31
0.0
100
AcDbText
 73
     2
  0
POLYLINE
  5
2563
100
AcDbEntity
  8
0
100
AcDb2dPolyline
 66
     1
 10
0.0
 20
0.0
 30
0.0
 70
     1
  0
VERTEX
  5
11213
100
AcDbEntity
  8
0
100
AcDbVertex
100
AcDb2dVertex
 10
132.0
 20
60.0
 30
0.0
  0
VERTEX
  5
11214
100
AcDbEntity
  8
0
100
AcDbVertex
100
AcDb2dVertex
 10
3432.0
 20
60.0
 30
0.0
  0
VERTEX
  5
11215
100
AcDbEntity
  8
0
100
AcDbVertex
100
AcDb2dVertex
 10
3432.0
 20
2292.0
 30
0.0
  0
VERTEX
  5
11216
100
AcDbEntity
  8
0
100
AcDbVertex
100
AcDb2dVertex
 10
132.0
 20
2292.0
 30
0.0
  0
SEQEND
  5
11217
100
AcDbEntity
  8
0
  0
TEXT
  5
2FCF
100
AcDbEntity
  8
0
100
AcDbText
 10
1171.2
 20
219.0
 30
0.0
 40
42.0
  1
TLV  DC3A-H,DC3S-H,DC3-H (JIS20K)
 72
     1
 11
1782.0
 21
240.0
 31
0.0
100
AcDbText
 73
     2
  0
TEXT
  5
E66D
100
AcDbEntity
  8
0
100
AcDbText
 10
231.734315
 20
1348.850141
 30
0.0
 40
42.0
  1
平面
100
AcDbText
  0
TEXT
  5
E75D
100
AcDbEntity
  8
0
100
AcDbText
 10
1092.859395
 20
510.968717
 30
0.0
 40
30.0
  1
40A
 41
0.8
 72
     1
 11
1124.859395
 21
525.968717
 31
0.0
100
AcDbText
 73
     2
  0
TEXT
  5
E857
100
AcDbEntity
  8
0
100
AcDbText
 10
231.734315
 20
955.538404
 30
0.0
 40
42.0
  1
正面
100
AcDbText
  0
INSERT
  5
EB7D
100
AcDbEntity
  8
0
100
AcDbBlockReference
  2
YA
 10
2367.61577
 20
955.538404
 30
0.0
 41
3.427225
 42
3.427225
 43
3.427225
  0
INSERT
  5
EBAF
100
AcDbEntity
  8
0
100
AcDbBlockReference
  2
YA
 10
2367.61577
 20
1348.850141
 30
0.0
 41
3.427225
 42
3.427225
 43
3.427225
  0
TEXT
  5
EE19
100
AcDbEntity
  8
0
100
AcDbText
 10
231.734315
 20
1979.780361
 30
0.0
 40
42.0
  1
背面
100
AcDbText
  0
INSERT
  5
EE71
100
AcDbEntity
  8
0
100
AcDbBlockReference
  2
YA
 10
1309.414179
 20
1979.780361
 30
0.0
 41
-3.427225
 42
3.427225
 43
3.427225
  0
INSERT
  5
EF99
100
AcDbEntity
  8
0
100
AcDbBlockReference
  2
YA
 10
2804.707486
 20
1979.780361
 30
0.0
 41
-3.427225
 42
3.427225
 43
3.427225
  0
LINE
  5
FA0B
100
AcDbEntity
  8
0
100
AcDbLine
 10
1099.118321
 20
1417.850141
 30
0.0
 11
1158.118321
 21
1417.850141
 31
0.0
  0
LINE
  5
FA0C
100
AcDbEntity
  8
0
100
AcDbLine
 10
1106.118321
 20
1278.850141
 30
0.0
 11
1151.118321
 21
1278.850141
 31
0.0
  0
ARC
  5
FA0D
100
AcDbEntity
  8
0
100
AcDbCircle
 10
1128.618321
 20
1348.850141
 30
0.0
 40
112.5
100
AcDbArc
 50
15.46601
 51
164.53399
  0
ARC
  5
FA0E
100
AcDbEntity
  8
0
100
AcDbCircle
 10
1128.618321
 20
1348.850141
 30
0.0
 40
112.5
100
AcDbArc
 50
195.46601
 51
344.53399
  0
ARC
  5
FA0F
100
AcDbEntity
  8
0
100
AcDbCircle
 10
1128.618321
 20
1348.850141
 30
0.0
 40
105.0
100
AcDbArc
 50
16.60155
 51
163.39845
  0
ARC
  5
FA10
100
AcDbEntity
  8
0
100
AcDbCircle
 10
1128.618321
 20
1348.850141
 30
0.0
 40
105.0
100
AcDbArc
 50
196.60155
 51
343.39845
  0
ARC
  5
FA11
100
AcDbEntity
  8
0
100
AcDbCircle
 10
1128.618321
 20
1348.850141
 30
0.0
 40
43.5
100
AcDbArc
 50
187.928142
 51
285.0
  0
ARC
  5
FA12
100
AcDbEntity
  8
0
100
AcDbCircle
 10
1128.618321
 20
1348.850141
 30
0.0
 40
43.5
100
AcDbArc
 50
75.0
 51
172.071858
  0
LINE
  5
FA13
100
AcDbEntity
  8
0
100
AcDbLine
 10
1157.618321
 20
1342.850141
 30
0.0
 11
1023.118321
 21
1342.850141
 31
0.0
  0
LINE
  5
FA14
100
AcDbEntity
  8
0
100
AcDbLine
 10
1157.618321
 20
1354.850141
 30
0.0
 11
1023.118321
 21
1354.850141
 31
0.0
  0
ARC
  5
FA15
100
AcDbEntity
  8
0
100
AcDbCircle
 10
1128.618321
 20
1348.850141
 30
0.0
 40
64.0
100
AcDbArc
 50
207.953187
 51
332.046813
  0
ARC
  5
FA16
100
AcDbEntity
  8
0
100
AcDbCircle
 10
1128.618321
 20
1348.850141
 30
0.0
 40
64.0
100
AcDbArc
 50
27.953187
 51
152.046813
  0
LINE
  5
FA1B
100
AcDbEntity
  8
0
100
AcDbLine
 10
995.118321
 20
1278.850141
 30
0.0
 11
995.118321
 21
1418.850141
 31
0.0
  0
LINE
  5
FA1D
100
AcDbEntity
  8
0
100
AcDbLine
 10
977.118321
 20
1348.850141
 30
0.0
 11
977.118321
 21
1418.850141
 31
0.0
  0
LINE
  5
FA1E
100
AcDbEntity
  8
0
100
AcDbLine
 10
977.118321
 20
1278.850141
 30
0.0
 11
977.118321
 21
1348.850141
 31
0.0
  0
CIRCLE
  5
FA1F
100
AcDbEntity
  8
0
100
AcDbCircle
 10
1096.090229
 20
1427.379901
 30
0.0
 40
8.0
  0
LINE
  5
FA21
100
AcDbEntity
  8
0
100
AcDbLine
 10
1096.118321
 20
1403.984068
 30
0.0
 11
1096.118321
 21
1414.850141
 31
0.0
  0
LINE
  5
FA22
100
AcDbEntity
  8
0
100
AcDbLine
 10
1099.618321
 20
1342.850141
 30
0.0
 11
1099.618321
 21
1354.850141
 31
0.0
  0
ARC
  5
FA23
100
AcDbEntity
  8
0
100
AcDbCircle
 10
1099.118321
 20
1414.850141
 30
0.0
 40
3.0
100
AcDbArc
 50
90.0
 51
180.0
  0
LINE
  5
FA24
100
AcDbEntity
  8
0
100
AcDbLine
 10
1106.118321
 20
1278.850141
 30
0.0
 11
1106.118321
 21
1288.935618
 31
0.0
  0
CIRCLE
  5
FA26
100
AcDbEntity
  8
0
100
AcDbCircle
 10
1096.090229
 20
1270.32038
 30
0.0
 40
8.0
  0
LINE
  5
FA27
100
AcDbEntity
  8
0
100
AcDbLine
 10
1020.118321
 20
1353.443143
 30
0.0
 11
1020.118321
 21
1344.257138
 31
0.0
  0
ARC
  5
FA28
100
AcDbEntity
  8
0
100
AcDbCircle
 10
1023.118321
 20
1339.850141
 30
0.0
 40
3.0
100
AcDbArc
 50
90.0
 51
180.0
  0
ARC
  5
FA29
100
AcDbEntity
  8
0
100
AcDbCircle
 10
1023.118321
 20
1357.850141
 30
0.0
 40
3.0
100
AcDbArc
 50
180.0
 51
270.0
  0
ARC
  5
FA2A
100
AcDbEntity
  8
0
100
AcDbCircle
 10
1050.088561
 20
1381.378232
 30
0.0
 40
8.0
100
AcDbArc
 50
341.578114
 51
198.421886
  0
LINE
  5
FA2C
100
AcDbEntity
  8
0
100
AcDbLine
 10
1010.118321
 20
1378.850141
 30
0.0
 11
1075.214638
 21
1378.850141
 31
0.0
  0
ARC
  5
FA2D
100
AcDbEntity
  8
0
100
AcDbCircle
 10
1075.214638
 20
1382.850141
 30
0.0
 40
4.0
100
AcDbArc
 50
270.0
 51
0.0
  0
LINE
  5
FA2E
100
AcDbEntity
  8
0
100
AcDbLine
 10
995.118321
 20
1381.850141
 30
0.0
 11
1010.118321
 21
1378.850141
 31
0.0
  0
ARC
  5
FA2F
100
AcDbEntity
  8
0
100
AcDbCircle
 10
1050.088561
 20
1316.322049
 30
0.0
 40
8.0
100
AcDbArc
 50
161.578114
 51
18.421886
  0
LINE
  5
FA31
100
AcDbEntity
  8
0
100
AcDbLine
 10
1010.118321
 20
1318.850141
 30
0.0
 11
1075.214638
 21
1318.850141
 31
0.0
  0
ARC
  5
FA32
100
AcDbEntity
  8
0
100
AcDbCircle
 10
1075.214638
 20
1314.850141
 30
0.0
 40
4.0
100
AcDbArc
 50
0.0
 51
90.0
  0
LINE
  5
FA33
100
AcDbEntity
  8
0
100
AcDbLine
 10
995.118321
 20
1315.850141
 30
0.0
 11
1010.118321
 21
1318.850141
 31
0.0
  0
ARC
  5
FA34
100
AcDbEntity
  8
0
100
AcDbCircle
 10
1128.618321
 20
1348.850141
 30
0.0
 40
68.0
100
AcDbArc
 50
118.551023
 51
153.821031
  0
ARC
  5
FA35
100
AcDbEntity
  8
0
100
AcDbCircle
 10
1128.618321
 20
1348.850141
 30
0.0
 40
68.0
100
AcDbArc
 50
206.178969
 51
250.677661
  0
CIRCLE
  5
FA3F
100
AcDbEntity
  8
0
100
AcDbCircle
 10
1161.146413
 20
1427.379901
 30
0.0
 40
8.0
  0
ARC
  5
FA40
100
AcDbEntity
  8
0
100
AcDbCircle
 10
1207.148081
 20
1381.378232
 30
0.0
 40
8.0
100
AcDbArc
 50
341.578114
 51
198.421886
  0
LINE
  5
FA42
100
AcDbEntity
  8
0
100
AcDbLine
 10
1247.118321
 20
1378.850141
 30
0.0
 11
1184.727891
 21
1378.850141
 31
0.0
  0
LINE
  5
FA43
100
AcDbEntity
  8
0
100
AcDbLine
 10
1262.118321
 20
1381.850141
 30
0.0
 11
1247.118321
 21
1378.850141
 31
0.0
  0
LINE
  5
FA44
100
AcDbEntity
  8
0
100
AcDbLine
 10
1161.118321
 20
1403.984068
 30
0.0
 11
1161.118321
 21
1414.850141
 31
0.0
  0
LINE
  5
FA45
100
AcDbEntity
  8
0
100
AcDbLine
 10
1157.618321
 20
1342.850141
 30
0.0
 11
1157.618321
 21
1354.850141
 31
0.0
  0
ARC
  5
FA46
100
AcDbEntity
  8
0
100
AcDbCircle
 10
1128.618321
 20
1348.850141
 30
0.0
 40
68.0
100
AcDbArc
 50
26.178969
 51
61.448977
  0
LINE
  5
FA47
100
AcDbEntity
  8
0
100
AcDbLine
 10
1184.727891
 20
1378.850141
 30
0.0
 11
1139.87695
 21
1390.867914
 31
0.0
  0
ARC
  5
FA48
100
AcDbEntity
  8
0
100
AcDbCircle
 10
1158.118321
 20
1414.850141
 30
0.0
 40
3.0
100
AcDbArc
 50
0.0
 51
90.0
  0
ARC
  5
FA49
100
AcDbEntity
  8
0
100
AcDbCircle
 10
1207.148081
 20
1316.322049
 30
0.0
 40
8.0
100
AcDbArc
 50
161.578114
 51
18.421886
  0
LINE
  5
FA4B
100
AcDbEntity
  8
0
100
AcDbLine
 10
1247.118321
 20
1318.850141
 30
0.0
 11
1184.727891
 21
1318.850141
 31
0.0
  0
LINE
  5
FA4C
100
AcDbEntity
  8
0
100
AcDbLine
 10
1262.118321
 20
1315.850141
 30
0.0
 11
1247.118321
 21
1318.850141
 31
0.0
  0
LINE
  5
FA4D
100
AcDbEntity
  8
0
100
AcDbLine
 10
1151.118321
 20
1288.935618
 30
0.0
 11
1151.118321
 21
1278.850141
 31
0.0
  0
CIRCLE
  5
FA4F
100
AcDbEntity
  8
0
100
AcDbCircle
 10
1161.146413
 20
1270.32038
 30
0.0
 40
8.0
  0
ARC
  5
FA50
100
AcDbEntity
  8
0
100
AcDbCircle
 10
1128.618321
 20
1348.850141
 30
0.0
 40
68.0
100
AcDbArc
 50
289.322339
 51
333.821031
  0
LINE
  5
FA51
100
AcDbEntity
  8
0
100
AcDbLine
 10
1184.727891
 20
1318.850141
 30
0.0
 11
1139.87695
 21
1306.832367
 31
0.0
  0
ARC
  5
FA5D
100
AcDbEntity
  8
0
100
AcDbCircle
 10
1115.118321
 20
977.68142
 30
0.0
 40
30.0
100
AcDbArc
 50
105.664267
 51
176.777648
  0
LINE
  5
FA5E
100
AcDbEntity
  8
0
100
AcDbLine
 10
1020.118321
 20
985.538404
 30
0.0
 11
1092.800117
 21
1002.318319
 31
0.0
  0
ARC
  5
FA5F
100
AcDbEntity
  8
0
100
AcDbCircle
 10
1090.550606
 20
1012.06202
 30
0.0
 40
10.0
100
AcDbArc
 50
283.0
 51
12.553034
  0
ARC
  5
FA60
100
AcDbEntity
  8
0
100
AcDbCircle
 10
1128.618321
 20
1020.538404
 30
0.0
 40
29.0
100
AcDbArc
 50
358.530716
 51
192.553034
  0
ARC
  5
FA61
100
AcDbEntity
  8
0
100
AcDbCircle
 10
1179.68024
 20
959.538404
 30
0.0
 40
50.0
100
AcDbArc
 50
39.106898
 51
90.0
  0
LINE
  5
FA62
100
AcDbEntity
  8
0
100
AcDbLine
 10
1016.118321
 20
686.538404
 30
0.0
 11
1241.118321
 21
686.538404
 31
0.0
  0
LINE
  5
FA63
100
AcDbEntity
  8
0
100
AcDbLine
 10
1016.118321
 20
720.038404
 30
0.0
 11
1241.118321
 21
720.038404
 31
0.0
  0
LINE
  5
FA64
100
AcDbEntity
  8
0
100
AcDbLine
 10
1016.118321
 20
654.338404
 30
0.0
 11
1241.118321
 21
654.338404
 31
0.0
  0
LINE
  5
FA67
100
AcDbEntity
  8
0
100
AcDbLine
 10
1023.618321
 20
877.038404
 30
0.0
 11
1233.618321
 21
877.038404
 31
0.0
  0
LINE
  5
FA68
100
AcDbEntity
  8
0
100
AcDbLine
 10
1023.618321
 20
847.538404
 30
0.0
 11
1233.618321
 21
847.538404
 31
0.0
  0
LINE
  5
FA69
100
AcDbEntity
  8
0
100
AcDbLine
 10
1084.618321
 20
967.538404
 30
0.0
 11
1172.618321
 21
967.538404
 31
0.0
  0
LINE
  5
FA6A
100
AcDbEntity
  8
0
100
AcDbLine
 10
1023.618321
 20
819.538404
 30
0.0
 11
1233.618321
 21
819.538404
 31
0.0
  0
CIRCLE
  5
FA6B
100
AcDbEntity
  8
0
100
AcDbCircle
 10
1128.618321
 20
924.538404
 30
0.0
 40
22.5
  0
LINE
  5
FA6F
100
AcDbEntity
  8
0
100
AcDbLine
 10
1052.126866
 20
740.038404
 30
0.0
 11
1048.673444
 21
724.718951
 31
0.0
  0
LINE
  5
FA8C
100
AcDbEntity
  8
0
100
AcDbLine
 10
1016.118321
 20
720.038404
 30
0.0
 11
1016.118321
 21
654.338404
 31
0.0
  0
ARC
  5
FA9F
100
AcDbEntity
  8
0
100
AcDbCircle
 10
1075.181565
 20
979.929861
 30
0.0
 40
10.0
100
AcDbArc
 50
230.988607
 51
356.777648
  0
ARC
  5
FAA0
100
AcDbEntity
  8
0
100
AcDbCircle
 10
1085.698729
 20
813.358158
 30
0.0
 40
6.537699
100
AcDbArc
 50
237.999511
 51
302.000489
  0
LINE
  5
FAA1
100
AcDbEntity
  8
0
100
AcDbLine
 10
1084.443229
 20
806.538404
 30
0.0
 11
1107.737229
 21
806.538404
 31
0.0
  0
LINE
  5
FAA2
100
AcDbEntity
  8
0
100
AcDbLine
 10
1064.618321
 20
897.038404
 30
0.0
 11
1064.618321
 21
905.538404
 31
0.0
  0
LINE
  5
FAA3
100
AcDbEntity
  8
0
100
AcDbLine
 10
1063.944561
 20
807.813904
 30
0.0
 11
1063.944561
 21
819.538404
 31
0.0
  0
LINE
  5
FAA4
100
AcDbEntity
  8
0
100
AcDbLine
 10
1057.015561
 20
807.813904
 30
0.0
 11
1057.015561
 21
819.538404
 31
0.0
  0
LINE
  5
FAA5
100
AcDbEntity
  8
0
100
AcDbLine
 10
1036.232561
 20
819.538404
 30
0.0
 11
1036.232561
 21
807.813904
 31
0.0
  0
LINE
  5
FAA6
100
AcDbEntity
  8
0
100
AcDbLine
 10
1043.160561
 20
807.813904
 30
0.0
 11
1043.160561
 21
819.538404
 31
0.0
  0
LINE
  5
FAA7
100
AcDbEntity
  8
0
100
AcDbLine
 10
1082.234229
 20
819.538404
 30
0.0
 11
1082.234229
 21
807.813904
 31
0.0
  0
LINE
  5
FAA8
100
AcDbEntity
  8
0
100
AcDbLine
 10
1052.126866
 20
740.038404
 30
0.0
 11
1062.618321
 21
799.538404
 31
0.0
  0
ARC
  5
FAA9
100
AcDbEntity
  8
0
100
AcDbCircle
 10
1060.480061
 20
813.358158
 30
0.0
 40
6.537699
100
AcDbArc
 50
237.999511
 51
302.000489
  0
LINE
  5
FAAA
100
AcDbEntity
  8
0
100
AcDbLine
 10
1061.735561
 20
806.538404
 30
0.0
 11
1063.944561
 21
807.813904
 31
0.0
  0
LINE
  5
FAAB
100
AcDbEntity
  8
0
100
AcDbLine
 10
1038.441561
 20
806.538404
 30
0.0
 11
1061.735561
 21
806.538404
 31
0.0
  0
ARC
  5
FAAD
100
AcDbEntity
  8
0
100
AcDbCircle
 10
1050.088061
 20
831.473729
 30
0.0
 40
24.653145
100
AcDbArc
 50
253.680185
 51
286.319815
  0
LINE
  5
FAAE
100
AcDbEntity
  8
0
100
AcDbLine
 10
1057.005561
 20
802.538404
 30
0.0
 11
1043.171561
 21
802.538404
 31
0.0
  0
LINE
  5
FAAF
100
AcDbEntity
  8
0
100
AcDbLine
 10
1058.088561
 20
803.621404
 30
0.0
 11
1057.005561
 21
802.538404
 31
0.0
  0
ARC
  5
FAB0
100
AcDbEntity
  8
0
100
AcDbCircle
 10
1039.697061
 20
813.358158
 30
0.0
 40
6.537699
100
AcDbArc
 50
237.999511
 51
302.000489
  0
LINE
  5
FAB1
100
AcDbEntity
  8
0
100
AcDbLine
 10
1043.171561
 20
802.538404
 30
0.0
 11
1042.088561
 21
803.621404
 31
0.0
  0
LINE
  5
FAB2
100
AcDbEntity
  8
0
100
AcDbLine
 10
1042.088561
 20
803.621404
 30
0.0
 11
1042.088561
 21
806.538404
 31
0.0
  0
LINE
  5
FAB3
100
AcDbEntity
  8
0
100
AcDbLine
 10
1036.232561
 20
807.813904
 30
0.0
 11
1038.441561
 21
806.538404
 31
0.0
  0
LINE
  5
FAB4
100
AcDbEntity
  8
0
100
AcDbLine
 10
1058.088561
 20
806.538404
 30
0.0
 11
1058.088561
 21
803.621404
 31
0.0
  0
LINE
  5
FAB5
100
AcDbEntity
  8
0
100
AcDbLine
 10
1062.618321
 20
799.538404
 30
0.0
 11
1062.618321
 21
807.048119
 31
0.0
  0
LINE
  5
FAB6
100
AcDbEntity
  8
0
100
AcDbLine
 10
1082.234229
 20
807.813904
 30
0.0
 11
1084.443229
 21
806.538404
 31
0.0
  0
LINE
  5
FAB7
100
AcDbEntity
  8
0
100
AcDbLine
 10
1060.618321
 20
877.038404
 30
0.0
 11
1064.618321
 21
897.038404
 31
0.0
  0
LINE
  5
FAB8
100
AcDbEntity
  8
0
100
AcDbLine
 10
1023.618321
 20
819.538404
 30
0.0
 11
1023.618321
 21
877.038404
 31
0.0
  0
LINE
  5
FABA
100
AcDbEntity
  8
0
100
AcDbLine
 10
1057.005561
 20
881.038404
 30
0.0
 11
1043.171561
 21
881.038404
 31
0.0
  0
LINE
  5
FABB
100
AcDbEntity
  8
0
100
AcDbLine
 10
1058.088561
 20
879.955404
 30
0.0
 11
1057.005561
 21
881.038404
 31
0.0
  0
LINE
  5
FABC
100
AcDbEntity
  8
0
100
AcDbLine
 10
1043.171561
 20
881.038404
 30
0.0
 11
1042.088561
 21
879.955404
 31
0.0
  0
LINE
  5
FABD
100
AcDbEntity
  8
0
100
AcDbLine
 10
1042.088561
 20
879.955404
 30
0.0
 11
1042.088561
 21
877.038404
 31
0.0
  0
LINE
  5
FABE
100
AcDbEntity
  8
0
100
AcDbLine
 10
1058.088561
 20
877.038404
 30
0.0
 11
1058.088561
 21
879.955404
 31
0.0
  0
ARC
  5
FABF
100
AcDbEntity
  8
0
100
AcDbCircle
 10
1031.118321
 20
925.538404
 30
0.0
 40
60.0
100
AcDbArc
 50
50.988607
 51
90.0
  0
LINE
  5
FAC0
100
AcDbEntity
  8
0
100
AcDbLine
 10
995.118321
 20
922.538404
 30
0.0
 11
1010.118321
 21
925.538404
 31
0.0
  0
ARC
  5
FAC1
100
AcDbEntity
  8
0
100
AcDbCircle
 10
1044.618321
 20
905.538404
 30
0.0
 40
20.0
100
AcDbArc
 50
0.0
 51
90.0
  0
LINE
  5
FAC2
100
AcDbEntity
  8
0
100
AcDbLine
 10
1010.118321
 20
925.538404
 30
0.0
 11
1044.618321
 21
925.538404
 31
0.0
  0
ARC
  5
FAC3
100
AcDbEntity
  8
0
100
AcDbCircle
 10
1084.618321
 20
947.538404
 30
0.0
 40
20.0
100
AcDbArc
 50
90.0
 51
180.0
  0
LINE
  5
FAC4
100
AcDbEntity
  8
0
100
AcDbLine
 10
995.118321
 20
988.538404
 30
0.0
 11
1010.118321
 21
985.538404
 31
0.0
  0
LINE
  5
FAC5
100
AcDbEntity
  8
0
100
AcDbLine
 10
1010.118321
 20
985.538404
 30
0.0
 11
1031.118321
 21
985.538404
 31
0.0
  0
LINE
  5
FAC6
100
AcDbEntity
  8
0
100
AcDbLine
 10
1089.162229
 20
807.813904
 30
0.0
 11
1089.162229
 21
819.538404
 31
0.0
  0
LINE
  5
FAC7
100
AcDbEntity
  8
0
100
AcDbLine
 10
1103.017229
 20
807.813904
 30
0.0
 11
1103.017229
 21
819.538404
 31
0.0
  0
LINE
  5
FAC8
100
AcDbEntity
  8
0
100
AcDbLine
 10
1109.946229
 20
807.813904
 30
0.0
 11
1109.946229
 21
819.538404
 31
0.0
  0
LINE
  5
FAC9
100
AcDbEntity
  8
0
100
AcDbLine
 10
1104.090229
 20
806.538404
 30
0.0
 11
1104.090229
 21
803.621404
 31
0.0
  0
LINE
  5
FACA
100
AcDbEntity
  8
0
100
AcDbLine
 10
1088.090229
 20
803.621404
 30
0.0
 11
1088.090229
 21
806.538404
 31
0.0
  0
LINE
  5
FACB
100
AcDbEntity
  8
0
100
AcDbLine
 10
1089.173229
 20
802.538404
 30
0.0
 11
1088.090229
 21
803.621404
 31
0.0
  0
LINE
  5
FACC
100
AcDbEntity
  8
0
100
AcDbLine
 10
1104.090229
 20
803.621404
 30
0.0
 11
1103.007229
 21
802.538404
 31
0.0
  0
LINE
  5
FACD
100
AcDbEntity
  8
0
100
AcDbLine
 10
1103.007229
 20
802.538404
 30
0.0
 11
1089.173229
 21
802.538404
 31
0.0
  0
ARC
  5
FACE
100
AcDbEntity
  8
0
100
AcDbCircle
 10
1096.089729
 20
831.473729
 30
0.0
 40
24.653145
100
AcDbArc
 50
253.680185
 51
286.319815
  0
LINE
  5
FAD0
100
AcDbEntity
  8
0
100
AcDbLine
 10
1107.737229
 20
806.538404
 30
0.0
 11
1109.946229
 21
807.813904
 31
0.0
  0
ARC
  5
FAD1
100
AcDbEntity
  8
0
100
AcDbCircle
 10
1106.481729
 20
813.358158
 30
0.0
 40
6.537699
100
AcDbArc
 50
237.999511
 51
302.000489
  0
LINE
  5
FAD2
100
AcDbEntity
  8
0
100
AcDbLine
 10
1104.090229
 20
877.038404
 30
0.0
 11
1104.090229
 21
879.955404
 31
0.0
  0
LINE
  5
FAD3
100
AcDbEntity
  8
0
100
AcDbLine
 10
1088.090229
 20
879.955404
 30
0.0
 11
1088.090229
 21
877.038404
 31
0.0
  0
LINE
  5
FAD4
100
AcDbEntity
  8
0
100
AcDbLine
 10
1089.173229
 20
881.038404
 30
0.0
 11
1088.090229
 21
879.955404
 31
0.0
  0
LINE
  5
FAD5
100
AcDbEntity
  8
0
100
AcDbLine
 10
1104.090229
 20
879.955404
 30
0.0
 11
1103.007229
 21
881.038404
 31
0.0
  0
LINE
  5
FAD6
100
AcDbEntity
  8
0
100
AcDbLine
 10
1103.007229
 20
881.038404
 30
0.0
 11
1089.173229
 21
881.038404
 31
0.0
  0
LINE
  5
FADB
100
AcDbEntity
  8
0
100
AcDbLine
 10
1205.109777
 20
740.038404
 30
0.0
 11
1208.563198
 21
724.718951
 31
0.0
  0
LINE
  5
FB02
100
AcDbEntity
  8
0
100
AcDbLine
 10
1241.118321
 20
720.038404
 30
0.0
 11
1241.118321
 21
654.338404
 31
0.0
  0
LINE
  5
FB0A
100
AcDbEntity
  8
0
100
AcDbLine
 10
1192.618321
 20
897.038404
 30
0.0
 11
1192.618321
 21
925.914346
 31
0.0
  0
LINE
  5
FB0B
100
AcDbEntity
  8
0
100
AcDbLine
 10
1175.002413
 20
819.538404
 30
0.0
 11
1175.002413
 21
807.813904
 31
0.0
  0
LINE
  5
FB0C
100
AcDbEntity
  8
0
100
AcDbLine
 10
1214.076081
 20
807.813904
 30
0.0
 11
1214.076081
 21
819.538404
 31
0.0
  0
LINE
  5
FB0D
100
AcDbEntity
  8
0
100
AcDbLine
 10
1221.004081
 20
819.538404
 30
0.0
 11
1221.004081
 21
807.813904
 31
0.0
  0
LINE
  5
FB0E
100
AcDbEntity
  8
0
100
AcDbLine
 10
1200.221081
 20
807.813904
 30
0.0
 11
1200.221081
 21
819.538404
 31
0.0
  0
LINE
  5
FB0F
100
AcDbEntity
  8
0
100
AcDbLine
 10
1193.292081
 20
807.813904
 30
0.0
 11
1193.292081
 21
819.538404
 31
0.0
  0
LINE
  5
FB10
100
AcDbEntity
  8
0
100
AcDbLine
 10
1147.290413
 20
807.813904
 30
0.0
 11
1147.290413
 21
819.538404
 31
0.0
  0
LINE
  5
FB11
100
AcDbEntity
  8
0
100
AcDbLine
 10
1154.219413
 20
807.813904
 30
0.0
 11
1154.219413
 21
819.538404
 31
0.0
  0
LINE
  5
FB12
100
AcDbEntity
  8
0
100
AcDbLine
 10
1168.074413
 20
807.813904
 30
0.0
 11
1168.074413
 21
819.538404
 31
0.0
  0
LINE
  5
FB13
100
AcDbEntity
  8
0
100
AcDbLine
 10
1172.793413
 20
806.538404
 30
0.0
 11
1149.499413
 21
806.538404
 31
0.0
  0
ARC
  5
FB14
100
AcDbEntity
  8
0
100
AcDbCircle
 10
1171.537913
 20
813.358158
 30
0.0
 40
6.537699
100
AcDbArc
 50
237.999511
 51
302.000489
  0
LINE
  5
FB15
100
AcDbEntity
  8
0
100
AcDbLine
 10
1175.002413
 20
807.813904
 30
0.0
 11
1172.793413
 21
806.538404
 31
0.0
  0
ARC
  5
FB16
100
AcDbEntity
  8
0
100
AcDbCircle
 10
1150.754913
 20
813.358158
 30
0.0
 40
6.537699
100
AcDbArc
 50
237.999511
 51
302.000489
  0
LINE
  5
FB17
100
AcDbEntity
  8
0
100
AcDbLine
 10
1149.499413
 20
806.538404
 30
0.0
 11
1147.290413
 21
807.813904
 31
0.0
  0
ARC
  5
FB19
100
AcDbEntity
  8
0
100
AcDbCircle
 10
1161.146913
 20
831.473729
 30
0.0
 40
24.653145
100
AcDbArc
 50
253.680185
 51
286.319815
  0
LINE
  5
FB1A
100
AcDbEntity
  8
0
100
AcDbLine
 10
1154.229413
 20
802.538404
 30
0.0
 11
1168.063413
 21
802.538404
 31
0.0
  0
LINE
  5
FB1B
100
AcDbEntity
  8
0
100
AcDbLine
 10
1153.146413
 20
803.621404
 30
0.0
 11
1154.229413
 21
802.538404
 31
0.0
  0
LINE
  5
FB1C
100
AcDbEntity
  8
0
100
AcDbLine
 10
1168.063413
 20
802.538404
 30
0.0
 11
1169.146413
 21
803.621404
 31
0.0
  0
LINE
  5
FB1D
100
AcDbEntity
  8
0
100
AcDbLine
 10
1169.146413
 20
803.621404
 30
0.0
 11
1169.146413
 21
806.538404
 31
0.0
  0
LINE
  5
FB1E
100
AcDbEntity
  8
0
100
AcDbLine
 10
1153.146413
 20
806.538404
 30
0.0
 11
1153.146413
 21
803.621404
 31
0.0
  0
LINE
  5
FB1F
100
AcDbEntity
  8
0
100
AcDbLine
 10
1205.109777
 20
740.038404
 30
0.0
 11
1194.618321
 21
799.538404
 31
0.0
  0
LINE
  5
FB20
100
AcDbEntity
  8
0
100
AcDbLine
 10
1199.148081
 20
806.538404
 30
0.0
 11
1199.148081
 21
803.621404
 31
0.0
  0
LINE
  5
FB21
100
AcDbEntity
  8
0
100
AcDbLine
 10
1221.004081
 20
807.813904
 30
0.0
 11
1218.795081
 21
806.538404
 31
0.0
  0
LINE
  5
FB22
100
AcDbEntity
  8
0
100
AcDbLine
 10
1215.148081
 20
803.621404
 30
0.0
 11
1215.148081
 21
806.538404
 31
0.0
  0
LINE
  5
FB23
100
AcDbEntity
  8
0
100
AcDbLine
 10
1214.065081
 20
802.538404
 30
0.0
 11
1215.148081
 21
803.621404
 31
0.0
  0
ARC
  5
FB24
100
AcDbEntity
  8
0
100
AcDbCircle
 10
1217.539581
 20
813.358158
 30
0.0
 40
6.537699
100
AcDbArc
 50
237.999511
 51
302.000489
  0
LINE
  5
FB25
100
AcDbEntity
  8
0
100
AcDbLine
 10
1199.148081
 20
803.621404
 30
0.0
 11
1200.231081
 21
802.538404
 31
0.0
  0
LINE
  5
FB26
100
AcDbEntity
  8
0
100
AcDbLine
 10
1200.231081
 20
802.538404
 30
0.0
 11
1214.065081
 21
802.538404
 31
0.0
  0
ARC
  5
FB27
100
AcDbEntity
  8
0
100
AcDbCircle
 10
1207.148581
 20
831.473729
 30
0.0
 40
24.653145
100
AcDbArc
 50
253.680185
 51
286.319815
  0
LINE
  5
FB29
100
AcDbEntity
  8
0
100
AcDbLine
 10
1218.795081
 20
806.538404
 30
0.0
 11
1195.501081
 21
806.538404
 31
0.0
  0
LINE
  5
FB2A
100
AcDbEntity
  8
0
100
AcDbLine
 10
1195.501081
 20
806.538404
 30
0.0
 11
1193.292081
 21
807.813904
 31
0.0
  0
ARC
  5
FB2B
100
AcDbEntity
  8
0
100
AcDbCircle
 10
1196.756581
 20
813.358158
 30
0.0
 40
6.537699
100
AcDbArc
 50
237.999511
 51
302.000489
  0
LINE
  5
FB2C
100
AcDbEntity
  8
0
100
AcDbLine
 10
1194.618321
 20
799.538404
 30
0.0
 11
1194.618321
 21
807.048119
 31
0.0
  0
LINE
  5
FB2E
100
AcDbEntity
  8
0
100
AcDbLine
 10
1154.229413
 20
881.038404
 30
0.0
 11
1168.063413
 21
881.038404
 31
0.0
  0
LINE
  5
FB2F
100
AcDbEntity
  8
0
100
AcDbLine
 10
1153.146413
 20
879.955404
 30
0.0
 11
1154.229413
 21
881.038404
 31
0.0
  0
LINE
  5
FB30
100
AcDbEntity
  8
0
100
AcDbLine
 10
1168.063413
 20
881.038404
 30
0.0
 11
1169.146413
 21
879.955404
 31
0.0
  0
LINE
  5
FB31
100
AcDbEntity
  8
0
100
AcDbLine
 10
1169.146413
 20
879.955404
 30
0.0
 11
1169.146413
 21
877.038404
 31
0.0
  0
LINE
  5
FB32
100
AcDbEntity
  8
0
100
AcDbLine
 10
1153.146413
 20
877.038404
 30
0.0
 11
1153.146413
 21
879.955404
 31
0.0
  0
LINE
  5
FB33
100
AcDbEntity
  8
0
100
AcDbLine
 10
1192.618321
 20
897.038404
 30
0.0
 11
1196.618321
 21
877.038404
 31
0.0
  0
LINE
  5
FB34
100
AcDbEntity
  8
0
100
AcDbLine
 10
1233.618321
 20
819.538404
 30
0.0
 11
1233.618321
 21
877.038404
 31
0.0
  0
LINE
  5
FB35
100
AcDbEntity
  8
0
100
AcDbLine
 10
1199.148081
 20
877.038404
 30
0.0
 11
1199.148081
 21
879.955404
 31
0.0
  0
LINE
  5
FB36
100
AcDbEntity
  8
0
100
AcDbLine
 10
1215.148081
 20
879.955404
 30
0.0
 11
1215.148081
 21
877.038404
 31
0.0
  0
LINE
  5
FB37
100
AcDbEntity
  8
0
100
AcDbLine
 10
1214.065081
 20
881.038404
 30
0.0
 11
1215.148081
 21
879.955404
 31
0.0
  0
LINE
  5
FB38
100
AcDbEntity
  8
0
100
AcDbLine
 10
1199.148081
 20
879.955404
 30
0.0
 11
1200.231081
 21
881.038404
 31
0.0
  0
LINE
  5
FB39
100
AcDbEntity
  8
0
100
AcDbLine
 10
1200.231081
 20
881.038404
 30
0.0
 11
1214.065081
 21
881.038404
 31
0.0
  0
ARC
  5
FB3B
100
AcDbEntity
  8
0
100
AcDbCircle
 10
1230.118321
 20
1000.538404
 30
0.0
 40
15.0
100
AcDbArc
 50
219.106898
 51
270.0
  0
ARC
  5
FB3C
100
AcDbEntity
  8
0
100
AcDbCircle
 10
1172.618321
 20
947.538404
 30
0.0
 40
20.0
100
AcDbArc
 50
0.0
 51
90.0
  0
LINE
  5
FB3D
100
AcDbEntity
  8
0
100
AcDbLine
 10
1262.118321
 20
922.538404
 30
0.0
 11
1242.211437
 21
926.519781
 31
0.0
  0
ARC
  5
FB3E
100
AcDbEntity
  8
0
100
AcDbCircle
 10
1230.118321
 20
1000.538404
 30
0.0
 40
75.0
100
AcDbArc
 50
247.11462
 51
279.278967
  0
ARC
  5
FB3F
100
AcDbEntity
  8
0
100
AcDbCircle
 10
1198.618321
 20
925.914346
 30
0.0
 40
6.0
100
AcDbArc
 50
67.11462
 51
180.0
  0
LINE
  5
FB40
100
AcDbEntity
  8
0
100
AcDbLine
 10
1262.118321
 20
988.538404
 30
0.0
 11
1247.118321
 21
985.538404
 31
0.0
  0
LINE
  5
FB41
100
AcDbEntity
  8
0
100
AcDbLine
 10
1230.118321
 20
985.538404
 30
0.0
 11
1247.118321
 21
985.538404
 31
0.0
  0
LINE
  5
FB42
100
AcDbEntity
  8
0
100
AcDbLine
 10
1128.618321
 20
1009.538404
 30
0.0
 11
1179.68024
 21
1009.538404
 31
0.0
  0
CIRCLE
  5
FB43
100
AcDbEntity
  8
0
100
AcDbCircle
 10
1128.618321
 20
1020.538404
 30
0.0
 40
11.0
  0
ARC
  5
FB46
100
AcDbEntity
  8
0
100
AcDbCircle
 10
1128.618321
 20
929.538404
 30
0.0
 40
80.0
100
AcDbArc
 50
90.0
 51
105.664267
  0
ARC
  5
FB49
100
AcDbEntity
  8
0
100
AcDbCircle
 10
1167.605499
 20
1019.538404
 30
0.0
 40
10.0
100
AcDbArc
 50
178.530716
 51
270.0
  0
ARC
  5
FC70
100
AcDbEntity
  8
0
100
AcDbCircle
 10
1099.118321
 20
1947.780361
 30
0.0
 40
3.0
100
AcDbArc
 50
90.0
 51
180.0
  0
ARC
  5
FC72
100
AcDbEntity
  8
0
100
AcDbCircle
 10
1158.118321
 20
1947.780361
 30
0.0
 40
3.0
100
AcDbArc
 50
0.0
 51
90.0
  0
LINE
  5
FC75
100
AcDbEntity
  8
0
100
AcDbLine
 10
1099.118321
 20
1950.780361
 30
0.0
 11
1158.118321
 21
1950.780361
 31
0.0
  0
ARC
  5
FC77
100
AcDbEntity
  8
0
100
AcDbCircle
 10
1099.118321
 20
1911.780361
 30
0.0
 40
3.0
100
AcDbArc
 50
180.0
 51
270.0
  0
ARC
  5
FC7E
100
AcDbEntity
  8
0
100
AcDbCircle
 10
1158.118321
 20
1911.780361
 30
0.0
 40
3.0
100
AcDbArc
 50
270.0
 51
0.0
  0
LINE
  5
FC8C
100
AcDbEntity
  8
0
100
AcDbLine
 10
1099.118321
 20
1908.780361
 30
0.0
 11
1158.118321
 21
1908.780361
 31
0.0
  0
LINE
  5
FCBB
100
AcDbEntity
  8
0
100
AcDbLine
 10
1096.118321
 20
1947.780361
 30
0.0
 11
1096.118321
 21
1911.780361
 31
0.0
  0
LINE
  5
FCBC
100
AcDbEntity
  8
0
100
AcDbLine
 10
1161.118321
 20
1947.780361
 30
0.0
 11
1161.118321
 21
1911.780361
 31
0.0
  0
LINE
  5
FDBD
100
AcDbEntity
  8
0
100
AcDbLine
 10
1086.634722
 20
642.613904
 30
0.0
 11
1086.634722
 21
654.338404
 31
0.0
  0
LINE
  5
FDBE
100
AcDbEntity
  8
0
100
AcDbLine
 10
1079.705722
 20
642.613904
 30
0.0
 11
1079.705722
 21
654.338404
 31
0.0
  0
LINE
  5
FDBF
100
AcDbEntity
  8
0
100
AcDbLine
 10
1065.850722
 20
642.613904
 30
0.0
 11
1065.850722
 21
654.338404
 31
0.0
  0
LINE
  5
FDC0
100
AcDbEntity
  8
0
100
AcDbLine
 10
1058.922722
 20
654.338404
 30
0.0
 11
1058.922722
 21
642.613904
 31
0.0
  0
LINE
  5
FDC1
100
AcDbEntity
  8
0
100
AcDbLine
 10
1052.123952
 20
642.613904
 30
0.0
 11
1052.123952
 21
654.338404
 31
0.0
  0
LINE
  5
FDC2
100
AcDbEntity
  8
0
100
AcDbLine
 10
1045.194952
 20
642.613904
 30
0.0
 11
1045.194952
 21
654.338404
 31
0.0
  0
LINE
  5
FDC3
100
AcDbEntity
  8
0
100
AcDbLine
 10
1024.411952
 20
654.338404
 30
0.0
 11
1024.411952
 21
642.613904
 31
0.0
  0
LINE
  5
FDC4
100
AcDbEntity
  8
0
100
AcDbLine
 10
1031.339952
 20
642.613904
 30
0.0
 11
1031.339952
 21
654.338404
 31
0.0
  0
ARC
  5
FDC5
100
AcDbEntity
  8
0
100
AcDbCircle
 10
1048.659452
 20
648.158158
 30
0.0
 40
6.537699
100
AcDbArc
 50
237.999511
 51
302.000489
  0
LINE
  5
FDC6
100
AcDbEntity
  8
0
100
AcDbLine
 10
1026.620952
 20
641.338404
 30
0.0
 11
1049.914952
 21
641.338404
 31
0.0
  0
LINE
  5
FDC7
100
AcDbEntity
  8
0
100
AcDbLine
 10
1046.267452
 20
638.627522
 30
0.0
 11
1045.184452
 21
637.544522
 31
0.0
  0
LINE
  5
FDC8
100
AcDbEntity
  8
0
100
AcDbLine
 10
1046.267452
 20
641.338404
 30
0.0
 11
1046.267452
 21
638.627522
 31
0.0
  0
ARC
  5
FDC9
100
AcDbEntity
  8
0
100
AcDbCircle
 10
1027.876452
 20
648.158158
 30
0.0
 40
6.537699
100
AcDbArc
 50
237.999511
 51
302.000489
  0
LINE
  5
FDCA
100
AcDbEntity
  8
0
100
AcDbLine
 10
1024.411952
 20
642.613904
 30
0.0
 11
1026.620952
 21
641.338404
 31
0.0
  0
LINE
  5
FDCB
100
AcDbEntity
  8
0
100
AcDbLine
 10
1031.350452
 20
637.544522
 30
0.0
 11
1030.267452
 21
638.627522
 31
0.0
  0
LINE
  5
FDCC
100
AcDbEntity
  8
0
100
AcDbLine
 10
1030.267452
 20
638.627522
 30
0.0
 11
1030.267452
 21
641.338404
 31
0.0
  0
LINE
  5
FDCD
100
AcDbEntity
  8
0
100
AcDbLine
 10
1045.184452
 20
637.544522
 30
0.0
 11
1031.350452
 21
637.544522
 31
0.0
  0
ARC
  5
FDCE
100
AcDbEntity
  8
0
100
AcDbCircle
 10
1038.267452
 20
666.273729
 30
0.0
 40
24.653145
100
AcDbArc
 50
253.680185
 51
286.319815
  0
LINE
  5
FDCF
100
AcDbEntity
  8
0
100
AcDbLine
 10
1084.425722
 20
641.338404
 30
0.0
 11
1086.634722
 21
642.613904
 31
0.0
  0
LINE
  5
FDD0
100
AcDbEntity
  8
0
100
AcDbLine
 10
1080.778222
 20
638.627522
 30
0.0
 11
1079.695222
 21
637.544522
 31
0.0
  0
LINE
  5
FDD1
100
AcDbEntity
  8
0
100
AcDbLine
 10
1080.778222
 20
641.338404
 30
0.0
 11
1080.778222
 21
638.627522
 31
0.0
  0
LINE
  5
FDD2
100
AcDbEntity
  8
0
100
AcDbLine
 10
1065.861222
 20
637.544522
 30
0.0
 11
1064.778222
 21
638.627522
 31
0.0
  0
ARC
  5
FDD3
100
AcDbEntity
  8
0
100
AcDbCircle
 10
1062.387222
 20
648.158158
 30
0.0
 40
6.537699
100
AcDbArc
 50
237.999511
 51
302.000489
  0
LINE
  5
FDD4
100
AcDbEntity
  8
0
100
AcDbLine
 10
1058.922722
 20
642.613904
 30
0.0
 11
1061.131722
 21
641.338404
 31
0.0
  0
LINE
  5
FDD5
100
AcDbEntity
  8
0
100
AcDbLine
 10
1064.778222
 20
638.627522
 30
0.0
 11
1064.778222
 21
641.338404
 31
0.0
  0
LINE
  5
FDD6
100
AcDbEntity
  8
0
100
AcDbLine
 10
1049.914952
 20
641.338404
 30
0.0
 11
1052.123952
 21
642.613904
 31
0.0
  0
LINE
  5
FDD7
100
AcDbEntity
  8
0
100
AcDbLine
 10
1079.695222
 20
637.544522
 30
0.0
 11
1065.861222
 21
637.544522
 31
0.0
  0
ARC
  5
FDD8
100
AcDbEntity
  8
0
100
AcDbCircle
 10
1072.778222
 20
666.273729
 30
0.0
 40
24.653145
100
AcDbArc
 50
253.680185
 51
286.319815
  0
ARC
  5
FDD9
100
AcDbEntity
  8
0
100
AcDbCircle
 10
1083.170222
 20
648.158158
 30
0.0
 40
6.537699
100
AcDbArc
 50
237.999511
 51
302.000489
  0
LINE
  5
FDDA
100
AcDbEntity
  8
0
100
AcDbLine
 10
1061.131722
 20
641.338404
 30
0.0
 11
1084.425722
 21
641.338404
 31
0.0
  0
LINE
  5
FDDB
100
AcDbEntity
  8
0
100
AcDbLine
 10
1232.82469
 20
642.613904
 30
0.0
 11
1232.82469
 21
654.338404
 31
0.0
  0
LINE
  5
FDDC
100
AcDbEntity
  8
0
100
AcDbLine
 10
1225.89569
 20
642.613904
 30
0.0
 11
1225.89569
 21
654.338404
 31
0.0
  0
LINE
  5
FDDD
100
AcDbEntity
  8
0
100
AcDbLine
 10
1212.04069
 20
642.613904
 30
0.0
 11
1212.04069
 21
654.338404
 31
0.0
  0
LINE
  5
FDDE
100
AcDbEntity
  8
0
100
AcDbLine
 10
1198.31392
 20
642.613904
 30
0.0
 11
1198.31392
 21
654.338404
 31
0.0
  0
LINE
  5
FDDF
100
AcDbEntity
  8
0
100
AcDbLine
 10
1205.11269
 20
654.338404
 30
0.0
 11
1205.11269
 21
642.613904
 31
0.0
  0
LINE
  5
FDE0
100
AcDbEntity
  8
0
100
AcDbLine
 10
1177.52992
 20
642.613904
 30
0.0
 11
1177.52992
 21
654.338404
 31
0.0
  0
LINE
  5
FDE1
100
AcDbEntity
  8
0
100
AcDbLine
 10
1191.38492
 20
642.613904
 30
0.0
 11
1191.38492
 21
654.338404
 31
0.0
  0
LINE
  5
FDE2
100
AcDbEntity
  8
0
100
AcDbLine
 10
1170.60192
 20
654.338404
 30
0.0
 11
1170.60192
 21
642.613904
 31
0.0
  0
LINE
  5
FDE3
100
AcDbEntity
  8
0
100
AcDbLine
 10
1142.474321
 20
642.613904
 30
0.0
 11
1142.474321
 21
654.338404
 31
0.0
  0
LINE
  5
FDE5
100
AcDbEntity
  8
0
100
AcDbLine
 10
1135.545321
 20
642.613904
 30
0.0
 11
1135.545321
 21
654.338404
 31
0.0
  0
LINE
  5
FDE6
100
AcDbEntity
  8
0
100
AcDbLine
 10
1114.762321
 20
654.338404
 30
0.0
 11
1114.762321
 21
642.613904
 31
0.0
  0
LINE
  5
FDE7
100
AcDbEntity
  8
0
100
AcDbLine
 10
1121.690321
 20
642.613904
 30
0.0
 11
1121.690321
 21
654.338404
 31
0.0
  0
ARC
  5
FDE8
100
AcDbEntity
  8
0
100
AcDbCircle
 10
1174.06642
 20
648.158158
 30
0.0
 40
6.537699
100
AcDbArc
 50
237.999511
 51
302.000489
  0
LINE
  5
FDE9
100
AcDbEntity
  8
0
100
AcDbLine
 10
1172.81092
 20
641.338404
 30
0.0
 11
1196.10492
 21
641.338404
 31
0.0
  0
LINE
  5
FDEA
100
AcDbEntity
  8
0
100
AcDbLine
 10
1153.618321
 20
620.338404
 30
0.0
 11
1189.618321
 21
620.338404
 31
0.0
  0
LINE
  5
FDEC
100
AcDbEntity
  8
0
100
AcDbLine
 10
1116.971321
 20
641.338404
 30
0.0
 11
1140.265321
 21
641.338404
 31
0.0
  0
LINE
  5
FDED
100
AcDbEntity
  8
0
100
AcDbLine
 10
1135.534821
 20
637.544522
 30
0.0
 11
1121.700821
 21
637.544522
 31
0.0
  0
ARC
  5
FDEE
100
AcDbEntity
  8
0
100
AcDbCircle
 10
1128.617821
 20
666.273729
 30
0.0
 40
24.653145
100
AcDbArc
 50
253.680185
 51
286.319815
  0
ARC
  5
FDF0
100
AcDbEntity
  8
0
100
AcDbCircle
 10
1118.226821
 20
648.158158
 30
0.0
 40
6.537699
100
AcDbArc
 50
237.999511
 51
302.000489
  0
LINE
  5
FDF1
100
AcDbEntity
  8
0
100
AcDbLine
 10
1114.762321
 20
642.613904
 30
0.0
 11
1116.971321
 21
641.338404
 31
0.0
  0
LINE
  5
FDF2
100
AcDbEntity
  8
0
100
AcDbLine
 10
1121.700821
 20
637.544522
 30
0.0
 11
1120.617821
 21
638.627522
 31
0.0
  0
LINE
  5
FDF3
100
AcDbEntity
  8
0
100
AcDbLine
 10
1120.617821
 20
638.627522
 30
0.0
 11
1120.617821
 21
641.338404
 31
0.0
  0
LINE
  5
FDFA
100
AcDbEntity
  8
0
100
AcDbLine
 10
1170.60192
 20
642.613904
 30
0.0
 11
1172.81092
 21
641.338404
 31
0.0
  0
LINE
  5
FDFE
100
AcDbEntity
  8
0
100
AcDbLine
 10
1136.617821
 20
638.627522
 30
0.0
 11
1135.534821
 21
637.544522
 31
0.0
  0
LINE
  5
FDFF
100
AcDbEntity
  8
0
100
AcDbLine
 10
1136.617821
 20
641.338404
 30
0.0
 11
1136.617821
 21
638.627522
 31
0.0
  0
ARC
  5
FE00
100
AcDbEntity
  8
0
100
AcDbCircle
 10
1139.009821
 20
648.158158
 30
0.0
 40
6.537699
100
AcDbArc
 50
237.999511
 51
302.000489
  0
LINE
  5
FE01
100
AcDbEntity
  8
0
100
AcDbLine
 10
1140.265321
 20
641.338404
 30
0.0
 11
1142.474321
 21
642.613904
 31
0.0
  0
LINE
  5
FE03
100
AcDbEntity
  8
0
100
AcDbLine
 10
1225.88519
 20
637.544522
 30
0.0
 11
1212.05119
 21
637.544522
 31
0.0
  0
ARC
  5
FE04
100
AcDbEntity
  8
0
100
AcDbCircle
 10
1218.96819
 20
666.273729
 30
0.0
 40
24.653145
100
AcDbArc
 50
253.680185
 51
286.319815
  0
LINE
  5
FE05
100
AcDbEntity
  8
0
100
AcDbLine
 10
1207.32169
 20
641.338404
 30
0.0
 11
1230.61569
 21
641.338404
 31
0.0
  0
LINE
  5
FE07
100
AcDbEntity
  8
0
100
AcDbLine
 10
1212.05119
 20
637.544522
 30
0.0
 11
1210.96819
 21
638.627522
 31
0.0
  0
LINE
  5
FE08
100
AcDbEntity
  8
0
100
AcDbLine
 10
1210.96819
 20
638.627522
 30
0.0
 11
1210.96819
 21
641.338404
 31
0.0
  0
LINE
  5
FE09
100
AcDbEntity
  8
0
100
AcDbLine
 10
1196.10492
 20
641.338404
 30
0.0
 11
1198.31392
 21
642.613904
 31
0.0
  0
LINE
  5
FE0A
100
AcDbEntity
  8
0
100
AcDbLine
 10
1191.37442
 20
637.544522
 30
0.0
 11
1177.54042
 21
637.544522
 31
0.0
  0
ARC
  5
FE0B
100
AcDbEntity
  8
0
100
AcDbCircle
 10
1184.45742
 20
666.273729
 30
0.0
 40
24.653145
100
AcDbArc
 50
253.680185
 51
286.319815
  0
LINE
  5
FE0C
100
AcDbEntity
  8
0
100
AcDbLine
 10
1192.45742
 20
638.627522
 30
0.0
 11
1191.37442
 21
637.544522
 31
0.0
  0
LINE
  5
FE0D
100
AcDbEntity
  8
0
100
AcDbLine
 10
1192.45742
 20
641.338404
 30
0.0
 11
1192.45742
 21
638.627522
 31
0.0
  0
ARC
  5
FE0E
100
AcDbEntity
  8
0
100
AcDbCircle
 10
1194.84942
 20
648.158158
 30
0.0
 40
6.537699
100
AcDbArc
 50
237.999511
 51
302.000489
  0
LINE
  5
FE0F
100
AcDbEntity
  8
0
100
AcDbLine
 10
1176.45742
 20
638.627522
 30
0.0
 11
1176.45742
 21
641.338404
 31
0.0
  0
LINE
  5
FE10
100
AcDbEntity
  8
0
100
AcDbLine
 10
1177.54042
 20
637.544522
 30
0.0
 11
1176.45742
 21
638.627522
 31
0.0
  0
LINE
  5
FE11
100
AcDbEntity
  8
0
100
AcDbLine
 10
1205.11269
 20
642.613904
 30
0.0
 11
1207.32169
 21
641.338404
 31
0.0
  0
ARC
  5
FE12
100
AcDbEntity
  8
0
100
AcDbCircle
 10
1208.57719
 20
648.158158
 30
0.0
 40
6.537699
100
AcDbArc
 50
237.999511
 51
302.000489
  0
LINE
  5
FE14
100
AcDbEntity
  8
0
100
AcDbLine
 10
1230.61569
 20
641.338404
 30
0.0
 11
1232.82469
 21
642.613904
 31
0.0
  0
LINE
  5
FE15
100
AcDbEntity
  8
0
100
AcDbLine
 10
1226.96819
 20
638.627522
 30
0.0
 11
1225.88519
 21
637.544522
 31
0.0
  0
LINE
  5
FE16
100
AcDbEntity
  8
0
100
AcDbLine
 10
1226.96819
 20
641.338404
 30
0.0
 11
1226.96819
 21
638.627522
 31
0.0
  0
ARC
  5
FE17
100
AcDbEntity
  8
0
100
AcDbCircle
 10
1229.36019
 20
648.158158
 30
0.0
 40
6.537699
100
AcDbArc
 50
237.999511
 51
302.000489
  0
LINE
  5
FE32
100
AcDbEntity
  8
0
100
AcDbLine
 10
692.786219
 20
620.338404
 30
0.0
 11
698.786219
 21
626.338404
 31
0.0
  0
LINE
  5
FE34
100
AcDbEntity
  8
0
100
AcDbLine
 10
655.286219
 20
633.338404
 30
0.0
 11
694.286219
 21
633.338404
 31
0.0
  0
LINE
  5
FE44
100
AcDbEntity
  8
0
100
AcDbLine
 10
605.929119
 20
638.627522
 30
0.0
 11
604.846119
 21
637.544522
 31
0.0
  0
LINE
  5
FE45
100
AcDbEntity
  8
0
100
AcDbLine
 10
605.929119
 20
641.338404
 30
0.0
 11
605.929119
 21
638.627522
 31
0.0
  0
LINE
  5
FE46
100
AcDbEntity
  8
0
100
AcDbLine
 10
591.012119
 20
637.544522
 30
0.0
 11
589.929119
 21
638.627522
 31
0.0
  0
LINE
  5
FE47
100
AcDbEntity
  8
0
100
AcDbLine
 10
589.929119
 20
638.627522
 30
0.0
 11
589.929119
 21
641.338404
 31
0.0
  0
LINE
  5
FE48
100
AcDbEntity
  8
0
100
AcDbLine
 10
587.785719
 20
638.627522
 30
0.0
 11
586.702719
 21
637.544522
 31
0.0
  0
LINE
  5
FE4A
100
AcDbEntity
  8
0
100
AcDbLine
 10
587.785719
 20
641.338404
 30
0.0
 11
587.785719
 21
638.627522
 31
0.0
  0
LINE
  5
FE4C
100
AcDbEntity
  8
0
100
AcDbLine
 10
571.785719
 20
638.627522
 30
0.0
 11
571.785719
 21
641.338404
 31
0.0
  0
LINE
  5
FE4D
100
AcDbEntity
  8
0
100
AcDbLine
 10
572.868719
 20
637.544522
 30
0.0
 11
571.785719
 21
638.627522
 31
0.0
  0
LINE
  5
FE4F
100
AcDbEntity
  8
0
100
AcDbLine
 10
586.702719
 20
637.544522
 30
0.0
 11
572.868719
 21
637.544522
 31
0.0
  0
LINE
  5
FE51
100
AcDbEntity
  8
0
100
AcDbLine
 10
604.846119
 20
637.544522
 30
0.0
 11
591.012119
 21
637.544522
 31
0.0
  0
LINE
  5
FE53
100
AcDbEntity
  8
0
100
AcDbLine
 10
652.346119
 20
637.544522
 30
0.0
 11
638.512119
 21
637.544522
 31
0.0
  0
LINE
  5
FE56
100
AcDbEntity
  8
0
100
AcDbLine
 10
656.786219
 20
620.338404
 30
0.0
 11
650.786219
 21
626.338404
 31
0.0
  0
LINE
  5
FE57
100
AcDbEntity
  8
0
100
AcDbLine
 10
650.786219
 20
626.338404
 30
0.0
 11
650.786219
 21
637.544522
 31
0.0
  0
LINE
  5
FE5A
100
AcDbEntity
  8
0
100
AcDbLine
 10
638.512119
 20
637.544522
 30
0.0
 11
637.429119
 21
638.627522
 31
0.0
  0
LINE
  5
FE5B
100
AcDbEntity
  8
0
100
AcDbLine
 10
637.429119
 20
638.627522
 30
0.0
 11
637.429119
 21
641.338404
 31
0.0
  0
ARC
  5
FE5F
100
AcDbEntity
  8
0
100
AcDbCircle
 10
655.286219
 20
636.338404
 30
0.0
 40
3.0
100
AcDbArc
 50
180.0
 51
270.0
  0
LINE
  5
FE61
100
AcDbEntity
  8
0
100
AcDbLine
 10
653.429119
 20
638.627522
 30
0.0
 11
652.346119
 21
637.544522
 31
0.0
  0
LINE
  5
FE63
100
AcDbEntity
  8
0
100
AcDbLine
 10
652.286219
 20
636.338404
 30
0.0
 11
652.286219
 21
637.544522
 31
0.0
  0
LINE
  5
FE64
100
AcDbEntity
  8
0
100
AcDbLine
 10
653.429119
 20
641.338404
 30
0.0
 11
653.429119
 21
638.627522
 31
0.0
  0
LINE
  5
FE66
100
AcDbEntity
  8
0
100
AcDbLine
 10
692.786219
 20
620.338404
 30
0.0
 11
656.786219
 21
620.338404
 31
0.0
  0
ARC
  5
FE69
100
AcDbEntity
  8
0
100
AcDbCircle
 10
623.073016
 20
639.338404
 30
0.0
 40
15.0
100
AcDbArc
 50
46.337673
 51
90.0
  0
LINE
  5
FE76
100
AcDbEntity
  8
0
100
AcDbLine
 10
698.786219
 20
626.338404
 30
0.0
 11
698.786219
 21
637.544522
 31
0.0
  0
ARC
  5
FE77
100
AcDbEntity
  8
0
100
AcDbCircle
 10
694.286219
 20
636.338404
 30
0.0
 40
3.0
100
AcDbArc
 50
270.0
 51
0.0
  0
LINE
  5
FE7A
100
AcDbEntity
  8
0
100
AcDbLine
 10
697.286219
 20
636.338404
 30
0.0
 11
697.286219
 21
637.544522
 31
0.0
  0
LINE
  5
FE97
100
AcDbEntity
  8
0
100
AcDbLine
 10
562.286219
 20
654.338404
 30
0.0
 11
787.286219
 21
654.338404
 31
0.0
  0
LINE
  5
FE98
100
AcDbEntity
  8
0
100
AcDbLine
 10
562.286219
 20
720.038404
 30
0.0
 11
787.286219
 21
720.038404
 31
0.0
  0
LINE
  5
FE99
100
AcDbEntity
  8
0
100
AcDbLine
 10
562.286219
 20
686.538404
 30
0.0
 11
787.286219
 21
686.538404
 31
0.0
  0
LINE
  5
FE9A
100
AcDbEntity
  8
0
100
AcDbLine
 10
562.286219
 20
720.038404
 30
0.0
 11
562.286219
 21
654.338404
 31
0.0
  0
LINE
  5
FEA1
100
AcDbEntity
  8
0
100
AcDbLine
 10
787.286219
 20
720.038404
 30
0.0
 11
787.286219
 21
654.338404
 31
0.0
  0
LINE
  5
FEA6
100
AcDbEntity
  8
0
100
AcDbLine
 10
1046.267452
 20
721.461522
 30
0.0
 11
1045.184452
 21
722.544522
 31
0.0
  0
LINE
  5
FEA8
100
AcDbEntity
  8
0
100
AcDbLine
 10
1046.267452
 20
721.461522
 30
0.0
 11
1046.267452
 21
720.038404
 31
0.0
  0
LINE
  5
FEA9
100
AcDbEntity
  8
0
100
AcDbLine
 10
1030.267452
 20
721.461522
 30
0.0
 11
1031.350452
 21
722.544522
 31
0.0
  0
LINE
  5
FEAA
100
AcDbEntity
  8
0
100
AcDbLine
 10
1030.267452
 20
720.038404
 30
0.0
 11
1030.267452
 21
721.461522
 31
0.0
  0
LINE
  5
FEAB
100
AcDbEntity
  8
0
100
AcDbLine
 10
1045.184452
 20
722.544522
 30
0.0
 11
1031.350452
 21
722.544522
 31
0.0
  0
LINE
  5
FEAC
100
AcDbEntity
  8
0
100
AcDbLine
 10
1080.778222
 20
721.461522
 30
0.0
 11
1079.695222
 21
722.544522
 31
0.0
  0
LINE
  5
FEAD
100
AcDbEntity
  8
0
100
AcDbLine
 10
1064.778222
 20
721.461522
 30
0.0
 11
1065.861222
 21
722.544522
 31
0.0
  0
LINE
  5
FEAE
100
AcDbEntity
  8
0
100
AcDbLine
 10
1079.695222
 20
722.544522
 30
0.0
 11
1065.861222
 21
722.544522
 31
0.0
  0
LINE
  5
FEAF
100
AcDbEntity
  8
0
100
AcDbLine
 10
1064.778222
 20
720.038404
 30
0.0
 11
1064.778222
 21
721.461522
 31
0.0
  0
LINE
  5
FEB0
100
AcDbEntity
  8
0
100
AcDbLine
 10
1080.778222
 20
721.461522
 30
0.0
 11
1080.778222
 21
720.038404
 31
0.0
  0
LINE
  5
FEB1
100
AcDbEntity
  8
0
100
AcDbLine
 10
1135.534821
 20
722.544522
 30
0.0
 11
1121.700821
 21
722.544522
 31
0.0
  0
LINE
  5
FEB2
100
AcDbEntity
  8
0
100
AcDbLine
 10
1120.617821
 20
721.461522
 30
0.0
 11
1121.700821
 21
722.544522
 31
0.0
  0
LINE
  5
FEB3
100
AcDbEntity
  8
0
100
AcDbLine
 10
1120.617821
 20
720.038404
 30
0.0
 11
1120.617821
 21
721.461522
 31
0.0
  0
LINE
  5
FEB4
100
AcDbEntity
  8
0
100
AcDbLine
 10
1136.617821
 20
721.461522
 30
0.0
 11
1135.534821
 21
722.544522
 31
0.0
  0
LINE
  5
FEB5
100
AcDbEntity
  8
0
100
AcDbLine
 10
1136.617821
 20
721.461522
 30
0.0
 11
1136.617821
 21
720.038404
 31
0.0
  0
LINE
  5
FEB6
100
AcDbEntity
  8
0
100
AcDbLine
 10
1225.88519
 20
722.544522
 30
0.0
 11
1212.05119
 21
722.544522
 31
0.0
  0
LINE
  5
FEB7
100
AcDbEntity
  8
0
100
AcDbLine
 10
1210.96819
 20
721.461522
 30
0.0
 11
1212.05119
 21
722.544522
 31
0.0
  0
LINE
  5
FEB9
100
AcDbEntity
  8
0
100
AcDbLine
 10
1210.96819
 20
720.038404
 30
0.0
 11
1210.96819
 21
721.461522
 31
0.0
  0
LINE
  5
FEBA
100
AcDbEntity
  8
0
100
AcDbLine
 10
1191.37442
 20
722.544522
 30
0.0
 11
1177.54042
 21
722.544522
 31
0.0
  0
LINE
  5
FEBB
100
AcDbEntity
  8
0
100
AcDbLine
 10
1192.45742
 20
721.461522
 30
0.0
 11
1191.37442
 21
722.544522
 31
0.0
  0
LINE
  5
FEBC
100
AcDbEntity
  8
0
100
AcDbLine
 10
1192.45742
 20
721.461522
 30
0.0
 11
1192.45742
 21
720.038404
 31
0.0
  0
LINE
  5
FEBD
100
AcDbEntity
  8
0
100
AcDbLine
 10
1176.45742
 20
720.038404
 30
0.0
 11
1176.45742
 21
721.461522
 31
0.0
  0
LINE
  5
FEBE
100
AcDbEntity
  8
0
100
AcDbLine
 10
1176.45742
 20
721.461522
 30
0.0
 11
1177.54042
 21
722.544522
 31
0.0
  0
LINE
  5
FEBF
100
AcDbEntity
  8
0
100
AcDbLine
 10
1226.96819
 20
721.461522
 30
0.0
 11
1225.88519
 21
722.544522
 31
0.0
  0
LINE
  5
FEC0
100
AcDbEntity
  8
0
100
AcDbLine
 10
1226.96819
 20
721.461522
 30
0.0
 11
1226.96819
 21
720.038404
 31
0.0
  0
LINE
  5
FEC1
100
AcDbEntity
  8
0
100
AcDbLine
 10
605.929119
 20
721.461522
 30
0.0
 11
604.846119
 21
722.544522
 31
0.0
  0
LINE
  5
FEC2
100
AcDbEntity
  8
0
100
AcDbLine
 10
605.929119
 20
721.461522
 30
0.0
 11
605.929119
 21
720.038404
 31
0.0
  0
LINE
  5
FEC3
100
AcDbEntity
  8
0
100
AcDbLine
 10
589.929119
 20
721.461522
 30
0.0
 11
591.012119
 21
722.544522
 31
0.0
  0
LINE
  5
FEC4
100
AcDbEntity
  8
0
100
AcDbLine
 10
587.785719
 20
721.461522
 30
0.0
 11
586.702719
 21
722.544522
 31
0.0
  0
LINE
  5
FEC5
100
AcDbEntity
  8
0
100
AcDbLine
 10
571.785719
 20
721.461522
 30
0.0
 11
572.868719
 21
722.544522
 31
0.0
  0
LINE
  5
FEC6
100
AcDbEntity
  8
0
100
AcDbLine
 10
586.702719
 20
722.544522
 30
0.0
 11
572.868719
 21
722.544522
 31
0.0
  0
LINE
  5
FEC7
100
AcDbEntity
  8
0
100
AcDbLine
 10
571.785719
 20
720.038404
 30
0.0
 11
571.785719
 21
721.461522
 31
0.0
  0
LINE
  5
FEC8
100
AcDbEntity
  8
0
100
AcDbLine
 10
589.929119
 20
720.038404
 30
0.0
 11
589.929119
 21
721.461522
 31
0.0
  0
LINE
  5
FEC9
100
AcDbEntity
  8
0
100
AcDbLine
 10
587.785719
 20
721.461522
 30
0.0
 11
587.785719
 21
720.038404
 31
0.0
  0
LINE
  5
FECA
100
AcDbEntity
  8
0
100
AcDbLine
 10
604.846119
 20
722.544522
 30
0.0
 11
591.012119
 21
722.544522
 31
0.0
  0
LINE
  5
FECB
100
AcDbEntity
  8
0
100
AcDbLine
 10
652.346119
 20
722.544522
 30
0.0
 11
638.512119
 21
722.544522
 31
0.0
  0
LINE
  5
FECC
100
AcDbEntity
  8
0
100
AcDbLine
 10
637.429119
 20
721.461522
 30
0.0
 11
638.512119
 21
722.544522
 31
0.0
  0
LINE
  5
FECD
100
AcDbEntity
  8
0
100
AcDbLine
 10
637.429119
 20
720.038404
 30
0.0
 11
637.429119
 21
721.461522
 31
0.0
  0
LINE
  5
FECE
100
AcDbEntity
  8
0
100
AcDbLine
 10
653.429119
 20
721.461522
 30
0.0
 11
652.346119
 21
722.544522
 31
0.0
  0
LINE
  5
FECF
100
AcDbEntity
  8
0
100
AcDbLine
 10
653.429119
 20
721.461522
 30
0.0
 11
653.429119
 21
720.038404
 31
0.0
  0
LINE
  5
FED0
100
AcDbEntity
  8
0
100
AcDbLine
 10
777.786719
 20
721.461522
 30
0.0
 11
776.703719
 21
722.544522
 31
0.0
  0
LINE
  5
FED1
100
AcDbEntity
  8
0
100
AcDbLine
 10
697.226319
 20
722.544522
 30
0.0
 11
711.060319
 21
722.544522
 31
0.0
  0
LINE
  5
FED2
100
AcDbEntity
  8
0
100
AcDbLine
 10
696.143319
 20
721.461522
 30
0.0
 11
697.226319
 21
722.544522
 31
0.0
  0
LINE
  5
FED3
100
AcDbEntity
  8
0
100
AcDbLine
 10
712.143319
 20
721.461522
 30
0.0
 11
711.060319
 21
722.544522
 31
0.0
  0
LINE
  5
FED4
100
AcDbEntity
  8
0
100
AcDbLine
 10
696.143319
 20
721.461522
 30
0.0
 11
696.143319
 21
720.038404
 31
0.0
  0
LINE
  5
FED5
100
AcDbEntity
  8
0
100
AcDbLine
 10
712.143319
 20
720.038404
 30
0.0
 11
712.143319
 21
721.461522
 31
0.0
  0
LINE
  5
FED6
100
AcDbEntity
  8
0
100
AcDbLine
 10
744.726319
 20
722.544522
 30
0.0
 11
758.560319
 21
722.544522
 31
0.0
  0
LINE
  5
FED7
100
AcDbEntity
  8
0
100
AcDbLine
 10
743.643319
 20
721.461522
 30
0.0
 11
744.726319
 21
722.544522
 31
0.0
  0
LINE
  5
FED8
100
AcDbEntity
  8
0
100
AcDbLine
 10
759.643319
 20
721.461522
 30
0.0
 11
758.560319
 21
722.544522
 31
0.0
  0
LINE
  5
FED9
100
AcDbEntity
  8
0
100
AcDbLine
 10
761.786719
 20
721.461522
 30
0.0
 11
762.869719
 21
722.544522
 31
0.0
  0
LINE
  5
FEDA
100
AcDbEntity
  8
0
100
AcDbLine
 10
743.643319
 20
721.461522
 30
0.0
 11
743.643319
 21
720.038404
 31
0.0
  0
LINE
  5
FEDB
100
AcDbEntity
  8
0
100
AcDbLine
 10
759.643319
 20
720.038404
 30
0.0
 11
759.643319
 21
721.461522
 31
0.0
  0
LINE
  5
FEDC
100
AcDbEntity
  8
0
100
AcDbLine
 10
761.786719
 20
721.461522
 30
0.0
 11
761.786719
 21
720.038404
 31
0.0
  0
LINE
  5
FEDD
100
AcDbEntity
  8
0
100
AcDbLine
 10
762.869719
 20
722.544522
 30
0.0
 11
776.703719
 21
722.544522
 31
0.0
  0
LINE
  5
FEDE
100
AcDbEntity
  8
0
100
AcDbLine
 10
777.786719
 20
720.038404
 30
0.0
 11
777.786719
 21
721.461522
 31
0.0
  0
LINE
  5
FEDF
100
AcDbEntity
  8
0
100
AcDbLine
 10
569.786219
 20
819.538404
 30
0.0
 11
779.786219
 21
819.538404
 31
0.0
  0
LINE
  5
FEE0
100
AcDbEntity
  8
0
100
AcDbLine
 10
569.786219
 20
847.538404
 30
0.0
 11
779.786219
 21
847.538404
 31
0.0
  0
LINE
  5
FEE1
100
AcDbEntity
  8
0
100
AcDbLine
 10
569.786219
 20
877.038404
 30
0.0
 11
779.786219
 21
877.038404
 31
0.0
  0
LINE
  5
FEE2
100
AcDbEntity
  8
0
100
AcDbLine
 10
569.786219
 20
819.538404
 30
0.0
 11
569.786219
 21
877.038404
 31
0.0
  0
LINE
  5
FEE3
100
AcDbEntity
  8
0
100
AcDbLine
 10
779.786219
 20
819.538404
 30
0.0
 11
779.786219
 21
877.038404
 31
0.0
  0
ARC
  5
FEE4
100
AcDbEntity
  8
0
100
AcDbCircle
 10
1042.820321
 20
726.038404
 30
0.0
 40
6.0
100
AcDbArc
 50
305.06615
 51
347.29632
  0
ARC
  5
FEE5
100
AcDbEntity
  8
0
100
AcDbCircle
 10
1214.416321
 20
726.038404
 30
0.0
 40
6.0
100
AcDbArc
 50
192.70368
 51
234.93385
  0
LINE
  5
FEE6
100
AcDbEntity
  8
0
100
AcDbLine
 10
603.173459
 20
881.038404
 30
0.0
 11
589.339459
 21
881.038404
 31
0.0
  0
LINE
  5
FEE8
100
AcDbEntity
  8
0
100
AcDbLine
 10
588.256459
 20
879.955404
 30
0.0
 11
588.256459
 21
877.038404
 31
0.0
  0
LINE
  5
FEE9
100
AcDbEntity
  8
0
100
AcDbLine
 10
589.339459
 20
881.038404
 30
0.0
 11
588.256459
 21
879.955404
 31
0.0
  0
LINE
  5
FEEB
100
AcDbEntity
  8
0
100
AcDbLine
 10
649.175128
 20
881.038404
 30
0.0
 11
635.341128
 21
881.038404
 31
0.0
  0
LINE
  5
FEEC
100
AcDbEntity
  8
0
100
AcDbLine
 10
635.341128
 20
881.038404
 30
0.0
 11
634.258128
 21
879.955404
 31
0.0
  0
LINE
  5
FEED
100
AcDbEntity
  8
0
100
AcDbLine
 10
634.258128
 20
879.955404
 30
0.0
 11
634.258128
 21
877.038404
 31
0.0
  0
LINE
  5
FEEE
100
AcDbEntity
  8
0
100
AcDbLine
 10
604.256459
 20
877.038404
 30
0.0
 11
604.256459
 21
879.955404
 31
0.0
  0
LINE
  5
FEEF
100
AcDbEntity
  8
0
100
AcDbLine
 10
604.256459
 20
879.955404
 30
0.0
 11
603.173459
 21
881.038404
 31
0.0
  0
LINE
  5
FEF0
100
AcDbEntity
  8
0
100
AcDbLine
 10
650.258128
 20
879.955404
 30
0.0
 11
649.175128
 21
881.038404
 31
0.0
  0
LINE
  5
FEF1
100
AcDbEntity
  8
0
100
AcDbLine
 10
650.258128
 20
877.038404
 30
0.0
 11
650.258128
 21
879.955404
 31
0.0
  0
LINE
  5
FEFE
100
AcDbEntity
  8
0
100
AcDbLine
 10
738.786219
 20
897.038404
 30
0.0
 11
742.786219
 21
877.038404
 31
0.0
  0
LINE
  5
FEFF
100
AcDbEntity
  8
0
100
AcDbLine
 10
606.786219
 20
877.038404
 30
0.0
 11
608.294339
 21
884.579003
 31
0.0
  0
LINE
  5
FF00
100
AcDbEntity
  8
0
100
AcDbLine
 10
598.294764
 20
740.038404
 30
0.0
 11
608.786219
 21
799.538404
 31
0.0
  0
LINE
  5
FF01
100
AcDbEntity
  8
0
100
AcDbLine
 10
598.294764
 20
740.038404
 30
0.0
 11
594.841342
 21
724.718951
 31
0.0
  0
LINE
  5
FF02
100
AcDbEntity
  8
0
100
AcDbLine
 10
751.277675
 20
740.038404
 30
0.0
 11
740.786219
 21
799.538404
 31
0.0
  0
LINE
  5
FF03
100
AcDbEntity
  8
0
100
AcDbLine
 10
603.173459
 20
802.538404
 30
0.0
 11
589.339459
 21
802.538404
 31
0.0
  0
LINE
  5
FF0A
100
AcDbEntity
  8
0
100
AcDbLine
 10
588.256459
 20
803.621404
 30
0.0
 11
588.256459
 21
806.538404
 31
0.0
  0
LINE
  5
FF0B
100
AcDbEntity
  8
0
100
AcDbLine
 10
589.339459
 20
802.538404
 30
0.0
 11
588.256459
 21
803.621404
 31
0.0
  0
LINE
  5
FF15
100
AcDbEntity
  8
0
100
AcDbLine
 10
649.175128
 20
802.538404
 30
0.0
 11
635.341128
 21
802.538404
 31
0.0
  0
LINE
  5
FF17
100
AcDbEntity
  8
0
100
AcDbLine
 10
635.341128
 20
802.538404
 30
0.0
 11
634.258128
 21
803.621404
 31
0.0
  0
LINE
  5
FF18
100
AcDbEntity
  8
0
100
AcDbLine
 10
634.258128
 20
803.621404
 30
0.0
 11
634.258128
 21
806.538404
 31
0.0
  0
LINE
  5
FF1A
100
AcDbEntity
  8
0
100
AcDbLine
 10
608.786219
 20
799.538404
 30
0.0
 11
608.786219
 21
814.538404
 31
0.0
  0
LINE
  5
FF1B
100
AcDbEntity
  8
0
100
AcDbLine
 10
604.256459
 20
806.538404
 30
0.0
 11
604.256459
 21
803.621404
 31
0.0
  0
LINE
  5
FF1C
100
AcDbEntity
  8
0
100
AcDbLine
 10
604.256459
 20
803.621404
 30
0.0
 11
603.173459
 21
802.538404
 31
0.0
  0
LINE
  5
FF22
100
AcDbEntity
  8
0
100
AcDbLine
 10
650.258128
 20
803.621404
 30
0.0
 11
649.175128
 21
802.538404
 31
0.0
  0
LINE
  5
FF23
100
AcDbEntity
  8
0
100
AcDbLine
 10
650.258128
 20
806.538404
 30
0.0
 11
650.258128
 21
803.621404
 31
0.0
  0
LINE
  5
FF39
100
AcDbEntity
  8
0
100
AcDbLine
 10
740.786219
 20
799.538404
 30
0.0
 11
740.786219
 21
814.538404
 31
0.0
  0
ARC
  5
FF45
100
AcDbEntity
  8
0
100
AcDbCircle
 10
588.98822
 20
726.038404
 30
0.0
 40
6.0
100
AcDbArc
 50
324.386561
 51
347.29632
  0
LINE
  5
FF46
100
AcDbEntity
  8
0
100
AcDbLine
 10
751.277675
 20
740.038404
 30
0.0
 11
754.731097
 21
724.718951
 31
0.0
  0
ARC
  5
FF47
100
AcDbEntity
  8
0
100
AcDbCircle
 10
760.584219
 20
726.038404
 30
0.0
 40
6.0
100
AcDbArc
 50
192.70368
 51
215.613439
  0
LINE
  5
FF6B
100
AcDbEntity
  8
0
100
AcDbLine
 10
995.118321
 20
1418.850141
 30
0.0
 11
977.118321
 21
1418.850141
 31
0.0
  0
LINE
  5
FF6D
100
AcDbEntity
  8
0
100
AcDbLine
 10
995.118321
 20
1278.850141
 30
0.0
 11
977.118321
 21
1278.850141
 31
0.0
  0
LINE
  5
FF6E
100
AcDbEntity
  8
0
100
AcDbLine
 10
1262.118321
 20
1278.850141
 30
0.0
 11
1262.118321
 21
1418.850141
 31
0.0
  0
LINE
  5
FF6F
100
AcDbEntity
  8
0
100
AcDbLine
 10
1280.118321
 20
1348.850141
 30
0.0
 11
1280.118321
 21
1418.850141
 31
0.0
  0
LINE
  5
FF70
100
AcDbEntity
  8
0
100
AcDbLine
 10
1280.118321
 20
1278.850141
 30
0.0
 11
1280.118321
 21
1348.850141
 31
0.0
  0
LINE
  5
FF71
100
AcDbEntity
  8
0
100
AcDbLine
 10
1262.118321
 20
1278.850141
 30
0.0
 11
1280.118321
 21
1278.850141
 31
0.0
  0
LINE
  5
FF72
100
AcDbEntity
  8
0
100
AcDbLine
 10
1262.118321
 20
1418.850141
 30
0.0
 11
1280.118321
 21
1418.850141
 31
0.0
  0
LINE
  5
FF73
100
AcDbEntity
  8
0
100
AcDbLine
 10
995.118321
 20
885.538404
 30
0.0
 11
995.118321
 21
1025.538404
 31
0.0
  0
LINE
  5
FF74
100
AcDbEntity
  8
0
100
AcDbLine
 10
977.118321
 20
955.538404
 30
0.0
 11
977.118321
 21
1025.538404
 31
0.0
  0
LINE
  5
FF75
100
AcDbEntity
  8
0
100
AcDbLine
 10
977.118321
 20
885.538404
 30
0.0
 11
977.118321
 21
955.538404
 31
0.0
  0
LINE
  5
FF76
100
AcDbEntity
  8
0
100
AcDbLine
 10
995.118321
 20
885.538404
 30
0.0
 11
977.118321
 21
885.538404
 31
0.0
  0
LINE
  5
FF77
100
AcDbEntity
  8
0
100
AcDbLine
 10
995.118321
 20
1025.538404
 30
0.0
 11
977.118321
 21
1025.538404
 31
0.0
  0
LINE
  5
FF78
100
AcDbEntity
  8
0
100
AcDbLine
 10
1280.118321
 20
955.538404
 30
0.0
 11
1280.118321
 21
1025.538404
 31
0.0
  0
LINE
  5
FF79
100
AcDbEntity
  8
0
100
AcDbLine
 10
1262.118321
 20
885.538404
 30
0.0
 11
1262.118321
 21
1025.538404
 31
0.0
  0
LINE
  5
FF7A
100
AcDbEntity
  8
0
100
AcDbLine
 10
1280.118321
 20
885.538404
 30
0.0
 11
1280.118321
 21
955.538404
 31
0.0
  0
LINE
  5
FF7B
100
AcDbEntity
  8
0
100
AcDbLine
 10
1262.118321
 20
885.538404
 30
0.0
 11
1280.118321
 21
885.538404
 31
0.0
  0
LINE
  5
FF7C
100
AcDbEntity
  8
0
100
AcDbLine
 10
1262.118321
 20
1025.538404
 30
0.0
 11
1280.118321
 21
1025.538404
 31
0.0
  0
CIRCLE
  5
FF7D
100
AcDbEntity
  8
0
100
AcDbCircle
 10
674.786219
 20
955.538404
 30
0.0
 40
70.0
  0
CIRCLE
  5
FF7F
100
AcDbEntity
  8
0
100
AcDbCircle
 10
711.909326
 20
992.66151
 30
0.0
 40
9.5
  0
CIRCLE
  5
FF80
100
AcDbEntity
  8
0
100
AcDbCircle
 10
637.663113
 20
992.66151
 30
0.0
 40
9.5
  0
CIRCLE
  5
FF81
100
AcDbEntity
  8
0
100
AcDbCircle
 10
637.663113
 20
918.415298
 30
0.0
 40
9.5
  0
CIRCLE
  5
FF82
100
AcDbEntity
  8
0
100
AcDbCircle
 10
711.909326
 20
918.415298
 30
0.0
 40
9.5
  0
LINE
  5
FF85
100
AcDbEntity
  8
0
100
AcDbLine
 10
738.786219
 20
897.038404
 30
0.0
 11
738.786219
 21
902.038404
 31
0.0
  0
LINE
  5
FF87
100
AcDbEntity
  8
0
100
AcDbLine
 10
680.786219
 20
1049.538404
 30
0.0
 11
668.786219
 21
1049.538404
 31
0.0
  0
LINE
  5
FF88
100
AcDbEntity
  8
0
100
AcDbLine
 10
668.786219
 20
1049.538404
 30
0.0
 11
668.786219
 21
1025.280787
 31
0.0
  0
LINE
  5
FF89
100
AcDbEntity
  8
0
100
AcDbLine
 10
680.786219
 20
1049.538404
 30
0.0
 11
680.786219
 21
1025.280787
 31
0.0
  0
LINE
  5
FF8C
100
AcDbEntity
  8
0
100
AcDbLine
 10
1241.118321
 20
1744.280361
 30
0.0
 11
1016.118321
 21
1744.280361
 31
0.0
  0
ARC
  5
FF8D
100
AcDbEntity
  8
0
100
AcDbCircle
 10
1118.226821
 20
1672.400115
 30
0.0
 40
6.537699
100
AcDbArc
 50
237.999511
 51
302.000489
  0
LINE
  5
FF8E
100
AcDbEntity
  8
0
100
AcDbLine
 10
1140.265321
 20
1665.580361
 30
0.0
 11
1116.971321
 21
1665.580361
 31
0.0
  0
CIRCLE
  5
FF90
100
AcDbEntity
  8
0
100
AcDbCircle
 10
1128.618321
 20
2044.780361
 30
0.0
 40
11.0
  0
LINE
  5
FF91
100
AcDbEntity
  8
0
100
AcDbLine
 10
1128.618321
 20
2033.780361
 30
0.0
 11
1077.556402
 21
2033.780361
 31
0.0
  0
LINE
  5
FF93
100
AcDbEntity
  8
0
100
AcDbLine
 10
1233.618321
 20
1843.780361
 30
0.0
 11
1023.618321
 21
1843.780361
 31
0.0
  0
LINE
  5
FF94
100
AcDbEntity
  8
0
100
AcDbLine
 10
1172.618321
 20
1991.780361
 30
0.0
 11
1084.618321
 21
1991.780361
 31
0.0
  0
LINE
  5
FF95
100
AcDbEntity
  8
0
100
AcDbLine
 10
1233.618321
 20
1871.780361
 30
0.0
 11
1023.618321
 21
1871.780361
 31
0.0
  0
LINE
  5
FF96
100
AcDbEntity
  8
0
100
AcDbLine
 10
1233.618321
 20
1901.280361
 30
0.0
 11
1023.618321
 21
1901.280361
 31
0.0
  0
LINE
  5
FF97
100
AcDbEntity
  8
0
100
AcDbLine
 10
1241.118321
 20
1678.580361
 30
0.0
 11
1016.118321
 21
1678.580361
 31
0.0
  0
LINE
  5
FF98
100
AcDbEntity
  8
0
100
AcDbLine
 10
1241.118321
 20
1710.780361
 30
0.0
 11
1016.118321
 21
1710.780361
 31
0.0
  0
ARC
  5
FF99
100
AcDbEntity
  8
0
100
AcDbCircle
 10
1128.618321
 20
2044.780361
 30
0.0
 40
29.0
100
AcDbArc
 50
347.446966
 51
181.469284
  0
LINE
  5
FF9A
100
AcDbEntity
  8
0
100
AcDbLine
 10
1233.618321
 20
1843.780361
 30
0.0
 11
1233.618321
 21
1901.280361
 31
0.0
  0
LINE
  5
FF9B
100
AcDbEntity
  8
0
100
AcDbLine
 10
1241.118321
 20
1744.280361
 30
0.0
 11
1241.118321
 21
1678.580361
 31
0.0
  0
LINE
  5
FF9C
100
AcDbEntity
  8
0
100
AcDbLine
 10
1207.32169
 20
1665.580361
 30
0.0
 11
1205.11269
 21
1666.855861
 31
0.0
  0
ARC
  5
FF9D
100
AcDbEntity
  8
0
100
AcDbCircle
 10
1218.96919
 20
1690.515686
 30
0.0
 40
24.653145
100
AcDbArc
 50
253.680185
 51
286.319815
  0
LINE
  5
FF9E
100
AcDbEntity
  8
0
100
AcDbLine
 10
1212.05219
 20
1661.786479
 30
0.0
 11
1225.88619
 21
1661.786479
 31
0.0
  0
LINE
  5
FF9F
100
AcDbEntity
  8
0
100
AcDbLine
 10
1226.96919
 20
1662.869479
 30
0.0
 11
1226.96919
 21
1665.580361
 31
0.0
  0
LINE
  5
FFA0
100
AcDbEntity
  8
0
100
AcDbLine
 10
1225.88619
 20
1661.786479
 30
0.0
 11
1226.96919
 21
1662.869479
 31
0.0
  0
LINE
  5
FFA1
100
AcDbEntity
  8
0
100
AcDbLine
 10
1232.82469
 20
1666.855861
 30
0.0
 11
1230.61569
 21
1665.580361
 31
0.0
  0
ARC
  5
FFA2
100
AcDbEntity
  8
0
100
AcDbCircle
 10
1229.36019
 20
1672.400115
 30
0.0
 40
6.537699
100
AcDbArc
 50
237.999511
 51
302.000489
  0
LINE
  5
FFA3
100
AcDbEntity
  8
0
100
AcDbLine
 10
1210.96919
 20
1665.580361
 30
0.0
 11
1210.96919
 21
1662.869479
 31
0.0
  0
LINE
  5
FFA4
100
AcDbEntity
  8
0
100
AcDbLine
 10
1210.96919
 20
1662.869479
 30
0.0
 11
1212.05219
 21
1661.786479
 31
0.0
  0
LINE
  5
FFA5
100
AcDbEntity
  8
0
100
AcDbLine
 10
1230.61569
 20
1665.580361
 30
0.0
 11
1207.32169
 21
1665.580361
 31
0.0
  0
ARC
  5
FFA6
100
AcDbEntity
  8
0
100
AcDbCircle
 10
1208.57719
 20
1672.400115
 30
0.0
 40
6.537699
100
AcDbArc
 50
237.999511
 51
302.000489
  0
LINE
  5
FFA7
100
AcDbEntity
  8
0
100
AcDbLine
 10
1225.89669
 20
1666.855861
 30
0.0
 11
1225.89669
 21
1678.580361
 31
0.0
  0
LINE
  5
FFA8
100
AcDbEntity
  8
0
100
AcDbLine
 10
1232.82469
 20
1678.580361
 30
0.0
 11
1232.82469
 21
1666.855861
 31
0.0
  0
LINE
  5
FFA9
100
AcDbEntity
  8
0
100
AcDbLine
 10
1212.04169
 20
1666.855861
 30
0.0
 11
1212.04169
 21
1678.580361
 31
0.0
  0
LINE
  5
FFAA
100
AcDbEntity
  8
0
100
AcDbLine
 10
1205.11269
 20
1666.855861
 30
0.0
 11
1205.11269
 21
1678.580361
 31
0.0
  0
LINE
  5
FFAC
100
AcDbEntity
  8
0
100
AcDbLine
 10
1196.10492
 20
1665.580361
 30
0.0
 11
1172.81092
 21
1665.580361
 31
0.0
  0
ARC
  5
FFAD
100
AcDbEntity
  8
0
100
AcDbCircle
 10
1174.06642
 20
1672.400115
 30
0.0
 40
6.537699
100
AcDbArc
 50
237.999511
 51
302.000489
  0
ARC
  5
FFAE
100
AcDbEntity
  8
0
100
AcDbCircle
 10
1184.45842
 20
1690.515686
 30
0.0
 40
24.653145
100
AcDbArc
 50
253.680185
 51
286.319815
  0
LINE
  5
FFAF
100
AcDbEntity
  8
0
100
AcDbLine
 10
1177.54142
 20
1661.786479
 30
0.0
 11
1191.37542
 21
1661.786479
 31
0.0
  0
LINE
  5
FFB0
100
AcDbEntity
  8
0
100
AcDbLine
 10
1192.45842
 20
1662.869479
 30
0.0
 11
1192.45842
 21
1665.580361
 31
0.0
  0
LINE
  5
FFB1
100
AcDbEntity
  8
0
100
AcDbLine
 10
1198.31392
 20
1666.855861
 30
0.0
 11
1196.10492
 21
1665.580361
 31
0.0
  0
ARC
  5
FFB2
100
AcDbEntity
  8
0
100
AcDbCircle
 10
1194.84942
 20
1672.400115
 30
0.0
 40
6.537699
100
AcDbArc
 50
237.999511
 51
302.000489
  0
LINE
  5
FFB3
100
AcDbEntity
  8
0
100
AcDbLine
 10
1191.37542
 20
1661.786479
 30
0.0
 11
1192.45842
 21
1662.869479
 31
0.0
  0
LINE
  5
FFB4
100
AcDbEntity
  8
0
100
AcDbLine
 10
1176.45842
 20
1665.580361
 30
0.0
 11
1176.45842
 21
1662.869479
 31
0.0
  0
LINE
  5
FFB5
100
AcDbEntity
  8
0
100
AcDbLine
 10
1176.45842
 20
1662.869479
 30
0.0
 11
1177.54142
 21
1661.786479
 31
0.0
  0
LINE
  5
FFB6
100
AcDbEntity
  8
0
100
AcDbLine
 10
1172.81092
 20
1665.580361
 30
0.0
 11
1170.60192
 21
1666.855861
 31
0.0
  0
LINE
  5
FFB7
100
AcDbEntity
  8
0
100
AcDbLine
 10
1198.31392
 20
1678.580361
 30
0.0
 11
1198.31392
 21
1666.855861
 31
0.0
  0
LINE
  5
FFB8
100
AcDbEntity
  8
0
100
AcDbLine
 10
1191.38592
 20
1666.855861
 30
0.0
 11
1191.38592
 21
1678.580361
 31
0.0
  0
LINE
  5
FFB9
100
AcDbEntity
  8
0
100
AcDbLine
 10
1177.53092
 20
1666.855861
 30
0.0
 11
1177.53092
 21
1678.580361
 31
0.0
  0
LINE
  5
FFBA
100
AcDbEntity
  8
0
100
AcDbLine
 10
1170.60192
 20
1666.855861
 30
0.0
 11
1170.60192
 21
1678.580361
 31
0.0
  0
LINE
  5
FFBC
100
AcDbEntity
  8
0
100
AcDbLine
 10
1120.618821
 20
1665.580361
 30
0.0
 11
1120.618821
 21
1662.869479
 31
0.0
  0
LINE
  5
FFBD
100
AcDbEntity
  8
0
100
AcDbLine
 10
1120.618821
 20
1662.869479
 30
0.0
 11
1121.701821
 21
1661.786479
 31
0.0
  0
LINE
  5
FFC0
100
AcDbEntity
  8
0
100
AcDbLine
 10
1136.618821
 20
1662.869479
 30
0.0
 11
1136.618821
 21
1665.580361
 31
0.0
  0
LINE
  5
FFC1
100
AcDbEntity
  8
0
100
AcDbLine
 10
1135.535821
 20
1661.786479
 30
0.0
 11
1136.618821
 21
1662.869479
 31
0.0
  0
LINE
  5
FFC2
100
AcDbEntity
  8
0
100
AcDbLine
 10
1142.474321
 20
1666.855861
 30
0.0
 11
1140.265321
 21
1665.580361
 31
0.0
  0
ARC
  5
FFC3
100
AcDbEntity
  8
0
100
AcDbCircle
 10
1139.009821
 20
1672.400115
 30
0.0
 40
6.537699
100
AcDbArc
 50
237.999511
 51
302.000489
  0
ARC
  5
FFC5
100
AcDbEntity
  8
0
100
AcDbCircle
 10
1128.618821
 20
1690.515686
 30
0.0
 40
24.653145
100
AcDbArc
 50
253.680185
 51
286.319815
  0
LINE
  5
FFC6
100
AcDbEntity
  8
0
100
AcDbLine
 10
1121.701821
 20
1661.786479
 30
0.0
 11
1135.535821
 21
1661.786479
 31
0.0
  0
LINE
  5
FFC7
100
AcDbEntity
  8
0
100
AcDbLine
 10
1135.546321
 20
1666.855861
 30
0.0
 11
1135.546321
 21
1678.580361
 31
0.0
  0
LINE
  5
FFC8
100
AcDbEntity
  8
0
100
AcDbLine
 10
1142.474321
 20
1678.580361
 30
0.0
 11
1142.474321
 21
1666.855861
 31
0.0
  0
LINE
  5
FFC9
100
AcDbEntity
  8
0
100
AcDbLine
 10
1121.691321
 20
1666.855861
 30
0.0
 11
1121.691321
 21
1678.580361
 31
0.0
  0
LINE
  5
FFCA
100
AcDbEntity
  8
0
100
AcDbLine
 10
1205.109777
 20
1764.280361
 30
0.0
 11
1194.618321
 21
1823.780361
 31
0.0
  0
ARC
  5
FFCB
100
AcDbEntity
  8
0
100
AcDbCircle
 10
1214.416321
 20
1750.280361
 30
0.0
 40
6.0
100
AcDbArc
 50
192.70368
 51
234.93385
  0
LINE
  5
FFCC
100
AcDbEntity
  8
0
100
AcDbLine
 10
1205.109777
 20
1764.280361
 30
0.0
 11
1208.563198
 21
1748.960908
 31
0.0
  0
LINE
  5
FFCD
100
AcDbEntity
  8
0
100
AcDbLine
 10
1226.96919
 20
1744.280361
 30
0.0
 11
1226.96919
 21
1745.703479
 31
0.0
  0
LINE
  5
FFCE
100
AcDbEntity
  8
0
100
AcDbLine
 10
1210.96919
 20
1745.703479
 30
0.0
 11
1210.96919
 21
1744.280361
 31
0.0
  0
LINE
  5
FFCF
100
AcDbEntity
  8
0
100
AcDbLine
 10
1212.05219
 20
1746.786479
 30
0.0
 11
1225.88619
 21
1746.786479
 31
0.0
  0
LINE
  5
FFD0
100
AcDbEntity
  8
0
100
AcDbLine
 10
1226.96919
 20
1745.703479
 30
0.0
 11
1225.88619
 21
1746.786479
 31
0.0
  0
LINE
  5
FFD1
100
AcDbEntity
  8
0
100
AcDbLine
 10
1210.96919
 20
1745.703479
 30
0.0
 11
1212.05219
 21
1746.786479
 31
0.0
  0
LINE
  5
FFD2
100
AcDbEntity
  8
0
100
AcDbLine
 10
1176.45842
 20
1745.703479
 30
0.0
 11
1176.45842
 21
1744.280361
 31
0.0
  0
LINE
  5
FFD3
100
AcDbEntity
  8
0
100
AcDbLine
 10
1192.45842
 20
1744.280361
 30
0.0
 11
1192.45842
 21
1745.703479
 31
0.0
  0
LINE
  5
FFD4
100
AcDbEntity
  8
0
100
AcDbLine
 10
1177.54142
 20
1746.786479
 30
0.0
 11
1191.37542
 21
1746.786479
 31
0.0
  0
LINE
  5
FFD5
100
AcDbEntity
  8
0
100
AcDbLine
 10
1192.45842
 20
1745.703479
 30
0.0
 11
1191.37542
 21
1746.786479
 31
0.0
  0
LINE
  5
FFD6
100
AcDbEntity
  8
0
100
AcDbLine
 10
1176.45842
 20
1745.703479
 30
0.0
 11
1177.54142
 21
1746.786479
 31
0.0
  0
LINE
  5
FFD7
100
AcDbEntity
  8
0
100
AcDbLine
 10
1120.618821
 20
1745.703479
 30
0.0
 11
1120.618821
 21
1744.280361
 31
0.0
  0
LINE
  5
FFD8
100
AcDbEntity
  8
0
100
AcDbLine
 10
1136.618821
 20
1744.280361
 30
0.0
 11
1136.618821
 21
1745.703479
 31
0.0
  0
LINE
  5
FFD9
100
AcDbEntity
  8
0
100
AcDbLine
 10
1120.618821
 20
1745.703479
 30
0.0
 11
1121.701821
 21
1746.786479
 31
0.0
  0
LINE
  5
FFDA
100
AcDbEntity
  8
0
100
AcDbLine
 10
1136.618821
 20
1745.703479
 30
0.0
 11
1135.535821
 21
1746.786479
 31
0.0
  0
LINE
  5
FFDB
100
AcDbEntity
  8
0
100
AcDbLine
 10
1121.701821
 20
1746.786479
 30
0.0
 11
1135.535821
 21
1746.786479
 31
0.0
  0
LINE
  5
FFDC
100
AcDbEntity
  8
0
100
AcDbLine
 10
1200.231081
 20
1826.780361
 30
0.0
 11
1214.065081
 21
1826.780361
 31
0.0
  0
ARC
  5
FFDD
100
AcDbEntity
  8
0
100
AcDbCircle
 10
1207.148581
 20
1855.715686
 30
0.0
 40
24.653145
100
AcDbArc
 50
253.680185
 51
286.319815
  0
LINE
  5
FFDF
100
AcDbEntity
  8
0
100
AcDbLine
 10
1218.795081
 20
1830.780361
 30
0.0
 11
1195.501081
 21
1830.780361
 31
0.0
  0
LINE
  5
FFE0
100
AcDbEntity
  8
0
100
AcDbLine
 10
1214.076081
 20
1832.055861
 30
0.0
 11
1214.076081
 21
1843.780361
 31
0.0
  0
LINE
  5
FFE1
100
AcDbEntity
  8
0
100
AcDbLine
 10
1221.004081
 20
1843.780361
 30
0.0
 11
1221.004081
 21
1832.055861
 31
0.0
  0
LINE
  5
FFE2
100
AcDbEntity
  8
0
100
AcDbLine
 10
1221.004081
 20
1832.055861
 30
0.0
 11
1218.795081
 21
1830.780361
 31
0.0
  0
LINE
  5
FFE3
100
AcDbEntity
  8
0
100
AcDbLine
 10
1215.148081
 20
1827.863361
 30
0.0
 11
1215.148081
 21
1830.780361
 31
0.0
  0
LINE
  5
FFE4
100
AcDbEntity
  8
0
100
AcDbLine
 10
1214.065081
 20
1826.780361
 30
0.0
 11
1215.148081
 21
1827.863361
 31
0.0
  0
ARC
  5
FFE5
100
AcDbEntity
  8
0
100
AcDbCircle
 10
1217.539581
 20
1837.600115
 30
0.0
 40
6.537699
100
AcDbArc
 50
237.999511
 51
302.000489
  0
LINE
  5
FFE6
100
AcDbEntity
  8
0
100
AcDbLine
 10
1147.290413
 20
1832.055861
 30
0.0
 11
1147.290413
 21
1843.780361
 31
0.0
  0
LINE
  5
FFE7
100
AcDbEntity
  8
0
100
AcDbLine
 10
1154.219413
 20
1832.055861
 30
0.0
 11
1154.219413
 21
1843.780361
 31
0.0
  0
LINE
  5
FFE8
100
AcDbEntity
  8
0
100
AcDbLine
 10
1168.074413
 20
1832.055861
 30
0.0
 11
1168.074413
 21
1843.780361
 31
0.0
  0
LINE
  5
FFE9
100
AcDbEntity
  8
0
100
AcDbLine
 10
1175.002413
 20
1843.780361
 30
0.0
 11
1175.002413
 21
1832.055861
 31
0.0
  0
LINE
  5
FFEA
100
AcDbEntity
  8
0
100
AcDbLine
 10
1200.221081
 20
1832.055861
 30
0.0
 11
1200.221081
 21
1843.780361
 31
0.0
  0
LINE
  5
FFEB
100
AcDbEntity
  8
0
100
AcDbLine
 10
1193.292081
 20
1832.055861
 30
0.0
 11
1193.292081
 21
1843.780361
 31
0.0
  0
ARC
  5
FFED
100
AcDbEntity
  8
0
100
AcDbCircle
 10
1161.146913
 20
1855.715686
 30
0.0
 40
24.653145
100
AcDbArc
 50
253.680185
 51
286.319815
  0
LINE
  5
FFEE
100
AcDbEntity
  8
0
100
AcDbLine
 10
1154.229413
 20
1826.780361
 30
0.0
 11
1168.063413
 21
1826.780361
 31
0.0
  0
LINE
  5
FFEF
100
AcDbEntity
  8
0
100
AcDbLine
 10
1172.793413
 20
1830.780361
 30
0.0
 11
1149.499413
 21
1830.780361
 31
0.0
  0
LINE
  5
FFF0
100
AcDbEntity
  8
0
100
AcDbLine
 10
1168.063413
 20
1826.780361
 30
0.0
 11
1169.146413
 21
1827.863361
 31
0.0
  0
LINE
  5
FFF1
100
AcDbEntity
  8
0
100
AcDbLine
 10
1169.146413
 20
1827.863361
 30
0.0
 11
1169.146413
 21
1830.780361
 31
0.0
  0
LINE
  5
FFF2
100
AcDbEntity
  8
0
100
AcDbLine
 10
1175.002413
 20
1832.055861
 30
0.0
 11
1172.793413
 21
1830.780361
 31
0.0
  0
LINE
  5
FFF3
100
AcDbEntity
  8
0
100
AcDbLine
 10
1194.618321
 20
1823.780361
 30
0.0
 11
1194.618321
 21
1831.290077
 31
0.0
  0
LINE
  5
FFF4
100
AcDbEntity
  8
0
100
AcDbLine
 10
1199.148081
 20
1830.780361
 30
0.0
 11
1199.148081
 21
1827.863361
 31
0.0
  0
LINE
  5
FFF5
100
AcDbEntity
  8
0
100
AcDbLine
 10
1199.148081
 20
1827.863361
 30
0.0
 11
1200.231081
 21
1826.780361
 31
0.0
  0
LINE
  5
FFF6
100
AcDbEntity
  8
0
100
AcDbLine
 10
1195.501081
 20
1830.780361
 30
0.0
 11
1193.292081
 21
1832.055861
 31
0.0
  0
ARC
  5
FFF7
100
AcDbEntity
  8
0
100
AcDbCircle
 10
1196.756581
 20
1837.600115
 30
0.0
 40
6.537699
100
AcDbArc
 50
237.999511
 51
302.000489
  0
ARC
  5
FFF8
100
AcDbEntity
  8
0
100
AcDbCircle
 10
1171.537913
 20
1837.600115
 30
0.0
 40
6.537699
100
AcDbArc
 50
237.999511
 51
302.000489
  0
ARC
  5
FFF9
100
AcDbEntity
  8
0
100
AcDbCircle
 10
1150.754913
 20
1837.600115
 30
0.0
 40
6.537699
100
AcDbArc
 50
237.999511
 51
302.000489
  0
LINE
  5
FFFA
100
AcDbEntity
  8
0
100
AcDbLine
 10
1149.499413
 20
1830.780361
 30
0.0
 11
1147.290413
 21
1832.055861
 31
0.0
  0
LINE
  5
FFFB
100
AcDbEntity
  8
0
100
AcDbLine
 10
1153.146413
 20
1827.863361
 30
0.0
 11
1154.229413
 21
1826.780361
 31
0.0
  0
LINE
  5
FFFC
100
AcDbEntity
  8
0
100
AcDbLine
 10
1153.146413
 20
1830.780361
 30
0.0
 11
1153.146413
 21
1827.863361
 31
0.0
  0
LINE
  5
FFFD
100
AcDbEntity
  8
0
100
AcDbLine
 10
1280.118321
 20
1979.780361
 30
0.0
 11
1280.118321
 21
2049.780361
 31
0.0
  0
LINE
  5
FFFE
100
AcDbEntity
  8
0
100
AcDbLine
 10
1262.118321
 20
1909.780361
 30
0.0
 11
1262.118321
 21
2049.780361
 31
0.0
  0
ARC
  5
FFFF
100
AcDbEntity
  8
0
100
AcDbCircle
 10
1172.618321
 20
1971.780361
 30
0.0
 40
20.0
100
AcDbArc
 50
0.0
 51
90.0
  0
ARC
  5
10000
100
AcDbEntity
  8
0
100
AcDbCircle
 10
1212.618321
 20
1929.780361
 30
0.0
 40
20.0
100
AcDbArc
 50
90.0
 51
180.0
  0
LINE
  5
10001
100
AcDbEntity
  8
0
100
AcDbLine
 10
1200.231081
 20
1905.280361
 30
0.0
 11
1214.065081
 21
1905.280361
 31
0.0
  0
LINE
  5
10003
100
AcDbEntity
  8
0
100
AcDbLine
 10
1280.118321
 20
1909.780361
 30
0.0
 11
1280.118321
 21
1979.780361
 31
0.0
  0
LINE
  5
10004
100
AcDbEntity
  8
0
100
AcDbLine
 10
1262.118321
 20
1909.780361
 30
0.0
 11
1280.118321
 21
1909.780361
 31
0.0
  0
LINE
  5
10005
100
AcDbEntity
  8
0
100
AcDbLine
 10
1215.148081
 20
1904.197361
 30
0.0
 11
1215.148081
 21
1901.280361
 31
0.0
  0
LINE
  5
10006
100
AcDbEntity
  8
0
100
AcDbLine
 10
1214.065081
 20
1905.280361
 30
0.0
 11
1215.148081
 21
1904.197361
 31
0.0
  0
LINE
  5
10007
100
AcDbEntity
  8
0
100
AcDbLine
 10
1247.118321
 20
1949.780361
 30
0.0
 11
1212.618321
 21
1949.780361
 31
0.0
  0
LINE
  5
10008
100
AcDbEntity
  8
0
100
AcDbLine
 10
1262.118321
 20
1946.780361
 30
0.0
 11
1247.118321
 21
1949.780361
 31
0.0
  0
LINE
  5
1000A
100
AcDbEntity
  8
0
100
AcDbLine
 10
1154.229413
 20
1905.280361
 30
0.0
 11
1168.063413
 21
1905.280361
 31
0.0
  0
LINE
  5
1000B
100
AcDbEntity
  8
0
100
AcDbLine
 10
1168.063413
 20
1905.280361
 30
0.0
 11
1169.146413
 21
1904.197361
 31
0.0
  0
LINE
  5
1000C
100
AcDbEntity
  8
0
100
AcDbLine
 10
1169.146413
 20
1904.197361
 30
0.0
 11
1169.146413
 21
1901.280361
 31
0.0
  0
LINE
  5
1000D
100
AcDbEntity
  8
0
100
AcDbLine
 10
1199.148081
 20
1901.280361
 30
0.0
 11
1199.148081
 21
1904.197361
 31
0.0
  0
LINE
  5
1000E
100
AcDbEntity
  8
0
100
AcDbLine
 10
1199.148081
 20
1904.197361
 30
0.0
 11
1200.231081
 21
1905.280361
 31
0.0
  0
LINE
  5
1000F
100
AcDbEntity
  8
0
100
AcDbLine
 10
1196.618321
 20
1901.280361
 30
0.0
 11
1192.618321
 21
1921.280361
 31
0.0
  0
LINE
  5
10010
100
AcDbEntity
  8
0
100
AcDbLine
 10
1192.618321
 20
1921.280361
 30
0.0
 11
1192.618321
 21
1929.780361
 31
0.0
  0
LINE
  5
10011
100
AcDbEntity
  8
0
100
AcDbLine
 10
1153.146413
 20
1904.197361
 30
0.0
 11
1154.229413
 21
1905.280361
 31
0.0
  0
LINE
  5
10012
100
AcDbEntity
  8
0
100
AcDbLine
 10
1153.146413
 20
1901.280361
 30
0.0
 11
1153.146413
 21
1904.197361
 31
0.0
  0
ARC
  5
10013
100
AcDbEntity
  8
0
100
AcDbCircle
 10
1226.118321
 20
1949.780361
 30
0.0
 40
60.0
100
AcDbArc
 50
90.0
 51
129.011393
  0
LINE
  5
10014
100
AcDbEntity
  8
0
100
AcDbLine
 10
1237.118321
 20
2009.780361
 30
0.0
 11
1164.436525
 21
2026.560276
 31
0.0
  0
LINE
  5
10015
100
AcDbEntity
  8
0
100
AcDbLine
 10
1247.118321
 20
2009.780361
 30
0.0
 11
1226.118321
 21
2009.780361
 31
0.0
  0
LINE
  5
10016
100
AcDbEntity
  8
0
100
AcDbLine
 10
1262.118321
 20
2012.780361
 30
0.0
 11
1247.118321
 21
2009.780361
 31
0.0
  0
LINE
  5
10017
100
AcDbEntity
  8
0
100
AcDbLine
 10
1262.118321
 20
2049.780361
 30
0.0
 11
1280.118321
 21
2049.780361
 31
0.0
  0
ARC
  5
10018
100
AcDbEntity
  8
0
100
AcDbCircle
 10
1166.686036
 20
2036.303977
 30
0.0
 40
10.0
100
AcDbArc
 50
167.446966
 51
257.0
  0
ARC
  5
10019
100
AcDbEntity
  8
0
100
AcDbCircle
 10
1142.118321
 20
2001.923378
 30
0.0
 40
30.0
100
AcDbArc
 50
0.0
 51
74.335733
  0
ARC
  5
1001A
100
AcDbEntity
  8
0
100
AcDbCircle
 10
1182.055078
 20
2004.171818
 30
0.0
 40
10.0
100
AcDbArc
 50
183.222352
 51
309.011393
  0
ARC
  5
1001B
100
AcDbEntity
  8
0
100
AcDbCircle
 10
1128.618321
 20
1953.780361
 30
0.0
 40
80.0
100
AcDbArc
 50
74.335733
 51
90.0
  0
LINE
  5
1001C
100
AcDbEntity
  8
0
100
AcDbLine
 10
1023.618321
 20
1843.780361
 30
0.0
 11
1023.618321
 21
1901.280361
 31
0.0
  0
LINE
  5
1001D
100
AcDbEntity
  8
0
100
AcDbLine
 10
1016.118321
 20
1744.280361
 30
0.0
 11
1016.118321
 21
1678.580361
 31
0.0
  0
LINE
  5
1001E
100
AcDbEntity
  8
0
100
AcDbLine
 10
1049.914952
 20
1665.580361
 30
0.0
 11
1026.620952
 21
1665.580361
 31
0.0
  0
ARC
  5
1001F
100
AcDbEntity
  8
0
100
AcDbCircle
 10
1038.268452
 20
1690.515686
 30
0.0
 40
24.653145
100
AcDbArc
 50
253.680185
 51
286.319815
  0
LINE
  5
10020
100
AcDbEntity
  8
0
100
AcDbLine
 10
1031.351452
 20
1661.786479
 30
0.0
 11
1045.185452
 21
1661.786479
 31
0.0
  0
ARC
  5
10021
100
AcDbEntity
  8
0
100
AcDbCircle
 10
1072.779222
 20
1690.515686
 30
0.0
 40
24.653145
100
AcDbArc
 50
253.680185
 51
286.319815
  0
LINE
  5
10022
100
AcDbEntity
  8
0
100
AcDbLine
 10
1065.862222
 20
1661.786479
 30
0.0
 11
1079.696222
 21
1661.786479
 31
0.0
  0
LINE
  5
10024
100
AcDbEntity
  8
0
100
AcDbLine
 10
1084.425722
 20
1665.580361
 30
0.0
 11
1061.131722
 21
1665.580361
 31
0.0
  0
LINE
  5
10027
100
AcDbEntity
  8
0
100
AcDbLine
 10
1079.696222
 20
1661.786479
 30
0.0
 11
1080.779222
 21
1662.869479
 31
0.0
  0
LINE
  5
10028
100
AcDbEntity
  8
0
100
AcDbLine
 10
1080.779222
 20
1662.869479
 30
0.0
 11
1080.779222
 21
1665.580361
 31
0.0
  0
LINE
  5
1002A
100
AcDbEntity
  8
0
100
AcDbLine
 10
1116.971321
 20
1665.580361
 30
0.0
 11
1114.762321
 21
1666.855861
 31
0.0
  0
LINE
  5
1002E
100
AcDbEntity
  8
0
100
AcDbLine
 10
1086.634722
 20
1666.855861
 30
0.0
 11
1084.425722
 21
1665.580361
 31
0.0
  0
ARC
  5
10032
100
AcDbEntity
  8
0
100
AcDbCircle
 10
1083.170222
 20
1672.400115
 30
0.0
 40
6.537699
100
AcDbArc
 50
237.999511
 51
302.000489
  0
LINE
  5
10034
100
AcDbEntity
  8
0
100
AcDbLine
 10
1114.762321
 20
1666.855861
 30
0.0
 11
1114.762321
 21
1678.580361
 31
0.0
  0
LINE
  5
10035
100
AcDbEntity
  8
0
100
AcDbLine
 10
1086.634722
 20
1678.580361
 30
0.0
 11
1086.634722
 21
1666.855861
 31
0.0
  0
LINE
  5
10036
100
AcDbEntity
  8
0
100
AcDbLine
 10
1079.706722
 20
1666.855861
 30
0.0
 11
1079.706722
 21
1678.580361
 31
0.0
  0
ARC
  5
10038
100
AcDbEntity
  8
0
100
AcDbCircle
 10
1048.659452
 20
1672.400115
 30
0.0
 40
6.537699
100
AcDbArc
 50
237.999511
 51
302.000489
  0
LINE
  5
10039
100
AcDbEntity
  8
0
100
AcDbLine
 10
1052.123952
 20
1666.855861
 30
0.0
 11
1049.914952
 21
1665.580361
 31
0.0
  0
ARC
  5
1003A
100
AcDbEntity
  8
0
100
AcDbCircle
 10
1062.387222
 20
1672.400115
 30
0.0
 40
6.537699
100
AcDbArc
 50
237.999511
 51
302.000489
  0
LINE
  5
1003B
100
AcDbEntity
  8
0
100
AcDbLine
 10
1064.779222
 20
1665.580361
 30
0.0
 11
1064.779222
 21
1662.869479
 31
0.0
  0
LINE
  5
1003C
100
AcDbEntity
  8
0
100
AcDbLine
 10
1064.779222
 20
1662.869479
 30
0.0
 11
1065.862222
 21
1661.786479
 31
0.0
  0
LINE
  5
1003D
100
AcDbEntity
  8
0
100
AcDbLine
 10
1061.131722
 20
1665.580361
 30
0.0
 11
1058.922722
 21
1666.855861
 31
0.0
  0
LINE
  5
1003E
100
AcDbEntity
  8
0
100
AcDbLine
 10
1046.268452
 20
1662.869479
 30
0.0
 11
1046.268452
 21
1665.580361
 31
0.0
  0
LINE
  5
1003F
100
AcDbEntity
  8
0
100
AcDbLine
 10
1045.185452
 20
1661.786479
 30
0.0
 11
1046.268452
 21
1662.869479
 31
0.0
  0
LINE
  5
10041
100
AcDbEntity
  8
0
100
AcDbLine
 10
1065.851722
 20
1666.855861
 30
0.0
 11
1065.851722
 21
1678.580361
 31
0.0
  0
LINE
  5
10042
100
AcDbEntity
  8
0
100
AcDbLine
 10
1052.123952
 20
1678.580361
 30
0.0
 11
1052.123952
 21
1666.855861
 31
0.0
  0
LINE
  5
10043
100
AcDbEntity
  8
0
100
AcDbLine
 10
1058.922722
 20
1666.855861
 30
0.0
 11
1058.922722
 21
1678.580361
 31
0.0
  0
LINE
  5
10044
100
AcDbEntity
  8
0
100
AcDbLine
 10
1045.195952
 20
1666.855861
 30
0.0
 11
1045.195952
 21
1678.580361
 31
0.0
  0
ARC
  5
10045
100
AcDbEntity
  8
0
100
AcDbCircle
 10
1027.876452
 20
1672.400115
 30
0.0
 40
6.537699
100
AcDbArc
 50
237.999511
 51
302.000489
  0
LINE
  5
10046
100
AcDbEntity
  8
0
100
AcDbLine
 10
1030.268452
 20
1665.580361
 30
0.0
 11
1030.268452
 21
1662.869479
 31
0.0
  0
LINE
  5
10047
100
AcDbEntity
  8
0
100
AcDbLine
 10
1030.268452
 20
1662.869479
 30
0.0
 11
1031.351452
 21
1661.786479
 31
0.0
  0
LINE
  5
10048
100
AcDbEntity
  8
0
100
AcDbLine
 10
1026.620952
 20
1665.580361
 30
0.0
 11
1024.411952
 21
1666.855861
 31
0.0
  0
LINE
  5
10049
100
AcDbEntity
  8
0
100
AcDbLine
 10
1031.340952
 20
1666.855861
 30
0.0
 11
1031.340952
 21
1678.580361
 31
0.0
  0
LINE
  5
1004A
100
AcDbEntity
  8
0
100
AcDbLine
 10
1024.411952
 20
1666.855861
 30
0.0
 11
1024.411952
 21
1678.580361
 31
0.0
  0
LINE
  5
1004B
100
AcDbEntity
  8
0
100
AcDbLine
 10
1052.126866
 20
1764.280361
 30
0.0
 11
1062.618321
 21
1823.780361
 31
0.0
  0
LINE
  5
1004C
100
AcDbEntity
  8
0
100
AcDbLine
 10
1031.351452
 20
1746.786479
 30
0.0
 11
1045.185452
 21
1746.786479
 31
0.0
  0
LINE
  5
1004D
100
AcDbEntity
  8
0
100
AcDbLine
 10
1065.862222
 20
1746.786479
 30
0.0
 11
1079.696222
 21
1746.786479
 31
0.0
  0
LINE
  5
1004E
100
AcDbEntity
  8
0
100
AcDbLine
 10
1080.779222
 20
1744.280361
 30
0.0
 11
1080.779222
 21
1745.703479
 31
0.0
  0
LINE
  5
1004F
100
AcDbEntity
  8
0
100
AcDbLine
 10
1080.779222
 20
1745.703479
 30
0.0
 11
1079.696222
 21
1746.786479
 31
0.0
  0
ARC
  5
10050
100
AcDbEntity
  8
0
100
AcDbCircle
 10
1042.820321
 20
1750.280361
 30
0.0
 40
6.0
100
AcDbArc
 50
305.06615
 51
347.29632
  0
LINE
  5
10051
100
AcDbEntity
  8
0
100
AcDbLine
 10
1046.268452
 20
1744.280361
 30
0.0
 11
1046.268452
 21
1745.703479
 31
0.0
  0
LINE
  5
10052
100
AcDbEntity
  8
0
100
AcDbLine
 10
1064.779222
 20
1745.703479
 30
0.0
 11
1064.779222
 21
1744.280361
 31
0.0
  0
LINE
  5
10053
100
AcDbEntity
  8
0
100
AcDbLine
 10
1064.779222
 20
1745.703479
 30
0.0
 11
1065.862222
 21
1746.786479
 31
0.0
  0
LINE
  5
10054
100
AcDbEntity
  8
0
100
AcDbLine
 10
1046.268452
 20
1745.703479
 30
0.0
 11
1045.185452
 21
1746.786479
 31
0.0
  0
LINE
  5
10055
100
AcDbEntity
  8
0
100
AcDbLine
 10
1052.126866
 20
1764.280361
 30
0.0
 11
1048.673444
 21
1748.960908
 31
0.0
  0
LINE
  5
10056
100
AcDbEntity
  8
0
100
AcDbLine
 10
1030.268452
 20
1745.703479
 30
0.0
 11
1030.268452
 21
1744.280361
 31
0.0
  0
LINE
  5
10057
100
AcDbEntity
  8
0
100
AcDbLine
 10
1030.268452
 20
1745.703479
 30
0.0
 11
1031.351452
 21
1746.786479
 31
0.0
  0
ARC
  5
10058
100
AcDbEntity
  8
0
100
AcDbCircle
 10
1039.697061
 20
1837.600115
 30
0.0
 40
6.537699
100
AcDbArc
 50
237.999511
 51
302.000489
  0
LINE
  5
10059
100
AcDbEntity
  8
0
100
AcDbLine
 10
1036.232561
 20
1832.055861
 30
0.0
 11
1038.441561
 21
1830.780361
 31
0.0
  0
LINE
  5
1005A
100
AcDbEntity
  8
0
100
AcDbLine
 10
1089.162229
 20
1832.055861
 30
0.0
 11
1089.162229
 21
1843.780361
 31
0.0
  0
LINE
  5
1005B
100
AcDbEntity
  8
0
100
AcDbLine
 10
1103.017229
 20
1832.055861
 30
0.0
 11
1103.017229
 21
1843.780361
 31
0.0
  0
LINE
  5
1005C
100
AcDbEntity
  8
0
100
AcDbLine
 10
1109.946229
 20
1832.055861
 30
0.0
 11
1109.946229
 21
1843.780361
 31
0.0
  0
LINE
  5
1005D
100
AcDbEntity
  8
0
100
AcDbLine
 10
1063.944561
 20
1832.055861
 30
0.0
 11
1063.944561
 21
1843.780361
 31
0.0
  0
LINE
  5
1005E
100
AcDbEntity
  8
0
100
AcDbLine
 10
1057.015561
 20
1832.055861
 30
0.0
 11
1057.015561
 21
1843.780361
 31
0.0
  0
LINE
  5
1005F
100
AcDbEntity
  8
0
100
AcDbLine
 10
1043.160561
 20
1832.055861
 30
0.0
 11
1043.160561
 21
1843.780361
 31
0.0
  0
LINE
  5
10060
100
AcDbEntity
  8
0
100
AcDbLine
 10
1082.234229
 20
1843.780361
 30
0.0
 11
1082.234229
 21
1832.055861
 31
0.0
  0
LINE
  5
10061
100
AcDbEntity
  8
0
100
AcDbLine
 10
1104.090229
 20
1830.780361
 30
0.0
 11
1104.090229
 21
1827.863361
 31
0.0
  0
LINE
  5
10062
100
AcDbEntity
  8
0
100
AcDbLine
 10
1088.090229
 20
1827.863361
 30
0.0
 11
1088.090229
 21
1830.780361
 31
0.0
  0
LINE
  5
10063
100
AcDbEntity
  8
0
100
AcDbLine
 10
1089.173229
 20
1826.780361
 30
0.0
 11
1088.090229
 21
1827.863361
 31
0.0
  0
LINE
  5
10064
100
AcDbEntity
  8
0
100
AcDbLine
 10
1104.090229
 20
1827.863361
 30
0.0
 11
1103.007229
 21
1826.780361
 31
0.0
  0
LINE
  5
10065
100
AcDbEntity
  8
0
100
AcDbLine
 10
1103.007229
 20
1826.780361
 30
0.0
 11
1089.173229
 21
1826.780361
 31
0.0
  0
ARC
  5
10066
100
AcDbEntity
  8
0
100
AcDbCircle
 10
1096.089729
 20
1855.715686
 30
0.0
 40
24.653145
100
AcDbArc
 50
253.680185
 51
286.319815
  0
LINE
  5
10068
100
AcDbEntity
  8
0
100
AcDbLine
 10
1107.737229
 20
1830.780361
 30
0.0
 11
1109.946229
 21
1832.055861
 31
0.0
  0
ARC
  5
10069
100
AcDbEntity
  8
0
100
AcDbCircle
 10
1106.481729
 20
1837.600115
 30
0.0
 40
6.537699
100
AcDbArc
 50
237.999511
 51
302.000489
  0
LINE
  5
1006A
100
AcDbEntity
  8
0
100
AcDbLine
 10
1082.234229
 20
1832.055861
 30
0.0
 11
1084.443229
 21
1830.780361
 31
0.0
  0
ARC
  5
1006B
100
AcDbEntity
  8
0
100
AcDbCircle
 10
1085.698729
 20
1837.600115
 30
0.0
 40
6.537699
100
AcDbArc
 50
237.999511
 51
302.000489
  0
LINE
  5
1006C
100
AcDbEntity
  8
0
100
AcDbLine
 10
1084.443229
 20
1830.780361
 30
0.0
 11
1107.737229
 21
1830.780361
 31
0.0
  0
LINE
  5
1006D
100
AcDbEntity
  8
0
100
AcDbLine
 10
1062.618321
 20
1823.780361
 30
0.0
 11
1062.618321
 21
1831.290077
 31
0.0
  0
ARC
  5
1006E
100
AcDbEntity
  8
0
100
AcDbCircle
 10
1060.480061
 20
1837.600115
 30
0.0
 40
6.537699
100
AcDbArc
 50
237.999511
 51
302.000489
  0
LINE
  5
1006F
100
AcDbEntity
  8
0
100
AcDbLine
 10
1061.735561
 20
1830.780361
 30
0.0
 11
1063.944561
 21
1832.055861
 31
0.0
  0
LINE
  5
10070
100
AcDbEntity
  8
0
100
AcDbLine
 10
1038.441561
 20
1830.780361
 30
0.0
 11
1061.735561
 21
1830.780361
 31
0.0
  0
ARC
  5
10072
100
AcDbEntity
  8
0
100
AcDbCircle
 10
1050.088061
 20
1855.715686
 30
0.0
 40
24.653145
100
AcDbArc
 50
253.680185
 51
286.319815
  0
LINE
  5
10073
100
AcDbEntity
  8
0
100
AcDbLine
 10
1057.005561
 20
1826.780361
 30
0.0
 11
1043.171561
 21
1826.780361
 31
0.0
  0
LINE
  5
10074
100
AcDbEntity
  8
0
100
AcDbLine
 10
1058.088561
 20
1827.863361
 30
0.0
 11
1057.005561
 21
1826.780361
 31
0.0
  0
LINE
  5
10075
100
AcDbEntity
  8
0
100
AcDbLine
 10
1043.171561
 20
1826.780361
 30
0.0
 11
1042.088561
 21
1827.863361
 31
0.0
  0
LINE
  5
10076
100
AcDbEntity
  8
0
100
AcDbLine
 10
1042.088561
 20
1827.863361
 30
0.0
 11
1042.088561
 21
1830.780361
 31
0.0
  0
LINE
  5
10077
100
AcDbEntity
  8
0
100
AcDbLine
 10
1058.088561
 20
1830.780361
 30
0.0
 11
1058.088561
 21
1827.863361
 31
0.0
  0
LINE
  5
10078
100
AcDbEntity
  8
0
100
AcDbLine
 10
1036.232561
 20
1843.780361
 30
0.0
 11
1036.232561
 21
1832.055861
 31
0.0
  0
LINE
  5
10079
100
AcDbEntity
  8
0
100
AcDbLine
 10
995.118321
 20
1909.780361
 30
0.0
 11
995.118321
 21
2049.780361
 31
0.0
  0
LINE
  5
1007A
100
AcDbEntity
  8
0
100
AcDbLine
 10
977.118321
 20
1979.780361
 30
0.0
 11
977.118321
 21
2049.780361
 31
0.0
  0
ARC
  5
1007B
100
AcDbEntity
  8
0
100
AcDbCircle
 10
1084.618321
 20
1971.780361
 30
0.0
 40
20.0
100
AcDbArc
 50
90.0
 51
180.0
  0
ARC
  5
1007C
100
AcDbEntity
  8
0
100
AcDbCircle
 10
1027.118321
 20
2024.780361
 30
0.0
 40
75.0
100
AcDbArc
 50
260.721033
 51
292.88538
  0
LINE
  5
1007D
100
AcDbEntity
  8
0
100
AcDbLine
 10
1064.618321
 20
1921.280361
 30
0.0
 11
1064.618321
 21
1950.156304
 31
0.0
  0
LINE
  5
1007E
100
AcDbEntity
  8
0
100
AcDbLine
 10
1104.090229
 20
1901.280361
 30
0.0
 11
1104.090229
 21
1904.197361
 31
0.0
  0
LINE
  5
1007F
100
AcDbEntity
  8
0
100
AcDbLine
 10
1088.090229
 20
1904.197361
 30
0.0
 11
1088.090229
 21
1901.280361
 31
0.0
  0
LINE
  5
10080
100
AcDbEntity
  8
0
100
AcDbLine
 10
1089.173229
 20
1905.280361
 30
0.0
 11
1088.090229
 21
1904.197361
 31
0.0
  0
LINE
  5
10081
100
AcDbEntity
  8
0
100
AcDbLine
 10
1104.090229
 20
1904.197361
 30
0.0
 11
1103.007229
 21
1905.280361
 31
0.0
  0
LINE
  5
10082
100
AcDbEntity
  8
0
100
AcDbLine
 10
1103.007229
 20
1905.280361
 30
0.0
 11
1089.173229
 21
1905.280361
 31
0.0
  0
LINE
  5
10085
100
AcDbEntity
  8
0
100
AcDbLine
 10
1057.005561
 20
1905.280361
 30
0.0
 11
1043.171561
 21
1905.280361
 31
0.0
  0
LINE
  5
10086
100
AcDbEntity
  8
0
100
AcDbLine
 10
1058.088561
 20
1904.197361
 30
0.0
 11
1057.005561
 21
1905.280361
 31
0.0
  0
LINE
  5
10087
100
AcDbEntity
  8
0
100
AcDbLine
 10
1043.171561
 20
1905.280361
 30
0.0
 11
1042.088561
 21
1904.197361
 31
0.0
  0
LINE
  5
10088
100
AcDbEntity
  8
0
100
AcDbLine
 10
1042.088561
 20
1904.197361
 30
0.0
 11
1042.088561
 21
1901.280361
 31
0.0
  0
LINE
  5
10089
100
AcDbEntity
  8
0
100
AcDbLine
 10
1058.088561
 20
1901.280361
 30
0.0
 11
1058.088561
 21
1904.197361
 31
0.0
  0
LINE
  5
1008A
100
AcDbEntity
  8
0
100
AcDbLine
 10
1064.618321
 20
1921.280361
 30
0.0
 11
1060.618321
 21
1901.280361
 31
0.0
  0
ARC
  5
1008B
100
AcDbEntity
  8
0
100
AcDbCircle
 10
1058.618321
 20
1950.156304
 30
0.0
 40
6.0
100
AcDbArc
 50
0.0
 51
112.88538
  0
LINE
  5
1008C
100
AcDbEntity
  8
0
100
AcDbLine
 10
977.118321
 20
1909.780361
 30
0.0
 11
977.118321
 21
1979.780361
 31
0.0
  0
LINE
  5
1008D
100
AcDbEntity
  8
0
100
AcDbLine
 10
995.118321
 20
1909.780361
 30
0.0
 11
977.118321
 21
1909.780361
 31
0.0
  0
LINE
  5
1008E
100
AcDbEntity
  8
0
100
AcDbLine
 10
995.118321
 20
1946.780361
 30
0.0
 11
1015.025206
 21
1950.761738
 31
0.0
  0
ARC
  5
1008F
100
AcDbEntity
  8
0
100
AcDbCircle
 10
1027.118321
 20
2024.780361
 30
0.0
 40
15.0
100
AcDbArc
 50
270.0
 51
320.893102
  0
ARC
  5
10090
100
AcDbEntity
  8
0
100
AcDbCircle
 10
1089.631144
 20
2043.780361
 30
0.0
 40
10.0
100
AcDbArc
 50
270.0
 51
1.469284
  0
ARC
  5
10091
100
AcDbEntity
  8
0
100
AcDbCircle
 10
1077.556402
 20
1983.780361
 30
0.0
 40
50.0
100
AcDbArc
 50
90.0
 51
140.893102
  0
LINE
  5
10092
100
AcDbEntity
  8
0
100
AcDbLine
 10
1027.118321
 20
2009.780361
 30
0.0
 11
1010.118321
 21
2009.780361
 31
0.0
  0
LINE
  5
10093
100
AcDbEntity
  8
0
100
AcDbLine
 10
995.118321
 20
2012.780361
 30
0.0
 11
1010.118321
 21
2009.780361
 31
0.0
  0
LINE
  5
10094
100
AcDbEntity
  8
0
100
AcDbLine
 10
995.118321
 20
2049.780361
 30
0.0
 11
977.118321
 21
2049.780361
 31
0.0
  0
INSERT
  5
10095
100
AcDbEntity
  8
0
100
AcDbBlockReference
  2
YA
 10
927.822463
 20
955.538404
 30
0.0
 41
3.427225
 42
3.427225
 43
3.427225
  0
INSERT
  5
10096
100
AcDbEntity
  8
0
100
AcDbBlockReference
  2
YA
 10
927.822463
 20
1348.850141
 30
0.0
 41
3.427225
 42
3.427225
 43
3.427225
  0
ARC
  5
10338
100
AcDbEntity
  8
0
100
AcDbCircle
 10
2558.911628
 20
1902.780361
 30
0.0
 40
3.0
100
AcDbArc
 50
180.0
 51
270.0
  0
ARC
  5
10339
100
AcDbEntity
  8
0
100
AcDbCircle
 10
2617.911628
 20
1902.780361
 30
0.0
 40
3.0
100
AcDbArc
 50
270.0
 51
0.0
  0
LINE
  5
1035B
100
AcDbEntity
  8
0
100
AcDbLine
 10
2617.911628
 20
1899.780361
 30
0.0
 11
2558.911628
 21
1899.780361
 31
0.0
  0
ARC
  5
1043C
100
AcDbEntity
  8
0
100
AcDbCircle
 10
2558.911628
 20
1938.780361
 30
0.0
 40
3.0
100
AcDbArc
 50
90.0
 51
180.0
  0
LINE
  5
1043D
100
AcDbEntity
  8
0
100
AcDbLine
 10
2555.911628
 20
1938.780361
 30
0.0
 11
2555.911628
 21
1902.780361
 31
0.0
  0
LINE
  5
1043E
100
AcDbEntity
  8
0
100
AcDbLine
 10
2617.911628
 20
1941.780361
 30
0.0
 11
2558.911628
 21
1941.780361
 31
0.0
  0
LINE
  5
1043F
100
AcDbEntity
  8
0
100
AcDbLine
 10
2620.911628
 20
1938.780361
 30
0.0
 11
2620.911628
 21
1902.780361
 31
0.0
  0
ARC
  5
10440
100
AcDbEntity
  8
0
100
AcDbCircle
 10
2617.911628
 20
1938.780361
 30
0.0
 40
3.0
100
AcDbArc
 50
0.0
 51
90.0
  0
ARC
  5
10458
100
AcDbEntity
  8
0
100
AcDbCircle
 10
2588.411628
 20
1348.850141
 30
0.0
 40
125.0
100
AcDbArc
 50
196.260205
 51
343.739795
  0
ARC
  5
10459
100
AcDbEntity
  8
0
100
AcDbCircle
 10
2588.411628
 20
1348.850141
 30
0.0
 40
125.0
100
AcDbArc
 50
16.260205
 51
163.739795
  0
LINE
  5
1045A
100
AcDbEntity
  8
0
100
AcDbLine
 10
2722.411628
 20
1383.850141
 30
0.0
 11
2669.046026
 21
1383.850141
 31
0.0
  0
LINE
  5
1045B
100
AcDbEntity
  8
0
100
AcDbLine
 10
2722.411628
 20
1313.850141
 30
0.0
 11
2669.046026
 21
1313.850141
 31
0.0
  0
LINE
  5
1045E
100
AcDbEntity
  8
0
100
AcDbLine
 10
2421.411628
 20
1348.850141
 30
0.0
 11
2421.411628
 21
1271.350141
 31
0.0
  0
ARC
  5
1045F
100
AcDbEntity
  8
0
100
AcDbCircle
 10
2588.411628
 20
1348.850141
 30
0.0
 40
85.0
100
AcDbArc
 50
285.349477
 51
335.130102
  0
ARC
  5
10460
100
AcDbEntity
  8
0
100
AcDbCircle
 10
2588.411628
 20
1348.850141
 30
0.0
 40
85.0
100
AcDbArc
 50
204.315739
 51
254.650523
  0
LINE
  5
10461
100
AcDbEntity
  8
0
100
AcDbLine
 10
2565.911628
 20
1263.850141
 30
0.0
 11
2565.911628
 21
1272.079378
 31
0.0
  0
LINE
  5
10462
100
AcDbEntity
  8
0
100
AcDbLine
 10
2610.911628
 20
1263.850141
 30
0.0
 11
2610.911628
 21
1272.079378
 31
0.0
  0
LINE
  5
10464
100
AcDbEntity
  8
0
100
AcDbLine
 10
2610.911628
 20
1263.850141
 30
0.0
 11
2565.911628
 21
1263.850141
 31
0.0
  0
LINE
  5
10469
100
AcDbEntity
  8
0
100
AcDbLine
 10
2454.411628
 20
1313.850141
 30
0.0
 11
2520.793938
 21
1313.850141
 31
0.0
  0
LINE
  5
1046A
100
AcDbEntity
  8
0
100
AcDbLine
 10
2520.793938
 20
1383.850141
 30
0.0
 11
2454.411628
 21
1383.850141
 31
0.0
  0
LINE
  5
1046C
100
AcDbEntity
  8
0
100
AcDbLine
 10
2439.411628
 20
1426.350141
 30
0.0
 11
2439.411628
 21
1271.350141
 31
0.0
  0
LINE
  5
1046E
100
AcDbEntity
  8
0
100
AcDbLine
 10
2421.411628
 20
1426.350141
 30
0.0
 11
2421.411628
 21
1348.850141
 31
0.0
  0
LINE
  5
1046F
100
AcDbEntity
  8
0
100
AcDbLine
 10
2439.411628
 20
1386.850141
 30
0.0
 11
2454.411628
 21
1383.850141
 31
0.0
  0
LINE
  5
10470
100
AcDbEntity
  8
0
100
AcDbLine
 10
2454.411628
 20
1313.850141
 30
0.0
 11
2439.411628
 21
1310.850141
 31
0.0
  0
ARC
  5
10471
100
AcDbEntity
  8
0
100
AcDbCircle
 10
2617.911628
 20
1430.850141
 30
0.0
 40
3.0
100
AcDbArc
 50
0.0
 51
90.0
  0
LINE
  5
10472
100
AcDbEntity
  8
0
100
AcDbLine
 10
2620.911628
 20
1421.951098
 30
0.0
 11
2620.911628
 21
1430.850141
 31
0.0
  0
LINE
  5
10473
100
AcDbEntity
  8
0
100
AcDbLine
 10
2617.911628
 20
1433.850141
 30
0.0
 11
2558.911628
 21
1433.850141
 31
0.0
  0
ARC
  5
10474
100
AcDbEntity
  8
0
100
AcDbCircle
 10
2558.911628
 20
1430.850141
 30
0.0
 40
3.0
100
AcDbArc
 50
90.0
 51
180.0
  0
LINE
  5
10475
100
AcDbEntity
  8
0
100
AcDbLine
 10
2555.911628
 20
1421.951098
 30
0.0
 11
2555.911628
 21
1430.850141
 31
0.0
  0
ARC
  5
10476
100
AcDbEntity
  8
0
100
AcDbCircle
 10
2588.411628
 20
1348.850141
 30
0.0
 40
85.0
100
AcDbArc
 50
112.479506
 51
155.684261
  0
ARC
  5
10477
100
AcDbEntity
  8
0
100
AcDbCircle
 10
2588.411628
 20
1348.850141
 30
0.0
 40
85.0
100
AcDbArc
 50
24.869898
 51
67.520494
  0
LINE
  5
10478
100
AcDbEntity
  8
0
100
AcDbLine
 10
2617.411628
 20
1342.850141
 30
0.0
 11
2483.411628
 21
1342.850141
 31
0.0
  0
ARC
  5
10479
100
AcDbEntity
  8
0
100
AcDbCircle
 10
2483.411628
 20
1338.850141
 30
0.0
 40
4.0
100
AcDbArc
 50
90.0
 51
180.0
  0
LINE
  5
1047A
100
AcDbEntity
  8
0
100
AcDbLine
 10
2617.411628
 20
1354.850141
 30
0.0
 11
2483.411628
 21
1354.850141
 31
0.0
  0
ARC
  5
1047B
100
AcDbEntity
  8
0
100
AcDbCircle
 10
2483.411628
 20
1358.850141
 30
0.0
 40
4.0
100
AcDbArc
 50
180.0
 51
270.0
  0
ARC
  5
1047C
100
AcDbEntity
  8
0
100
AcDbCircle
 10
2588.411628
 20
1348.850141
 30
0.0
 40
51.0
100
AcDbArc
 50
186.756327
 51
282.0
  0
ARC
  5
1047D
100
AcDbEntity
  8
0
100
AcDbCircle
 10
2588.411628
 20
1348.850141
 30
0.0
 40
51.0
100
AcDbArc
 50
78.0
 51
173.243673
  0
LINE
  5
1047E
100
AcDbEntity
  8
0
100
AcDbLine
 10
2617.411628
 20
1342.850141
 30
0.0
 11
2617.411628
 21
1354.850141
 31
0.0
  0
LINE
  5
1047F
100
AcDbEntity
  8
0
100
AcDbLine
 10
2559.411628
 20
1342.850141
 30
0.0
 11
2559.411628
 21
1354.850141
 31
0.0
  0
ARC
  5
10480
100
AcDbEntity
  8
0
100
AcDbCircle
 10
2588.411628
 20
1348.850141
 30
0.0
 40
80.0
100
AcDbArc
 50
205.94448
 51
332.394348
  0
ARC
  5
10481
100
AcDbEntity
  8
0
100
AcDbCircle
 10
2588.411628
 20
1348.850141
 30
0.0
 40
80.0
100
AcDbArc
 50
27.605652
 51
154.05552
  0
ARC
  5
10482
100
AcDbEntity
  8
0
100
AcDbCircle
 10
2520.793938
 20
1309.850141
 30
0.0
 40
4.0
100
AcDbArc
 50
360.0
 51
90.0
  0
ARC
  5
10483
100
AcDbEntity
  8
0
100
AcDbCircle
 10
2520.793938
 20
1387.850141
 30
0.0
 40
4.0
100
AcDbArc
 50
270.0
 51
0.0
  0
LINE
  5
10484
100
AcDbEntity
  8
0
100
AcDbLine
 10
2669.046026
 20
1383.850141
 30
0.0
 11
2599.015124
 21
1398.735668
 31
0.0
  0
LINE
  5
10485
100
AcDbEntity
  8
0
100
AcDbLine
 10
2669.046026
 20
1313.850141
 30
0.0
 11
2599.015124
 21
1298.964613
 31
0.0
  0
CIRCLE
  5
10488
100
AcDbEntity
  8
0
100
AcDbCircle
 10
2588.411628
 20
1453.850141
 30
0.0
 40
9.0
  0
LINE
  5
1049A
100
AcDbEntity
  8
0
100
AcDbLine
 10
2722.411628
 20
1313.850141
 30
0.0
 11
2737.411628
 21
1310.850141
 31
0.0
  0
LINE
  5
1049B
100
AcDbEntity
  8
0
100
AcDbLine
 10
2737.411628
 20
1386.850141
 30
0.0
 11
2722.411628
 21
1383.850141
 31
0.0
  0
LINE
  5
104A3
100
AcDbEntity
  8
0
100
AcDbLine
 10
2475.911628
 20
678.038404
 30
0.0
 11
2700.911628
 21
678.038404
 31
0.0
  0
LINE
  5
104A6
100
AcDbEntity
  8
0
100
AcDbLine
 10
2463.411628
 20
798.538404
 30
0.0
 11
2713.411628
 21
798.538404
 31
0.0
  0
ARC
  5
104A7
100
AcDbEntity
  8
0
100
AcDbCircle
 10
2709.911628
 20
1005.538404
 30
0.0
 40
85.0
100
AcDbArc
 50
247.038663
 51
276.562894
  0
ARC
  5
104A8
100
AcDbEntity
  8
0
100
AcDbCircle
 10
2646.63446
 20
941.538404
 30
0.0
 40
75.0
100
AcDbArc
 50
45.32539
 51
90.0
  0
LINE
  5
104A9
100
AcDbEntity
  8
0
100
AcDbLine
 10
2463.411628
 20
830.538404
 30
0.0
 11
2713.411628
 21
830.538404
 31
0.0
  0
LINE
  5
104AA
100
AcDbEntity
  8
0
100
AcDbLine
 10
2463.411628
 20
862.538404
 30
0.0
 11
2713.411628
 21
862.538404
 31
0.0
  0
LINE
  5
104AE
100
AcDbEntity
  8
0
100
AcDbLine
 10
2672.768521
 20
865.75394
 30
0.0
 11
2668.411628
 21
887.538404
 31
0.0
  0
LINE
  5
104AF
100
AcDbEntity
  8
0
100
AcDbLine
 10
2504.054735
 20
865.75394
 30
0.0
 11
2508.411628
 21
887.538404
 31
0.0
  0
LINE
  5
104D6
100
AcDbEntity
  8
0
100
AcDbLine
 10
2580.630003
 20
867.038404
 30
0.0
 11
2596.193253
 21
867.038404
 31
0.0
  0
LINE
  5
104D7
100
AcDbEntity
  8
0
100
AcDbLine
 10
2579.411628
 20
865.820029
 30
0.0
 11
2580.630003
 21
867.038404
 31
0.0
  0
LINE
  5
104D8
100
AcDbEntity
  8
0
100
AcDbLine
 10
2596.193253
 20
867.038404
 30
0.0
 11
2597.411628
 21
865.820029
 31
0.0
  0
LINE
  5
104D9
100
AcDbEntity
  8
0
100
AcDbLine
 10
2579.411628
 20
862.538404
 30
0.0
 11
2579.411628
 21
865.820029
 31
0.0
  0
LINE
  5
104DA
100
AcDbEntity
  8
0
100
AcDbLine
 10
2597.411628
 20
865.820029
 30
0.0
 11
2597.411628
 21
862.538404
 31
0.0
  0
LINE
  5
104DB
100
AcDbEntity
  8
0
100
AcDbLine
 10
2603.999628
 20
785.348342
 30
0.0
 11
2601.514503
 21
783.913404
 31
0.0
  0
LINE
  5
104DC
100
AcDbEntity
  8
0
100
AcDbLine
 10
2603.999628
 20
798.538404
 30
0.0
 11
2603.999628
 21
785.348342
 31
0.0
  0
ARC
  5
104DD
100
AcDbEntity
  8
0
100
AcDbCircle
 10
2588.412191
 20
811.965644
 30
0.0
 40
27.734788
100
AcDbArc
 50
253.680185
 51
286.319815
  0
LINE
  5
104DF
100
AcDbEntity
  8
0
100
AcDbLine
 10
2580.630003
 20
779.413404
 30
0.0
 11
2596.193253
 21
779.413404
 31
0.0
  0
LINE
  5
104E0
100
AcDbEntity
  8
0
100
AcDbLine
 10
2579.411628
 20
783.913404
 30
0.0
 11
2579.411628
 21
780.631779
 31
0.0
  0
ARC
  5
104E1
100
AcDbEntity
  8
0
100
AcDbCircle
 10
2576.721191
 20
791.585627
 30
0.0
 40
7.354912
100
AcDbArc
 50
237.999511
 51
302.000489
  0
LINE
  5
104E2
100
AcDbEntity
  8
0
100
AcDbLine
 10
2575.308753
 20
783.913404
 30
0.0
 11
2572.823628
 21
785.348342
 31
0.0
  0
LINE
  5
104E3
100
AcDbEntity
  8
0
100
AcDbLine
 10
2579.411628
 20
780.631779
 30
0.0
 11
2580.630003
 21
779.413404
 31
0.0
  0
LINE
  5
104E4
100
AcDbEntity
  8
0
100
AcDbLine
 10
2597.411628
 20
780.631779
 30
0.0
 11
2597.411628
 21
783.913404
 31
0.0
  0
LINE
  5
104E5
100
AcDbEntity
  8
0
100
AcDbLine
 10
2596.193253
 20
779.413404
 30
0.0
 11
2597.411628
 21
780.631779
 31
0.0
  0
LINE
  5
104E6
100
AcDbEntity
  8
0
100
AcDbLine
 10
2572.823628
 20
785.348342
 30
0.0
 11
2572.823628
 21
798.538404
 31
0.0
  0
LINE
  5
104E7
100
AcDbEntity
  8
0
100
AcDbLine
 10
2580.618753
 20
785.348342
 30
0.0
 11
2580.618753
 21
798.538404
 31
0.0
  0
LINE
  5
104E8
100
AcDbEntity
  8
0
100
AcDbLine
 10
2596.205628
 20
785.348342
 30
0.0
 11
2596.205628
 21
798.538404
 31
0.0
  0
LINE
  5
104E9
100
AcDbEntity
  8
0
100
AcDbLine
 10
2601.514503
 20
783.913404
 30
0.0
 11
2575.308753
 21
783.913404
 31
0.0
  0
ARC
  5
104EA
100
AcDbEntity
  8
0
100
AcDbCircle
 10
2600.102066
 20
791.585627
 30
0.0
 40
7.354912
100
AcDbArc
 50
237.999511
 51
302.000489
  0
LINE
  5
10522
100
AcDbEntity
  8
0
100
AcDbLine
 10
2668.446968
 20
682.861707
 30
0.0
 11
2665.411628
 21
698.038404
 31
0.0
  0
LINE
  5
10523
100
AcDbEntity
  8
0
100
AcDbLine
 10
2508.376289
 20
682.861707
 30
0.0
 11
2511.411628
 21
698.038404
 31
0.0
  0
LINE
  5
10587
100
AcDbEntity
  8
0
100
AcDbLine
 10
2511.411628
 20
698.038404
 30
0.0
 11
2511.411628
 21
778.538404
 31
0.0
  0
LINE
  5
10588
100
AcDbEntity
  8
0
100
AcDbLine
 10
2665.411628
 20
698.038404
 30
0.0
 11
2665.411628
 21
778.538404
 31
0.0
  0
LINE
  5
10589
100
AcDbEntity
  8
0
100
AcDbLine
 10
2463.411628
 20
862.538404
 30
0.0
 11
2463.411628
 21
798.538404
 31
0.0
  0
LINE
  5
1058A
100
AcDbEntity
  8
0
100
AcDbLine
 10
2496.911628
 20
990.538404
 30
0.0
 11
2454.411628
 21
990.538404
 31
0.0
  0
LINE
  5
1058B
100
AcDbEntity
  8
0
100
AcDbLine
 10
2454.411628
 20
920.538404
 30
0.0
 11
2493.411628
 21
920.538404
 31
0.0
  0
LINE
  5
1058F
100
AcDbEntity
  8
0
100
AcDbLine
 10
2454.411628
 20
920.538404
 30
0.0
 11
2439.411628
 21
917.538404
 31
0.0
  0
LINE
  5
10590
100
AcDbEntity
  8
0
100
AcDbLine
 10
2439.411628
 20
993.538404
 30
0.0
 11
2454.411628
 21
990.538404
 31
0.0
  0
ARC
  5
10591
100
AcDbEntity
  8
0
100
AcDbCircle
 10
2627.398806
 20
1026.538404
 30
0.0
 40
10.0
100
AcDbArc
 50
178.530716
 51
270.0
  0
ARC
  5
10592
100
AcDbEntity
  8
0
100
AcDbCircle
 10
2588.411628
 20
1027.538404
 30
0.0
 40
29.0
100
AcDbArc
 50
358.530716
 51
191.365863
  0
ARC
  5
10593
100
AcDbEntity
  8
0
100
AcDbCircle
 10
2550.176466
 20
1019.852547
 30
0.0
 40
10.0
100
AcDbArc
 50
285.0
 51
11.365863
  0
LINE
  5
10594
100
AcDbEntity
  8
0
100
AcDbLine
 10
2552.764657
 20
1010.193289
 30
0.0
 11
2479.411628
 21
990.538404
 31
0.0
  0
CIRCLE
  5
10595
100
AcDbEntity
  8
0
100
AcDbCircle
 10
2588.411628
 20
1027.538404
 30
0.0
 40
11.0
  0
CIRCLE
  5
10596
100
AcDbEntity
  8
0
100
AcDbCircle
 10
2588.411628
 20
907.538404
 30
0.0
 40
22.5
  0
LINE
  5
10597
100
AcDbEntity
  8
0
100
AcDbLine
 10
2668.411628
 20
921.748488
 30
0.0
 11
2668.411628
 21
887.538404
 31
0.0
  0
LINE
  5
10598
100
AcDbEntity
  8
0
100
AcDbLine
 10
2508.411628
 20
905.538404
 30
0.0
 11
2508.411628
 21
887.538404
 31
0.0
  0
ARC
  5
10599
100
AcDbEntity
  8
0
100
AcDbCircle
 10
2641.411628
 20
942.538404
 30
0.0
 40
27.0
100
AcDbArc
 50
0.0
 51
90.0
  0
LINE
  5
1059A
100
AcDbEntity
  8
0
100
AcDbLine
 10
2535.411628
 20
969.538404
 30
0.0
 11
2641.411628
 21
969.538404
 31
0.0
  0
ARC
  5
1059B
100
AcDbEntity
  8
0
100
AcDbCircle
 10
2535.411628
 20
942.538404
 30
0.0
 40
27.0
100
AcDbArc
 50
90.0
 51
180.0
  0
ARC
  5
1059C
100
AcDbEntity
  8
0
100
AcDbCircle
 10
2496.911628
 20
930.538404
 30
0.0
 40
60.0
100
AcDbArc
 50
62.308858
 51
90.0
  0
LINE
  5
1059D
100
AcDbEntity
  8
0
100
AcDbLine
 10
2588.411628
 20
1016.538404
 30
0.0
 11
2646.63446
 21
1016.538404
 31
0.0
  0
ARC
  5
1059E
100
AcDbEntity
  8
0
100
AcDbCircle
 10
2674.411628
 20
921.748488
 30
0.0
 40
6.0
100
AcDbArc
 50
67.038663
 51
180.0
  0
ARC
  5
1059F
100
AcDbEntity
  8
0
100
AcDbCircle
 10
2572.411628
 20
979.159693
 30
0.0
 40
35.0
100
AcDbArc
 50
106.91239
 51
162.727435
  0
ARC
  5
105A0
100
AcDbEntity
  8
0
100
AcDbCircle
 10
2529.440989
 20
992.520988
 30
0.0
 40
10.0
100
AcDbArc
 50
242.308858
 51
342.727435
  0
ARC
  5
105A1
100
AcDbEntity
  8
0
100
AcDbCircle
 10
2588.411628
 20
926.538404
 30
0.0
 40
90.0
100
AcDbArc
 50
90.0
 51
106.91239
  0
ARC
  5
105A2
100
AcDbEntity
  8
0
100
AcDbCircle
 10
2493.411628
 20
905.538404
 30
0.0
 40
15.0
100
AcDbArc
 50
0.0
 51
90.0
  0
LINE
  5
105B1
100
AcDbEntity
  8
0
100
AcDbLine
 10
2713.411628
 20
862.538404
 30
0.0
 11
2713.411628
 21
798.538404
 31
0.0
  0
LINE
  5
105B5
100
AcDbEntity
  8
0
100
AcDbLine
 10
2722.411628
 20
990.538404
 30
0.0
 11
2709.911628
 21
990.538404
 31
0.0
  0
LINE
  5
105B6
100
AcDbEntity
  8
0
100
AcDbLine
 10
2719.626601
 20
921.09541
 30
0.0
 11
2737.411628
 21
917.538404
 31
0.0
  0
ARC
  5
105B8
100
AcDbEntity
  8
0
100
AcDbCircle
 10
2709.911628
 20
1005.538404
 30
0.0
 40
15.0
100
AcDbArc
 50
225.32539
 51
270.0
  0
LINE
  5
105B9
100
AcDbEntity
  8
0
100
AcDbLine
 10
2737.411628
 20
993.538404
 30
0.0
 11
2722.411628
 21
990.538404
 31
0.0
  0
LINE
  5
105BA
100
AcDbEntity
  8
0
100
AcDbLine
 10
2475.911628
 20
644.538404
 30
0.0
 11
2700.911628
 21
644.538404
 31
0.0
  0
LINE
  5
105BE
100
AcDbEntity
  8
0
100
AcDbLine
 10
2475.911628
 20
612.338404
 30
0.0
 11
2700.911628
 21
612.338404
 31
0.0
  0
LINE
  5
105BF
100
AcDbEntity
  8
0
100
AcDbLine
 10
2475.911628
 20
678.038404
 30
0.0
 11
2475.911628
 21
612.338404
 31
0.0
  0
LINE
  5
105C0
100
AcDbEntity
  8
0
100
AcDbLine
 10
2539.488529
 20
595.544522
 30
0.0
 11
2525.654529
 21
595.544522
 31
0.0
  0
ARC
  5
105C1
100
AcDbEntity
  8
0
100
AcDbCircle
 10
2532.571529
 20
624.273729
 30
0.0
 40
24.653145
100
AcDbArc
 50
253.680185
 51
286.319815
  0
LINE
  5
105C2
100
AcDbEntity
  8
0
100
AcDbLine
 10
2520.925029
 20
599.338404
 30
0.0
 11
2544.219029
 21
599.338404
 31
0.0
  0
LINE
  5
105C3
100
AcDbEntity
  8
0
100
AcDbLine
 10
2504.977759
 20
595.544522
 30
0.0
 11
2491.143759
 21
595.544522
 31
0.0
  0
ARC
  5
105C4
100
AcDbEntity
  8
0
100
AcDbCircle
 10
2498.060759
 20
624.273729
 30
0.0
 40
24.653145
100
AcDbArc
 50
253.680185
 51
286.319815
  0
LINE
  5
105C5
100
AcDbEntity
  8
0
100
AcDbLine
 10
2486.414259
 20
599.338404
 30
0.0
 11
2509.708259
 21
599.338404
 31
0.0
  0
LINE
  5
105C6
100
AcDbEntity
  8
0
100
AcDbLine
 10
2484.205259
 20
612.338404
 30
0.0
 11
2484.205259
 21
600.613904
 31
0.0
  0
LINE
  5
105C7
100
AcDbEntity
  8
0
100
AcDbLine
 10
2491.133259
 20
600.613904
 30
0.0
 11
2491.133259
 21
612.338404
 31
0.0
  0
ARC
  5
105C8
100
AcDbEntity
  8
0
100
AcDbCircle
 10
2487.669759
 20
606.158158
 30
0.0
 40
6.537699
100
AcDbArc
 50
237.999511
 51
302.000489
  0
LINE
  5
105C9
100
AcDbEntity
  8
0
100
AcDbLine
 10
2484.205259
 20
600.613904
 30
0.0
 11
2486.414259
 21
599.338404
 31
0.0
  0
LINE
  5
105CA
100
AcDbEntity
  8
0
100
AcDbLine
 10
2491.143759
 20
595.544522
 30
0.0
 11
2490.060759
 21
596.627522
 31
0.0
  0
LINE
  5
105CB
100
AcDbEntity
  8
0
100
AcDbLine
 10
2490.060759
 20
596.627522
 30
0.0
 11
2490.060759
 21
599.338404
 31
0.0
  0
LINE
  5
105CC
100
AcDbEntity
  8
0
100
AcDbLine
 10
2525.644029
 20
600.613904
 30
0.0
 11
2525.644029
 21
612.338404
 31
0.0
  0
LINE
  5
105CD
100
AcDbEntity
  8
0
100
AcDbLine
 10
2518.716029
 20
612.338404
 30
0.0
 11
2518.716029
 21
600.613904
 31
0.0
  0
LINE
  5
105CE
100
AcDbEntity
  8
0
100
AcDbLine
 10
2511.917259
 20
600.613904
 30
0.0
 11
2511.917259
 21
612.338404
 31
0.0
  0
LINE
  5
105CF
100
AcDbEntity
  8
0
100
AcDbLine
 10
2525.654529
 20
595.544522
 30
0.0
 11
2524.571529
 21
596.627522
 31
0.0
  0
ARC
  5
105D0
100
AcDbEntity
  8
0
100
AcDbCircle
 10
2522.180529
 20
606.158158
 30
0.0
 40
6.537699
100
AcDbArc
 50
237.999511
 51
302.000489
  0
LINE
  5
105D1
100
AcDbEntity
  8
0
100
AcDbLine
 10
2518.716029
 20
600.613904
 30
0.0
 11
2520.925029
 21
599.338404
 31
0.0
  0
LINE
  5
105D2
100
AcDbEntity
  8
0
100
AcDbLine
 10
2524.571529
 20
596.627522
 30
0.0
 11
2524.571529
 21
599.338404
 31
0.0
  0
LINE
  5
105D3
100
AcDbEntity
  8
0
100
AcDbLine
 10
2509.708259
 20
599.338404
 30
0.0
 11
2511.917259
 21
600.613904
 31
0.0
  0
LINE
  5
105D4
100
AcDbEntity
  8
0
100
AcDbLine
 10
2504.988259
 20
600.613904
 30
0.0
 11
2504.988259
 21
612.338404
 31
0.0
  0
LINE
  5
105D5
100
AcDbEntity
  8
0
100
AcDbLine
 10
2506.060759
 20
596.627522
 30
0.0
 11
2504.977759
 21
595.544522
 31
0.0
  0
LINE
  5
105D6
100
AcDbEntity
  8
0
100
AcDbLine
 10
2506.060759
 20
599.338404
 30
0.0
 11
2506.060759
 21
596.627522
 31
0.0
  0
ARC
  5
105D7
100
AcDbEntity
  8
0
100
AcDbCircle
 10
2508.452759
 20
606.158158
 30
0.0
 40
6.537699
100
AcDbArc
 50
237.999511
 51
302.000489
  0
LINE
  5
105DA
100
AcDbEntity
  8
0
100
AcDbLine
 10
2546.428029
 20
600.613904
 30
0.0
 11
2546.428029
 21
612.338404
 31
0.0
  0
LINE
  5
105DB
100
AcDbEntity
  8
0
100
AcDbLine
 10
2544.219029
 20
599.338404
 30
0.0
 11
2546.428029
 21
600.613904
 31
0.0
  0
LINE
  5
105E0
100
AcDbEntity
  8
0
100
AcDbLine
 10
2539.499029
 20
600.613904
 30
0.0
 11
2539.499029
 21
612.338404
 31
0.0
  0
LINE
  5
105E1
100
AcDbEntity
  8
0
100
AcDbLine
 10
2540.571529
 20
596.627522
 30
0.0
 11
2539.488529
 21
595.544522
 31
0.0
  0
LINE
  5
105E2
100
AcDbEntity
  8
0
100
AcDbLine
 10
2540.571529
 20
599.338404
 30
0.0
 11
2540.571529
 21
596.627522
 31
0.0
  0
ARC
  5
105E3
100
AcDbEntity
  8
0
100
AcDbCircle
 10
2542.963529
 20
606.158158
 30
0.0
 40
6.537699
100
AcDbArc
 50
237.999511
 51
302.000489
  0
LINE
  5
105E4
100
AcDbEntity
  8
0
100
AcDbLine
 10
2602.267628
 20
600.613904
 30
0.0
 11
2602.267628
 21
612.338404
 31
0.0
  0
LINE
  5
105E5
100
AcDbEntity
  8
0
100
AcDbLine
 10
2595.338628
 20
600.613904
 30
0.0
 11
2595.338628
 21
612.338404
 31
0.0
  0
LINE
  5
105E6
100
AcDbEntity
  8
0
100
AcDbLine
 10
2581.483628
 20
600.613904
 30
0.0
 11
2581.483628
 21
612.338404
 31
0.0
  0
LINE
  5
105E7
100
AcDbEntity
  8
0
100
AcDbLine
 10
2595.328128
 20
595.544522
 30
0.0
 11
2581.494128
 21
595.544522
 31
0.0
  0
ARC
  5
105E8
100
AcDbEntity
  8
0
100
AcDbCircle
 10
2588.411128
 20
624.273729
 30
0.0
 40
24.653145
100
AcDbArc
 50
253.680185
 51
286.319815
  0
LINE
  5
105E9
100
AcDbEntity
  8
0
100
AcDbLine
 10
2581.494128
 20
595.544522
 30
0.0
 11
2580.411128
 21
596.627522
 31
0.0
  0
LINE
  5
105EA
100
AcDbEntity
  8
0
100
AcDbLine
 10
2580.411128
 20
596.627522
 30
0.0
 11
2580.411128
 21
599.338404
 31
0.0
  0
LINE
  5
105F1
100
AcDbEntity
  8
0
100
AcDbLine
 10
2596.411128
 20
596.627522
 30
0.0
 11
2595.328128
 21
595.544522
 31
0.0
  0
LINE
  5
105F2
100
AcDbEntity
  8
0
100
AcDbLine
 10
2596.411128
 20
599.338404
 30
0.0
 11
2596.411128
 21
596.627522
 31
0.0
  0
ARC
  5
105F3
100
AcDbEntity
  8
0
100
AcDbCircle
 10
2598.803128
 20
606.158158
 30
0.0
 40
6.537699
100
AcDbArc
 50
237.999511
 51
302.000489
  0
LINE
  5
105F4
100
AcDbEntity
  8
0
100
AcDbLine
 10
2600.058628
 20
599.338404
 30
0.0
 11
2602.267628
 21
600.613904
 31
0.0
  0
LINE
  5
105F5
100
AcDbEntity
  8
0
100
AcDbLine
 10
2574.555628
 20
612.338404
 30
0.0
 11
2574.555628
 21
600.613904
 31
0.0
  0
LINE
  5
105F6
100
AcDbEntity
  8
0
100
AcDbLine
 10
2574.555628
 20
600.613904
 30
0.0
 11
2576.764628
 21
599.338404
 31
0.0
  0
LINE
  5
105F7
100
AcDbEntity
  8
0
100
AcDbLine
 10
2576.764628
 20
599.338404
 30
0.0
 11
2600.058628
 21
599.338404
 31
0.0
  0
ARC
  5
105F8
100
AcDbEntity
  8
0
100
AcDbCircle
 10
2578.020128
 20
606.158158
 30
0.0
 40
6.537699
100
AcDbArc
 50
237.999511
 51
302.000489
  0
LINE
  5
105F9
100
AcDbEntity
  8
0
100
AcDbLine
 10
2539.488529
 20
680.544522
 30
0.0
 11
2525.654529
 21
680.544522
 31
0.0
  0
LINE
  5
105FA
100
AcDbEntity
  8
0
100
AcDbLine
 10
2504.977759
 20
680.544522
 30
0.0
 11
2491.143759
 21
680.544522
 31
0.0
  0
LINE
  5
105FB
100
AcDbEntity
  8
0
100
AcDbLine
 10
2490.060759
 20
679.461522
 30
0.0
 11
2491.143759
 21
680.544522
 31
0.0
  0
LINE
  5
105FC
100
AcDbEntity
  8
0
100
AcDbLine
 10
2490.060759
 20
678.038404
 30
0.0
 11
2490.060759
 21
679.461522
 31
0.0
  0
LINE
  5
105FD
100
AcDbEntity
  8
0
100
AcDbLine
 10
2524.571529
 20
679.461522
 30
0.0
 11
2525.654529
 21
680.544522
 31
0.0
  0
LINE
  5
105FE
100
AcDbEntity
  8
0
100
AcDbLine
 10
2524.571529
 20
678.038404
 30
0.0
 11
2524.571529
 21
679.461522
 31
0.0
  0
LINE
  5
105FF
100
AcDbEntity
  8
0
100
AcDbLine
 10
2506.060759
 20
679.461522
 30
0.0
 11
2504.977759
 21
680.544522
 31
0.0
  0
LINE
  5
10600
100
AcDbEntity
  8
0
100
AcDbLine
 10
2506.060759
 20
679.461522
 30
0.0
 11
2506.060759
 21
678.038404
 31
0.0
  0
LINE
  5
10602
100
AcDbEntity
  8
0
100
AcDbLine
 10
2540.571529
 20
679.461522
 30
0.0
 11
2539.488529
 21
680.544522
 31
0.0
  0
LINE
  5
10603
100
AcDbEntity
  8
0
100
AcDbLine
 10
2540.571529
 20
679.461522
 30
0.0
 11
2540.571529
 21
678.038404
 31
0.0
  0
LINE
  5
10604
100
AcDbEntity
  8
0
100
AcDbLine
 10
2595.328128
 20
680.544522
 30
0.0
 11
2581.494128
 21
680.544522
 31
0.0
  0
LINE
  5
10605
100
AcDbEntity
  8
0
100
AcDbLine
 10
2580.411128
 20
679.461522
 30
0.0
 11
2581.494128
 21
680.544522
 31
0.0
  0
LINE
  5
10606
100
AcDbEntity
  8
0
100
AcDbLine
 10
2580.411128
 20
678.038404
 30
0.0
 11
2580.411128
 21
679.461522
 31
0.0
  0
LINE
  5
10607
100
AcDbEntity
  8
0
100
AcDbLine
 10
2596.411128
 20
679.461522
 30
0.0
 11
2595.328128
 21
680.544522
 31
0.0
  0
LINE
  5
10608
100
AcDbEntity
  8
0
100
AcDbLine
 10
2596.411128
 20
679.461522
 30
0.0
 11
2596.411128
 21
678.038404
 31
0.0
  0
LINE
  5
10609
100
AcDbEntity
  8
0
100
AcDbLine
 10
2700.911628
 20
678.038404
 30
0.0
 11
2700.911628
 21
612.338404
 31
0.0
  0
LINE
  5
1060A
100
AcDbEntity
  8
0
100
AcDbLine
 10
2685.678497
 20
595.544522
 30
0.0
 11
2671.844497
 21
595.544522
 31
0.0
  0
ARC
  5
1060B
100
AcDbEntity
  8
0
100
AcDbCircle
 10
2678.761497
 20
624.273729
 30
0.0
 40
24.653145
100
AcDbArc
 50
253.680185
 51
286.319815
  0
LINE
  5
1060C
100
AcDbEntity
  8
0
100
AcDbLine
 10
2667.114997
 20
599.338404
 30
0.0
 11
2690.408997
 21
599.338404
 31
0.0
  0
LINE
  5
1060D
100
AcDbEntity
  8
0
100
AcDbLine
 10
2651.167727
 20
595.544522
 30
0.0
 11
2637.333727
 21
595.544522
 31
0.0
  0
ARC
  5
1060E
100
AcDbEntity
  8
0
100
AcDbCircle
 10
2644.250727
 20
624.273729
 30
0.0
 40
24.653145
100
AcDbArc
 50
253.680185
 51
286.319815
  0
LINE
  5
10610
100
AcDbEntity
  8
0
100
AcDbLine
 10
2632.604227
 20
599.338404
 30
0.0
 11
2655.898227
 21
599.338404
 31
0.0
  0
LINE
  5
10611
100
AcDbEntity
  8
0
100
AcDbLine
 10
2637.323227
 20
600.613904
 30
0.0
 11
2637.323227
 21
612.338404
 31
0.0
  0
LINE
  5
10612
100
AcDbEntity
  8
0
100
AcDbLine
 10
2630.395227
 20
612.338404
 30
0.0
 11
2630.395227
 21
600.613904
 31
0.0
  0
ARC
  5
10613
100
AcDbEntity
  8
0
100
AcDbCircle
 10
2633.859727
 20
606.158158
 30
0.0
 40
6.537699
100
AcDbArc
 50
237.999511
 51
302.000489
  0
LINE
  5
10614
100
AcDbEntity
  8
0
100
AcDbLine
 10
2630.395227
 20
600.613904
 30
0.0
 11
2632.604227
 21
599.338404
 31
0.0
  0
LINE
  5
10615
100
AcDbEntity
  8
0
100
AcDbLine
 10
2636.250727
 20
596.627522
 30
0.0
 11
2636.250727
 21
599.338404
 31
0.0
  0
LINE
  5
10616
100
AcDbEntity
  8
0
100
AcDbLine
 10
2637.333727
 20
595.544522
 30
0.0
 11
2636.250727
 21
596.627522
 31
0.0
  0
LINE
  5
10619
100
AcDbEntity
  8
0
100
AcDbLine
 10
2671.833997
 20
600.613904
 30
0.0
 11
2671.833997
 21
612.338404
 31
0.0
  0
LINE
  5
1061A
100
AcDbEntity
  8
0
100
AcDbLine
 10
2658.107227
 20
600.613904
 30
0.0
 11
2658.107227
 21
612.338404
 31
0.0
  0
LINE
  5
1061B
100
AcDbEntity
  8
0
100
AcDbLine
 10
2664.905997
 20
612.338404
 30
0.0
 11
2664.905997
 21
600.613904
 31
0.0
  0
LINE
  5
1061D
100
AcDbEntity
  8
0
100
AcDbLine
 10
2671.844497
 20
595.544522
 30
0.0
 11
2670.761497
 21
596.627522
 31
0.0
  0
LINE
  5
1061E
100
AcDbEntity
  8
0
100
AcDbLine
 10
2670.761497
 20
596.627522
 30
0.0
 11
2670.761497
 21
599.338404
 31
0.0
  0
LINE
  5
1061F
100
AcDbEntity
  8
0
100
AcDbLine
 10
2655.898227
 20
599.338404
 30
0.0
 11
2658.107227
 21
600.613904
 31
0.0
  0
LINE
  5
10620
100
AcDbEntity
  8
0
100
AcDbLine
 10
2652.250727
 20
599.338404
 30
0.0
 11
2652.250727
 21
596.627522
 31
0.0
  0
LINE
  5
10621
100
AcDbEntity
  8
0
100
AcDbLine
 10
2664.905997
 20
600.613904
 30
0.0
 11
2667.114997
 21
599.338404
 31
0.0
  0
ARC
  5
10622
100
AcDbEntity
  8
0
100
AcDbCircle
 10
2668.370497
 20
606.158158
 30
0.0
 40
6.537699
100
AcDbArc
 50
237.999511
 51
302.000489
  0
LINE
  5
10623
100
AcDbEntity
  8
0
100
AcDbLine
 10
2651.178227
 20
600.613904
 30
0.0
 11
2651.178227
 21
612.338404
 31
0.0
  0
LINE
  5
10624
100
AcDbEntity
  8
0
100
AcDbLine
 10
2652.250727
 20
596.627522
 30
0.0
 11
2651.167727
 21
595.544522
 31
0.0
  0
ARC
  5
10625
100
AcDbEntity
  8
0
100
AcDbCircle
 10
2654.642727
 20
606.158158
 30
0.0
 40
6.537699
100
AcDbArc
 50
237.999511
 51
302.000489
  0
LINE
  5
10627
100
AcDbEntity
  8
0
100
AcDbLine
 10
2692.617997
 20
600.613904
 30
0.0
 11
2692.617997
 21
612.338404
 31
0.0
  0
LINE
  5
10628
100
AcDbEntity
  8
0
100
AcDbLine
 10
2690.408997
 20
599.338404
 30
0.0
 11
2692.617997
 21
600.613904
 31
0.0
  0
LINE
  5
10629
100
AcDbEntity
  8
0
100
AcDbLine
 10
2685.688997
 20
600.613904
 30
0.0
 11
2685.688997
 21
612.338404
 31
0.0
  0
LINE
  5
1062A
100
AcDbEntity
  8
0
100
AcDbLine
 10
2686.761497
 20
596.627522
 30
0.0
 11
2685.678497
 21
595.544522
 31
0.0
  0
LINE
  5
1062B
100
AcDbEntity
  8
0
100
AcDbLine
 10
2686.761497
 20
599.338404
 30
0.0
 11
2686.761497
 21
596.627522
 31
0.0
  0
ARC
  5
1062C
100
AcDbEntity
  8
0
100
AcDbCircle
 10
2689.153497
 20
606.158158
 30
0.0
 40
6.537699
100
AcDbArc
 50
237.999511
 51
302.000489
  0
LINE
  5
1062D
100
AcDbEntity
  8
0
100
AcDbLine
 10
2685.678497
 20
680.544522
 30
0.0
 11
2671.844497
 21
680.544522
 31
0.0
  0
LINE
  5
1062E
100
AcDbEntity
  8
0
100
AcDbLine
 10
2651.167727
 20
680.544522
 30
0.0
 11
2637.333727
 21
680.544522
 31
0.0
  0
LINE
  5
1062F
100
AcDbEntity
  8
0
100
AcDbLine
 10
2636.250727
 20
678.038404
 30
0.0
 11
2636.250727
 21
679.461522
 31
0.0
  0
LINE
  5
10630
100
AcDbEntity
  8
0
100
AcDbLine
 10
2636.250727
 20
679.461522
 30
0.0
 11
2637.333727
 21
680.544522
 31
0.0
  0
LINE
  5
10631
100
AcDbEntity
  8
0
100
AcDbLine
 10
2670.761497
 20
679.461522
 30
0.0
 11
2671.844497
 21
680.544522
 31
0.0
  0
LINE
  5
10632
100
AcDbEntity
  8
0
100
AcDbLine
 10
2670.761497
 20
678.038404
 30
0.0
 11
2670.761497
 21
679.461522
 31
0.0
  0
LINE
  5
10633
100
AcDbEntity
  8
0
100
AcDbLine
 10
2652.250727
 20
679.461522
 30
0.0
 11
2652.250727
 21
678.038404
 31
0.0
  0
LINE
  5
10635
100
AcDbEntity
  8
0
100
AcDbLine
 10
2652.250727
 20
679.461522
 30
0.0
 11
2651.167727
 21
680.544522
 31
0.0
  0
LINE
  5
10636
100
AcDbEntity
  8
0
100
AcDbLine
 10
2686.761497
 20
679.461522
 30
0.0
 11
2685.678497
 21
680.544522
 31
0.0
  0
LINE
  5
10637
100
AcDbEntity
  8
0
100
AcDbLine
 10
2686.761497
 20
679.461522
 30
0.0
 11
2686.761497
 21
678.038404
 31
0.0
  0
ARC
  5
10638
100
AcDbEntity
  8
0
100
AcDbCircle
 10
2502.492805
 20
684.038404
 30
0.0
 40
6.0
100
AcDbArc
 50
306.488331
 51
348.690068
  0
ARC
  5
10639
100
AcDbEntity
  8
0
100
AcDbCircle
 10
2674.330452
 20
684.038404
 30
0.0
 40
6.0
100
AcDbArc
 50
191.309932
 51
233.511669
  0
CIRCLE
  5
10648
100
AcDbEntity
  8
0
100
AcDbCircle
 10
2526.694177
 20
1433.796925
 30
0.0
 40
9.0
  0
ARC
  5
1064A
100
AcDbEntity
  8
0
100
AcDbCircle
 10
2488.550694
 20
1381.296925
 30
0.0
 40
9.0
100
AcDbArc
 50
16.480597
 51
163.519403
  0
ARC
  5
1064C
100
AcDbEntity
  8
0
100
AcDbCircle
 10
2488.550694
 20
1316.403356
 30
0.0
 40
9.0
100
AcDbArc
 50
196.480597
 51
343.519403
  0
CIRCLE
  5
1064E
100
AcDbEntity
  8
0
100
AcDbCircle
 10
2526.694177
 20
1263.903356
 30
0.0
 40
9.0
  0
CIRCLE
  5
10650
100
AcDbEntity
  8
0
100
AcDbCircle
 10
2588.411628
 20
1243.850141
 30
0.0
 40
9.0
  0
CIRCLE
  5
10652
100
AcDbEntity
  8
0
100
AcDbCircle
 10
2650.12908
 20
1263.903356
 30
0.0
 40
9.0
  0
ARC
  5
10654
100
AcDbEntity
  8
0
100
AcDbCircle
 10
2688.272562
 20
1316.403356
 30
0.0
 40
9.0
100
AcDbArc
 50
196.480597
 51
343.519403
  0
ARC
  5
10656
100
AcDbEntity
  8
0
100
AcDbCircle
 10
2688.272562
 20
1381.296925
 30
0.0
 40
9.0
100
AcDbArc
 50
16.480597
 51
163.519403
  0
CIRCLE
  5
10658
100
AcDbEntity
  8
0
100
AcDbCircle
 10
2650.12908
 20
1433.796925
 30
0.0
 40
9.0
  0
LINE
  5
1065A
100
AcDbEntity
  8
0
100
AcDbLine
 10
2439.411628
 20
1426.350141
 30
0.0
 11
2421.411628
 21
1426.350141
 31
0.0
  0
LINE
  5
1065B
100
AcDbEntity
  8
0
100
AcDbLine
 10
2439.411628
 20
1271.350141
 30
0.0
 11
2421.411628
 21
1271.350141
 31
0.0
  0
LINE
  5
1065C
100
AcDbEntity
  8
0
100
AcDbLine
 10
2737.411628
 20
1426.350141
 30
0.0
 11
2737.411628
 21
1271.350141
 31
0.0
  0
LINE
  5
1065D
100
AcDbEntity
  8
0
100
AcDbLine
 10
2755.411628
 20
1426.350141
 30
0.0
 11
2755.411628
 21
1348.850141
 31
0.0
  0
LINE
  5
1065E
100
AcDbEntity
  8
0
100
AcDbLine
 10
2737.411628
 20
1271.350141
 30
0.0
 11
2755.411628
 21
1271.350141
 31
0.0
  0
LINE
  5
1065F
100
AcDbEntity
  8
0
100
AcDbLine
 10
2755.411628
 20
1348.850141
 30
0.0
 11
2755.411628
 21
1271.350141
 31
0.0
  0
LINE
  5
10660
100
AcDbEntity
  8
0
100
AcDbLine
 10
2737.411628
 20
1426.350141
 30
0.0
 11
2755.411628
 21
1426.350141
 31
0.0
  0
LINE
  5
10665
100
AcDbEntity
  8
0
100
AcDbLine
 10
2517.694177
 20
865.820029
 30
0.0
 11
2518.912552
 21
867.038404
 31
0.0
  0
LINE
  5
10666
100
AcDbEntity
  8
0
100
AcDbLine
 10
2534.475802
 20
867.038404
 30
0.0
 11
2535.694177
 21
865.820029
 31
0.0
  0
ARC
  5
10668
100
AcDbEntity
  8
0
100
AcDbCircle
 10
2526.694739
 20
811.965644
 30
0.0
 40
27.734788
100
AcDbArc
 50
253.680185
 51
286.319815
  0
LINE
  5
1066A
100
AcDbEntity
  8
0
100
AcDbLine
 10
2518.912552
 20
779.413404
 30
0.0
 11
2534.475802
 21
779.413404
 31
0.0
  0
LINE
  5
1066B
100
AcDbEntity
  8
0
100
AcDbLine
 10
2539.797052
 20
783.913404
 30
0.0
 11
2513.591302
 21
783.913404
 31
0.0
  0
LINE
  5
1066C
100
AcDbEntity
  8
0
100
AcDbLine
 10
2517.694177
 20
783.913404
 30
0.0
 11
2517.694177
 21
780.631779
 31
0.0
  0
LINE
  5
1066D
100
AcDbEntity
  8
0
100
AcDbLine
 10
2517.694177
 20
780.631779
 30
0.0
 11
2518.912552
 21
779.413404
 31
0.0
  0
LINE
  5
1066E
100
AcDbEntity
  8
0
100
AcDbLine
 10
2518.901302
 20
785.348342
 30
0.0
 11
2518.901302
 21
798.538404
 31
0.0
  0
LINE
  5
1066F
100
AcDbEntity
  8
0
100
AcDbLine
 10
2513.591302
 20
783.913404
 30
0.0
 11
2511.106177
 21
785.348342
 31
0.0
  0
LINE
  5
10670
100
AcDbEntity
  8
0
100
AcDbLine
 10
2511.106177
 20
785.348342
 30
0.0
 11
2511.106177
 21
798.538404
 31
0.0
  0
ARC
  5
10671
100
AcDbEntity
  8
0
100
AcDbCircle
 10
2515.003739
 20
791.585627
 30
0.0
 40
7.354912
100
AcDbArc
 50
237.999511
 51
302.000489
  0
LINE
  5
10672
100
AcDbEntity
  8
0
100
AcDbLine
 10
2517.694177
 20
862.538404
 30
0.0
 11
2517.694177
 21
865.820029
 31
0.0
  0
LINE
  5
10673
100
AcDbEntity
  8
0
100
AcDbLine
 10
2542.282177
 20
785.348342
 30
0.0
 11
2539.797052
 21
783.913404
 31
0.0
  0
LINE
  5
10674
100
AcDbEntity
  8
0
100
AcDbLine
 10
2542.282177
 20
798.538404
 30
0.0
 11
2542.282177
 21
785.348342
 31
0.0
  0
LINE
  5
10675
100
AcDbEntity
  8
0
100
AcDbLine
 10
2535.694177
 20
780.631779
 30
0.0
 11
2535.694177
 21
783.913404
 31
0.0
  0
LINE
  5
10676
100
AcDbEntity
  8
0
100
AcDbLine
 10
2534.475802
 20
779.413404
 30
0.0
 11
2535.694177
 21
780.631779
 31
0.0
  0
LINE
  5
10677
100
AcDbEntity
  8
0
100
AcDbLine
 10
2534.488177
 20
785.348342
 30
0.0
 11
2534.488177
 21
798.538404
 31
0.0
  0
ARC
  5
10678
100
AcDbEntity
  8
0
100
AcDbCircle
 10
2538.384614
 20
791.585627
 30
0.0
 40
7.354912
100
AcDbArc
 50
237.999511
 51
302.000489
  0
LINE
  5
10679
100
AcDbEntity
  8
0
100
AcDbLine
 10
2535.694177
 20
865.820029
 30
0.0
 11
2535.694177
 21
862.538404
 31
0.0
  0
LINE
  5
1067A
100
AcDbEntity
  8
0
100
AcDbLine
 10
2518.912552
 20
867.038404
 30
0.0
 11
2534.475802
 21
867.038404
 31
0.0
  0
LINE
  5
1067B
100
AcDbEntity
  8
0
100
AcDbLine
 10
2479.550694
 20
865.820029
 30
0.0
 11
2480.769069
 21
867.038404
 31
0.0
  0
LINE
  5
1067C
100
AcDbEntity
  8
0
100
AcDbLine
 10
2496.332319
 20
867.038404
 30
0.0
 11
2497.550694
 21
865.820029
 31
0.0
  0
ARC
  5
1067E
100
AcDbEntity
  8
0
100
AcDbCircle
 10
2488.551257
 20
811.965644
 30
0.0
 40
27.734788
100
AcDbArc
 50
253.680185
 51
286.319815
  0
LINE
  5
10680
100
AcDbEntity
  8
0
100
AcDbLine
 10
2480.769069
 20
779.413404
 30
0.0
 11
2496.332319
 21
779.413404
 31
0.0
  0
LINE
  5
10681
100
AcDbEntity
  8
0
100
AcDbLine
 10
2501.653569
 20
783.913404
 30
0.0
 11
2475.447819
 21
783.913404
 31
0.0
  0
LINE
  5
10682
100
AcDbEntity
  8
0
100
AcDbLine
 10
2479.550694
 20
783.913404
 30
0.0
 11
2479.550694
 21
780.631779
 31
0.0
  0
LINE
  5
10683
100
AcDbEntity
  8
0
100
AcDbLine
 10
2479.550694
 20
780.631779
 30
0.0
 11
2480.769069
 21
779.413404
 31
0.0
  0
LINE
  5
10684
100
AcDbEntity
  8
0
100
AcDbLine
 10
2480.757819
 20
785.348342
 30
0.0
 11
2480.757819
 21
798.538404
 31
0.0
  0
LINE
  5
10685
100
AcDbEntity
  8
0
100
AcDbLine
 10
2475.447819
 20
783.913404
 30
0.0
 11
2472.962694
 21
785.348342
 31
0.0
  0
LINE
  5
10686
100
AcDbEntity
  8
0
100
AcDbLine
 10
2472.962694
 20
785.348342
 30
0.0
 11
2472.962694
 21
798.538404
 31
0.0
  0
ARC
  5
10687
100
AcDbEntity
  8
0
100
AcDbCircle
 10
2476.860257
 20
791.585627
 30
0.0
 40
7.354912
100
AcDbArc
 50
237.999511
 51
302.000489
  0
LINE
  5
10688
100
AcDbEntity
  8
0
100
AcDbLine
 10
2479.550694
 20
862.538404
 30
0.0
 11
2479.550694
 21
865.820029
 31
0.0
  0
LINE
  5
10689
100
AcDbEntity
  8
0
100
AcDbLine
 10
2504.138694
 20
785.348342
 30
0.0
 11
2501.653569
 21
783.913404
 31
0.0
  0
LINE
  5
1068A
100
AcDbEntity
  8
0
100
AcDbLine
 10
2504.138694
 20
798.538404
 30
0.0
 11
2504.138694
 21
785.348342
 31
0.0
  0
LINE
  5
1068B
100
AcDbEntity
  8
0
100
AcDbLine
 10
2497.550694
 20
780.631779
 30
0.0
 11
2497.550694
 21
783.913404
 31
0.0
  0
LINE
  5
1068C
100
AcDbEntity
  8
0
100
AcDbLine
 10
2496.332319
 20
779.413404
 30
0.0
 11
2497.550694
 21
780.631779
 31
0.0
  0
LINE
  5
1068D
100
AcDbEntity
  8
0
100
AcDbLine
 10
2496.344694
 20
785.348342
 30
0.0
 11
2496.344694
 21
798.538404
 31
0.0
  0
ARC
  5
1068E
100
AcDbEntity
  8
0
100
AcDbCircle
 10
2500.241132
 20
791.585627
 30
0.0
 40
7.354912
100
AcDbArc
 50
237.999511
 51
302.000489
  0
LINE
  5
1068F
100
AcDbEntity
  8
0
100
AcDbLine
 10
2497.550694
 20
865.820029
 30
0.0
 11
2497.550694
 21
862.538404
 31
0.0
  0
LINE
  5
10690
100
AcDbEntity
  8
0
100
AcDbLine
 10
2480.769069
 20
867.038404
 30
0.0
 11
2496.332319
 21
867.038404
 31
0.0
  0
LINE
  5
10691
100
AcDbEntity
  8
0
100
AcDbLine
 10
2680.490937
 20
867.038404
 30
0.0
 11
2679.272562
 21
865.820029
 31
0.0
  0
LINE
  5
10692
100
AcDbEntity
  8
0
100
AcDbLine
 10
2697.272562
 20
865.820029
 30
0.0
 11
2696.054187
 21
867.038404
 31
0.0
  0
ARC
  5
10693
100
AcDbEntity
  8
0
100
AcDbCircle
 10
2699.963
 20
791.585627
 30
0.0
 40
7.354912
100
AcDbArc
 50
237.999511
 51
302.000489
  0
LINE
  5
10694
100
AcDbEntity
  8
0
100
AcDbLine
 10
2701.375437
 20
783.913404
 30
0.0
 11
2703.860562
 21
785.348342
 31
0.0
  0
LINE
  5
10695
100
AcDbEntity
  8
0
100
AcDbLine
 10
2703.860562
 20
785.348342
 30
0.0
 11
2703.860562
 21
798.538404
 31
0.0
  0
ARC
  5
10696
100
AcDbEntity
  8
0
100
AcDbCircle
 10
2676.582125
 20
791.585627
 30
0.0
 40
7.354912
100
AcDbArc
 50
237.999511
 51
302.000489
  0
LINE
  5
10697
100
AcDbEntity
  8
0
100
AcDbLine
 10
2680.478562
 20
785.348342
 30
0.0
 11
2680.478562
 21
798.538404
 31
0.0
  0
LINE
  5
10698
100
AcDbEntity
  8
0
100
AcDbLine
 10
2680.490937
 20
779.413404
 30
0.0
 11
2679.272562
 21
780.631779
 31
0.0
  0
LINE
  5
10699
100
AcDbEntity
  8
0
100
AcDbLine
 10
2679.272562
 20
780.631779
 30
0.0
 11
2679.272562
 21
783.913404
 31
0.0
  0
LINE
  5
1069A
100
AcDbEntity
  8
0
100
AcDbLine
 10
2672.684562
 20
798.538404
 30
0.0
 11
2672.684562
 21
785.348342
 31
0.0
  0
LINE
  5
1069B
100
AcDbEntity
  8
0
100
AcDbLine
 10
2672.684562
 20
785.348342
 30
0.0
 11
2675.169687
 21
783.913404
 31
0.0
  0
LINE
  5
1069C
100
AcDbEntity
  8
0
100
AcDbLine
 10
2696.065437
 20
785.348342
 30
0.0
 11
2696.065437
 21
798.538404
 31
0.0
  0
LINE
  5
1069D
100
AcDbEntity
  8
0
100
AcDbLine
 10
2697.272562
 20
780.631779
 30
0.0
 11
2696.054187
 21
779.413404
 31
0.0
  0
LINE
  5
1069E
100
AcDbEntity
  8
0
100
AcDbLine
 10
2697.272562
 20
783.913404
 30
0.0
 11
2697.272562
 21
780.631779
 31
0.0
  0
LINE
  5
1069F
100
AcDbEntity
  8
0
100
AcDbLine
 10
2675.169687
 20
783.913404
 30
0.0
 11
2701.375437
 21
783.913404
 31
0.0
  0
LINE
  5
106A0
100
AcDbEntity
  8
0
100
AcDbLine
 10
2696.054187
 20
779.413404
 30
0.0
 11
2680.490937
 21
779.413404
 31
0.0
  0
ARC
  5
106A2
100
AcDbEntity
  8
0
100
AcDbCircle
 10
2688.272
 20
811.965644
 30
0.0
 40
27.734788
100
AcDbArc
 50
253.680185
 51
286.319815
  0
LINE
  5
106A3
100
AcDbEntity
  8
0
100
AcDbLine
 10
2679.272562
 20
865.820029
 30
0.0
 11
2679.272562
 21
862.538404
 31
0.0
  0
LINE
  5
106A4
100
AcDbEntity
  8
0
100
AcDbLine
 10
2697.272562
 20
862.538404
 30
0.0
 11
2697.272562
 21
865.820029
 31
0.0
  0
LINE
  5
106A6
100
AcDbEntity
  8
0
100
AcDbLine
 10
2696.054187
 20
867.038404
 30
0.0
 11
2680.490937
 21
867.038404
 31
0.0
  0
LINE
  5
106A7
100
AcDbEntity
  8
0
100
AcDbLine
 10
2642.347455
 20
867.038404
 30
0.0
 11
2641.12908
 21
865.820029
 31
0.0
  0
LINE
  5
106A8
100
AcDbEntity
  8
0
100
AcDbLine
 10
2659.12908
 20
865.820029
 30
0.0
 11
2657.910705
 21
867.038404
 31
0.0
  0
ARC
  5
106A9
100
AcDbEntity
  8
0
100
AcDbCircle
 10
2638.438642
 20
791.585627
 30
0.0
 40
7.354912
100
AcDbArc
 50
237.999511
 51
302.000489
  0
LINE
  5
106AA
100
AcDbEntity
  8
0
100
AcDbLine
 10
2642.33508
 20
785.348342
 30
0.0
 11
2642.33508
 21
798.538404
 31
0.0
  0
LINE
  5
106AB
100
AcDbEntity
  8
0
100
AcDbLine
 10
2642.347455
 20
779.413404
 30
0.0
 11
2641.12908
 21
780.631779
 31
0.0
  0
LINE
  5
106AC
100
AcDbEntity
  8
0
100
AcDbLine
 10
2641.12908
 20
780.631779
 30
0.0
 11
2641.12908
 21
783.913404
 31
0.0
  0
LINE
  5
106AD
100
AcDbEntity
  8
0
100
AcDbLine
 10
2634.54108
 20
798.538404
 30
0.0
 11
2634.54108
 21
785.348342
 31
0.0
  0
LINE
  5
106AE
100
AcDbEntity
  8
0
100
AcDbLine
 10
2634.54108
 20
785.348342
 30
0.0
 11
2637.026205
 21
783.913404
 31
0.0
  0
ARC
  5
106AF
100
AcDbEntity
  8
0
100
AcDbCircle
 10
2661.819517
 20
791.585627
 30
0.0
 40
7.354912
100
AcDbArc
 50
237.999511
 51
302.000489
  0
LINE
  5
106B0
100
AcDbEntity
  8
0
100
AcDbLine
 10
2665.71708
 20
785.348342
 30
0.0
 11
2665.71708
 21
798.538404
 31
0.0
  0
LINE
  5
106B1
100
AcDbEntity
  8
0
100
AcDbLine
 10
2663.231955
 20
783.913404
 30
0.0
 11
2665.71708
 21
785.348342
 31
0.0
  0
LINE
  5
106B2
100
AcDbEntity
  8
0
100
AcDbLine
 10
2657.921955
 20
785.348342
 30
0.0
 11
2657.921955
 21
798.538404
 31
0.0
  0
LINE
  5
106B3
100
AcDbEntity
  8
0
100
AcDbLine
 10
2659.12908
 20
780.631779
 30
0.0
 11
2657.910705
 21
779.413404
 31
0.0
  0
LINE
  5
106B4
100
AcDbEntity
  8
0
100
AcDbLine
 10
2659.12908
 20
783.913404
 30
0.0
 11
2659.12908
 21
780.631779
 31
0.0
  0
LINE
  5
106B5
100
AcDbEntity
  8
0
100
AcDbLine
 10
2637.026205
 20
783.913404
 30
0.0
 11
2663.231955
 21
783.913404
 31
0.0
  0
LINE
  5
106B6
100
AcDbEntity
  8
0
100
AcDbLine
 10
2657.910705
 20
779.413404
 30
0.0
 11
2642.347455
 21
779.413404
 31
0.0
  0
ARC
  5
106B8
100
AcDbEntity
  8
0
100
AcDbCircle
 10
2650.128517
 20
811.965644
 30
0.0
 40
27.734788
100
AcDbArc
 50
253.680185
 51
286.319815
  0
LINE
  5
106B9
100
AcDbEntity
  8
0
100
AcDbLine
 10
2641.12908
 20
865.820029
 30
0.0
 11
2641.12908
 21
862.538404
 31
0.0
  0
LINE
  5
106BA
100
AcDbEntity
  8
0
100
AcDbLine
 10
2659.12908
 20
862.538404
 30
0.0
 11
2659.12908
 21
865.820029
 31
0.0
  0
LINE
  5
106BC
100
AcDbEntity
  8
0
100
AcDbLine
 10
2657.910705
 20
867.038404
 30
0.0
 11
2642.347455
 21
867.038404
 31
0.0
  0
LINE
  5
106BF
100
AcDbEntity
  8
0
100
AcDbLine
 10
2508.215512
 20
794.518985
 30
0.0
 11
2511.411628
 21
778.538404
 31
0.0
  0
ARC
  5
106C0
100
AcDbEntity
  8
0
100
AcDbCircle
 10
2503.312609
 20
793.538404
 30
0.0
 40
5.0
100
AcDbArc
 50
11.309932
 51
80.490156
  0
ARC
  5
106C1
100
AcDbEntity
  8
0
100
AcDbCircle
 10
2673.510648
 20
793.538404
 30
0.0
 40
5.0
100
AcDbArc
 50
99.509844
 51
168.690068
  0
LINE
  5
106C2
100
AcDbEntity
  8
0
100
AcDbLine
 10
2668.607744
 20
794.518985
 30
0.0
 11
2665.411628
 21
778.538404
 31
0.0
  0
ARC
  5
106C3
100
AcDbEntity
  8
0
100
AcDbCircle
 10
2500.132413
 20
866.538404
 30
0.0
 40
4.0
100
AcDbArc
 50
270.0
 51
348.690068
  0
ARC
  5
106C4
100
AcDbEntity
  8
0
100
AcDbCircle
 10
2676.690844
 20
866.538404
 30
0.0
 40
4.0
100
AcDbArc
 50
191.309932
 51
270.0
  0
LINE
  5
106C5
100
AcDbEntity
  8
0
100
AcDbLine
 10
2439.411628
 20
1033.038404
 30
0.0
 11
2439.411628
 21
878.038404
 31
0.0
  0
LINE
  5
106C6
100
AcDbEntity
  8
0
100
AcDbLine
 10
2421.411628
 20
1033.038404
 30
0.0
 11
2421.411628
 21
955.538404
 31
0.0
  0
LINE
  5
106C7
100
AcDbEntity
  8
0
100
AcDbLine
 10
2439.411628
 20
878.038404
 30
0.0
 11
2421.411628
 21
878.038404
 31
0.0
  0
LINE
  5
106C8
100
AcDbEntity
  8
0
100
AcDbLine
 10
2421.411628
 20
955.538404
 30
0.0
 11
2421.411628
 21
878.038404
 31
0.0
  0
LINE
  5
106C9
100
AcDbEntity
  8
0
100
AcDbLine
 10
2439.411628
 20
1033.038404
 30
0.0
 11
2421.411628
 21
1033.038404
 31
0.0
  0
LINE
  5
106CA
100
AcDbEntity
  8
0
100
AcDbLine
 10
2755.411628
 20
1033.038404
 30
0.0
 11
2755.411628
 21
955.538404
 31
0.0
  0
LINE
  5
106CB
100
AcDbEntity
  8
0
100
AcDbLine
 10
2737.411628
 20
1033.038404
 30
0.0
 11
2737.411628
 21
878.038404
 31
0.0
  0
LINE
  5
106CC
100
AcDbEntity
  8
0
100
AcDbLine
 10
2755.411628
 20
955.538404
 30
0.0
 11
2755.411628
 21
878.038404
 31
0.0
  0
LINE
  5
106CD
100
AcDbEntity
  8
0
100
AcDbLine
 10
2737.411628
 20
878.038404
 30
0.0
 11
2755.411628
 21
878.038404
 31
0.0
  0
LINE
  5
106CE
100
AcDbEntity
  8
0
100
AcDbLine
 10
2737.411628
 20
1033.038404
 30
0.0
 11
2755.411628
 21
1033.038404
 31
0.0
  0
LINE
  5
106CF
100
AcDbEntity
  8
0
100
AcDbLine
 10
2713.411628
 20
1886.780361
 30
0.0
 11
2463.411628
 21
1886.780361
 31
0.0
  0
LINE
  5
106D0
100
AcDbEntity
  8
0
100
AcDbLine
 10
2713.411628
 20
1822.780361
 30
0.0
 11
2463.411628
 21
1822.780361
 31
0.0
  0
LINE
  5
106D1
100
AcDbEntity
  8
0
100
AcDbLine
 10
2668.607744
 20
1818.760942
 30
0.0
 11
2665.411628
 21
1802.780361
 31
0.0
  0
LINE
  5
106D2
100
AcDbEntity
  8
0
100
AcDbLine
 10
2713.411628
 20
1854.780361
 30
0.0
 11
2463.411628
 21
1854.780361
 31
0.0
  0
LINE
  5
106D3
100
AcDbEntity
  8
0
100
AcDbLine
 10
2700.911628
 20
1702.280361
 30
0.0
 11
2475.911628
 21
1702.280361
 31
0.0
  0
LINE
  5
106D4
100
AcDbEntity
  8
0
100
AcDbLine
 10
2668.446968
 20
1707.103665
 30
0.0
 11
2665.411628
 21
1722.280361
 31
0.0
  0
ARC
  5
106D5
100
AcDbEntity
  8
0
100
AcDbCircle
 10
2668.370497
 20
1630.400115
 30
0.0
 40
6.537699
100
AcDbArc
 50
237.999511
 51
302.000489
  0
LINE
  5
106D6
100
AcDbEntity
  8
0
100
AcDbLine
 10
2690.408997
 20
1623.580361
 30
0.0
 11
2667.114997
 21
1623.580361
 31
0.0
  0
LINE
  5
106D7
100
AcDbEntity
  8
0
100
AcDbLine
 10
2700.911628
 20
1636.580361
 30
0.0
 11
2475.911628
 21
1636.580361
 31
0.0
  0
LINE
  5
106D8
100
AcDbEntity
  8
0
100
AcDbLine
 10
2700.911628
 20
1668.780361
 30
0.0
 11
2475.911628
 21
1668.780361
 31
0.0
  0
ARC
  5
106D9
100
AcDbEntity
  8
0
100
AcDbCircle
 10
2683.411628
 20
1929.780361
 30
0.0
 40
15.0
100
AcDbArc
 50
90.0
 51
180.0
  0
ARC
  5
106DA
100
AcDbEntity
  8
0
100
AcDbCircle
 10
2679.911628
 20
1954.780361
 30
0.0
 40
60.0
100
AcDbArc
 50
90.0
 51
117.691142
  0
ARC
  5
106DB
100
AcDbEntity
  8
0
100
AcDbCircle
 10
2641.411628
 20
1966.780361
 30
0.0
 40
27.0
100
AcDbArc
 50
0.0
 51
90.0
  0
LINE
  5
106DC
100
AcDbEntity
  8
0
100
AcDbLine
 10
2624.0586
 20
2034.435246
 30
0.0
 11
2697.411628
 21
2014.780361
 31
0.0
  0
LINE
  5
106DD
100
AcDbEntity
  8
0
100
AcDbLine
 10
2672.768521
 20
1889.995897
 30
0.0
 11
2668.411628
 21
1911.780361
 31
0.0
  0
LINE
  5
106DE
100
AcDbEntity
  8
0
100
AcDbLine
 10
2680.490937
 20
1891.280361
 30
0.0
 11
2679.272562
 21
1890.061986
 31
0.0
  0
LINE
  5
106DF
100
AcDbEntity
  8
0
100
AcDbLine
 10
2697.272562
 20
1890.061986
 30
0.0
 11
2696.054187
 21
1891.280361
 31
0.0
  0
LINE
  5
106E0
100
AcDbEntity
  8
0
100
AcDbLine
 10
2700.911628
 20
1702.280361
 30
0.0
 11
2700.911628
 21
1636.580361
 31
0.0
  0
LINE
  5
106E1
100
AcDbEntity
  8
0
100
AcDbLine
 10
2670.762497
 20
1623.580361
 30
0.0
 11
2670.762497
 21
1620.869479
 31
0.0
  0
LINE
  5
106E2
100
AcDbEntity
  8
0
100
AcDbLine
 10
2670.762497
 20
1620.869479
 30
0.0
 11
2671.845497
 21
1619.786479
 31
0.0
  0
LINE
  5
106E3
100
AcDbEntity
  8
0
100
AcDbLine
 10
2671.834997
 20
1624.855861
 30
0.0
 11
2671.834997
 21
1636.580361
 31
0.0
  0
LINE
  5
106E4
100
AcDbEntity
  8
0
100
AcDbLine
 10
2686.762497
 20
1620.869479
 30
0.0
 11
2686.762497
 21
1623.580361
 31
0.0
  0
LINE
  5
106E5
100
AcDbEntity
  8
0
100
AcDbLine
 10
2685.679497
 20
1619.786479
 30
0.0
 11
2686.762497
 21
1620.869479
 31
0.0
  0
LINE
  5
106E6
100
AcDbEntity
  8
0
100
AcDbLine
 10
2692.617997
 20
1624.855861
 30
0.0
 11
2690.408997
 21
1623.580361
 31
0.0
  0
ARC
  5
106E7
100
AcDbEntity
  8
0
100
AcDbCircle
 10
2689.153497
 20
1630.400115
 30
0.0
 40
6.537699
100
AcDbArc
 50
237.999511
 51
302.000489
  0
LINE
  5
106E8
100
AcDbEntity
  8
0
100
AcDbLine
 10
2685.689997
 20
1624.855861
 30
0.0
 11
2685.689997
 21
1636.580361
 31
0.0
  0
LINE
  5
106E9
100
AcDbEntity
  8
0
100
AcDbLine
 10
2692.617997
 20
1636.580361
 30
0.0
 11
2692.617997
 21
1624.855861
 31
0.0
  0
ARC
  5
106EA
100
AcDbEntity
  8
0
100
AcDbCircle
 10
2678.762497
 20
1648.515686
 30
0.0
 40
24.653145
100
AcDbArc
 50
253.680185
 51
286.319815
  0
LINE
  5
106EB
100
AcDbEntity
  8
0
100
AcDbLine
 10
2671.845497
 20
1619.786479
 30
0.0
 11
2685.679497
 21
1619.786479
 31
0.0
  0
ARC
  5
106EC
100
AcDbEntity
  8
0
100
AcDbCircle
 10
2674.330452
 20
1708.280361
 30
0.0
 40
6.0
100
AcDbArc
 50
191.309932
 51
233.511669
  0
LINE
  5
106ED
100
AcDbEntity
  8
0
100
AcDbLine
 10
2670.762497
 20
1703.703479
 30
0.0
 11
2670.762497
 21
1702.280361
 31
0.0
  0
LINE
  5
106EE
100
AcDbEntity
  8
0
100
AcDbLine
 10
2670.762497
 20
1703.703479
 30
0.0
 11
2671.845497
 21
1704.786479
 31
0.0
  0
LINE
  5
106EF
100
AcDbEntity
  8
0
100
AcDbLine
 10
2686.762497
 20
1702.280361
 30
0.0
 11
2686.762497
 21
1703.703479
 31
0.0
  0
LINE
  5
106F0
100
AcDbEntity
  8
0
100
AcDbLine
 10
2686.762497
 20
1703.703479
 30
0.0
 11
2685.679497
 21
1704.786479
 31
0.0
  0
LINE
  5
106F1
100
AcDbEntity
  8
0
100
AcDbLine
 10
2671.845497
 20
1704.786479
 30
0.0
 11
2685.679497
 21
1704.786479
 31
0.0
  0
LINE
  5
106F2
100
AcDbEntity
  8
0
100
AcDbLine
 10
2713.411628
 20
1886.780361
 30
0.0
 11
2713.411628
 21
1822.780361
 31
0.0
  0
ARC
  5
106F3
100
AcDbEntity
  8
0
100
AcDbCircle
 10
2699.963
 20
1815.827584
 30
0.0
 40
7.354912
100
AcDbArc
 50
237.999511
 51
302.000489
  0
LINE
  5
106F4
100
AcDbEntity
  8
0
100
AcDbLine
 10
2701.375437
 20
1808.155361
 30
0.0
 11
2703.860562
 21
1809.590299
 31
0.0
  0
LINE
  5
106F5
100
AcDbEntity
  8
0
100
AcDbLine
 10
2703.860562
 20
1809.590299
 30
0.0
 11
2703.860562
 21
1822.780361
 31
0.0
  0
ARC
  5
106F6
100
AcDbEntity
  8
0
100
AcDbCircle
 10
2673.510648
 20
1817.780361
 30
0.0
 40
5.0
100
AcDbArc
 50
99.509844
 51
168.690068
  0
ARC
  5
106F7
100
AcDbEntity
  8
0
100
AcDbCircle
 10
2676.582125
 20
1815.827584
 30
0.0
 40
7.354912
100
AcDbArc
 50
237.999511
 51
302.000489
  0
LINE
  5
106F8
100
AcDbEntity
  8
0
100
AcDbLine
 10
2680.478562
 20
1809.590299
 30
0.0
 11
2680.478562
 21
1822.780361
 31
0.0
  0
LINE
  5
106F9
100
AcDbEntity
  8
0
100
AcDbLine
 10
2680.490937
 20
1803.655361
 30
0.0
 11
2679.272562
 21
1804.873736
 31
0.0
  0
LINE
  5
106FA
100
AcDbEntity
  8
0
100
AcDbLine
 10
2679.272562
 20
1804.873736
 30
0.0
 11
2679.272562
 21
1808.155361
 31
0.0
  0
LINE
  5
106FB
100
AcDbEntity
  8
0
100
AcDbLine
 10
2672.684562
 20
1822.780361
 30
0.0
 11
2672.684562
 21
1809.590299
 31
0.0
  0
LINE
  5
106FC
100
AcDbEntity
  8
0
100
AcDbLine
 10
2672.684562
 20
1809.590299
 30
0.0
 11
2675.169687
 21
1808.155361
 31
0.0
  0
LINE
  5
106FD
100
AcDbEntity
  8
0
100
AcDbLine
 10
2696.065437
 20
1809.590299
 30
0.0
 11
2696.065437
 21
1822.780361
 31
0.0
  0
LINE
  5
106FE
100
AcDbEntity
  8
0
100
AcDbLine
 10
2697.272562
 20
1804.873736
 30
0.0
 11
2696.054187
 21
1803.655361
 31
0.0
  0
LINE
  5
106FF
100
AcDbEntity
  8
0
100
AcDbLine
 10
2697.272562
 20
1808.155361
 30
0.0
 11
2697.272562
 21
1804.873736
 31
0.0
  0
LINE
  5
10700
100
AcDbEntity
  8
0
100
AcDbLine
 10
2675.169687
 20
1808.155361
 30
0.0
 11
2701.375437
 21
1808.155361
 31
0.0
  0
LINE
  5
10701
100
AcDbEntity
  8
0
100
AcDbLine
 10
2696.054187
 20
1803.655361
 30
0.0
 11
2680.490937
 21
1803.655361
 31
0.0
  0
ARC
  5
10703
100
AcDbEntity
  8
0
100
AcDbCircle
 10
2688.272
 20
1836.207601
 30
0.0
 40
27.734788
100
AcDbArc
 50
253.680185
 51
286.319815
  0
ARC
  5
10704
100
AcDbEntity
  8
0
100
AcDbCircle
 10
2676.690844
 20
1890.780361
 30
0.0
 40
4.0
100
AcDbArc
 50
191.309932
 51
270.0
  0
LINE
  5
10705
100
AcDbEntity
  8
0
100
AcDbLine
 10
2679.272562
 20
1890.061986
 30
0.0
 11
2679.272562
 21
1886.780361
 31
0.0
  0
LINE
  5
10706
100
AcDbEntity
  8
0
100
AcDbLine
 10
2697.272562
 20
1886.780361
 30
0.0
 11
2697.272562
 21
1890.061986
 31
0.0
  0
LINE
  5
10708
100
AcDbEntity
  8
0
100
AcDbLine
 10
2755.411628
 20
2057.280361
 30
0.0
 11
2755.411628
 21
1979.780361
 31
0.0
  0
LINE
  5
10709
100
AcDbEntity
  8
0
100
AcDbLine
 10
2737.411628
 20
2057.280361
 30
0.0
 11
2737.411628
 21
1902.280361
 31
0.0
  0
LINE
  5
1070A
100
AcDbEntity
  8
0
100
AcDbLine
 10
2737.411628
 20
1902.280361
 30
0.0
 11
2755.411628
 21
1902.280361
 31
0.0
  0
LINE
  5
1070B
100
AcDbEntity
  8
0
100
AcDbLine
 10
2755.411628
 20
1979.780361
 30
0.0
 11
2755.411628
 21
1902.280361
 31
0.0
  0
LINE
  5
1070C
100
AcDbEntity
  8
0
100
AcDbLine
 10
2696.054187
 20
1891.280361
 30
0.0
 11
2680.490937
 21
1891.280361
 31
0.0
  0
LINE
  5
1070D
100
AcDbEntity
  8
0
100
AcDbLine
 10
2668.411628
 20
1929.780361
 30
0.0
 11
2668.411628
 21
1911.780361
 31
0.0
  0
LINE
  5
1070E
100
AcDbEntity
  8
0
100
AcDbLine
 10
2722.411628
 20
1944.780361
 30
0.0
 11
2683.411628
 21
1944.780361
 31
0.0
  0
LINE
  5
1070F
100
AcDbEntity
  8
0
100
AcDbLine
 10
2722.411628
 20
1944.780361
 30
0.0
 11
2737.411628
 21
1941.780361
 31
0.0
  0
LINE
  5
10710
100
AcDbEntity
  8
0
100
AcDbLine
 10
2737.411628
 20
2057.280361
 30
0.0
 11
2755.411628
 21
2057.280361
 31
0.0
  0
LINE
  5
10711
100
AcDbEntity
  8
0
100
AcDbLine
 10
2679.911628
 20
2014.780361
 30
0.0
 11
2722.411628
 21
2014.780361
 31
0.0
  0
LINE
  5
10712
100
AcDbEntity
  8
0
100
AcDbLine
 10
2737.411628
 20
2017.780361
 30
0.0
 11
2722.411628
 21
2014.780361
 31
0.0
  0
LINE
  5
10713
100
AcDbEntity
  8
0
100
AcDbLine
 10
2504.054735
 20
1889.995897
 30
0.0
 11
2508.411628
 21
1911.780361
 31
0.0
  0
LINE
  5
10714
100
AcDbEntity
  8
0
100
AcDbLine
 10
2517.694177
 20
1890.061986
 30
0.0
 11
2518.912552
 21
1891.280361
 31
0.0
  0
LINE
  5
10715
100
AcDbEntity
  8
0
100
AcDbLine
 10
2534.475802
 20
1891.280361
 30
0.0
 11
2535.694177
 21
1890.061986
 31
0.0
  0
LINE
  5
10716
100
AcDbEntity
  8
0
100
AcDbLine
 10
2479.550694
 20
1890.061986
 30
0.0
 11
2480.769069
 21
1891.280361
 31
0.0
  0
LINE
  5
10717
100
AcDbEntity
  8
0
100
AcDbLine
 10
2496.332319
 20
1891.280361
 30
0.0
 11
2497.550694
 21
1890.061986
 31
0.0
  0
LINE
  5
10718
100
AcDbEntity
  8
0
100
AcDbLine
 10
2642.347455
 20
1891.280361
 30
0.0
 11
2641.12908
 21
1890.061986
 31
0.0
  0
LINE
  5
10719
100
AcDbEntity
  8
0
100
AcDbLine
 10
2659.12908
 20
1890.061986
 30
0.0
 11
2657.910705
 21
1891.280361
 31
0.0
  0
LINE
  5
1071A
100
AcDbEntity
  8
0
100
AcDbLine
 10
2597.411628
 20
1890.061986
 30
0.0
 11
2596.193253
 21
1891.280361
 31
0.0
  0
LINE
  5
1071B
100
AcDbEntity
  8
0
100
AcDbLine
 10
2580.630003
 20
1891.280361
 30
0.0
 11
2579.411628
 21
1890.061986
 31
0.0
  0
LINE
  5
1071C
100
AcDbEntity
  8
0
100
AcDbLine
 10
2475.911628
 20
1702.280361
 30
0.0
 11
2475.911628
 21
1636.580361
 31
0.0
  0
ARC
  5
1071E
100
AcDbEntity
  8
0
100
AcDbCircle
 10
2522.180529
 20
1630.400115
 30
0.0
 40
6.537699
100
AcDbArc
 50
237.999511
 51
302.000489
  0
LINE
  5
1071F
100
AcDbEntity
  8
0
100
AcDbLine
 10
2544.219029
 20
1623.580361
 30
0.0
 11
2520.925029
 21
1623.580361
 31
0.0
  0
ARC
  5
10720
100
AcDbEntity
  8
0
100
AcDbCircle
 10
2598.803128
 20
1630.400115
 30
0.0
 40
6.537699
100
AcDbArc
 50
237.999511
 51
302.000489
  0
LINE
  5
10721
100
AcDbEntity
  8
0
100
AcDbLine
 10
2600.058628
 20
1623.580361
 30
0.0
 11
2576.764628
 21
1623.580361
 31
0.0
  0
LINE
  5
10722
100
AcDbEntity
  8
0
100
AcDbLine
 10
2595.329128
 20
1619.786479
 30
0.0
 11
2596.412128
 21
1620.869479
 31
0.0
  0
ARC
  5
10724
100
AcDbEntity
  8
0
100
AcDbCircle
 10
2633.859727
 20
1630.400115
 30
0.0
 40
6.537699
100
AcDbArc
 50
237.999511
 51
302.000489
  0
LINE
  5
10725
100
AcDbEntity
  8
0
100
AcDbLine
 10
2632.604227
 20
1623.580361
 30
0.0
 11
2630.395227
 21
1624.855861
 31
0.0
  0
LINE
  5
10726
100
AcDbEntity
  8
0
100
AcDbLine
 10
2636.251727
 20
1623.580361
 30
0.0
 11
2636.251727
 21
1620.869479
 31
0.0
  0
LINE
  5
10727
100
AcDbEntity
  8
0
100
AcDbLine
 10
2636.251727
 20
1620.869479
 30
0.0
 11
2637.334727
 21
1619.786479
 31
0.0
  0
LINE
  5
10728
100
AcDbEntity
  8
0
100
AcDbLine
 10
2637.324227
 20
1624.855861
 30
0.0
 11
2637.324227
 21
1636.580361
 31
0.0
  0
LINE
  5
10729
100
AcDbEntity
  8
0
100
AcDbLine
 10
2667.114997
 20
1623.580361
 30
0.0
 11
2664.905997
 21
1624.855861
 31
0.0
  0
LINE
  5
1072A
100
AcDbEntity
  8
0
100
AcDbLine
 10
2652.251727
 20
1620.869479
 30
0.0
 11
2652.251727
 21
1623.580361
 31
0.0
  0
LINE
  5
1072B
100
AcDbEntity
  8
0
100
AcDbLine
 10
2658.107227
 20
1624.855861
 30
0.0
 11
2655.898227
 21
1623.580361
 31
0.0
  0
ARC
  5
1072C
100
AcDbEntity
  8
0
100
AcDbCircle
 10
2654.642727
 20
1630.400115
 30
0.0
 40
6.537699
100
AcDbArc
 50
237.999511
 51
302.000489
  0
LINE
  5
1072D
100
AcDbEntity
  8
0
100
AcDbLine
 10
2651.168727
 20
1619.786479
 30
0.0
 11
2652.251727
 21
1620.869479
 31
0.0
  0
LINE
  5
1072E
100
AcDbEntity
  8
0
100
AcDbLine
 10
2664.905997
 20
1624.855861
 30
0.0
 11
2664.905997
 21
1636.580361
 31
0.0
  0
LINE
  5
1072F
100
AcDbEntity
  8
0
100
AcDbLine
 10
2658.107227
 20
1636.580361
 30
0.0
 11
2658.107227
 21
1624.855861
 31
0.0
  0
LINE
  5
10730
100
AcDbEntity
  8
0
100
AcDbLine
 10
2651.179227
 20
1624.855861
 30
0.0
 11
2651.179227
 21
1636.580361
 31
0.0
  0
LINE
  5
10731
100
AcDbEntity
  8
0
100
AcDbLine
 10
2655.898227
 20
1623.580361
 30
0.0
 11
2632.604227
 21
1623.580361
 31
0.0
  0
ARC
  5
10732
100
AcDbEntity
  8
0
100
AcDbCircle
 10
2644.251727
 20
1648.515686
 30
0.0
 40
24.653145
100
AcDbArc
 50
253.680185
 51
286.319815
  0
LINE
  5
10733
100
AcDbEntity
  8
0
100
AcDbLine
 10
2637.334727
 20
1619.786479
 30
0.0
 11
2651.168727
 21
1619.786479
 31
0.0
  0
LINE
  5
10734
100
AcDbEntity
  8
0
100
AcDbLine
 10
2602.267628
 20
1624.855861
 30
0.0
 11
2600.058628
 21
1623.580361
 31
0.0
  0
LINE
  5
10735
100
AcDbEntity
  8
0
100
AcDbLine
 10
2602.267628
 20
1636.580361
 30
0.0
 11
2602.267628
 21
1624.855861
 31
0.0
  0
LINE
  5
10736
100
AcDbEntity
  8
0
100
AcDbLine
 10
2596.412128
 20
1620.869479
 30
0.0
 11
2596.412128
 21
1623.580361
 31
0.0
  0
LINE
  5
1073B
100
AcDbEntity
  8
0
100
AcDbLine
 10
2630.395227
 20
1624.855861
 30
0.0
 11
2630.395227
 21
1636.580361
 31
0.0
  0
LINE
  5
1073F
100
AcDbEntity
  8
0
100
AcDbLine
 10
2576.764628
 20
1623.580361
 30
0.0
 11
2574.555628
 21
1624.855861
 31
0.0
  0
ARC
  5
10740
100
AcDbEntity
  8
0
100
AcDbCircle
 10
2578.020128
 20
1630.400115
 30
0.0
 40
6.537699
100
AcDbArc
 50
237.999511
 51
302.000489
  0
LINE
  5
10741
100
AcDbEntity
  8
0
100
AcDbLine
 10
2580.412128
 20
1623.580361
 30
0.0
 11
2580.412128
 21
1620.869479
 31
0.0
  0
LINE
  5
10742
100
AcDbEntity
  8
0
100
AcDbLine
 10
2580.412128
 20
1620.869479
 30
0.0
 11
2581.495128
 21
1619.786479
 31
0.0
  0
ARC
  5
10749
100
AcDbEntity
  8
0
100
AcDbCircle
 10
2588.412128
 20
1648.515686
 30
0.0
 40
24.653145
100
AcDbArc
 50
253.680185
 51
286.319815
  0
LINE
  5
1074A
100
AcDbEntity
  8
0
100
AcDbLine
 10
2581.495128
 20
1619.786479
 30
0.0
 11
2595.329128
 21
1619.786479
 31
0.0
  0
LINE
  5
1074B
100
AcDbEntity
  8
0
100
AcDbLine
 10
2595.339628
 20
1624.855861
 30
0.0
 11
2595.339628
 21
1636.580361
 31
0.0
  0
LINE
  5
1074C
100
AcDbEntity
  8
0
100
AcDbLine
 10
2581.484628
 20
1624.855861
 30
0.0
 11
2581.484628
 21
1636.580361
 31
0.0
  0
LINE
  5
1074D
100
AcDbEntity
  8
0
100
AcDbLine
 10
2574.555628
 20
1624.855861
 30
0.0
 11
2574.555628
 21
1636.580361
 31
0.0
  0
LINE
  5
1074F
100
AcDbEntity
  8
0
100
AcDbLine
 10
2524.572529
 20
1620.869479
 30
0.0
 11
2525.655529
 21
1619.786479
 31
0.0
  0
LINE
  5
10750
100
AcDbEntity
  8
0
100
AcDbLine
 10
2525.645029
 20
1624.855861
 30
0.0
 11
2525.645029
 21
1636.580361
 31
0.0
  0
LINE
  5
10751
100
AcDbEntity
  8
0
100
AcDbLine
 10
2524.572529
 20
1623.580361
 30
0.0
 11
2524.572529
 21
1620.869479
 31
0.0
  0
LINE
  5
10754
100
AcDbEntity
  8
0
100
AcDbLine
 10
2539.489529
 20
1619.786479
 30
0.0
 11
2540.572529
 21
1620.869479
 31
0.0
  0
LINE
  5
10755
100
AcDbEntity
  8
0
100
AcDbLine
 10
2540.572529
 20
1620.869479
 30
0.0
 11
2540.572529
 21
1623.580361
 31
0.0
  0
LINE
  5
10756
100
AcDbEntity
  8
0
100
AcDbLine
 10
2546.428029
 20
1624.855861
 30
0.0
 11
2544.219029
 21
1623.580361
 31
0.0
  0
ARC
  5
10757
100
AcDbEntity
  8
0
100
AcDbCircle
 10
2542.963529
 20
1630.400115
 30
0.0
 40
6.537699
100
AcDbArc
 50
237.999511
 51
302.000489
  0
LINE
  5
10758
100
AcDbEntity
  8
0
100
AcDbLine
 10
2546.428029
 20
1636.580361
 30
0.0
 11
2546.428029
 21
1624.855861
 31
0.0
  0
LINE
  5
10759
100
AcDbEntity
  8
0
100
AcDbLine
 10
2539.500029
 20
1624.855861
 30
0.0
 11
2539.500029
 21
1636.580361
 31
0.0
  0
ARC
  5
1075A
100
AcDbEntity
  8
0
100
AcDbCircle
 10
2532.572529
 20
1648.515686
 30
0.0
 40
24.653145
100
AcDbArc
 50
253.680185
 51
286.319815
  0
LINE
  5
1075B
100
AcDbEntity
  8
0
100
AcDbLine
 10
2525.655529
 20
1619.786479
 30
0.0
 11
2539.489529
 21
1619.786479
 31
0.0
  0
ARC
  5
1075C
100
AcDbEntity
  8
0
100
AcDbCircle
 10
2487.669759
 20
1630.400115
 30
0.0
 40
6.537699
100
AcDbArc
 50
237.999511
 51
302.000489
  0
LINE
  5
1075D
100
AcDbEntity
  8
0
100
AcDbLine
 10
2509.708259
 20
1623.580361
 30
0.0
 11
2486.414259
 21
1623.580361
 31
0.0
  0
LINE
  5
1075E
100
AcDbEntity
  8
0
100
AcDbLine
 10
2490.061759
 20
1623.580361
 30
0.0
 11
2490.061759
 21
1620.869479
 31
0.0
  0
LINE
  5
1075F
100
AcDbEntity
  8
0
100
AcDbLine
 10
2490.061759
 20
1620.869479
 30
0.0
 11
2491.144759
 21
1619.786479
 31
0.0
  0
LINE
  5
10760
100
AcDbEntity
  8
0
100
AcDbLine
 10
2491.134259
 20
1624.855861
 30
0.0
 11
2491.134259
 21
1636.580361
 31
0.0
  0
ARC
  5
10761
100
AcDbEntity
  8
0
100
AcDbCircle
 10
2508.452759
 20
1630.400115
 30
0.0
 40
6.537699
100
AcDbArc
 50
237.999511
 51
302.000489
  0
LINE
  5
10762
100
AcDbEntity
  8
0
100
AcDbLine
 10
2511.917259
 20
1624.855861
 30
0.0
 11
2509.708259
 21
1623.580361
 31
0.0
  0
LINE
  5
10763
100
AcDbEntity
  8
0
100
AcDbLine
 10
2520.925029
 20
1623.580361
 30
0.0
 11
2518.716029
 21
1624.855861
 31
0.0
  0
LINE
  5
10764
100
AcDbEntity
  8
0
100
AcDbLine
 10
2506.061759
 20
1620.869479
 30
0.0
 11
2506.061759
 21
1623.580361
 31
0.0
  0
LINE
  5
10765
100
AcDbEntity
  8
0
100
AcDbLine
 10
2504.978759
 20
1619.786479
 30
0.0
 11
2506.061759
 21
1620.869479
 31
0.0
  0
LINE
  5
10767
100
AcDbEntity
  8
0
100
AcDbLine
 10
2511.917259
 20
1636.580361
 30
0.0
 11
2511.917259
 21
1624.855861
 31
0.0
  0
LINE
  5
10768
100
AcDbEntity
  8
0
100
AcDbLine
 10
2518.716029
 20
1624.855861
 30
0.0
 11
2518.716029
 21
1636.580361
 31
0.0
  0
LINE
  5
10769
100
AcDbEntity
  8
0
100
AcDbLine
 10
2504.989259
 20
1624.855861
 30
0.0
 11
2504.989259
 21
1636.580361
 31
0.0
  0
ARC
  5
1076A
100
AcDbEntity
  8
0
100
AcDbCircle
 10
2498.061759
 20
1648.515686
 30
0.0
 40
24.653145
100
AcDbArc
 50
253.680185
 51
286.319815
  0
LINE
  5
1076B
100
AcDbEntity
  8
0
100
AcDbLine
 10
2491.144759
 20
1619.786479
 30
0.0
 11
2504.978759
 21
1619.786479
 31
0.0
  0
LINE
  5
1076C
100
AcDbEntity
  8
0
100
AcDbLine
 10
2486.414259
 20
1623.580361
 30
0.0
 11
2484.205259
 21
1624.855861
 31
0.0
  0
LINE
  5
1076D
100
AcDbEntity
  8
0
100
AcDbLine
 10
2484.205259
 20
1624.855861
 30
0.0
 11
2484.205259
 21
1636.580361
 31
0.0
  0
ARC
  5
1076F
100
AcDbEntity
  8
0
100
AcDbCircle
 10
2526.694739
 20
1836.207601
 30
0.0
 40
27.734788
100
AcDbArc
 50
253.680185
 51
286.319815
  0
LINE
  5
10771
100
AcDbEntity
  8
0
100
AcDbLine
 10
2518.912552
 20
1803.655361
 30
0.0
 11
2534.475802
 21
1803.655361
 31
0.0
  0
LINE
  5
10772
100
AcDbEntity
  8
0
100
AcDbLine
 10
2539.797052
 20
1808.155361
 30
0.0
 11
2513.591302
 21
1808.155361
 31
0.0
  0
LINE
  5
10773
100
AcDbEntity
  8
0
100
AcDbLine
 10
2665.411628
 20
1722.280361
 30
0.0
 11
2665.411628
 21
1802.780361
 31
0.0
  0
LINE
  5
10774
100
AcDbEntity
  8
0
100
AcDbLine
 10
2596.412128
 20
1703.703479
 30
0.0
 11
2595.329128
 21
1704.786479
 31
0.0
  0
LINE
  5
10775
100
AcDbEntity
  8
0
100
AcDbLine
 10
2636.251727
 20
1703.703479
 30
0.0
 11
2636.251727
 21
1702.280361
 31
0.0
  0
LINE
  5
10776
100
AcDbEntity
  8
0
100
AcDbLine
 10
2636.251727
 20
1703.703479
 30
0.0
 11
2637.334727
 21
1704.786479
 31
0.0
  0
LINE
  5
10777
100
AcDbEntity
  8
0
100
AcDbLine
 10
2652.251727
 20
1702.280361
 30
0.0
 11
2652.251727
 21
1703.703479
 31
0.0
  0
LINE
  5
10778
100
AcDbEntity
  8
0
100
AcDbLine
 10
2652.251727
 20
1703.703479
 30
0.0
 11
2651.168727
 21
1704.786479
 31
0.0
  0
LINE
  5
10779
100
AcDbEntity
  8
0
100
AcDbLine
 10
2637.334727
 20
1704.786479
 30
0.0
 11
2651.168727
 21
1704.786479
 31
0.0
  0
LINE
  5
1077A
100
AcDbEntity
  8
0
100
AcDbLine
 10
2596.412128
 20
1702.280361
 30
0.0
 11
2596.412128
 21
1703.703479
 31
0.0
  0
LINE
  5
1077B
100
AcDbEntity
  8
0
100
AcDbLine
 10
2580.412128
 20
1703.703479
 30
0.0
 11
2580.412128
 21
1702.280361
 31
0.0
  0
LINE
  5
1077C
100
AcDbEntity
  8
0
100
AcDbLine
 10
2580.412128
 20
1703.703479
 30
0.0
 11
2581.495128
 21
1704.786479
 31
0.0
  0
LINE
  5
1077D
100
AcDbEntity
  8
0
100
AcDbLine
 10
2581.495128
 20
1704.786479
 30
0.0
 11
2595.329128
 21
1704.786479
 31
0.0
  0
LINE
  5
1077E
100
AcDbEntity
  8
0
100
AcDbLine
 10
2524.572529
 20
1703.703479
 30
0.0
 11
2525.655529
 21
1704.786479
 31
0.0
  0
LINE
  5
1077F
100
AcDbEntity
  8
0
100
AcDbLine
 10
2524.572529
 20
1703.703479
 30
0.0
 11
2524.572529
 21
1702.280361
 31
0.0
  0
LINE
  5
10780
100
AcDbEntity
  8
0
100
AcDbLine
 10
2540.572529
 20
1703.703479
 30
0.0
 11
2539.489529
 21
1704.786479
 31
0.0
  0
LINE
  5
10781
100
AcDbEntity
  8
0
100
AcDbLine
 10
2540.572529
 20
1702.280361
 30
0.0
 11
2540.572529
 21
1703.703479
 31
0.0
  0
LINE
  5
10782
100
AcDbEntity
  8
0
100
AcDbLine
 10
2525.655529
 20
1704.786479
 30
0.0
 11
2539.489529
 21
1704.786479
 31
0.0
  0
ARC
  5
10784
100
AcDbEntity
  8
0
100
AcDbCircle
 10
2588.411066
 20
1836.207601
 30
0.0
 40
27.734788
100
AcDbArc
 50
253.680185
 51
286.319815
  0
LINE
  5
10786
100
AcDbEntity
  8
0
100
AcDbLine
 10
2596.193253
 20
1803.655361
 30
0.0
 11
2580.630003
 21
1803.655361
 31
0.0
  0
LINE
  5
10787
100
AcDbEntity
  8
0
100
AcDbLine
 10
2575.308753
 20
1808.155361
 30
0.0
 11
2601.514503
 21
1808.155361
 31
0.0
  0
ARC
  5
10788
100
AcDbEntity
  8
0
100
AcDbCircle
 10
2638.438642
 20
1815.827584
 30
0.0
 40
7.354912
100
AcDbArc
 50
237.999511
 51
302.000489
  0
LINE
  5
10789
100
AcDbEntity
  8
0
100
AcDbLine
 10
2642.33508
 20
1809.590299
 30
0.0
 11
2642.33508
 21
1822.780361
 31
0.0
  0
LINE
  5
1078A
100
AcDbEntity
  8
0
100
AcDbLine
 10
2642.347455
 20
1803.655361
 30
0.0
 11
2641.12908
 21
1804.873736
 31
0.0
  0
LINE
  5
1078B
100
AcDbEntity
  8
0
100
AcDbLine
 10
2641.12908
 20
1804.873736
 30
0.0
 11
2641.12908
 21
1808.155361
 31
0.0
  0
LINE
  5
1078C
100
AcDbEntity
  8
0
100
AcDbLine
 10
2634.54108
 20
1822.780361
 30
0.0
 11
2634.54108
 21
1809.590299
 31
0.0
  0
LINE
  5
1078D
100
AcDbEntity
  8
0
100
AcDbLine
 10
2634.54108
 20
1809.590299
 30
0.0
 11
2637.026205
 21
1808.155361
 31
0.0
  0
ARC
  5
1078E
100
AcDbEntity
  8
0
100
AcDbCircle
 10
2661.819517
 20
1815.827584
 30
0.0
 40
7.354912
100
AcDbArc
 50
237.999511
 51
302.000489
  0
LINE
  5
1078F
100
AcDbEntity
  8
0
100
AcDbLine
 10
2665.71708
 20
1809.590299
 30
0.0
 11
2665.71708
 21
1822.780361
 31
0.0
  0
LINE
  5
10790
100
AcDbEntity
  8
0
100
AcDbLine
 10
2663.231955
 20
1808.155361
 30
0.0
 11
2665.71708
 21
1809.590299
 31
0.0
  0
LINE
  5
10791
100
AcDbEntity
  8
0
100
AcDbLine
 10
2657.921955
 20
1809.590299
 30
0.0
 11
2657.921955
 21
1822.780361
 31
0.0
  0
LINE
  5
10792
100
AcDbEntity
  8
0
100
AcDbLine
 10
2659.12908
 20
1804.873736
 30
0.0
 11
2657.910705
 21
1803.655361
 31
0.0
  0
LINE
  5
10793
100
AcDbEntity
  8
0
100
AcDbLine
 10
2659.12908
 20
1808.155361
 30
0.0
 11
2659.12908
 21
1804.873736
 31
0.0
  0
LINE
  5
10794
100
AcDbEntity
  8
0
100
AcDbLine
 10
2637.026205
 20
1808.155361
 30
0.0
 11
2663.231955
 21
1808.155361
 31
0.0
  0
LINE
  5
10795
100
AcDbEntity
  8
0
100
AcDbLine
 10
2657.910705
 20
1803.655361
 30
0.0
 11
2642.347455
 21
1803.655361
 31
0.0
  0
ARC
  5
10797
100
AcDbEntity
  8
0
100
AcDbCircle
 10
2650.128517
 20
1836.207601
 30
0.0
 40
27.734788
100
AcDbArc
 50
253.680185
 51
286.319815
  0
LINE
  5
10798
100
AcDbEntity
  8
0
100
AcDbLine
 10
2597.411628
 20
1808.155361
 30
0.0
 11
2597.411628
 21
1804.873736
 31
0.0
  0
LINE
  5
10799
100
AcDbEntity
  8
0
100
AcDbLine
 10
2597.411628
 20
1804.873736
 30
0.0
 11
2596.193253
 21
1803.655361
 31
0.0
  0
LINE
  5
1079A
100
AcDbEntity
  8
0
100
AcDbLine
 10
2596.204503
 20
1809.590299
 30
0.0
 11
2596.204503
 21
1822.780361
 31
0.0
  0
LINE
  5
1079B
100
AcDbEntity
  8
0
100
AcDbLine
 10
2601.514503
 20
1808.155361
 30
0.0
 11
2603.999628
 21
1809.590299
 31
0.0
  0
LINE
  5
1079C
100
AcDbEntity
  8
0
100
AcDbLine
 10
2603.999628
 20
1809.590299
 30
0.0
 11
2603.999628
 21
1822.780361
 31
0.0
  0
ARC
  5
1079D
100
AcDbEntity
  8
0
100
AcDbCircle
 10
2600.102066
 20
1815.827584
 30
0.0
 40
7.354912
100
AcDbArc
 50
237.999511
 51
302.000489
  0
LINE
  5
1079E
100
AcDbEntity
  8
0
100
AcDbLine
 10
2641.12908
 20
1890.061986
 30
0.0
 11
2641.12908
 21
1886.780361
 31
0.0
  0
LINE
  5
1079F
100
AcDbEntity
  8
0
100
AcDbLine
 10
2659.12908
 20
1886.780361
 30
0.0
 11
2659.12908
 21
1890.061986
 31
0.0
  0
LINE
  5
107A1
100
AcDbEntity
  8
0
100
AcDbLine
 10
2597.411628
 20
1886.780361
 30
0.0
 11
2597.411628
 21
1890.061986
 31
0.0
  0
LINE
  5
107A2
100
AcDbEntity
  8
0
100
AcDbLine
 10
2572.823628
 20
1809.590299
 30
0.0
 11
2575.308753
 21
1808.155361
 31
0.0
  0
LINE
  5
107A3
100
AcDbEntity
  8
0
100
AcDbLine
 10
2572.823628
 20
1822.780361
 30
0.0
 11
2572.823628
 21
1809.590299
 31
0.0
  0
LINE
  5
107A4
100
AcDbEntity
  8
0
100
AcDbLine
 10
2579.411628
 20
1804.873736
 30
0.0
 11
2579.411628
 21
1808.155361
 31
0.0
  0
LINE
  5
107A5
100
AcDbEntity
  8
0
100
AcDbLine
 10
2580.630003
 20
1803.655361
 30
0.0
 11
2579.411628
 21
1804.873736
 31
0.0
  0
LINE
  5
107A6
100
AcDbEntity
  8
0
100
AcDbLine
 10
2580.617628
 20
1809.590299
 30
0.0
 11
2580.617628
 21
1822.780361
 31
0.0
  0
ARC
  5
107A7
100
AcDbEntity
  8
0
100
AcDbCircle
 10
2576.721191
 20
1815.827584
 30
0.0
 40
7.354912
100
AcDbArc
 50
237.999511
 51
302.000489
  0
LINE
  5
107A8
100
AcDbEntity
  8
0
100
AcDbLine
 10
2542.282177
 20
1809.590299
 30
0.0
 11
2539.797052
 21
1808.155361
 31
0.0
  0
LINE
  5
107A9
100
AcDbEntity
  8
0
100
AcDbLine
 10
2542.282177
 20
1822.780361
 30
0.0
 11
2542.282177
 21
1809.590299
 31
0.0
  0
LINE
  5
107AA
100
AcDbEntity
  8
0
100
AcDbLine
 10
2535.694177
 20
1804.873736
 30
0.0
 11
2535.694177
 21
1808.155361
 31
0.0
  0
LINE
  5
107AB
100
AcDbEntity
  8
0
100
AcDbLine
 10
2534.475802
 20
1803.655361
 30
0.0
 11
2535.694177
 21
1804.873736
 31
0.0
  0
LINE
  5
107AC
100
AcDbEntity
  8
0
100
AcDbLine
 10
2534.488177
 20
1809.590299
 30
0.0
 11
2534.488177
 21
1822.780361
 31
0.0
  0
ARC
  5
107AD
100
AcDbEntity
  8
0
100
AcDbCircle
 10
2538.384614
 20
1815.827584
 30
0.0
 40
7.354912
100
AcDbArc
 50
237.999511
 51
302.000489
  0
LINE
  5
107AE
100
AcDbEntity
  8
0
100
AcDbLine
 10
2579.411628
 20
1890.061986
 30
0.0
 11
2579.411628
 21
1886.780361
 31
0.0
  0
LINE
  5
107AF
100
AcDbEntity
  8
0
100
AcDbLine
 10
2535.694177
 20
1890.061986
 30
0.0
 11
2535.694177
 21
1886.780361
 31
0.0
  0
LINE
  5
107B0
100
AcDbEntity
  8
0
100
AcDbLine
 10
2511.411628
 20
1722.280361
 30
0.0
 11
2511.411628
 21
1802.780361
 31
0.0
  0
LINE
  5
107B1
100
AcDbEntity
  8
0
100
AcDbLine
 10
2508.376289
 20
1707.103665
 30
0.0
 11
2511.411628
 21
1722.280361
 31
0.0
  0
ARC
  5
107B2
100
AcDbEntity
  8
0
100
AcDbCircle
 10
2502.492805
 20
1708.280361
 30
0.0
 40
6.0
100
AcDbArc
 50
306.488331
 51
348.690068
  0
LINE
  5
107B3
100
AcDbEntity
  8
0
100
AcDbLine
 10
2490.061759
 20
1703.703479
 30
0.0
 11
2490.061759
 21
1702.280361
 31
0.0
  0
LINE
  5
107B4
100
AcDbEntity
  8
0
100
AcDbLine
 10
2490.061759
 20
1703.703479
 30
0.0
 11
2491.144759
 21
1704.786479
 31
0.0
  0
LINE
  5
107B5
100
AcDbEntity
  8
0
100
AcDbLine
 10
2506.061759
 20
1702.280361
 30
0.0
 11
2506.061759
 21
1703.703479
 31
0.0
  0
LINE
  5
107B6
100
AcDbEntity
  8
0
100
AcDbLine
 10
2506.061759
 20
1703.703479
 30
0.0
 11
2504.978759
 21
1704.786479
 31
0.0
  0
LINE
  5
107B7
100
AcDbEntity
  8
0
100
AcDbLine
 10
2491.144759
 20
1704.786479
 30
0.0
 11
2504.978759
 21
1704.786479
 31
0.0
  0
LINE
  5
107B8
100
AcDbEntity
  8
0
100
AcDbLine
 10
2463.411628
 20
1886.780361
 30
0.0
 11
2463.411628
 21
1822.780361
 31
0.0
  0
ARC
  5
107B9
100
AcDbEntity
  8
0
100
AcDbCircle
 10
2488.551257
 20
1836.207601
 30
0.0
 40
27.734788
100
AcDbArc
 50
253.680185
 51
286.319815
  0
LINE
  5
107BB
100
AcDbEntity
  8
0
100
AcDbLine
 10
2480.769069
 20
1803.655361
 30
0.0
 11
2496.332319
 21
1803.655361
 31
0.0
  0
LINE
  5
107BC
100
AcDbEntity
  8
0
100
AcDbLine
 10
2501.653569
 20
1808.155361
 30
0.0
 11
2475.447819
 21
1808.155361
 31
0.0
  0
ARC
  5
107BD
100
AcDbEntity
  8
0
100
AcDbCircle
 10
2503.312609
 20
1817.780361
 30
0.0
 40
5.0
100
AcDbArc
 50
11.309932
 51
80.490156
  0
LINE
  5
107BE
100
AcDbEntity
  8
0
100
AcDbLine
 10
2508.215512
 20
1818.760942
 30
0.0
 11
2511.411628
 21
1802.780361
 31
0.0
  0
LINE
  5
107BF
100
AcDbEntity
  8
0
100
AcDbLine
 10
2517.694177
 20
1808.155361
 30
0.0
 11
2517.694177
 21
1804.873736
 31
0.0
  0
LINE
  5
107C0
100
AcDbEntity
  8
0
100
AcDbLine
 10
2517.694177
 20
1804.873736
 30
0.0
 11
2518.912552
 21
1803.655361
 31
0.0
  0
LINE
  5
107C1
100
AcDbEntity
  8
0
100
AcDbLine
 10
2518.901302
 20
1809.590299
 30
0.0
 11
2518.901302
 21
1822.780361
 31
0.0
  0
LINE
  5
107C2
100
AcDbEntity
  8
0
100
AcDbLine
 10
2513.591302
 20
1808.155361
 30
0.0
 11
2511.106177
 21
1809.590299
 31
0.0
  0
LINE
  5
107C3
100
AcDbEntity
  8
0
100
AcDbLine
 10
2511.106177
 20
1809.590299
 30
0.0
 11
2511.106177
 21
1822.780361
 31
0.0
  0
ARC
  5
107C4
100
AcDbEntity
  8
0
100
AcDbCircle
 10
2515.003739
 20
1815.827584
 30
0.0
 40
7.354912
100
AcDbArc
 50
237.999511
 51
302.000489
  0
LINE
  5
107C5
100
AcDbEntity
  8
0
100
AcDbLine
 10
2504.138694
 20
1809.590299
 30
0.0
 11
2501.653569
 21
1808.155361
 31
0.0
  0
LINE
  5
107C6
100
AcDbEntity
  8
0
100
AcDbLine
 10
2504.138694
 20
1822.780361
 30
0.0
 11
2504.138694
 21
1809.590299
 31
0.0
  0
LINE
  5
107C7
100
AcDbEntity
  8
0
100
AcDbLine
 10
2497.550694
 20
1804.873736
 30
0.0
 11
2497.550694
 21
1808.155361
 31
0.0
  0
LINE
  5
107C8
100
AcDbEntity
  8
0
100
AcDbLine
 10
2496.332319
 20
1803.655361
 30
0.0
 11
2497.550694
 21
1804.873736
 31
0.0
  0
LINE
  5
107C9
100
AcDbEntity
  8
0
100
AcDbLine
 10
2496.344694
 20
1809.590299
 30
0.0
 11
2496.344694
 21
1822.780361
 31
0.0
  0
ARC
  5
107CA
100
AcDbEntity
  8
0
100
AcDbCircle
 10
2500.241132
 20
1815.827584
 30
0.0
 40
7.354912
100
AcDbArc
 50
237.999511
 51
302.000489
  0
LINE
  5
107CB
100
AcDbEntity
  8
0
100
AcDbLine
 10
2479.550694
 20
1808.155361
 30
0.0
 11
2479.550694
 21
1804.873736
 31
0.0
  0
LINE
  5
107CC
100
AcDbEntity
  8
0
100
AcDbLine
 10
2479.550694
 20
1804.873736
 30
0.0
 11
2480.769069
 21
1803.655361
 31
0.0
  0
LINE
  5
107CD
100
AcDbEntity
  8
0
100
AcDbLine
 10
2480.757819
 20
1809.590299
 30
0.0
 11
2480.757819
 21
1822.780361
 31
0.0
  0
LINE
  5
107CE
100
AcDbEntity
  8
0
100
AcDbLine
 10
2472.962694
 20
1809.590299
 30
0.0
 11
2472.962694
 21
1822.780361
 31
0.0
  0
LINE
  5
107CF
100
AcDbEntity
  8
0
100
AcDbLine
 10
2475.447819
 20
1808.155361
 30
0.0
 11
2472.962694
 21
1809.590299
 31
0.0
  0
ARC
  5
107D0
100
AcDbEntity
  8
0
100
AcDbCircle
 10
2476.860257
 20
1815.827584
 30
0.0
 40
7.354912
100
AcDbArc
 50
237.999511
 51
302.000489
  0
ARC
  5
107D2
100
AcDbEntity
  8
0
100
AcDbCircle
 10
2500.132413
 20
1890.780361
 30
0.0
 40
4.0
100
AcDbArc
 50
270.0
 51
348.690068
  0
LINE
  5
107D3
100
AcDbEntity
  8
0
100
AcDbLine
 10
2517.694177
 20
1886.780361
 30
0.0
 11
2517.694177
 21
1890.061986
 31
0.0
  0
LINE
  5
107D4
100
AcDbEntity
  8
0
100
AcDbLine
 10
2497.550694
 20
1890.061986
 30
0.0
 11
2497.550694
 21
1886.780361
 31
0.0
  0
LINE
  5
107D5
100
AcDbEntity
  8
0
100
AcDbLine
 10
2479.550694
 20
1886.780361
 30
0.0
 11
2479.550694
 21
1890.061986
 31
0.0
  0
LINE
  5
107D6
100
AcDbEntity
  8
0
100
AcDbLine
 10
2518.912552
 20
1891.280361
 30
0.0
 11
2534.475802
 21
1891.280361
 31
0.0
  0
ARC
  5
107D7
100
AcDbEntity
  8
0
100
AcDbCircle
 10
2535.411628
 20
1966.780361
 30
0.0
 40
27.0
100
AcDbArc
 50
90.0
 51
180.0
  0
ARC
  5
107D8
100
AcDbEntity
  8
0
100
AcDbCircle
 10
2530.188796
 20
1965.780361
 30
0.0
 40
75.0
100
AcDbArc
 50
90.0
 51
134.67461
  0
LINE
  5
107D9
100
AcDbEntity
  8
0
100
AcDbLine
 10
2596.193253
 20
1891.280361
 30
0.0
 11
2580.630003
 21
1891.280361
 31
0.0
  0
LINE
  5
107DB
100
AcDbEntity
  8
0
100
AcDbLine
 10
2657.910705
 20
1891.280361
 30
0.0
 11
2642.347455
 21
1891.280361
 31
0.0
  0
ARC
  5
107DC
100
AcDbEntity
  8
0
100
AcDbCircle
 10
2588.411628
 20
1950.780361
 30
0.0
 40
90.0
100
AcDbArc
 50
73.08761
 51
90.0
  0
LINE
  5
107DD
100
AcDbEntity
  8
0
100
AcDbLine
 10
2641.411628
 20
1993.780361
 30
0.0
 11
2535.411628
 21
1993.780361
 31
0.0
  0
CIRCLE
  5
107DE
100
AcDbEntity
  8
0
100
AcDbCircle
 10
2588.411628
 20
2051.780361
 30
0.0
 40
11.0
  0
ARC
  5
107DF
100
AcDbEntity
  8
0
100
AcDbCircle
 10
2588.411628
 20
2051.780361
 30
0.0
 40
29.0
100
AcDbArc
 50
348.634137
 51
181.469284
  0
ARC
  5
107E0
100
AcDbEntity
  8
0
100
AcDbCircle
 10
2604.411628
 20
2003.40165
 30
0.0
 40
35.0
100
AcDbArc
 50
17.272565
 51
73.08761
  0
ARC
  5
107E1
100
AcDbEntity
  8
0
100
AcDbCircle
 10
2626.64679
 20
2044.094504
 30
0.0
 40
10.0
100
AcDbArc
 50
168.634137
 51
255.0
  0
ARC
  5
107E2
100
AcDbEntity
  8
0
100
AcDbCircle
 10
2647.382267
 20
2016.762945
 30
0.0
 40
10.0
100
AcDbArc
 50
197.272565
 51
297.691142
  0
LINE
  5
107E3
100
AcDbEntity
  8
0
100
AcDbLine
 10
2588.411628
 20
2040.780361
 30
0.0
 11
2530.188796
 21
2040.780361
 31
0.0
  0
ARC
  5
107E4
100
AcDbEntity
  8
0
100
AcDbCircle
 10
2549.424451
 20
2050.780361
 30
0.0
 40
10.0
100
AcDbArc
 50
270.0
 51
1.469284
  0
LINE
  5
107E5
100
AcDbEntity
  8
0
100
AcDbLine
 10
2439.411628
 20
2057.280361
 30
0.0
 11
2439.411628
 21
1902.280361
 31
0.0
  0
LINE
  5
107E6
100
AcDbEntity
  8
0
100
AcDbLine
 10
2421.411628
 20
2057.280361
 30
0.0
 11
2421.411628
 21
1979.780361
 31
0.0
  0
LINE
  5
107E7
100
AcDbEntity
  8
0
100
AcDbLine
 10
2457.196656
 20
1945.337367
 30
0.0
 11
2439.411628
 21
1941.780361
 31
0.0
  0
LINE
  5
107E8
100
AcDbEntity
  8
0
100
AcDbLine
 10
2508.411628
 20
1945.990446
 30
0.0
 11
2508.411628
 21
1911.780361
 31
0.0
  0
LINE
  5
107E9
100
AcDbEntity
  8
0
100
AcDbLine
 10
2480.769069
 20
1891.280361
 30
0.0
 11
2496.332319
 21
1891.280361
 31
0.0
  0
ARC
  5
107EA
100
AcDbEntity
  8
0
100
AcDbCircle
 10
2466.911628
 20
2029.780361
 30
0.0
 40
85.0
100
AcDbArc
 50
263.437106
 51
292.961337
  0
ARC
  5
107EB
100
AcDbEntity
  8
0
100
AcDbCircle
 10
2502.411628
 20
1945.990446
 30
0.0
 40
6.0
100
AcDbArc
 50
0.0
 51
112.961337
  0
LINE
  5
107EC
100
AcDbEntity
  8
0
100
AcDbLine
 10
2421.411628
 20
1979.780361
 30
0.0
 11
2421.411628
 21
1902.280361
 31
0.0
  0
LINE
  5
107ED
100
AcDbEntity
  8
0
100
AcDbLine
 10
2439.411628
 20
1902.280361
 30
0.0
 11
2421.411628
 21
1902.280361
 31
0.0
  0
LINE
  5
107EE
100
AcDbEntity
  8
0
100
AcDbLine
 10
2439.411628
 20
2017.780361
 30
0.0
 11
2454.411628
 21
2014.780361
 31
0.0
  0
ARC
  5
107EF
100
AcDbEntity
  8
0
100
AcDbCircle
 10
2466.911628
 20
2029.780361
 30
0.0
 40
15.0
100
AcDbArc
 50
270.0
 51
314.67461
  0
LINE
  5
107F0
100
AcDbEntity
  8
0
100
AcDbLine
 10
2454.411628
 20
2014.780361
 30
0.0
 11
2466.911628
 21
2014.780361
 31
0.0
  0
LINE
  5
107F1
100
AcDbEntity
  8
0
100
AcDbLine
 10
2439.411628
 20
2057.280361
 30
0.0
 11
2421.411628
 21
2057.280361
 31
0.0
  0
LINE
  5
107F4
100
AcDbEntity
  8
0
100
AcDbLine
 10
2019.467773
 20
680.544522
 30
0.0
 11
2005.633773
 21
680.544522
 31
0.0
  0
LINE
  5
107F8
100
AcDbEntity
  8
0
100
AcDbLine
 10
1995.051273
 20
612.338404
 30
0.0
 11
2220.051273
 21
612.338404
 31
0.0
  0
LINE
  5
107F9
100
AcDbEntity
  8
0
100
AcDbLine
 10
1995.051273
 20
678.038404
 30
0.0
 11
2220.051273
 21
678.038404
 31
0.0
  0
LINE
  5
107FA
100
AcDbEntity
  8
0
100
AcDbLine
 10
1995.051273
 20
644.538404
 30
0.0
 11
2220.051273
 21
644.538404
 31
0.0
  0
LINE
  5
107FB
100
AcDbEntity
  8
0
100
AcDbLine
 10
1995.051273
 20
678.038404
 30
0.0
 11
1995.051273
 21
612.338404
 31
0.0
  0
LINE
  5
10802
100
AcDbEntity
  8
0
100
AcDbLine
 10
2004.550773
 20
679.461522
 30
0.0
 11
2005.633773
 21
680.544522
 31
0.0
  0
LINE
  5
10803
100
AcDbEntity
  8
0
100
AcDbLine
 10
2004.550773
 20
678.038404
 30
0.0
 11
2004.550773
 21
679.461522
 31
0.0
  0
LINE
  5
10804
100
AcDbEntity
  8
0
100
AcDbLine
 10
2220.051273
 20
678.038404
 30
0.0
 11
2220.051273
 21
612.338404
 31
0.0
  0
LINE
  5
10821
100
AcDbEntity
  8
0
100
AcDbLine
 10
2088.051273
 20
591.338404
 30
0.0
 11
2127.051273
 21
591.338404
 31
0.0
  0
LINE
  5
10822
100
AcDbEntity
  8
0
100
AcDbLine
 10
2125.551273
 20
578.338404
 30
0.0
 11
2089.551273
 21
578.338404
 31
0.0
  0
LINE
  5
10827
100
AcDbEntity
  8
0
100
AcDbLine
 10
2083.551273
 20
584.338404
 30
0.0
 11
2083.551273
 21
595.544522
 31
0.0
  0
LINE
  5
1082A
100
AcDbEntity
  8
0
100
AcDbLine
 10
2085.051273
 20
594.338404
 30
0.0
 11
2085.051273
 21
595.544522
 31
0.0
  0
LINE
  5
1082B
100
AcDbEntity
  8
0
100
AcDbLine
 10
2089.551273
 20
578.338404
 30
0.0
 11
2083.551273
 21
584.338404
 31
0.0
  0
ARC
  5
1082C
100
AcDbEntity
  8
0
100
AcDbCircle
 10
2088.051273
 20
594.338404
 30
0.0
 40
3.0
100
AcDbArc
 50
180.0
 51
270.0
  0
LINE
  5
10831
100
AcDbEntity
  8
0
100
AcDbLine
 10
2125.551273
 20
578.338404
 30
0.0
 11
2131.551273
 21
584.338404
 31
0.0
  0
LINE
  5
10837
100
AcDbEntity
  8
0
100
AcDbLine
 10
2131.551273
 20
584.338404
 30
0.0
 11
2131.551273
 21
595.544522
 31
0.0
  0
ARC
  5
10838
100
AcDbEntity
  8
0
100
AcDbCircle
 10
2127.051273
 20
594.338404
 30
0.0
 40
3.0
100
AcDbArc
 50
270.0
 51
0.0
  0
LINE
  5
1083B
100
AcDbEntity
  8
0
100
AcDbLine
 10
2130.051273
 20
594.338404
 30
0.0
 11
2130.051273
 21
595.544522
 31
0.0
  0
LINE
  5
1085E
100
AcDbEntity
  8
0
100
AcDbLine
 10
2085.111173
 20
680.544522
 30
0.0
 11
2071.277173
 21
680.544522
 31
0.0
  0
LINE
  5
1085F
100
AcDbEntity
  8
0
100
AcDbLine
 10
2038.694173
 20
679.461522
 30
0.0
 11
2037.611173
 21
680.544522
 31
0.0
  0
LINE
  5
10860
100
AcDbEntity
  8
0
100
AcDbLine
 10
2038.694173
 20
679.461522
 30
0.0
 11
2038.694173
 21
678.038404
 31
0.0
  0
LINE
  5
10861
100
AcDbEntity
  8
0
100
AcDbLine
 10
2022.694173
 20
679.461522
 30
0.0
 11
2023.777173
 21
680.544522
 31
0.0
  0
LINE
  5
10862
100
AcDbEntity
  8
0
100
AcDbLine
 10
2020.550773
 20
679.461522
 30
0.0
 11
2019.467773
 21
680.544522
 31
0.0
  0
LINE
  5
10863
100
AcDbEntity
  8
0
100
AcDbLine
 10
2022.694173
 20
678.038404
 30
0.0
 11
2022.694173
 21
679.461522
 31
0.0
  0
LINE
  5
10864
100
AcDbEntity
  8
0
100
AcDbLine
 10
2020.550773
 20
679.461522
 30
0.0
 11
2020.550773
 21
678.038404
 31
0.0
  0
LINE
  5
10865
100
AcDbEntity
  8
0
100
AcDbLine
 10
2037.611173
 20
680.544522
 30
0.0
 11
2023.777173
 21
680.544522
 31
0.0
  0
LINE
  5
10867
100
AcDbEntity
  8
0
100
AcDbLine
 10
2070.194173
 20
679.461522
 30
0.0
 11
2071.277173
 21
680.544522
 31
0.0
  0
LINE
  5
10868
100
AcDbEntity
  8
0
100
AcDbLine
 10
2070.194173
 20
678.038404
 30
0.0
 11
2070.194173
 21
679.461522
 31
0.0
  0
LINE
  5
10869
100
AcDbEntity
  8
0
100
AcDbLine
 10
2086.194173
 20
679.461522
 30
0.0
 11
2086.194173
 21
678.038404
 31
0.0
  0
LINE
  5
1086A
100
AcDbEntity
  8
0
100
AcDbLine
 10
2086.194173
 20
679.461522
 30
0.0
 11
2085.111173
 21
680.544522
 31
0.0
  0
LINE
  5
1086B
100
AcDbEntity
  8
0
100
AcDbLine
 10
2129.991373
 20
680.544522
 30
0.0
 11
2143.825373
 21
680.544522
 31
0.0
  0
LINE
  5
1086C
100
AcDbEntity
  8
0
100
AcDbLine
 10
2128.908373
 20
679.461522
 30
0.0
 11
2129.991373
 21
680.544522
 31
0.0
  0
LINE
  5
1086D
100
AcDbEntity
  8
0
100
AcDbLine
 10
2144.908373
 20
679.461522
 30
0.0
 11
2143.825373
 21
680.544522
 31
0.0
  0
LINE
  5
1086E
100
AcDbEntity
  8
0
100
AcDbLine
 10
2128.908373
 20
679.461522
 30
0.0
 11
2128.908373
 21
678.038404
 31
0.0
  0
LINE
  5
1086F
100
AcDbEntity
  8
0
100
AcDbLine
 10
2144.908373
 20
678.038404
 30
0.0
 11
2144.908373
 21
679.461522
 31
0.0
  0
LINE
  5
1088B
100
AcDbEntity
  8
0
100
AcDbLine
 10
1982.551273
 20
862.538404
 30
0.0
 11
2232.551273
 21
862.538404
 31
0.0
  0
LINE
  5
1088C
100
AcDbEntity
  8
0
100
AcDbLine
 10
1982.551273
 20
798.538404
 30
0.0
 11
2232.551273
 21
798.538404
 31
0.0
  0
LINE
  5
1088D
100
AcDbEntity
  8
0
100
AcDbLine
 10
1982.551273
 20
830.538404
 30
0.0
 11
2232.551273
 21
830.538404
 31
0.0
  0
LINE
  5
1088E
100
AcDbEntity
  8
0
100
AcDbLine
 10
1982.551273
 20
862.538404
 30
0.0
 11
1982.551273
 21
798.538404
 31
0.0
  0
LINE
  5
1088F
100
AcDbEntity
  8
0
100
AcDbLine
 10
2232.551273
 20
862.538404
 30
0.0
 11
2232.551273
 21
798.538404
 31
0.0
  0
LINE
  5
10892
100
AcDbEntity
  8
0
100
AcDbLine
 10
2027.515934
 20
682.861707
 30
0.0
 11
2030.551273
 21
698.038404
 31
0.0
  0
LINE
  5
10893
100
AcDbEntity
  8
0
100
AcDbLine
 10
2030.551273
 20
698.038404
 30
0.0
 11
2030.551273
 21
778.538404
 31
0.0
  0
ARC
  5
10897
100
AcDbEntity
  8
0
100
AcDbCircle
 10
2021.63245
 20
684.038404
 30
0.0
 40
6.0
100
AcDbArc
 50
324.386561
 51
348.690068
  0
LINE
  5
1089A
100
AcDbEntity
  8
0
100
AcDbLine
 10
2030.376273
 20
779.413404
 30
0.0
 11
2030.551273
 21
778.538404
 31
0.0
  0
LINE
  5
1089E
100
AcDbEntity
  8
0
100
AcDbLine
 10
1993.551273
 20
865.820029
 30
0.0
 11
1994.769648
 21
867.038404
 31
0.0
  0
LINE
  5
108A3
100
AcDbEntity
  8
0
100
AcDbLine
 10
1994.769648
 20
779.413404
 30
0.0
 11
2010.332898
 21
779.413404
 31
0.0
  0
LINE
  5
108A5
100
AcDbEntity
  8
0
100
AcDbLine
 10
1993.551273
 20
783.913404
 30
0.0
 11
1993.551273
 21
780.631779
 31
0.0
  0
LINE
  5
108A6
100
AcDbEntity
  8
0
100
AcDbLine
 10
1993.551273
 20
780.631779
 30
0.0
 11
1994.769648
 21
779.413404
 31
0.0
  0
LINE
  5
108AB
100
AcDbEntity
  8
0
100
AcDbLine
 10
1993.551273
 20
862.538404
 30
0.0
 11
1993.551273
 21
865.820029
 31
0.0
  0
LINE
  5
108B3
100
AcDbEntity
  8
0
100
AcDbLine
 10
1994.769648
 20
867.038404
 30
0.0
 11
2010.332898
 21
867.038404
 31
0.0
  0
LINE
  5
108B4
100
AcDbEntity
  8
0
100
AcDbLine
 10
2082.886114
 20
867.038404
 30
0.0
 11
2084.104489
 21
865.820029
 31
0.0
  0
LINE
  5
108B5
100
AcDbEntity
  8
0
100
AcDbLine
 10
2066.104489
 20
865.820029
 30
0.0
 11
2067.322864
 21
867.038404
 31
0.0
  0
LINE
  5
108B8
100
AcDbEntity
  8
0
100
AcDbLine
 10
2082.886114
 20
779.413404
 30
0.0
 11
2084.104489
 21
780.631779
 31
0.0
  0
LINE
  5
108B9
100
AcDbEntity
  8
0
100
AcDbLine
 10
2084.104489
 20
780.631779
 30
0.0
 11
2084.104489
 21
783.913404
 31
0.0
  0
LINE
  5
108BD
100
AcDbEntity
  8
0
100
AcDbLine
 10
2066.104489
 20
780.631779
 30
0.0
 11
2067.322864
 21
779.413404
 31
0.0
  0
LINE
  5
108BE
100
AcDbEntity
  8
0
100
AcDbLine
 10
2066.104489
 20
783.913404
 30
0.0
 11
2066.104489
 21
780.631779
 31
0.0
  0
LINE
  5
108BF
100
AcDbEntity
  8
0
100
AcDbLine
 10
2088.604489
 20
783.913404
 30
0.0
 11
2061.604489
 21
783.913404
 31
0.0
  0
LINE
  5
108C0
100
AcDbEntity
  8
0
100
AcDbLine
 10
2067.322864
 20
779.413404
 30
0.0
 11
2082.886114
 21
779.413404
 31
0.0
  0
LINE
  5
108C3
100
AcDbEntity
  8
0
100
AcDbLine
 10
2084.104489
 20
865.820029
 30
0.0
 11
2084.104489
 21
862.538404
 31
0.0
  0
LINE
  5
108C4
100
AcDbEntity
  8
0
100
AcDbLine
 10
2066.104489
 20
862.538404
 30
0.0
 11
2066.104489
 21
865.820029
 31
0.0
  0
LINE
  5
108C6
100
AcDbEntity
  8
0
100
AcDbLine
 10
2067.322864
 20
867.038404
 30
0.0
 11
2082.886114
 21
867.038404
 31
0.0
  0
LINE
  5
108CA
100
AcDbEntity
  8
0
100
AcDbLine
 10
2013.604489
 20
865.820029
 30
0.0
 11
2014.822864
 21
867.038404
 31
0.0
  0
LINE
  5
108CB
100
AcDbEntity
  8
0
100
AcDbLine
 10
2030.386114
 20
867.038404
 30
0.0
 11
2031.604489
 21
865.820029
 31
0.0
  0
LINE
  5
108CE
100
AcDbEntity
  8
0
100
AcDbLine
 10
2014.822864
 20
779.413404
 30
0.0
 11
2030.386114
 21
779.413404
 31
0.0
  0
LINE
  5
108D0
100
AcDbEntity
  8
0
100
AcDbLine
 10
2013.604489
 20
783.913404
 30
0.0
 11
2013.604489
 21
780.631779
 31
0.0
  0
LINE
  5
108D1
100
AcDbEntity
  8
0
100
AcDbLine
 10
2013.604489
 20
780.631779
 30
0.0
 11
2014.822864
 21
779.413404
 31
0.0
  0
LINE
  5
108D5
100
AcDbEntity
  8
0
100
AcDbLine
 10
2031.604489
 20
780.631779
 30
0.0
 11
2031.604489
 21
783.913404
 31
0.0
  0
LINE
  5
108D6
100
AcDbEntity
  8
0
100
AcDbLine
 10
2030.386114
 20
779.413404
 30
0.0
 11
2031.604489
 21
780.631779
 31
0.0
  0
LINE
  5
108DA
100
AcDbEntity
  8
0
100
AcDbLine
 10
2013.604489
 20
862.538404
 30
0.0
 11
2013.604489
 21
865.820029
 31
0.0
  0
LINE
  5
108DB
100
AcDbEntity
  8
0
100
AcDbLine
 10
2031.604489
 20
865.820029
 30
0.0
 11
2031.604489
 21
862.538404
 31
0.0
  0
LINE
  5
108DC
100
AcDbEntity
  8
0
100
AcDbLine
 10
2014.822864
 20
867.038404
 30
0.0
 11
2030.386114
 21
867.038404
 31
0.0
  0
LINE
  5
108E0
100
AcDbEntity
  8
0
100
AcDbLine
 10
2010.332898
 20
867.038404
 30
0.0
 11
2011.551273
 21
865.820029
 31
0.0
  0
LINE
  5
108E1
100
AcDbEntity
  8
0
100
AcDbLine
 10
2011.551273
 20
865.820029
 30
0.0
 11
2011.551273
 21
862.538404
 31
0.0
  0
LINE
  5
108E2
100
AcDbEntity
  8
0
100
AcDbLine
 10
2010.332898
 20
779.413404
 30
0.0
 11
2011.551273
 21
780.631779
 31
0.0
  0
LINE
  5
108E3
100
AcDbEntity
  8
0
100
AcDbLine
 10
2011.551273
 20
780.631779
 30
0.0
 11
2011.551273
 21
783.913404
 31
0.0
  0
LINE
  5
108E4
100
AcDbEntity
  8
0
100
AcDbLine
 10
2184.551273
 20
698.038404
 30
0.0
 11
2184.551273
 21
778.538404
 31
0.0
  0
LINE
  5
108E5
100
AcDbEntity
  8
0
100
AcDbLine
 10
2194.551773
 20
679.461522
 30
0.0
 11
2194.551773
 21
678.038404
 31
0.0
  0
LINE
  5
108E6
100
AcDbEntity
  8
0
100
AcDbLine
 10
2194.551773
 20
679.461522
 30
0.0
 11
2195.634773
 21
680.544522
 31
0.0
  0
LINE
  5
108E7
100
AcDbEntity
  8
0
100
AcDbLine
 10
2210.551773
 20
678.038404
 30
0.0
 11
2210.551773
 21
679.461522
 31
0.0
  0
LINE
  5
108E8
100
AcDbEntity
  8
0
100
AcDbLine
 10
2210.551773
 20
679.461522
 30
0.0
 11
2209.468773
 21
680.544522
 31
0.0
  0
LINE
  5
108E9
100
AcDbEntity
  8
0
100
AcDbLine
 10
2195.634773
 20
680.544522
 30
0.0
 11
2209.468773
 21
680.544522
 31
0.0
  0
ARC
  5
108EA
100
AcDbEntity
  8
0
100
AcDbCircle
 10
2193.470097
 20
684.038404
 30
0.0
 40
6.0
100
AcDbArc
 50
191.309932
 51
215.613439
  0
LINE
  5
108EB
100
AcDbEntity
  8
0
100
AcDbLine
 10
2187.586613
 20
682.861707
 30
0.0
 11
2184.551273
 21
698.038404
 31
0.0
  0
LINE
  5
108EC
100
AcDbEntity
  8
0
100
AcDbLine
 10
2177.491373
 20
680.544522
 30
0.0
 11
2191.325373
 21
680.544522
 31
0.0
  0
LINE
  5
108ED
100
AcDbEntity
  8
0
100
AcDbLine
 10
2192.408373
 20
678.038404
 30
0.0
 11
2192.408373
 21
679.461522
 31
0.0
  0
LINE
  5
108EE
100
AcDbEntity
  8
0
100
AcDbLine
 10
2192.408373
 20
679.461522
 30
0.0
 11
2191.325373
 21
680.544522
 31
0.0
  0
LINE
  5
108EF
100
AcDbEntity
  8
0
100
AcDbLine
 10
2176.408373
 20
679.461522
 30
0.0
 11
2176.408373
 21
678.038404
 31
0.0
  0
LINE
  5
108F0
100
AcDbEntity
  8
0
100
AcDbLine
 10
2176.408373
 20
679.461522
 30
0.0
 11
2177.491373
 21
680.544522
 31
0.0
  0
LINE
  5
1091E
100
AcDbEntity
  8
0
100
AcDbLine
 10
2204.769648
 20
867.038404
 30
0.0
 11
2203.551273
 21
865.820029
 31
0.0
  0
LINE
  5
1091F
100
AcDbEntity
  8
0
100
AcDbLine
 10
2184.716433
 20
867.038404
 30
0.0
 11
2183.498058
 21
865.820029
 31
0.0
  0
LINE
  5
10920
100
AcDbEntity
  8
0
100
AcDbLine
 10
2201.498058
 20
865.820029
 30
0.0
 11
2200.279683
 21
867.038404
 31
0.0
  0
LINE
  5
10921
100
AcDbEntity
  8
0
100
AcDbLine
 10
2148.998058
 20
865.820029
 30
0.0
 11
2147.779683
 21
867.038404
 31
0.0
  0
LINE
  5
10922
100
AcDbEntity
  8
0
100
AcDbLine
 10
2132.216433
 20
867.038404
 30
0.0
 11
2130.998058
 21
865.820029
 31
0.0
  0
LINE
  5
10923
100
AcDbEntity
  8
0
100
AcDbLine
 10
2221.551273
 20
865.820029
 30
0.0
 11
2220.332898
 21
867.038404
 31
0.0
  0
LINE
  5
10925
100
AcDbEntity
  8
0
100
AcDbLine
 10
2203.551273
 20
865.820029
 30
0.0
 11
2203.551273
 21
862.538404
 31
0.0
  0
LINE
  5
10926
100
AcDbEntity
  8
0
100
AcDbLine
 10
2201.498058
 20
862.538404
 30
0.0
 11
2201.498058
 21
865.820029
 31
0.0
  0
LINE
  5
10927
100
AcDbEntity
  8
0
100
AcDbLine
 10
2221.551273
 20
862.538404
 30
0.0
 11
2221.551273
 21
865.820029
 31
0.0
  0
LINE
  5
10929
100
AcDbEntity
  8
0
100
AcDbLine
 10
2183.498058
 20
865.820029
 30
0.0
 11
2183.498058
 21
862.538404
 31
0.0
  0
LINE
  5
1092B
100
AcDbEntity
  8
0
100
AcDbLine
 10
2148.998058
 20
862.538404
 30
0.0
 11
2148.998058
 21
865.820029
 31
0.0
  0
LINE
  5
1092C
100
AcDbEntity
  8
0
100
AcDbLine
 10
2130.998058
 20
865.820029
 30
0.0
 11
2130.998058
 21
862.538404
 31
0.0
  0
LINE
  5
1092D
100
AcDbEntity
  8
0
100
AcDbLine
 10
2200.279683
 20
867.038404
 30
0.0
 11
2184.716433
 21
867.038404
 31
0.0
  0
LINE
  5
1092E
100
AcDbEntity
  8
0
100
AcDbLine
 10
2220.332898
 20
867.038404
 30
0.0
 11
2204.769648
 21
867.038404
 31
0.0
  0
LINE
  5
1092F
100
AcDbEntity
  8
0
100
AcDbLine
 10
2147.779683
 20
867.038404
 30
0.0
 11
2132.216433
 21
867.038404
 31
0.0
  0
CIRCLE
  5
10930
100
AcDbEntity
  8
0
100
AcDbCircle
 10
2107.551273
 20
955.538404
 30
0.0
 40
77.5
  0
CIRCLE
  5
10932
100
AcDbEntity
  8
0
100
AcDbCircle
 10
2162.984045
 20
978.49941
 30
0.0
 40
9.5
  0
CIRCLE
  5
10933
100
AcDbEntity
  8
0
100
AcDbCircle
 10
2130.512279
 20
1010.971176
 30
0.0
 40
9.5
  0
CIRCLE
  5
10934
100
AcDbEntity
  8
0
100
AcDbCircle
 10
2084.590267
 20
1010.971176
 30
0.0
 40
9.5
  0
CIRCLE
  5
10935
100
AcDbEntity
  8
0
100
AcDbCircle
 10
2052.118501
 20
978.49941
 30
0.0
 40
9.5
  0
CIRCLE
  5
10936
100
AcDbEntity
  8
0
100
AcDbCircle
 10
2052.118501
 20
932.577398
 30
0.0
 40
9.5
  0
CIRCLE
  5
10937
100
AcDbEntity
  8
0
100
AcDbCircle
 10
2084.590267
 20
900.105632
 30
0.0
 40
9.5
  0
CIRCLE
  5
10938
100
AcDbEntity
  8
0
100
AcDbCircle
 10
2130.512279
 20
900.105632
 30
0.0
 40
9.5
  0
CIRCLE
  5
10939
100
AcDbEntity
  8
0
100
AcDbCircle
 10
2162.984045
 20
932.577398
 30
0.0
 40
9.5
  0
LINE
  5
1093C
100
AcDbEntity
  8
0
100
AcDbLine
 10
2113.551273
 20
1056.538404
 30
0.0
 11
2101.551273
 21
1056.538404
 31
0.0
  0
LINE
  5
1093D
100
AcDbEntity
  8
0
100
AcDbLine
 10
2113.551273
 20
1032.805797
 30
0.0
 11
2113.551273
 21
1056.538404
 31
0.0
  0
LINE
  5
1093E
100
AcDbEntity
  8
0
100
AcDbLine
 10
2101.551273
 20
1032.805797
 30
0.0
 11
2101.551273
 21
1056.538404
 31
0.0
  0
LINE
  5
1093F
100
AcDbEntity
  8
0
100
AcDbLine
 10
2191.651273
 20
867.038404
 30
0.0
 11
2188.051273
 21
885.038404
 31
0.0
  0
LINE
  5
10940
100
AcDbEntity
  8
0
100
AcDbLine
 10
2187.551273
 20
942.538404
 30
0.0
 11
2187.551273
 21
930.038404
 31
0.0
  0
LINE
  5
10943
100
AcDbEntity
  8
0
100
AcDbLine
 10
2192.551273
 20
888.038404
 30
0.0
 11
2192.551273
 21
927.038404
 31
0.0
  0
LINE
  5
10944
100
AcDbEntity
  8
0
100
AcDbLine
 10
2189.551273
 20
930.038404
 30
0.0
 11
2187.322073
 21
930.038404
 31
0.0
  0
LINE
  5
10945
100
AcDbEntity
  8
0
100
AcDbLine
 10
2189.551273
 20
885.038404
 30
0.0
 11
2187.322073
 21
885.038404
 31
0.0
  0
ARC
  5
10947
100
AcDbEntity
  8
0
100
AcDbCircle
 10
2160.551273
 20
942.538404
 30
0.0
 40
27.0
100
AcDbArc
 50
0.0
 51
24.935539
  0
ARC
  5
1094A
100
AcDbEntity
  8
0
100
AcDbCircle
 10
2187.322073
 20
933.038404
 30
0.0
 40
3.0
100
AcDbArc
 50
180.0
 51
270.0
  0
ARC
  5
1094C
100
AcDbEntity
  8
0
100
AcDbCircle
 10
2187.322073
 20
882.038404
 30
0.0
 40
3.0
100
AcDbArc
 50
90.0
 51
180.0
  0
ARC
  5
1094D
100
AcDbEntity
  8
0
100
AcDbCircle
 10
2495.775022
 20
907.538404
 30
0.0
 40
311.452949
100
AcDbArc
 50
176.381408
 51
183.618592
  0
LINE
  5
10951
100
AcDbEntity
  8
0
100
AcDbLine
 10
2022.551273
 20
914.538404
 30
0.0
 11
2022.551273
 21
878.538404
 31
0.0
  0
LINE
  5
10956
100
AcDbEntity
  8
0
100
AcDbLine
 10
2031.450273
 20
875.538404
 30
0.0
 11
2025.551273
 21
875.538404
 31
0.0
  0
LINE
  5
10957
100
AcDbEntity
  8
0
100
AcDbLine
 10
2031.450273
 20
917.538404
 30
0.0
 11
2025.551273
 21
917.538404
 31
0.0
  0
ARC
  5
1095D
100
AcDbEntity
  8
0
100
AcDbCircle
 10
2189.551273
 20
927.038404
 30
0.0
 40
3.0
100
AcDbArc
 50
0.0
 51
90.0
  0
ARC
  5
1095E
100
AcDbEntity
  8
0
100
AcDbCircle
 10
2189.551273
 20
888.038404
 30
0.0
 40
3.0
100
AcDbArc
 50
270.0
 51
0.0
  0
ARC
  5
1095F
100
AcDbEntity
  8
0
100
AcDbCircle
 10
2025.551273
 20
914.538404
 30
0.0
 40
3.0
100
AcDbArc
 50
90.0
 51
180.0
  0
ARC
  5
10960
100
AcDbEntity
  8
0
100
AcDbCircle
 10
2025.551273
 20
878.538404
 30
0.0
 40
3.0
100
AcDbArc
 50
180.0
 51
270.0
  0
LINE
  5
10961
100
AcDbEntity
  8
0
100
AcDbLine
 10
2027.551273
 20
942.538404
 30
0.0
 11
2027.551273
 21
917.538404
 31
0.0
  0
ARC
  5
10962
100
AcDbEntity
  8
0
100
AcDbCircle
 10
2054.551273
 20
942.538404
 30
0.0
 40
27.0
100
AcDbArc
 50
155.064461
 51
180.0
  0
LINE
  5
10963
100
AcDbEntity
  8
0
100
AcDbLine
 10
2023.451273
 20
867.038404
 30
0.0
 11
2025.156491
 21
875.564493
 31
0.0
  0
ARC
  5
10965
100
AcDbEntity
  8
0
100
AcDbCircle
 10
2031.450273
 20
920.538404
 30
0.0
 40
3.0
100
AcDbArc
 50
270.0
 51
360.0
  0
ARC
  5
10966
100
AcDbEntity
  8
0
100
AcDbCircle
 10
2031.450273
 20
872.538404
 30
0.0
 40
3.0
100
AcDbArc
 50
0.0
 51
90.0
  0
ARC
  5
10968
100
AcDbEntity
  8
0
100
AcDbCircle
 10
1768.643613
 20
896.538404
 30
0.0
 40
265.829854
100
AcDbArc
 50
356.383888
 51
3.616112
  0
TEXT
  5
1096A
100
AcDbEntity
  8
0
100
AcDbText
 10
2552.652702
 20
510.968717
 30
0.0
 40
30.0
  1
50A
 41
0.8
 72
     1
 11
2584.652702
 21
525.968717
 31
0.0
100
AcDbText
 73
     2
  0
LINE
  5
1096C
100
AcDbEntity
  8
0
100
AcDbLine
 10
2925.271983
 20
865.820029
 30
0.0
 11
2926.490358
 21
867.038404
 31
0.0
  0
LINE
  5
1096D
100
AcDbEntity
  8
0
100
AcDbLine
 10
3014.606824
 20
867.038404
 30
0.0
 11
3015.825199
 21
865.820029
 31
0.0
  0
LINE
  5
1096E
100
AcDbEntity
  8
0
100
AcDbLine
 10
2997.825199
 20
865.820029
 30
0.0
 11
2999.043574
 21
867.038404
 31
0.0
  0
LINE
  5
1096F
100
AcDbEntity
  8
0
100
AcDbLine
 10
2945.325199
 20
865.820029
 30
0.0
 11
2946.543574
 21
867.038404
 31
0.0
  0
LINE
  5
10970
100
AcDbEntity
  8
0
100
AcDbLine
 10
2962.106824
 20
867.038404
 30
0.0
 11
2963.325199
 21
865.820029
 31
0.0
  0
LINE
  5
10971
100
AcDbEntity
  8
0
100
AcDbLine
 10
2942.053608
 20
867.038404
 30
0.0
 11
2943.271983
 21
865.820029
 31
0.0
  0
LINE
  5
10972
100
AcDbEntity
  8
0
100
AcDbLine
 10
3136.490358
 20
867.038404
 30
0.0
 11
3135.271983
 21
865.820029
 31
0.0
  0
LINE
  5
10973
100
AcDbEntity
  8
0
100
AcDbLine
 10
3116.437143
 20
867.038404
 30
0.0
 11
3115.218768
 21
865.820029
 31
0.0
  0
LINE
  5
10974
100
AcDbEntity
  8
0
100
AcDbLine
 10
3133.218768
 20
865.820029
 30
0.0
 11
3132.000393
 21
867.038404
 31
0.0
  0
LINE
  5
10975
100
AcDbEntity
  8
0
100
AcDbLine
 10
3080.718768
 20
865.820029
 30
0.0
 11
3079.500393
 21
867.038404
 31
0.0
  0
LINE
  5
10976
100
AcDbEntity
  8
0
100
AcDbLine
 10
3063.937143
 20
867.038404
 30
0.0
 11
3062.718768
 21
865.820029
 31
0.0
  0
LINE
  5
10977
100
AcDbEntity
  8
0
100
AcDbLine
 10
3153.271983
 20
865.820029
 30
0.0
 11
3152.053608
 21
867.038404
 31
0.0
  0
LINE
  5
1097D
100
AcDbEntity
  8
0
100
AcDbLine
 10
3076.629083
 20
679.461522
 30
0.0
 11
3075.546083
 21
680.544522
 31
0.0
  0
LINE
  5
10981
100
AcDbEntity
  8
0
100
AcDbLine
 10
2914.271983
 20
862.538404
 30
0.0
 11
3164.271983
 21
862.538404
 31
0.0
  0
LINE
  5
10982
100
AcDbEntity
  8
0
100
AcDbLine
 10
2914.271983
 20
798.538404
 30
0.0
 11
3164.271983
 21
798.538404
 31
0.0
  0
LINE
  5
10983
100
AcDbEntity
  8
0
100
AcDbLine
 10
2914.271983
 20
830.538404
 30
0.0
 11
3164.271983
 21
830.538404
 31
0.0
  0
LINE
  5
10985
100
AcDbEntity
  8
0
100
AcDbLine
 10
2926.771983
 20
644.538404
 30
0.0
 11
3151.771983
 21
644.538404
 31
0.0
  0
LINE
  5
10986
100
AcDbEntity
  8
0
100
AcDbLine
 10
2926.771983
 20
678.038404
 30
0.0
 11
3151.771983
 21
678.038404
 31
0.0
  0
LINE
  5
10987
100
AcDbEntity
  8
0
100
AcDbLine
 10
2926.771983
 20
678.038404
 30
0.0
 11
2926.771983
 21
612.338404
 31
0.0
  0
LINE
  5
109A3
100
AcDbEntity
  8
0
100
AcDbLine
 10
3057.271983
 20
578.338404
 30
0.0
 11
3021.271983
 21
578.338404
 31
0.0
  0
LINE
  5
109B1
100
AcDbEntity
  8
0
100
AcDbLine
 10
3015.271983
 20
584.338404
 30
0.0
 11
3015.271983
 21
595.544522
 31
0.0
  0
LINE
  5
109B5
100
AcDbEntity
  8
0
100
AcDbLine
 10
3021.271983
 20
578.338404
 30
0.0
 11
3015.271983
 21
584.338404
 31
0.0
  0
LINE
  5
109BB
100
AcDbEntity
  8
0
100
AcDbLine
 10
3057.271983
 20
578.338404
 30
0.0
 11
3063.271983
 21
584.338404
 31
0.0
  0
LINE
  5
109C1
100
AcDbEntity
  8
0
100
AcDbLine
 10
3063.271983
 20
584.338404
 30
0.0
 11
3063.271983
 21
595.544522
 31
0.0
  0
LINE
  5
109C9
100
AcDbEntity
  8
0
100
AcDbLine
 10
2962.271983
 20
698.038404
 30
0.0
 11
2962.271983
 21
778.538404
 31
0.0
  0
LINE
  5
109CA
100
AcDbEntity
  8
0
100
AcDbLine
 10
2952.271483
 20
679.461522
 30
0.0
 11
2951.188483
 21
680.544522
 31
0.0
  0
LINE
  5
109CB
100
AcDbEntity
  8
0
100
AcDbLine
 10
2952.271483
 20
679.461522
 30
0.0
 11
2952.271483
 21
678.038404
 31
0.0
  0
LINE
  5
109CC
100
AcDbEntity
  8
0
100
AcDbLine
 10
2970.414883
 20
679.461522
 30
0.0
 11
2969.331883
 21
680.544522
 31
0.0
  0
LINE
  5
109CD
100
AcDbEntity
  8
0
100
AcDbLine
 10
2970.414883
 20
679.461522
 30
0.0
 11
2970.414883
 21
678.038404
 31
0.0
  0
LINE
  5
109CE
100
AcDbEntity
  8
0
100
AcDbLine
 10
2954.414883
 20
679.461522
 30
0.0
 11
2955.497883
 21
680.544522
 31
0.0
  0
LINE
  5
109CF
100
AcDbEntity
  8
0
100
AcDbLine
 10
2954.414883
 20
678.038404
 30
0.0
 11
2954.414883
 21
679.461522
 31
0.0
  0
LINE
  5
109D0
100
AcDbEntity
  8
0
100
AcDbLine
 10
2969.331883
 20
680.544522
 30
0.0
 11
2955.497883
 21
680.544522
 31
0.0
  0
LINE
  5
109D1
100
AcDbEntity
  8
0
100
AcDbLine
 10
2959.236644
 20
682.861707
 30
0.0
 11
2962.271983
 21
698.038404
 31
0.0
  0
ARC
  5
109D2
100
AcDbEntity
  8
0
100
AcDbCircle
 10
2953.35316
 20
684.038404
 30
0.0
 40
6.0
100
AcDbArc
 50
324.386561
 51
348.690068
  0
LINE
  5
109D3
100
AcDbEntity
  8
0
100
AcDbLine
 10
2936.271483
 20
679.461522
 30
0.0
 11
2937.354483
 21
680.544522
 31
0.0
  0
LINE
  5
109D4
100
AcDbEntity
  8
0
100
AcDbLine
 10
2936.271483
 20
678.038404
 30
0.0
 11
2936.271483
 21
679.461522
 31
0.0
  0
LINE
  5
109D5
100
AcDbEntity
  8
0
100
AcDbLine
 10
2951.188483
 20
680.544522
 30
0.0
 11
2937.354483
 21
680.544522
 31
0.0
  0
LINE
  5
109D6
100
AcDbEntity
  8
0
100
AcDbLine
 10
3016.831883
 20
680.544522
 30
0.0
 11
3002.997883
 21
680.544522
 31
0.0
  0
LINE
  5
109D7
100
AcDbEntity
  8
0
100
AcDbLine
 10
3001.914883
 20
679.461522
 30
0.0
 11
3002.997883
 21
680.544522
 31
0.0
  0
LINE
  5
109D8
100
AcDbEntity
  8
0
100
AcDbLine
 10
3001.914883
 20
678.038404
 30
0.0
 11
3001.914883
 21
679.461522
 31
0.0
  0
LINE
  5
109D9
100
AcDbEntity
  8
0
100
AcDbLine
 10
3017.914883
 20
679.461522
 30
0.0
 11
3017.914883
 21
678.038404
 31
0.0
  0
LINE
  5
109DA
100
AcDbEntity
  8
0
100
AcDbLine
 10
3017.914883
 20
679.461522
 30
0.0
 11
3016.831883
 21
680.544522
 31
0.0
  0
LINE
  5
109DB
100
AcDbEntity
  8
0
100
AcDbLine
 10
3061.712083
 20
680.544522
 30
0.0
 11
3075.546083
 21
680.544522
 31
0.0
  0
LINE
  5
109DC
100
AcDbEntity
  8
0
100
AcDbLine
 10
3060.629083
 20
679.461522
 30
0.0
 11
3061.712083
 21
680.544522
 31
0.0
  0
LINE
  5
109DD
100
AcDbEntity
  8
0
100
AcDbLine
 10
3060.629083
 20
679.461522
 30
0.0
 11
3060.629083
 21
678.038404
 31
0.0
  0
LINE
  5
109DE
100
AcDbEntity
  8
0
100
AcDbLine
 10
2914.271983
 20
862.538404
 30
0.0
 11
2914.271983
 21
798.538404
 31
0.0
  0
LINE
  5
109FD
100
AcDbEntity
  8
0
100
AcDbLine
 10
2925.271983
 20
862.538404
 30
0.0
 11
2925.271983
 21
865.820029
 31
0.0
  0
LINE
  5
109FE
100
AcDbEntity
  8
0
100
AcDbLine
 10
2963.325199
 20
865.820029
 30
0.0
 11
2963.325199
 21
862.538404
 31
0.0
  0
LINE
  5
109FF
100
AcDbEntity
  8
0
100
AcDbLine
 10
2945.325199
 20
862.538404
 30
0.0
 11
2945.325199
 21
865.820029
 31
0.0
  0
LINE
  5
10A00
100
AcDbEntity
  8
0
100
AcDbLine
 10
2943.271983
 20
865.820029
 30
0.0
 11
2943.271983
 21
862.538404
 31
0.0
  0
LINE
  5
10A18
100
AcDbEntity
  8
0
100
AcDbLine
 10
3015.825199
 20
865.820029
 30
0.0
 11
3015.825199
 21
862.538404
 31
0.0
  0
LINE
  5
10A19
100
AcDbEntity
  8
0
100
AcDbLine
 10
2997.825199
 20
862.538404
 30
0.0
 11
2997.825199
 21
865.820029
 31
0.0
  0
LINE
  5
10A1B
100
AcDbEntity
  8
0
100
AcDbLine
 10
3062.718768
 20
865.820029
 30
0.0
 11
3062.718768
 21
862.538404
 31
0.0
  0
LINE
  5
10A1C
100
AcDbEntity
  8
0
100
AcDbLine
 10
3151.771983
 20
678.038404
 30
0.0
 11
3151.771983
 21
612.338404
 31
0.0
  0
LINE
  5
10A3B
100
AcDbEntity
  8
0
100
AcDbLine
 10
3116.271983
 20
698.038404
 30
0.0
 11
3116.271983
 21
778.538404
 31
0.0
  0
ARC
  5
10A3C
100
AcDbEntity
  8
0
100
AcDbCircle
 10
3125.190807
 20
684.038404
 30
0.0
 40
6.0
100
AcDbArc
 50
191.309932
 51
215.613439
  0
LINE
  5
10A3D
100
AcDbEntity
  8
0
100
AcDbLine
 10
3119.307323
 20
682.861707
 30
0.0
 11
3116.271983
 21
698.038404
 31
0.0
  0
LINE
  5
10A3E
100
AcDbEntity
  8
0
100
AcDbLine
 10
3109.212083
 20
680.544522
 30
0.0
 11
3123.046083
 21
680.544522
 31
0.0
  0
LINE
  5
10A3F
100
AcDbEntity
  8
0
100
AcDbLine
 10
3124.129083
 20
678.038404
 30
0.0
 11
3124.129083
 21
679.461522
 31
0.0
  0
LINE
  5
10A40
100
AcDbEntity
  8
0
100
AcDbLine
 10
3124.129083
 20
679.461522
 30
0.0
 11
3123.046083
 21
680.544522
 31
0.0
  0
LINE
  5
10A41
100
AcDbEntity
  8
0
100
AcDbLine
 10
3108.129083
 20
679.461522
 30
0.0
 11
3108.129083
 21
678.038404
 31
0.0
  0
LINE
  5
10A42
100
AcDbEntity
  8
0
100
AcDbLine
 10
3108.129083
 20
679.461522
 30
0.0
 11
3109.212083
 21
680.544522
 31
0.0
  0
LINE
  5
10A43
100
AcDbEntity
  8
0
100
AcDbLine
 10
3076.629083
 20
678.038404
 30
0.0
 11
3076.629083
 21
679.461522
 31
0.0
  0
LINE
  5
10A44
100
AcDbEntity
  8
0
100
AcDbLine
 10
3142.272483
 20
678.038404
 30
0.0
 11
3142.272483
 21
679.461522
 31
0.0
  0
LINE
  5
10A45
100
AcDbEntity
  8
0
100
AcDbLine
 10
3142.272483
 20
679.461522
 30
0.0
 11
3141.189483
 21
680.544522
 31
0.0
  0
LINE
  5
10A46
100
AcDbEntity
  8
0
100
AcDbLine
 10
3126.272483
 20
679.461522
 30
0.0
 11
3126.272483
 21
678.038404
 31
0.0
  0
LINE
  5
10A47
100
AcDbEntity
  8
0
100
AcDbLine
 10
3126.272483
 20
679.461522
 30
0.0
 11
3127.355483
 21
680.544522
 31
0.0
  0
LINE
  5
10A48
100
AcDbEntity
  8
0
100
AcDbLine
 10
3127.355483
 20
680.544522
 30
0.0
 11
3141.189483
 21
680.544522
 31
0.0
  0
LINE
  5
10A49
100
AcDbEntity
  8
0
100
AcDbLine
 10
3164.271983
 20
862.538404
 30
0.0
 11
3164.271983
 21
798.538404
 31
0.0
  0
LINE
  5
10A6E
100
AcDbEntity
  8
0
100
AcDbLine
 10
3115.218768
 20
865.820029
 30
0.0
 11
3115.218768
 21
862.538404
 31
0.0
  0
LINE
  5
10A6F
100
AcDbEntity
  8
0
100
AcDbLine
 10
3080.718768
 20
862.538404
 30
0.0
 11
3080.718768
 21
865.820029
 31
0.0
  0
LINE
  5
10A70
100
AcDbEntity
  8
0
100
AcDbLine
 10
3153.271983
 20
862.538404
 30
0.0
 11
3153.271983
 21
865.820029
 31
0.0
  0
LINE
  5
10A71
100
AcDbEntity
  8
0
100
AcDbLine
 10
3135.271983
 20
865.820029
 30
0.0
 11
3135.271983
 21
862.538404
 31
0.0
  0
LINE
  5
10A72
100
AcDbEntity
  8
0
100
AcDbLine
 10
3133.218768
 20
862.538404
 30
0.0
 11
3133.218768
 21
865.820029
 31
0.0
  0
LINE
  5
10A74
100
AcDbEntity
  8
0
100
AcDbLine
 10
3079.500393
 20
867.038404
 30
0.0
 11
3063.937143
 21
867.038404
 31
0.0
  0
CIRCLE
  5
10A75
100
AcDbEntity
  8
0
100
AcDbCircle
 10
3039.271983
 20
955.538404
 30
0.0
 40
77.5
  0
CIRCLE
  5
10A76
100
AcDbEntity
  8
0
100
AcDbCircle
 10
2983.839211
 20
932.577398
 30
0.0
 40
9.5
  0
ARC
  5
10A77
100
AcDbEntity
  8
0
100
AcDbCircle
 10
2957.271983
 20
914.538404
 30
0.0
 40
3.0
100
AcDbArc
 50
90.0
 51
180.0
  0
LINE
  5
10A78
100
AcDbEntity
  8
0
100
AcDbLine
 10
2926.490358
 20
867.038404
 30
0.0
 11
2942.053608
 21
867.038404
 31
0.0
  0
LINE
  5
10A79
100
AcDbEntity
  8
0
100
AcDbLine
 10
2954.271983
 20
914.538404
 30
0.0
 11
2954.271983
 21
878.538404
 31
0.0
  0
ARC
  5
10A7A
100
AcDbEntity
  8
0
100
AcDbCircle
 10
2957.271983
 20
878.538404
 30
0.0
 40
3.0
100
AcDbArc
 50
180.0
 51
270.0
  0
LINE
  5
10A7B
100
AcDbEntity
  8
0
100
AcDbLine
 10
2955.171983
 20
867.038404
 30
0.0
 11
2956.877201
 21
875.564493
 31
0.0
  0
ARC
  5
10A7C
100
AcDbEntity
  8
0
100
AcDbCircle
 10
2963.170983
 20
872.538404
 30
0.0
 40
3.0
100
AcDbArc
 50
0.0
 51
90.0
  0
LINE
  5
10A7D
100
AcDbEntity
  8
0
100
AcDbLine
 10
2963.170983
 20
875.538404
 30
0.0
 11
2957.271983
 21
875.538404
 31
0.0
  0
ARC
  5
10A7E
100
AcDbEntity
  8
0
100
AcDbCircle
 10
2700.364323
 20
896.538404
 30
0.0
 40
265.829854
100
AcDbArc
 50
356.383888
 51
3.616112
  0
LINE
  5
10A7F
100
AcDbEntity
  8
0
100
AcDbLine
 10
2946.543574
 20
867.038404
 30
0.0
 11
2962.106824
 21
867.038404
 31
0.0
  0
ARC
  5
10A80
100
AcDbEntity
  8
0
100
AcDbCircle
 10
2986.271983
 20
942.538404
 30
0.0
 40
27.0
100
AcDbArc
 50
155.064461
 51
180.0
  0
LINE
  5
10A81
100
AcDbEntity
  8
0
100
AcDbLine
 10
2959.271983
 20
942.538404
 30
0.0
 11
2959.271983
 21
917.538404
 31
0.0
  0
LINE
  5
10A82
100
AcDbEntity
  8
0
100
AcDbLine
 10
2963.170983
 20
917.538404
 30
0.0
 11
2957.271983
 21
917.538404
 31
0.0
  0
ARC
  5
10A83
100
AcDbEntity
  8
0
100
AcDbCircle
 10
2963.170983
 20
920.538404
 30
0.0
 40
3.0
100
AcDbArc
 50
270.0
 51
360.0
  0
CIRCLE
  5
10A84
100
AcDbEntity
  8
0
100
AcDbCircle
 10
3016.310977
 20
900.105632
 30
0.0
 40
9.5
  0
LINE
  5
10A85
100
AcDbEntity
  8
0
100
AcDbLine
 10
2999.043574
 20
867.038404
 30
0.0
 11
3014.606824
 21
867.038404
 31
0.0
  0
CIRCLE
  5
10A86
100
AcDbEntity
  8
0
100
AcDbCircle
 10
3062.232989
 20
900.105632
 30
0.0
 40
9.5
  0
CIRCLE
  5
10A87
100
AcDbEntity
  8
0
100
AcDbCircle
 10
2983.839211
 20
978.49941
 30
0.0
 40
9.5
  0
CIRCLE
  5
10A88
100
AcDbEntity
  8
0
100
AcDbCircle
 10
3062.232989
 20
1010.971176
 30
0.0
 40
9.5
  0
CIRCLE
  5
10A89
100
AcDbEntity
  8
0
100
AcDbCircle
 10
3016.310977
 20
1010.971176
 30
0.0
 40
9.5
  0
LINE
  5
10A8A
100
AcDbEntity
  8
0
100
AcDbLine
 10
3045.271983
 20
1032.805797
 30
0.0
 11
3045.271983
 21
1056.538404
 31
0.0
  0
LINE
  5
10A8B
100
AcDbEntity
  8
0
100
AcDbLine
 10
3033.271983
 20
1032.805797
 30
0.0
 11
3033.271983
 21
1056.538404
 31
0.0
  0
LINE
  5
10A8C
100
AcDbEntity
  8
0
100
AcDbLine
 10
3045.271983
 20
1056.538404
 30
0.0
 11
3033.271983
 21
1056.538404
 31
0.0
  0
ARC
  5
10A8D
100
AcDbEntity
  8
0
100
AcDbCircle
 10
3427.495732
 20
907.538404
 30
0.0
 40
311.452949
100
AcDbArc
 50
176.381408
 51
183.618592
  0
LINE
  5
10A8E
100
AcDbEntity
  8
0
100
AcDbLine
 10
3124.271983
 20
888.038404
 30
0.0
 11
3124.271983
 21
927.038404
 31
0.0
  0
LINE
  5
10A8F
100
AcDbEntity
  8
0
100
AcDbLine
 10
3132.000393
 20
867.038404
 30
0.0
 11
3116.437143
 21
867.038404
 31
0.0
  0
ARC
  5
10A90
100
AcDbEntity
  8
0
100
AcDbCircle
 10
3121.271983
 20
888.038404
 30
0.0
 40
3.0
100
AcDbArc
 50
270.0
 51
0.0
  0
ARC
  5
10A91
100
AcDbEntity
  8
0
100
AcDbCircle
 10
3119.042783
 20
882.038404
 30
0.0
 40
3.0
100
AcDbArc
 50
90.0
 51
180.0
  0
LINE
  5
10A92
100
AcDbEntity
  8
0
100
AcDbLine
 10
3123.371983
 20
867.038404
 30
0.0
 11
3119.771983
 21
885.038404
 31
0.0
  0
LINE
  5
10A93
100
AcDbEntity
  8
0
100
AcDbLine
 10
3121.271983
 20
885.038404
 30
0.0
 11
3119.042783
 21
885.038404
 31
0.0
  0
LINE
  5
10A94
100
AcDbEntity
  8
0
100
AcDbLine
 10
3152.053608
 20
867.038404
 30
0.0
 11
3136.490358
 21
867.038404
 31
0.0
  0
ARC
  5
10A95
100
AcDbEntity
  8
0
100
AcDbCircle
 10
3121.271983
 20
927.038404
 30
0.0
 40
3.0
100
AcDbArc
 50
0.0
 51
90.0
  0
ARC
  5
10A96
100
AcDbEntity
  8
0
100
AcDbCircle
 10
3119.042783
 20
933.038404
 30
0.0
 40
3.0
100
AcDbArc
 50
180.0
 51
270.0
  0
LINE
  5
10A97
100
AcDbEntity
  8
0
100
AcDbLine
 10
3119.271983
 20
942.538404
 30
0.0
 11
3119.271983
 21
930.038404
 31
0.0
  0
ARC
  5
10A98
100
AcDbEntity
  8
0
100
AcDbCircle
 10
3092.271983
 20
942.538404
 30
0.0
 40
27.0
100
AcDbArc
 50
0.0
 51
24.935539
  0
LINE
  5
10A99
100
AcDbEntity
  8
0
100
AcDbLine
 10
3121.271983
 20
930.038404
 30
0.0
 11
3119.042783
 21
930.038404
 31
0.0
  0
CIRCLE
  5
10A9A
100
AcDbEntity
  8
0
100
AcDbCircle
 10
3094.704755
 20
932.577398
 30
0.0
 40
9.5
  0
CIRCLE
  5
10A9B
100
AcDbEntity
  8
0
100
AcDbCircle
 10
3094.704755
 20
978.49941
 30
0.0
 40
9.5
  0
LINE
  5
10A9D
100
AcDbEntity
  8
0
100
AcDbLine
 10
1397.450423
 20
819.538404
 30
0.0
 11
1397.450423
 21
877.038404
 31
0.0
  0
LINE
  5
10A9E
100
AcDbEntity
  8
0
100
AcDbLine
 10
1607.450423
 20
819.538404
 30
0.0
 11
1607.450423
 21
877.038404
 31
0.0
  0
LINE
  5
10A9F
100
AcDbEntity
  8
0
100
AcDbLine
 10
1389.950423
 20
720.038404
 30
0.0
 11
1389.950423
 21
654.338404
 31
0.0
  0
LINE
  5
10AA0
100
AcDbEntity
  8
0
100
AcDbLine
 10
1614.950423
 20
720.038404
 30
0.0
 11
1614.950423
 21
654.338404
 31
0.0
  0
LINE
  5
10AC1
100
AcDbEntity
  8
0
100
AcDbLine
 10
1484.450423
 20
620.338404
 30
0.0
 11
1520.450423
 21
620.338404
 31
0.0
  0
LINE
  5
10AC4
100
AcDbEntity
  8
0
100
AcDbLine
 10
1526.450423
 20
626.338404
 30
0.0
 11
1526.450423
 21
637.544522
 31
0.0
  0
LINE
  5
10AC8
100
AcDbEntity
  8
0
100
AcDbLine
 10
1520.450423
 20
620.338404
 30
0.0
 11
1526.450423
 21
626.338404
 31
0.0
  0
LINE
  5
10AD7
100
AcDbEntity
  8
0
100
AcDbLine
 10
1484.450423
 20
620.338404
 30
0.0
 11
1478.450423
 21
626.338404
 31
0.0
  0
LINE
  5
10ADB
100
AcDbEntity
  8
0
100
AcDbLine
 10
1478.450423
 20
626.338404
 30
0.0
 11
1478.450423
 21
637.544522
 31
0.0
  0
LINE
  5
10B04
100
AcDbEntity
  8
0
100
AcDbLine
 10
1614.950423
 20
720.038404
 30
0.0
 11
1389.950423
 21
720.038404
 31
0.0
  0
LINE
  5
10B05
100
AcDbEntity
  8
0
100
AcDbLine
 10
1614.950423
 20
686.538404
 30
0.0
 11
1389.950423
 21
686.538404
 31
0.0
  0
LINE
  5
10B07
100
AcDbEntity
  8
0
100
AcDbLine
 10
1607.450423
 20
847.538404
 30
0.0
 11
1397.450423
 21
847.538404
 31
0.0
  0
LINE
  5
10B08
100
AcDbEntity
  8
0
100
AcDbLine
 10
1578.941878
 20
740.038404
 30
0.0
 11
1568.450423
 21
799.538404
 31
0.0
  0
LINE
  5
10B09
100
AcDbEntity
  8
0
100
AcDbLine
 10
1571.307523
 20
721.461522
 30
0.0
 11
1572.390523
 21
722.544522
 31
0.0
  0
LINE
  5
10B0A
100
AcDbEntity
  8
0
100
AcDbLine
 10
1571.307523
 20
721.461522
 30
0.0
 11
1571.307523
 21
720.038404
 31
0.0
  0
LINE
  5
10B0B
100
AcDbEntity
  8
0
100
AcDbLine
 10
1587.307523
 20
721.461522
 30
0.0
 11
1586.224523
 21
722.544522
 31
0.0
  0
LINE
  5
10B0C
100
AcDbEntity
  8
0
100
AcDbLine
 10
1589.450923
 20
721.461522
 30
0.0
 11
1590.533923
 21
722.544522
 31
0.0
  0
LINE
  5
10B0D
100
AcDbEntity
  8
0
100
AcDbLine
 10
1587.307523
 20
720.038404
 30
0.0
 11
1587.307523
 21
721.461522
 31
0.0
  0
LINE
  5
10B0E
100
AcDbEntity
  8
0
100
AcDbLine
 10
1589.450923
 20
721.461522
 30
0.0
 11
1589.450923
 21
720.038404
 31
0.0
  0
LINE
  5
10B0F
100
AcDbEntity
  8
0
100
AcDbLine
 10
1572.390523
 20
722.544522
 30
0.0
 11
1586.224523
 21
722.544522
 31
0.0
  0
LINE
  5
10B10
100
AcDbEntity
  8
0
100
AcDbLine
 10
1578.941878
 20
740.038404
 30
0.0
 11
1582.3953
 21
724.718951
 31
0.0
  0
ARC
  5
10B11
100
AcDbEntity
  8
0
100
AcDbCircle
 10
1588.248423
 20
726.038404
 30
0.0
 40
6.0
100
AcDbArc
 50
192.70368
 51
215.613439
  0
LINE
  5
10B12
100
AcDbEntity
  8
0
100
AcDbLine
 10
1605.450923
 20
721.461522
 30
0.0
 11
1604.367923
 21
722.544522
 31
0.0
  0
LINE
  5
10B13
100
AcDbEntity
  8
0
100
AcDbLine
 10
1605.450923
 20
720.038404
 30
0.0
 11
1605.450923
 21
721.461522
 31
0.0
  0
LINE
  5
10B14
100
AcDbEntity
  8
0
100
AcDbLine
 10
1590.533923
 20
722.544522
 30
0.0
 11
1604.367923
 21
722.544522
 31
0.0
  0
LINE
  5
10B26
100
AcDbEntity
  8
0
100
AcDbLine
 10
1425.958968
 20
740.038404
 30
0.0
 11
1436.450423
 21
799.538404
 31
0.0
  0
LINE
  5
10B27
100
AcDbEntity
  8
0
100
AcDbLine
 10
1480.010323
 20
722.544522
 30
0.0
 11
1466.176323
 21
722.544522
 31
0.0
  0
LINE
  5
10B28
100
AcDbEntity
  8
0
100
AcDbLine
 10
1523.807523
 20
721.461522
 30
0.0
 11
1523.807523
 21
720.038404
 31
0.0
  0
LINE
  5
10B29
100
AcDbEntity
  8
0
100
AcDbLine
 10
1523.807523
 20
721.461522
 30
0.0
 11
1524.890523
 21
722.544522
 31
0.0
  0
LINE
  5
10B2A
100
AcDbEntity
  8
0
100
AcDbLine
 10
1539.807523
 20
721.461522
 30
0.0
 11
1538.724523
 21
722.544522
 31
0.0
  0
LINE
  5
10B2B
100
AcDbEntity
  8
0
100
AcDbLine
 10
1539.807523
 20
720.038404
 30
0.0
 11
1539.807523
 21
721.461522
 31
0.0
  0
LINE
  5
10B2C
100
AcDbEntity
  8
0
100
AcDbLine
 10
1524.890523
 20
722.544522
 30
0.0
 11
1538.724523
 21
722.544522
 31
0.0
  0
LINE
  5
10B2D
100
AcDbEntity
  8
0
100
AcDbLine
 10
1481.093323
 20
721.461522
 30
0.0
 11
1480.010323
 21
722.544522
 31
0.0
  0
LINE
  5
10B2E
100
AcDbEntity
  8
0
100
AcDbLine
 10
1481.093323
 20
721.461522
 30
0.0
 11
1481.093323
 21
720.038404
 31
0.0
  0
LINE
  5
10B2F
100
AcDbEntity
  8
0
100
AcDbLine
 10
1425.958968
 20
740.038404
 30
0.0
 11
1422.505546
 21
724.718951
 31
0.0
  0
LINE
  5
10B30
100
AcDbEntity
  8
0
100
AcDbLine
 10
1432.510323
 20
722.544522
 30
0.0
 11
1418.676323
 21
722.544522
 31
0.0
  0
LINE
  5
10B31
100
AcDbEntity
  8
0
100
AcDbLine
 10
1433.593323
 20
721.461522
 30
0.0
 11
1432.510323
 21
722.544522
 31
0.0
  0
LINE
  5
10B32
100
AcDbEntity
  8
0
100
AcDbLine
 10
1433.593323
 20
721.461522
 30
0.0
 11
1433.593323
 21
720.038404
 31
0.0
  0
LINE
  5
10B33
100
AcDbEntity
  8
0
100
AcDbLine
 10
1465.093323
 20
721.461522
 30
0.0
 11
1466.176323
 21
722.544522
 31
0.0
  0
LINE
  5
10B34
100
AcDbEntity
  8
0
100
AcDbLine
 10
1465.093323
 20
720.038404
 30
0.0
 11
1465.093323
 21
721.461522
 31
0.0
  0
LINE
  5
10B35
100
AcDbEntity
  8
0
100
AcDbLine
 10
1399.449923
 20
721.461522
 30
0.0
 11
1400.532923
 21
722.544522
 31
0.0
  0
LINE
  5
10B36
100
AcDbEntity
  8
0
100
AcDbLine
 10
1415.449923
 20
721.461522
 30
0.0
 11
1414.366923
 21
722.544522
 31
0.0
  0
LINE
  5
10B37
100
AcDbEntity
  8
0
100
AcDbLine
 10
1415.449923
 20
721.461522
 30
0.0
 11
1415.449923
 21
720.038404
 31
0.0
  0
LINE
  5
10B38
100
AcDbEntity
  8
0
100
AcDbLine
 10
1414.366923
 20
722.544522
 30
0.0
 11
1400.532923
 21
722.544522
 31
0.0
  0
LINE
  5
10B39
100
AcDbEntity
  8
0
100
AcDbLine
 10
1399.449923
 20
720.038404
 30
0.0
 11
1399.449923
 21
721.461522
 31
0.0
  0
LINE
  5
10B3A
100
AcDbEntity
  8
0
100
AcDbLine
 10
1417.593323
 20
721.461522
 30
0.0
 11
1418.676323
 21
722.544522
 31
0.0
  0
LINE
  5
10B3B
100
AcDbEntity
  8
0
100
AcDbLine
 10
1417.593323
 20
720.038404
 30
0.0
 11
1417.593323
 21
721.461522
 31
0.0
  0
ARC
  5
10B3C
100
AcDbEntity
  8
0
100
AcDbCircle
 10
1416.652423
 20
726.038404
 30
0.0
 40
6.0
100
AcDbArc
 50
324.386561
 51
347.29632
  0
CIRCLE
  5
10B6E
100
AcDbEntity
  8
0
100
AcDbCircle
 10
1502.450423
 20
955.538404
 30
0.0
 40
70.0
  0
LINE
  5
10B6F
100
AcDbEntity
  8
0
100
AcDbLine
 10
1607.450423
 20
877.038404
 30
0.0
 11
1397.450423
 21
877.038404
 31
0.0
  0
LINE
  5
10B71
100
AcDbEntity
  8
0
100
AcDbLine
 10
1574.063183
 20
881.038404
 30
0.0
 11
1587.897183
 21
881.038404
 31
0.0
  0
LINE
  5
10B73
100
AcDbEntity
  8
0
100
AcDbLine
 10
1588.980183
 20
879.955404
 30
0.0
 11
1588.980183
 21
877.038404
 31
0.0
  0
LINE
  5
10B74
100
AcDbEntity
  8
0
100
AcDbLine
 10
1587.897183
 20
881.038404
 30
0.0
 11
1588.980183
 21
879.955404
 31
0.0
  0
LINE
  5
10B75
100
AcDbEntity
  8
0
100
AcDbLine
 10
1572.980183
 20
877.038404
 30
0.0
 11
1572.980183
 21
879.955404
 31
0.0
  0
LINE
  5
10B76
100
AcDbEntity
  8
0
100
AcDbLine
 10
1572.980183
 20
879.955404
 30
0.0
 11
1574.063183
 21
881.038404
 31
0.0
  0
LINE
  5
10B79
100
AcDbEntity
  8
0
100
AcDbLine
 10
1476.839331
 20
881.038404
 30
0.0
 11
1463.005331
 21
881.038404
 31
0.0
  0
CIRCLE
  5
10B7B
100
AcDbEntity
  8
0
100
AcDbCircle
 10
1465.327317
 20
918.415298
 30
0.0
 40
9.5
  0
CIRCLE
  5
10B7C
100
AcDbEntity
  8
0
100
AcDbCircle
 10
1539.573529
 20
918.415298
 30
0.0
 40
9.5
  0
LINE
  5
10B7D
100
AcDbEntity
  8
0
100
AcDbLine
 10
1526.978515
 20
879.955404
 30
0.0
 11
1528.061515
 21
881.038404
 31
0.0
  0
LINE
  5
10B7E
100
AcDbEntity
  8
0
100
AcDbLine
 10
1526.978515
 20
877.038404
 30
0.0
 11
1526.978515
 21
879.955404
 31
0.0
  0
LINE
  5
10B7F
100
AcDbEntity
  8
0
100
AcDbLine
 10
1541.895515
 20
881.038404
 30
0.0
 11
1542.978515
 21
879.955404
 31
0.0
  0
LINE
  5
10B80
100
AcDbEntity
  8
0
100
AcDbLine
 10
1542.978515
 20
879.955404
 30
0.0
 11
1542.978515
 21
877.038404
 31
0.0
  0
LINE
  5
10B82
100
AcDbEntity
  8
0
100
AcDbLine
 10
1528.061515
 20
881.038404
 30
0.0
 11
1541.895515
 21
881.038404
 31
0.0
  0
LINE
  5
10B83
100
AcDbEntity
  8
0
100
AcDbLine
 10
1477.922331
 20
877.038404
 30
0.0
 11
1477.922331
 21
879.955404
 31
0.0
  0
LINE
  5
10B84
100
AcDbEntity
  8
0
100
AcDbLine
 10
1477.922331
 20
879.955404
 30
0.0
 11
1476.839331
 21
881.038404
 31
0.0
  0
LINE
  5
10B86
100
AcDbEntity
  8
0
100
AcDbLine
 10
1430.837663
 20
881.038404
 30
0.0
 11
1417.003663
 21
881.038404
 31
0.0
  0
LINE
  5
10B88
100
AcDbEntity
  8
0
100
AcDbLine
 10
1431.920663
 20
879.955404
 30
0.0
 11
1430.837663
 21
881.038404
 31
0.0
  0
LINE
  5
10B89
100
AcDbEntity
  8
0
100
AcDbLine
 10
1431.920663
 20
877.038404
 30
0.0
 11
1431.920663
 21
879.955404
 31
0.0
  0
LINE
  5
10B8B
100
AcDbEntity
  8
0
100
AcDbLine
 10
1461.922331
 20
879.955404
 30
0.0
 11
1461.922331
 21
877.038404
 31
0.0
  0
LINE
  5
10B8C
100
AcDbEntity
  8
0
100
AcDbLine
 10
1463.005331
 20
881.038404
 30
0.0
 11
1461.922331
 21
879.955404
 31
0.0
  0
LINE
  5
10B8D
100
AcDbEntity
  8
0
100
AcDbLine
 10
1415.920663
 20
879.955404
 30
0.0
 11
1415.920663
 21
877.038404
 31
0.0
  0
LINE
  5
10B8E
100
AcDbEntity
  8
0
100
AcDbLine
 10
1417.003663
 20
881.038404
 30
0.0
 11
1415.920663
 21
879.955404
 31
0.0
  0
CIRCLE
  5
10B8F
100
AcDbEntity
  8
0
100
AcDbCircle
 10
1465.327317
 20
992.66151
 30
0.0
 40
9.5
  0
CIRCLE
  5
10B90
100
AcDbEntity
  8
0
100
AcDbCircle
 10
1539.573529
 20
992.66151
 30
0.0
 40
9.5
  0
LINE
  5
10B91
100
AcDbEntity
  8
0
100
AcDbLine
 10
1496.450423
 20
1049.538404
 30
0.0
 11
1508.450423
 21
1049.538404
 31
0.0
  0
LINE
  5
10B92
100
AcDbEntity
  8
0
100
AcDbLine
 10
1508.450423
 20
1049.538404
 30
0.0
 11
1508.450423
 21
1025.280787
 31
0.0
  0
LINE
  5
10B93
100
AcDbEntity
  8
0
100
AcDbLine
 10
1496.450423
 20
1049.538404
 30
0.0
 11
1496.450423
 21
1025.280787
 31
0.0
  0
LINE
  5
10B9C
100
AcDbEntity
  8
0
100
AcDbLine
 10
741.786219
 20
902.038404
 30
0.0
 11
737.700719
 21
902.038404
 31
0.0
  0
LINE
  5
10B9E
100
AcDbEntity
  8
0
100
AcDbLine
 10
744.786219
 20
905.038404
 30
0.0
 11
744.786219
 21
944.038404
 31
0.0
  0
ARC
  5
10BA0
100
AcDbEntity
  8
0
100
AcDbCircle
 10
737.700719
 20
899.038404
 30
0.0
 40
3.0
100
AcDbArc
 50
90.0
 51
180.0
  0
ARC
  5
10BA3
100
AcDbEntity
  8
0
100
AcDbCircle
 10
1046.153668
 20
924.538404
 30
0.0
 40
311.452949
100
AcDbArc
 50
180.943304
 51
183.487858
  0
LINE
  5
10BA8
100
AcDbEntity
  8
0
100
AcDbLine
 10
608.786219
 20
884.538404
 30
0.0
 11
616.652319
 21
884.538404
 31
0.0
  0
LINE
  5
10BAD
100
AcDbEntity
  8
0
100
AcDbLine
 10
608.786219
 20
926.538404
 30
0.0
 11
611.075938
 21
926.538404
 31
0.0
  0
ARC
  5
10BAE
100
AcDbEntity
  8
0
100
AcDbCircle
 10
741.786219
 20
905.038404
 30
0.0
 40
3.0
100
AcDbArc
 50
270.0
 51
360.0
  0
ARC
  5
10BAF
100
AcDbEntity
  8
0
100
AcDbCircle
 10
741.786219
 20
944.038404
 30
0.0
 40
3.0
100
AcDbArc
 50
360.0
 51
38.857744
  0
LINE
  5
10BB0
100
AcDbEntity
  8
0
100
AcDbLine
 10
605.786219
 20
887.538404
 30
0.0
 11
605.786219
 21
923.538404
 31
0.0
  0
ARC
  5
10BB1
100
AcDbEntity
  8
0
100
AcDbCircle
 10
608.786219
 20
923.538404
 30
0.0
 40
3.0
100
AcDbArc
 50
90.0
 51
180.0
  0
ARC
  5
10BB2
100
AcDbEntity
  8
0
100
AcDbCircle
 10
608.786219
 20
887.538404
 30
0.0
 40
3.0
100
AcDbArc
 50
180.0
 51
270.0
  0
ARC
  5
10BB7
100
AcDbEntity
  8
0
100
AcDbCircle
 10
616.652319
 20
881.538404
 30
0.0
 40
3.0
100
AcDbArc
 50
0.0
 51
90.0
  0
ARC
  5
10BB8
100
AcDbEntity
  8
0
100
AcDbCircle
 10
346.828943
 20
905.538404
 30
0.0
 40
272.823376
100
AcDbArc
 50
356.410611
 51
1.466848
  0
LINE
  5
10BBA
100
AcDbEntity
  8
0
100
AcDbLine
 10
1571.450423
 20
887.538404
 30
0.0
 11
1571.450423
 21
923.538404
 31
0.0
  0
ARC
  5
10BBB
100
AcDbEntity
  8
0
100
AcDbCircle
 10
1830.407699
 20
905.538404
 30
0.0
 40
272.823376
100
AcDbArc
 50
178.533152
 51
183.589389
  0
ARC
  5
10BBC
100
AcDbEntity
  8
0
100
AcDbCircle
 10
1560.584323
 20
881.538404
 30
0.0
 40
3.0
100
AcDbArc
 50
90.0
 51
180.0
  0
LINE
  5
10BBD
100
AcDbEntity
  8
0
100
AcDbLine
 10
1568.450423
 20
884.538404
 30
0.0
 11
1560.584323
 21
884.538404
 31
0.0
  0
ARC
  5
10BBE
100
AcDbEntity
  8
0
100
AcDbCircle
 10
1568.450423
 20
887.538404
 30
0.0
 40
3.0
100
AcDbArc
 50
270.0
 51
0.0
  0
LINE
  5
10BBF
100
AcDbEntity
  8
0
100
AcDbLine
 10
1568.450423
 20
926.538404
 30
0.0
 11
1566.160705
 21
926.538404
 31
0.0
  0
ARC
  5
10BC0
100
AcDbEntity
  8
0
100
AcDbCircle
 10
1568.450423
 20
923.538404
 30
0.0
 40
3.0
100
AcDbArc
 50
0.0
 51
90.0
  0
LINE
  5
10BC1
100
AcDbEntity
  8
0
100
AcDbLine
 10
1435.450423
 20
902.038404
 30
0.0
 11
1439.535923
 21
902.038404
 31
0.0
  0
ARC
  5
10BC2
100
AcDbEntity
  8
0
100
AcDbCircle
 10
1131.082974
 20
924.538404
 30
0.0
 40
311.452949
100
AcDbArc
 50
356.512142
 51
359.056696
  0
ARC
  5
10BC3
100
AcDbEntity
  8
0
100
AcDbCircle
 10
1439.535923
 20
899.038404
 30
0.0
 40
3.0
100
AcDbArc
 50
0.0
 51
90.0
  0
LINE
  5
10BC4
100
AcDbEntity
  8
0
100
AcDbLine
 10
1432.450423
 20
905.038404
 30
0.0
 11
1432.450423
 21
944.038404
 31
0.0
  0
ARC
  5
10BC5
100
AcDbEntity
  8
0
100
AcDbCircle
 10
1435.450423
 20
905.038404
 30
0.0
 40
3.0
100
AcDbArc
 50
180.0
 51
270.0
  0
LINE
  5
10BC6
100
AcDbEntity
  8
0
100
AcDbLine
 10
1438.450423
 20
897.038404
 30
0.0
 11
1438.450423
 21
902.038404
 31
0.0
  0
ARC
  5
10BC7
100
AcDbEntity
  8
0
100
AcDbCircle
 10
1435.450423
 20
944.038404
 30
0.0
 40
3.0
100
AcDbArc
 50
141.142256
 51
180.0
  0
LINE
  5
10BC8
100
AcDbEntity
  8
0
100
AcDbLine
 10
1438.450423
 20
897.038404
 30
0.0
 11
1434.450423
 21
877.038404
 31
0.0
  0
LINE
  5
10BC9
100
AcDbEntity
  8
0
100
AcDbLine
 10
1570.450423
 20
877.038404
 30
0.0
 11
1568.942303
 21
884.579003
 31
0.0
  0
LINE
  5
10C27
100
AcDbEntity
  8
0
100
AcDbLine
 10
1144.118321
 20
636.338404
 30
0.0
 11
1144.118321
 21
641.338404
 31
0.0
  0
LINE
  5
10C28
100
AcDbEntity
  8
0
100
AcDbLine
 10
1147.618321
 20
626.338404
 30
0.0
 11
1147.618321
 21
641.338404
 31
0.0
  0
LINE
  5
10C29
100
AcDbEntity
  8
0
100
AcDbLine
 10
1099.118321
 20
636.338404
 30
0.0
 11
1099.118321
 21
641.686602
 31
0.0
  0
LINE
  5
10C2A
100
AcDbEntity
  8
0
100
AcDbLine
 10
1195.618321
 20
626.338404
 30
0.0
 11
1195.618321
 21
641.338404
 31
0.0
  0
LINE
  5
10C2B
100
AcDbEntity
  8
0
100
AcDbLine
 10
1102.118321
 20
633.338404
 30
0.0
 11
1144.618321
 21
633.338404
 31
0.0
  0
ARC
  5
10C2C
100
AcDbEntity
  8
0
100
AcDbCircle
 10
1102.118321
 20
636.338404
 30
0.0
 40
3.0
100
AcDbArc
 50
180.0
 51
270.0
  0
LINE
  5
10C2D
100
AcDbEntity
  8
0
100
AcDbLine
 10
1144.118321
 20
636.338404
 30
0.0
 11
1144.118321
 21
638.041624
 31
0.0
  0
ARC
  5
10C2E
100
AcDbEntity
  8
0
100
AcDbCircle
 10
1141.118321
 20
636.338404
 30
0.0
 40
3.0
100
AcDbArc
 50
270.0
 51
0.0
  0
ARC
  5
10C2F
100
AcDbEntity
  8
0
100
AcDbCircle
 10
1144.618321
 20
630.338404
 30
0.0
 40
3.0
100
AcDbArc
 50
0.0
 51
90.0
  0
LINE
  5
10C30
100
AcDbEntity
  8
0
100
AcDbLine
 10
1147.618321
 20
626.338404
 30
0.0
 11
1147.618321
 21
630.338404
 31
0.0
  0
LINE
  5
10C31
100
AcDbEntity
  8
0
100
AcDbLine
 10
1189.618321
 20
620.338404
 30
0.0
 11
1195.618321
 21
626.338404
 31
0.0
  0
LINE
  5
10C33
100
AcDbEntity
  8
0
100
AcDbLine
 10
1147.618321
 20
626.338404
 30
0.0
 11
1153.618321
 21
620.338404
 31
0.0
  0
LINE
  5
10C34
100
AcDbEntity
  8
0
100
AcDbLine
 10
1102.331525
 20
641.338404
 30
0.0
 11
1116.971321
 21
641.338404
 31
0.0
  0
ARC
  5
10C35
100
AcDbEntity
  8
0
100
AcDbCircle
 10
1102.331525
 20
656.338404
 30
0.0
 40
15.0
100
AcDbArc
 50
225.0
 51
270.0
  0
LINE
  5
10C36
100
AcDbEntity
  8
0
100
AcDbLine
 10
1091.724923
 20
645.731803
 30
0.0
 11
1087.511719
 21
649.945006
 31
0.0
  0
ARC
  5
10C37
100
AcDbEntity
  8
0
100
AcDbCircle
 10
1076.905118
 20
639.338404
 30
0.0
 40
15.0
100
AcDbArc
 50
45.0
 51
49.560836
  0
LINE
  5
10C38
100
AcDbEntity
  8
0
100
AcDbLine
 10
1140.265321
 20
641.338404
 30
0.0
 11
1147.618321
 21
641.338404
 31
0.0
  0
LINE
  5
10D82
100
AcDbEntity
  8
0
100
AcDbLine
 10
1103.618321
 20
1644.580361
 30
0.0
 11
1067.618321
 21
1644.580361
 31
0.0
  0
LINE
  5
10D83
100
AcDbEntity
  8
0
100
AcDbLine
 10
1109.618321
 20
1650.580361
 30
0.0
 11
1103.618321
 21
1644.580361
 31
0.0
  0
LINE
  5
10D84
100
AcDbEntity
  8
0
100
AcDbLine
 10
1109.618321
 20
1650.580361
 30
0.0
 11
1109.618321
 21
1654.580361
 31
0.0
  0
ARC
  5
10D85
100
AcDbEntity
  8
0
100
AcDbCircle
 10
1112.618321
 20
1654.580361
 30
0.0
 40
3.0
100
AcDbArc
 50
90.0
 51
180.0
  0
LINE
  5
10D86
100
AcDbEntity
  8
0
100
AcDbLine
 10
1109.618321
 20
1650.580361
 30
0.0
 11
1109.618321
 21
1665.580361
 31
0.0
  0
LINE
  5
10D87
100
AcDbEntity
  8
0
100
AcDbLine
 10
1067.618321
 20
1644.580361
 30
0.0
 11
1061.618321
 21
1650.580361
 31
0.0
  0
LINE
  5
10D88
100
AcDbEntity
  8
0
100
AcDbLine
 10
1061.618321
 20
1650.580361
 30
0.0
 11
1061.618321
 21
1665.580361
 31
0.0
  0
LINE
  5
10D89
100
AcDbEntity
  8
0
100
AcDbLine
 10
1155.118321
 20
1657.580361
 30
0.0
 11
1112.618321
 21
1657.580361
 31
0.0
  0
LINE
  5
10D8A
100
AcDbEntity
  8
0
100
AcDbLine
 10
1116.971321
 20
1665.580361
 30
0.0
 11
1109.618321
 21
1665.580361
 31
0.0
  0
ARC
  5
10D8B
100
AcDbEntity
  8
0
100
AcDbCircle
 10
1116.118321
 20
1660.580361
 30
0.0
 40
3.0
100
AcDbArc
 50
180.0
 51
270.0
  0
LINE
  5
10D8C
100
AcDbEntity
  8
0
100
AcDbLine
 10
1113.118321
 20
1660.580361
 30
0.0
 11
1113.118321
 21
1662.283581
 31
0.0
  0
LINE
  5
10D8D
100
AcDbEntity
  8
0
100
AcDbLine
 10
1113.118321
 20
1660.580361
 30
0.0
 11
1113.118321
 21
1665.580361
 31
0.0
  0
LINE
  5
10D8E
100
AcDbEntity
  8
0
100
AcDbLine
 10
1154.905118
 20
1665.580361
 30
0.0
 11
1140.265321
 21
1665.580361
 31
0.0
  0
ARC
  5
10D8F
100
AcDbEntity
  8
0
100
AcDbCircle
 10
1154.905118
 20
1680.580361
 30
0.0
 40
15.0
100
AcDbArc
 50
270.0
 51
315.0
  0
ARC
  5
10D90
100
AcDbEntity
  8
0
100
AcDbCircle
 10
1155.118321
 20
1660.580361
 30
0.0
 40
3.0
100
AcDbArc
 50
270.0
 51
0.0
  0
LINE
  5
10D91
100
AcDbEntity
  8
0
100
AcDbLine
 10
1158.118321
 20
1660.580361
 30
0.0
 11
1158.118321
 21
1665.928559
 31
0.0
  0
LINE
  5
10D92
100
AcDbEntity
  8
0
100
AcDbLine
 10
1165.511719
 20
1669.97376
 30
0.0
 11
1169.724923
 21
1674.186963
 31
0.0
  0
LINE
  5
10E95
100
AcDbEntity
  8
0
100
AcDbLine
 10
2563.411628
 20
1602.580361
 30
0.0
 11
2527.411628
 21
1602.580361
 31
0.0
  0
ARC
  5
10E96
100
AcDbEntity
  8
0
100
AcDbCircle
 10
2572.411628
 20
1612.580361
 30
0.0
 40
3.0
100
AcDbArc
 50
90.0
 51
180.0
  0
LINE
  5
10E97
100
AcDbEntity
  8
0
100
AcDbLine
 10
2569.411628
 20
1608.580361
 30
0.0
 11
2563.411628
 21
1602.580361
 31
0.0
  0
LINE
  5
10E98
100
AcDbEntity
  8
0
100
AcDbLine
 10
2569.411628
 20
1608.580361
 30
0.0
 11
2569.411628
 21
1612.580361
 31
0.0
  0
LINE
  5
10E99
100
AcDbEntity
  8
0
100
AcDbLine
 10
2569.411628
 20
1608.580361
 30
0.0
 11
2569.411628
 21
1623.580361
 31
0.0
  0
LINE
  5
10E9A
100
AcDbEntity
  8
0
100
AcDbLine
 10
2614.911628
 20
1615.580361
 30
0.0
 11
2572.411628
 21
1615.580361
 31
0.0
  0
ARC
  5
10E9B
100
AcDbEntity
  8
0
100
AcDbCircle
 10
2575.911628
 20
1618.580361
 30
0.0
 40
3.0
100
AcDbArc
 50
180.0
 51
270.0
  0
LINE
  5
10E9C
100
AcDbEntity
  8
0
100
AcDbLine
 10
2572.911628
 20
1618.580361
 30
0.0
 11
2572.911628
 21
1620.283581
 31
0.0
  0
LINE
  5
10E9D
100
AcDbEntity
  8
0
100
AcDbLine
 10
2572.911628
 20
1618.580361
 30
0.0
 11
2572.911628
 21
1623.580361
 31
0.0
  0
LINE
  5
10E9E
100
AcDbEntity
  8
0
100
AcDbLine
 10
2576.764628
 20
1623.580361
 30
0.0
 11
2569.411628
 21
1623.580361
 31
0.0
  0
ARC
  5
10E9F
100
AcDbEntity
  8
0
100
AcDbCircle
 10
2614.698425
 20
1638.580361
 30
0.0
 40
15.0
100
AcDbArc
 50
270.0
 51
315.0
  0
ARC
  5
10EA0
100
AcDbEntity
  8
0
100
AcDbCircle
 10
2614.911628
 20
1618.580361
 30
0.0
 40
3.0
100
AcDbArc
 50
270.0
 51
0.0
  0
LINE
  5
10EA1
100
AcDbEntity
  8
0
100
AcDbLine
 10
2614.698425
 20
1623.580361
 30
0.0
 11
2600.058628
 21
1623.580361
 31
0.0
  0
LINE
  5
10EA2
100
AcDbEntity
  8
0
100
AcDbLine
 10
2617.911628
 20
1618.580361
 30
0.0
 11
2617.911628
 21
1623.928559
 31
0.0
  0
LINE
  5
10EA3
100
AcDbEntity
  8
0
100
AcDbLine
 10
2625.305027
 20
1627.97376
 30
0.0
 11
2629.51823
 21
1632.186963
 31
0.0
  0
LINE
  5
10EA4
100
AcDbEntity
  8
0
100
AcDbLine
 10
2527.411628
 20
1602.580361
 30
0.0
 11
2521.411628
 21
1608.580361
 31
0.0
  0
LINE
  5
10EA5
100
AcDbEntity
  8
0
100
AcDbLine
 10
2521.411628
 20
1608.580361
 30
0.0
 11
2521.411628
 21
1623.580361
 31
0.0
  0
ARC
  5
10EE5
100
AcDbEntity
  8
0
100
AcDbCircle
 10
2640.124832
 20
1621.580361
 30
0.0
 40
15.0
100
AcDbArc
 50
130.439164
 51
135.0
  0
ARC
  5
10EE6
100
AcDbEntity
  8
0
100
AcDbCircle
 10
1180.331525
 20
1663.580361
 30
0.0
 40
15.0
100
AcDbArc
 50
130.439164
 51
135.0
  0
LINE
  5
10EFD
100
AcDbEntity
  8
0
100
AcDbLine
 10
2607.411628
 20
584.338404
 30
0.0
 11
2613.411628
 21
578.338404
 31
0.0
  0
LINE
  5
10EFE
100
AcDbEntity
  8
0
100
AcDbLine
 10
2607.411628
 20
584.338404
 30
0.0
 11
2607.411628
 21
599.338404
 31
0.0
  0
LINE
  5
10EFF
100
AcDbEntity
  8
0
100
AcDbLine
 10
2607.411628
 20
584.338404
 30
0.0
 11
2607.411628
 21
588.338404
 31
0.0
  0
LINE
  5
10F00
100
AcDbEntity
  8
0
100
AcDbLine
 10
2655.411628
 20
584.338404
 30
0.0
 11
2655.411628
 21
599.338404
 31
0.0
  0
LINE
  5
10F01
100
AcDbEntity
  8
0
100
AcDbLine
 10
2613.411628
 20
578.338404
 30
0.0
 11
2649.411628
 21
578.338404
 31
0.0
  0
LINE
  5
10F02
100
AcDbEntity
  8
0
100
AcDbLine
 10
2649.411628
 20
578.338404
 30
0.0
 11
2655.411628
 21
584.338404
 31
0.0
  0
ARC
  5
10F03
100
AcDbEntity
  8
0
100
AcDbCircle
 10
2600.911628
 20
594.338404
 30
0.0
 40
3.0
100
AcDbArc
 50
270.0
 51
0.0
  0
LINE
  5
10F04
100
AcDbEntity
  8
0
100
AcDbLine
 10
2561.911628
 20
591.338404
 30
0.0
 11
2604.411628
 21
591.338404
 31
0.0
  0
ARC
  5
10F05
100
AcDbEntity
  8
0
100
AcDbCircle
 10
2604.411628
 20
588.338404
 30
0.0
 40
3.0
100
AcDbArc
 50
0.0
 51
90.0
  0
LINE
  5
10F06
100
AcDbEntity
  8
0
100
AcDbLine
 10
2603.911628
 20
594.338404
 30
0.0
 11
2603.911628
 21
599.338404
 31
0.0
  0
LINE
  5
10F07
100
AcDbEntity
  8
0
100
AcDbLine
 10
2603.911628
 20
594.338404
 30
0.0
 11
2603.911628
 21
596.041624
 31
0.0
  0
LINE
  5
10F08
100
AcDbEntity
  8
0
100
AcDbLine
 10
2600.058628
 20
599.338404
 30
0.0
 11
2607.411628
 21
599.338404
 31
0.0
  0
ARC
  5
10F09
100
AcDbEntity
  8
0
100
AcDbCircle
 10
2561.911628
 20
594.338404
 30
0.0
 40
3.0
100
AcDbArc
 50
180.0
 51
270.0
  0
LINE
  5
10F0A
100
AcDbEntity
  8
0
100
AcDbLine
 10
2558.911628
 20
594.338404
 30
0.0
 11
2558.911628
 21
599.686602
 31
0.0
  0
LINE
  5
10F0B
100
AcDbEntity
  8
0
100
AcDbLine
 10
2562.124832
 20
599.338404
 30
0.0
 11
2576.764628
 21
599.338404
 31
0.0
  0
ARC
  5
10F0C
100
AcDbEntity
  8
0
100
AcDbCircle
 10
2562.124832
 20
614.338404
 30
0.0
 40
15.0
100
AcDbArc
 50
225.0
 51
270.0
  0
LINE
  5
10F0D
100
AcDbEntity
  8
0
100
AcDbLine
 10
2551.51823
 20
603.731803
 30
0.0
 11
2547.305027
 21
607.945006
 31
0.0
  0
ARC
  5
10F0E
100
AcDbEntity
  8
0
100
AcDbCircle
 10
2536.698425
 20
597.338404
 30
0.0
 40
15.0
100
AcDbArc
 50
45.0
 51
49.560836
  0
ARC
  5
10F1E
100
AcDbEntity
  8
0
100
AcDbCircle
 10
573.785719
 20
656.082987
 30
0.0
 40
14.744583
100
AcDbArc
 50
245.987929
 51
294.012071
  0
LINE
  5
10F1F
100
AcDbEntity
  8
0
100
AcDbLine
 10
567.785719
 20
641.338404
 30
0.0
 11
591.785719
 21
641.338404
 31
0.0
  0
LINE
  5
10F20
100
AcDbEntity
  8
0
100
AcDbLine
 10
567.785719
 20
641.338404
 30
0.0
 11
567.785719
 21
654.338404
 31
0.0
  0
ARC
  5
10F21
100
AcDbEntity
  8
0
100
AcDbCircle
 10
585.785719
 20
656.082987
 30
0.0
 40
14.744583
100
AcDbArc
 50
245.987929
 51
270.557245
  0
LINE
  5
10F23
100
AcDbEntity
  8
0
100
AcDbLine
 10
579.785719
 20
642.614404
 30
0.0
 11
579.785719
 21
654.338404
 31
0.0
  0
ARC
  5
10F2E
100
AcDbEntity
  8
0
100
AcDbCircle
 10
591.929119
 20
656.082987
 30
0.0
 40
14.744583
100
AcDbArc
 50
245.987929
 51
294.012071
  0
LINE
  5
10F2F
100
AcDbEntity
  8
0
100
AcDbLine
 10
585.929119
 20
641.338404
 30
0.0
 11
609.929119
 21
641.338404
 31
0.0
  0
LINE
  5
10F30
100
AcDbEntity
  8
0
100
AcDbLine
 10
585.929119
 20
641.338404
 30
0.0
 11
585.929119
 21
654.338404
 31
0.0
  0
ARC
  5
10F31
100
AcDbEntity
  8
0
100
AcDbCircle
 10
603.929119
 20
656.082987
 30
0.0
 40
14.744583
100
AcDbArc
 50
245.987929
 51
294.012071
  0
LINE
  5
10F32
100
AcDbEntity
  8
0
100
AcDbLine
 10
609.929119
 20
641.338404
 30
0.0
 11
609.929119
 21
654.338404
 31
0.0
  0
LINE
  5
10F33
100
AcDbEntity
  8
0
100
AcDbLine
 10
597.929119
 20
642.614404
 30
0.0
 11
597.929119
 21
654.338404
 31
0.0
  0
ARC
  5
10F3E
100
AcDbEntity
  8
0
100
AcDbCircle
 10
639.429119
 20
656.082987
 30
0.0
 40
14.744583
100
AcDbArc
 50
245.987929
 51
294.012071
  0
LINE
  5
10F3F
100
AcDbEntity
  8
0
100
AcDbLine
 10
633.429119
 20
641.338404
 30
0.0
 11
657.429119
 21
641.338404
 31
0.0
  0
LINE
  5
10F40
100
AcDbEntity
  8
0
100
AcDbLine
 10
633.429119
 20
641.338404
 30
0.0
 11
633.429119
 21
654.338404
 31
0.0
  0
ARC
  5
10F41
100
AcDbEntity
  8
0
100
AcDbCircle
 10
651.429119
 20
656.082987
 30
0.0
 40
14.744583
100
AcDbArc
 50
245.987929
 51
294.012071
  0
LINE
  5
10F42
100
AcDbEntity
  8
0
100
AcDbLine
 10
657.429119
 20
641.338404
 30
0.0
 11
657.429119
 21
654.338404
 31
0.0
  0
LINE
  5
10F43
100
AcDbEntity
  8
0
100
AcDbLine
 10
645.429119
 20
642.614404
 30
0.0
 11
645.429119
 21
654.338404
 31
0.0
  0
ARC
  5
10F56
100
AcDbEntity
  8
0
100
AcDbCircle
 10
745.643319
 20
656.082987
 30
0.0
 40
14.744583
100
AcDbArc
 50
245.987929
 51
294.012071
  0
LINE
  5
10F57
100
AcDbEntity
  8
0
100
AcDbLine
 10
763.643319
 20
641.338404
 30
0.0
 11
739.643319
 21
641.338404
 31
0.0
  0
LINE
  5
10F58
100
AcDbEntity
  8
0
100
AcDbLine
 10
744.726319
 20
637.544522
 30
0.0
 11
758.560319
 21
637.544522
 31
0.0
  0
ARC
  5
10F59
100
AcDbEntity
  8
0
100
AcDbCircle
 10
763.786719
 20
656.082987
 30
0.0
 40
14.744583
100
AcDbArc
 50
269.442755
 51
294.012071
  0
LINE
  5
10F5A
100
AcDbEntity
  8
0
100
AcDbLine
 10
751.643319
 20
642.614404
 30
0.0
 11
751.643319
 21
654.338404
 31
0.0
  0
LINE
  5
10F5B
100
AcDbEntity
  8
0
100
AcDbLine
 10
763.643319
 20
641.338404
 30
0.0
 11
763.643319
 21
654.338404
 31
0.0
  0
ARC
  5
10F5C
100
AcDbEntity
  8
0
100
AcDbCircle
 10
757.643319
 20
656.082987
 30
0.0
 40
14.744583
100
AcDbArc
 50
245.987929
 51
294.012071
  0
LINE
  5
10F5D
100
AcDbEntity
  8
0
100
AcDbLine
 10
769.786719
 20
642.614404
 30
0.0
 11
769.786719
 21
654.338404
 31
0.0
  0
LINE
  5
10F5E
100
AcDbEntity
  8
0
100
AcDbLine
 10
781.786719
 20
641.338404
 30
0.0
 11
781.786719
 21
654.338404
 31
0.0
  0
LINE
  5
10F5F
100
AcDbEntity
  8
0
100
AcDbLine
 10
781.786719
 20
641.338404
 30
0.0
 11
757.786719
 21
641.338404
 31
0.0
  0
ARC
  5
10F60
100
AcDbEntity
  8
0
100
AcDbCircle
 10
775.786719
 20
656.082987
 30
0.0
 40
14.744583
100
AcDbArc
 50
245.987929
 51
294.012071
  0
LINE
  5
10F61
100
AcDbEntity
  8
0
100
AcDbLine
 10
762.869719
 20
637.544522
 30
0.0
 11
776.703719
 21
637.544522
 31
0.0
  0
LINE
  5
10F62
100
AcDbEntity
  8
0
100
AcDbLine
 10
776.703719
 20
637.544522
 30
0.0
 11
777.786719
 21
638.627522
 31
0.0
  0
LINE
  5
10F63
100
AcDbEntity
  8
0
100
AcDbLine
 10
777.786719
 20
638.627522
 30
0.0
 11
777.786719
 21
641.338404
 31
0.0
  0
LINE
  5
10F64
100
AcDbEntity
  8
0
100
AcDbLine
 10
761.786719
 20
641.338404
 30
0.0
 11
761.786719
 21
638.627522
 31
0.0
  0
LINE
  5
10F65
100
AcDbEntity
  8
0
100
AcDbLine
 10
761.786719
 20
638.627522
 30
0.0
 11
762.869719
 21
637.544522
 31
0.0
  0
LINE
  5
10F66
100
AcDbEntity
  8
0
100
AcDbLine
 10
759.643319
 20
638.627522
 30
0.0
 11
759.643319
 21
641.338404
 31
0.0
  0
LINE
  5
10F67
100
AcDbEntity
  8
0
100
AcDbLine
 10
758.560319
 20
637.544522
 30
0.0
 11
759.643319
 21
638.627522
 31
0.0
  0
ARC
  5
10F68
100
AcDbEntity
  8
0
100
AcDbCircle
 10
726.499423
 20
639.338404
 30
0.0
 40
15.0
100
AcDbArc
 50
90.0
 51
133.662327
  0
LINE
  5
10F69
100
AcDbEntity
  8
0
100
AcDbLine
 10
716.143319
 20
641.338404
 30
0.0
 11
692.143319
 21
641.338404
 31
0.0
  0
ARC
  5
10F6A
100
AcDbEntity
  8
0
100
AcDbCircle
 10
710.143319
 20
656.082987
 30
0.0
 40
14.744583
100
AcDbArc
 50
245.987929
 51
294.012071
  0
LINE
  5
10F6B
100
AcDbEntity
  8
0
100
AcDbLine
 10
716.143319
 20
641.338404
 30
0.0
 11
716.143319
 21
654.338404
 31
0.0
  0
LINE
  5
10F6C
100
AcDbEntity
  8
0
100
AcDbLine
 10
739.643319
 20
641.338404
 30
0.0
 11
739.643319
 21
654.338404
 31
0.0
  0
LINE
  5
10F6D
100
AcDbEntity
  8
0
100
AcDbLine
 10
743.643319
 20
641.338404
 30
0.0
 11
743.643319
 21
638.627522
 31
0.0
  0
LINE
  5
10F6E
100
AcDbEntity
  8
0
100
AcDbLine
 10
743.643319
 20
638.627522
 30
0.0
 11
744.726319
 21
637.544522
 31
0.0
  0
LINE
  5
10F6F
100
AcDbEntity
  8
0
100
AcDbLine
 10
704.143319
 20
642.614404
 30
0.0
 11
704.143319
 21
654.338404
 31
0.0
  0
LINE
  5
10F70
100
AcDbEntity
  8
0
100
AcDbLine
 10
692.143319
 20
641.338404
 30
0.0
 11
692.143319
 21
654.338404
 31
0.0
  0
ARC
  5
10F71
100
AcDbEntity
  8
0
100
AcDbCircle
 10
698.143319
 20
656.082987
 30
0.0
 40
14.744583
100
AcDbArc
 50
245.987929
 51
294.012071
  0
LINE
  5
10F72
100
AcDbEntity
  8
0
100
AcDbLine
 10
696.143319
 20
641.338404
 30
0.0
 11
696.143319
 21
638.627522
 31
0.0
  0
LINE
  5
10F73
100
AcDbEntity
  8
0
100
AcDbLine
 10
697.286219
 20
636.338404
 30
0.0
 11
697.286219
 21
637.544522
 31
0.0
  0
LINE
  5
10F74
100
AcDbEntity
  8
0
100
AcDbLine
 10
696.143319
 20
638.627522
 30
0.0
 11
697.226319
 21
637.544522
 31
0.0
  0
LINE
  5
10F75
100
AcDbEntity
  8
0
100
AcDbLine
 10
712.143319
 20
638.627522
 30
0.0
 11
712.143319
 21
641.338404
 31
0.0
  0
LINE
  5
10F76
100
AcDbEntity
  8
0
100
AcDbLine
 10
711.060319
 20
637.544522
 30
0.0
 11
712.143319
 21
638.627522
 31
0.0
  0
LINE
  5
10F77
100
AcDbEntity
  8
0
100
AcDbLine
 10
697.226319
 20
637.544522
 30
0.0
 11
711.060319
 21
637.544522
 31
0.0
  0
ARC
  5
10F82
100
AcDbEntity
  8
0
100
AcDbCircle
 10
590.256459
 20
821.076869
 30
0.0
 40
14.744583
100
AcDbArc
 50
245.987929
 51
294.012071
  0
LINE
  5
10F83
100
AcDbEntity
  8
0
100
AcDbLine
 10
584.256459
 20
806.332286
 30
0.0
 11
608.256459
 21
806.332286
 31
0.0
  0
LINE
  5
10F84
100
AcDbEntity
  8
0
100
AcDbLine
 10
584.256459
 20
806.332286
 30
0.0
 11
584.256459
 21
819.332286
 31
0.0
  0
ARC
  5
10F85
100
AcDbEntity
  8
0
100
AcDbCircle
 10
602.256459
 20
821.076869
 30
0.0
 40
14.744583
100
AcDbArc
 50
245.987929
 51
294.012071
  0
LINE
  5
10F86
100
AcDbEntity
  8
0
100
AcDbLine
 10
608.256459
 20
806.332286
 30
0.0
 11
608.256459
 21
819.332286
 31
0.0
  0
LINE
  5
10F87
100
AcDbEntity
  8
0
100
AcDbLine
 10
596.256459
 20
807.608286
 30
0.0
 11
596.256459
 21
819.332286
 31
0.0
  0
ARC
  5
10F92
100
AcDbEntity
  8
0
100
AcDbCircle
 10
636.258128
 20
821.076869
 30
0.0
 40
14.744583
100
AcDbArc
 50
245.987929
 51
294.012071
  0
LINE
  5
10F93
100
AcDbEntity
  8
0
100
AcDbLine
 10
630.258128
 20
806.332286
 30
0.0
 11
654.258128
 21
806.332286
 31
0.0
  0
LINE
  5
10F94
100
AcDbEntity
  8
0
100
AcDbLine
 10
630.258128
 20
806.332286
 30
0.0
 11
630.258128
 21
819.332286
 31
0.0
  0
ARC
  5
10F95
100
AcDbEntity
  8
0
100
AcDbCircle
 10
648.258128
 20
821.076869
 30
0.0
 40
14.744583
100
AcDbArc
 50
245.987929
 51
294.012071
  0
LINE
  5
10F96
100
AcDbEntity
  8
0
100
AcDbLine
 10
654.258128
 20
806.332286
 30
0.0
 11
654.258128
 21
819.332286
 31
0.0
  0
LINE
  5
10F97
100
AcDbEntity
  8
0
100
AcDbLine
 10
642.258128
 20
807.608286
 30
0.0
 11
642.258128
 21
819.332286
 31
0.0
  0
ARC
  5
10F98
100
AcDbEntity
  8
0
100
AcDbCircle
 10
603.786219
 20
814.538404
 30
0.0
 40
5.0
100
AcDbArc
 50
0.0
 51
26.613598
  0
LINE
  5
10F99
100
AcDbEntity
  8
0
100
AcDbLine
 10
746.39898
 20
881.038404
 30
0.0
 11
760.23298
 21
881.038404
 31
0.0
  0
LINE
  5
10F9A
100
AcDbEntity
  8
0
100
AcDbLine
 10
760.23298
 20
881.038404
 30
0.0
 11
761.31598
 21
879.955404
 31
0.0
  0
LINE
  5
10F9B
100
AcDbEntity
  8
0
100
AcDbLine
 10
761.31598
 20
879.955404
 30
0.0
 11
761.31598
 21
877.038404
 31
0.0
  0
LINE
  5
10F9C
100
AcDbEntity
  8
0
100
AcDbLine
 10
745.31598
 20
879.955404
 30
0.0
 11
746.39898
 21
881.038404
 31
0.0
  0
LINE
  5
10F9D
100
AcDbEntity
  8
0
100
AcDbLine
 10
745.31598
 20
877.038404
 30
0.0
 11
745.31598
 21
879.955404
 31
0.0
  0
LINE
  5
10F9E
100
AcDbEntity
  8
0
100
AcDbLine
 10
699.314311
 20
877.038404
 30
0.0
 11
699.314311
 21
879.955404
 31
0.0
  0
LINE
  5
10F9F
100
AcDbEntity
  8
0
100
AcDbLine
 10
699.314311
 20
879.955404
 30
0.0
 11
700.397311
 21
881.038404
 31
0.0
  0
LINE
  5
10FA0
100
AcDbEntity
  8
0
100
AcDbLine
 10
715.314311
 20
879.955404
 30
0.0
 11
715.314311
 21
877.038404
 31
0.0
  0
LINE
  5
10FA1
100
AcDbEntity
  8
0
100
AcDbLine
 10
714.231311
 20
881.038404
 30
0.0
 11
715.314311
 21
879.955404
 31
0.0
  0
LINE
  5
10FA2
100
AcDbEntity
  8
0
100
AcDbLine
 10
700.397311
 20
881.038404
 30
0.0
 11
714.231311
 21
881.038404
 31
0.0
  0
ARC
  5
10FA3
100
AcDbEntity
  8
0
100
AcDbCircle
 10
747.31598
 20
821.076869
 30
0.0
 40
14.744583
100
AcDbArc
 50
245.987929
 51
294.012071
  0
LINE
  5
10FA4
100
AcDbEntity
  8
0
100
AcDbLine
 10
765.31598
 20
806.332286
 30
0.0
 11
741.31598
 21
806.332286
 31
0.0
  0
LINE
  5
10FA5
100
AcDbEntity
  8
0
100
AcDbLine
 10
746.39898
 20
802.538404
 30
0.0
 11
760.23298
 21
802.538404
 31
0.0
  0
LINE
  5
10FA6
100
AcDbEntity
  8
0
100
AcDbLine
 10
753.31598
 20
807.608286
 30
0.0
 11
753.31598
 21
819.332286
 31
0.0
  0
LINE
  5
10FA7
100
AcDbEntity
  8
0
100
AcDbLine
 10
765.31598
 20
806.332286
 30
0.0
 11
765.31598
 21
819.332286
 31
0.0
  0
ARC
  5
10FA8
100
AcDbEntity
  8
0
100
AcDbCircle
 10
759.31598
 20
821.076869
 30
0.0
 40
14.744583
100
AcDbArc
 50
245.987929
 51
294.012071
  0
LINE
  5
10FA9
100
AcDbEntity
  8
0
100
AcDbLine
 10
760.23298
 20
802.538404
 30
0.0
 11
761.31598
 21
803.621404
 31
0.0
  0
LINE
  5
10FAA
100
AcDbEntity
  8
0
100
AcDbLine
 10
761.31598
 20
803.621404
 30
0.0
 11
761.31598
 21
806.538404
 31
0.0
  0
LINE
  5
10FAB
100
AcDbEntity
  8
0
100
AcDbLine
 10
707.314311
 20
807.608286
 30
0.0
 11
707.314311
 21
819.332286
 31
0.0
  0
LINE
  5
10FAC
100
AcDbEntity
  8
0
100
AcDbLine
 10
695.314311
 20
806.332286
 30
0.0
 11
695.314311
 21
819.332286
 31
0.0
  0
LINE
  5
10FAD
100
AcDbEntity
  8
0
100
AcDbLine
 10
719.314311
 20
806.332286
 30
0.0
 11
719.314311
 21
819.332286
 31
0.0
  0
LINE
  5
10FAE
100
AcDbEntity
  8
0
100
AcDbLine
 10
741.31598
 20
806.332286
 30
0.0
 11
741.31598
 21
819.332286
 31
0.0
  0
LINE
  5
10FAF
100
AcDbEntity
  8
0
100
AcDbLine
 10
719.314311
 20
806.332286
 30
0.0
 11
695.314311
 21
806.332286
 31
0.0
  0
ARC
  5
10FB0
100
AcDbEntity
  8
0
100
AcDbCircle
 10
713.314311
 20
821.076869
 30
0.0
 40
14.744583
100
AcDbArc
 50
245.987929
 51
294.012071
  0
ARC
  5
10FB1
100
AcDbEntity
  8
0
100
AcDbCircle
 10
745.786219
 20
814.538404
 30
0.0
 40
5.0
100
AcDbArc
 50
153.386402
 51
180.0
  0
LINE
  5
10FB2
100
AcDbEntity
  8
0
100
AcDbLine
 10
745.31598
 20
803.621404
 30
0.0
 11
746.39898
 21
802.538404
 31
0.0
  0
LINE
  5
10FB3
100
AcDbEntity
  8
0
100
AcDbLine
 10
745.31598
 20
806.538404
 30
0.0
 11
745.31598
 21
803.621404
 31
0.0
  0
ARC
  5
10FB4
100
AcDbEntity
  8
0
100
AcDbCircle
 10
701.314311
 20
821.076869
 30
0.0
 40
14.744583
100
AcDbArc
 50
245.987929
 51
294.012071
  0
LINE
  5
10FB5
100
AcDbEntity
  8
0
100
AcDbLine
 10
699.314311
 20
806.538404
 30
0.0
 11
699.314311
 21
803.621404
 31
0.0
  0
LINE
  5
10FB6
100
AcDbEntity
  8
0
100
AcDbLine
 10
699.314311
 20
803.621404
 30
0.0
 11
700.397311
 21
802.538404
 31
0.0
  0
LINE
  5
10FB7
100
AcDbEntity
  8
0
100
AcDbLine
 10
715.314311
 20
803.621404
 30
0.0
 11
715.314311
 21
806.538404
 31
0.0
  0
LINE
  5
10FB8
100
AcDbEntity
  8
0
100
AcDbLine
 10
714.231311
 20
802.538404
 30
0.0
 11
715.314311
 21
803.621404
 31
0.0
  0
LINE
  5
10FB9
100
AcDbEntity
  8
0
100
AcDbLine
 10
700.397311
 20
802.538404
 30
0.0
 11
714.231311
 21
802.538404
 31
0.0
  0
LINE
  5
10FBA
100
AcDbEntity
  8
0
100
AcDbLine
 10
1397.450423
 20
819.538404
 30
0.0
 11
1607.450423
 21
819.538404
 31
0.0
  0
ARC
  5
10FBB
100
AcDbEntity
  8
0
100
AcDbCircle
 10
1429.920663
 20
821.076869
 30
0.0
 40
14.744583
100
AcDbArc
 50
245.987929
 51
294.012071
  0
LINE
  5
10FBC
100
AcDbEntity
  8
0
100
AcDbLine
 10
1411.920663
 20
806.332286
 30
0.0
 11
1435.920663
 21
806.332286
 31
0.0
  0
LINE
  5
10FBD
100
AcDbEntity
  8
0
100
AcDbLine
 10
1430.837663
 20
802.538404
 30
0.0
 11
1417.003663
 21
802.538404
 31
0.0
  0
LINE
  5
10FBE
100
AcDbEntity
  8
0
100
AcDbLine
 10
1423.920663
 20
807.608286
 30
0.0
 11
1423.920663
 21
819.332286
 31
0.0
  0
LINE
  5
10FBF
100
AcDbEntity
  8
0
100
AcDbLine
 10
1411.920663
 20
806.332286
 30
0.0
 11
1411.920663
 21
819.332286
 31
0.0
  0
ARC
  5
10FC0
100
AcDbEntity
  8
0
100
AcDbCircle
 10
1417.920663
 20
821.076869
 30
0.0
 40
14.744583
100
AcDbArc
 50
245.987929
 51
294.012071
  0
LINE
  5
10FC1
100
AcDbEntity
  8
0
100
AcDbLine
 10
1417.003663
 20
802.538404
 30
0.0
 11
1415.920663
 21
803.621404
 31
0.0
  0
LINE
  5
10FC2
100
AcDbEntity
  8
0
100
AcDbLine
 10
1415.920663
 20
803.621404
 30
0.0
 11
1415.920663
 21
806.538404
 31
0.0
  0
LINE
  5
10FC3
100
AcDbEntity
  8
0
100
AcDbLine
 10
1469.922331
 20
807.608286
 30
0.0
 11
1469.922331
 21
819.332286
 31
0.0
  0
LINE
  5
10FC4
100
AcDbEntity
  8
0
100
AcDbLine
 10
1481.922331
 20
806.332286
 30
0.0
 11
1481.922331
 21
819.332286
 31
0.0
  0
LINE
  5
10FC5
100
AcDbEntity
  8
0
100
AcDbLine
 10
1457.922331
 20
806.332286
 30
0.0
 11
1457.922331
 21
819.332286
 31
0.0
  0
LINE
  5
10FC6
100
AcDbEntity
  8
0
100
AcDbLine
 10
1435.920663
 20
806.332286
 30
0.0
 11
1435.920663
 21
819.332286
 31
0.0
  0
LINE
  5
10FC7
100
AcDbEntity
  8
0
100
AcDbLine
 10
1457.922331
 20
806.332286
 30
0.0
 11
1481.922331
 21
806.332286
 31
0.0
  0
ARC
  5
10FC8
100
AcDbEntity
  8
0
100
AcDbCircle
 10
1463.922331
 20
821.076869
 30
0.0
 40
14.744583
100
AcDbArc
 50
245.987929
 51
294.012071
  0
ARC
  5
10FC9
100
AcDbEntity
  8
0
100
AcDbCircle
 10
1431.450423
 20
814.538404
 30
0.0
 40
5.0
100
AcDbArc
 50
0.0
 51
26.613598
  0
LINE
  5
10FCA
100
AcDbEntity
  8
0
100
AcDbLine
 10
1436.450423
 20
799.538404
 30
0.0
 11
1436.450423
 21
814.538404
 31
0.0
  0
LINE
  5
10FCB
100
AcDbEntity
  8
0
100
AcDbLine
 10
1431.920663
 20
803.621404
 30
0.0
 11
1430.837663
 21
802.538404
 31
0.0
  0
LINE
  5
10FCC
100
AcDbEntity
  8
0
100
AcDbLine
 10
1431.920663
 20
806.538404
 30
0.0
 11
1431.920663
 21
803.621404
 31
0.0
  0
ARC
  5
10FCD
100
AcDbEntity
  8
0
100
AcDbCircle
 10
1475.922331
 20
821.076869
 30
0.0
 40
14.744583
100
AcDbArc
 50
245.987929
 51
294.012071
  0
LINE
  5
10FCE
100
AcDbEntity
  8
0
100
AcDbLine
 10
1477.922331
 20
806.538404
 30
0.0
 11
1477.922331
 21
803.621404
 31
0.0
  0
LINE
  5
10FCF
100
AcDbEntity
  8
0
100
AcDbLine
 10
1477.922331
 20
803.621404
 30
0.0
 11
1476.839331
 21
802.538404
 31
0.0
  0
LINE
  5
10FD0
100
AcDbEntity
  8
0
100
AcDbLine
 10
1461.922331
 20
803.621404
 30
0.0
 11
1461.922331
 21
806.538404
 31
0.0
  0
LINE
  5
10FD1
100
AcDbEntity
  8
0
100
AcDbLine
 10
1463.005331
 20
802.538404
 30
0.0
 11
1461.922331
 21
803.621404
 31
0.0
  0
LINE
  5
10FD2
100
AcDbEntity
  8
0
100
AcDbLine
 10
1476.839331
 20
802.538404
 30
0.0
 11
1463.005331
 21
802.538404
 31
0.0
  0
LINE
  5
10FD3
100
AcDbEntity
  8
0
100
AcDbLine
 10
1546.978515
 20
806.332286
 30
0.0
 11
1546.978515
 21
819.332286
 31
0.0
  0
LINE
  5
10FD4
100
AcDbEntity
  8
0
100
AcDbLine
 10
1522.978515
 20
806.332286
 30
0.0
 11
1522.978515
 21
819.332286
 31
0.0
  0
LINE
  5
10FD5
100
AcDbEntity
  8
0
100
AcDbLine
 10
1534.978515
 20
807.608286
 30
0.0
 11
1534.978515
 21
819.332286
 31
0.0
  0
LINE
  5
10FD6
100
AcDbEntity
  8
0
100
AcDbLine
 10
1528.061515
 20
802.538404
 30
0.0
 11
1541.895515
 21
802.538404
 31
0.0
  0
ARC
  5
10FD7
100
AcDbEntity
  8
0
100
AcDbCircle
 10
1528.978515
 20
821.076869
 30
0.0
 40
14.744583
100
AcDbArc
 50
245.987929
 51
294.012071
  0
LINE
  5
10FD8
100
AcDbEntity
  8
0
100
AcDbLine
 10
1546.978515
 20
806.332286
 30
0.0
 11
1522.978515
 21
806.332286
 31
0.0
  0
LINE
  5
10FD9
100
AcDbEntity
  8
0
100
AcDbLine
 10
1526.978515
 20
803.621404
 30
0.0
 11
1528.061515
 21
802.538404
 31
0.0
  0
LINE
  5
10FDA
100
AcDbEntity
  8
0
100
AcDbLine
 10
1526.978515
 20
806.538404
 30
0.0
 11
1526.978515
 21
803.621404
 31
0.0
  0
LINE
  5
10FDB
100
AcDbEntity
  8
0
100
AcDbLine
 10
1541.895515
 20
802.538404
 30
0.0
 11
1542.978515
 21
803.621404
 31
0.0
  0
LINE
  5
10FDC
100
AcDbEntity
  8
0
100
AcDbLine
 10
1542.978515
 20
803.621404
 30
0.0
 11
1542.978515
 21
806.538404
 31
0.0
  0
ARC
  5
10FDD
100
AcDbEntity
  8
0
100
AcDbCircle
 10
1540.978515
 20
821.076869
 30
0.0
 40
14.744583
100
AcDbArc
 50
245.987929
 51
294.012071
  0
LINE
  5
10FDE
100
AcDbEntity
  8
0
100
AcDbLine
 10
1568.980183
 20
806.332286
 30
0.0
 11
1568.980183
 21
819.332286
 31
0.0
  0
LINE
  5
10FDF
100
AcDbEntity
  8
0
100
AcDbLine
 10
1592.980183
 20
806.332286
 30
0.0
 11
1592.980183
 21
819.332286
 31
0.0
  0
LINE
  5
10FE0
100
AcDbEntity
  8
0
100
AcDbLine
 10
1580.980183
 20
807.608286
 30
0.0
 11
1580.980183
 21
819.332286
 31
0.0
  0
LINE
  5
10FE1
100
AcDbEntity
  8
0
100
AcDbLine
 10
1568.450423
 20
799.538404
 30
0.0
 11
1568.450423
 21
814.538404
 31
0.0
  0
LINE
  5
10FE2
100
AcDbEntity
  8
0
100
AcDbLine
 10
1572.980183
 20
806.538404
 30
0.0
 11
1572.980183
 21
803.621404
 31
0.0
  0
LINE
  5
10FE3
100
AcDbEntity
  8
0
100
AcDbLine
 10
1572.980183
 20
803.621404
 30
0.0
 11
1574.063183
 21
802.538404
 31
0.0
  0
ARC
  5
10FE4
100
AcDbEntity
  8
0
100
AcDbCircle
 10
1573.450423
 20
814.538404
 30
0.0
 40
5.0
100
AcDbArc
 50
153.386402
 51
180.0
  0
LINE
  5
10FE5
100
AcDbEntity
  8
0
100
AcDbLine
 10
1588.980183
 20
803.621404
 30
0.0
 11
1588.980183
 21
806.538404
 31
0.0
  0
LINE
  5
10FE6
100
AcDbEntity
  8
0
100
AcDbLine
 10
1587.897183
 20
802.538404
 30
0.0
 11
1588.980183
 21
803.621404
 31
0.0
  0
ARC
  5
10FE7
100
AcDbEntity
  8
0
100
AcDbCircle
 10
1586.980183
 20
821.076869
 30
0.0
 40
14.744583
100
AcDbArc
 50
245.987929
 51
294.012071
  0
LINE
  5
10FE8
100
AcDbEntity
  8
0
100
AcDbLine
 10
1574.063183
 20
802.538404
 30
0.0
 11
1587.897183
 21
802.538404
 31
0.0
  0
LINE
  5
10FE9
100
AcDbEntity
  8
0
100
AcDbLine
 10
1592.980183
 20
806.332286
 30
0.0
 11
1568.980183
 21
806.332286
 31
0.0
  0
ARC
  5
10FEA
100
AcDbEntity
  8
0
100
AcDbCircle
 10
1574.980183
 20
821.076869
 30
0.0
 40
14.744583
100
AcDbArc
 50
245.987929
 51
294.012071
  0
LINE
  5
10FEB
100
AcDbEntity
  8
0
100
AcDbLine
 10
1389.950423
 20
654.338404
 30
0.0
 11
1614.950423
 21
654.338404
 31
0.0
  0
ARC
  5
10FEC
100
AcDbEntity
  8
0
100
AcDbCircle
 10
1431.593323
 20
656.082987
 30
0.0
 40
14.744583
100
AcDbArc
 50
245.987929
 51
294.012071
  0
LINE
  5
10FED
100
AcDbEntity
  8
0
100
AcDbLine
 10
1413.593323
 20
641.338404
 30
0.0
 11
1437.593323
 21
641.338404
 31
0.0
  0
LINE
  5
10FEE
100
AcDbEntity
  8
0
100
AcDbLine
 10
1432.510323
 20
637.544522
 30
0.0
 11
1418.676323
 21
637.544522
 31
0.0
  0
ARC
  5
10FEF
100
AcDbEntity
  8
0
100
AcDbCircle
 10
1413.449923
 20
656.082987
 30
0.0
 40
14.744583
100
AcDbArc
 50
245.987929
 51
270.557245
  0
LINE
  5
10FF0
100
AcDbEntity
  8
0
100
AcDbLine
 10
1425.593323
 20
642.614404
 30
0.0
 11
1425.593323
 21
654.338404
 31
0.0
  0
LINE
  5
10FF1
100
AcDbEntity
  8
0
100
AcDbLine
 10
1413.593323
 20
641.338404
 30
0.0
 11
1413.593323
 21
654.338404
 31
0.0
  0
ARC
  5
10FF2
100
AcDbEntity
  8
0
100
AcDbCircle
 10
1419.593323
 20
656.082987
 30
0.0
 40
14.744583
100
AcDbArc
 50
245.987929
 51
294.012071
  0
LINE
  5
10FF3
100
AcDbEntity
  8
0
100
AcDbLine
 10
1407.449923
 20
642.614404
 30
0.0
 11
1407.449923
 21
654.338404
 31
0.0
  0
LINE
  5
10FF4
100
AcDbEntity
  8
0
100
AcDbLine
 10
1395.449923
 20
641.338404
 30
0.0
 11
1395.449923
 21
654.338404
 31
0.0
  0
LINE
  5
10FF5
100
AcDbEntity
  8
0
100
AcDbLine
 10
1395.449923
 20
641.338404
 30
0.0
 11
1419.449923
 21
641.338404
 31
0.0
  0
ARC
  5
10FF6
100
AcDbEntity
  8
0
100
AcDbCircle
 10
1401.449923
 20
656.082987
 30
0.0
 40
14.744583
100
AcDbArc
 50
245.987929
 51
294.012071
  0
LINE
  5
10FF7
100
AcDbEntity
  8
0
100
AcDbLine
 10
1414.366923
 20
637.544522
 30
0.0
 11
1400.532923
 21
637.544522
 31
0.0
  0
LINE
  5
10FF8
100
AcDbEntity
  8
0
100
AcDbLine
 10
1400.532923
 20
637.544522
 30
0.0
 11
1399.449923
 21
638.627522
 31
0.0
  0
LINE
  5
10FF9
100
AcDbEntity
  8
0
100
AcDbLine
 10
1399.449923
 20
638.627522
 30
0.0
 11
1399.449923
 21
641.338404
 31
0.0
  0
LINE
  5
10FFA
100
AcDbEntity
  8
0
100
AcDbLine
 10
1415.449923
 20
641.338404
 30
0.0
 11
1415.449923
 21
638.627522
 31
0.0
  0
LINE
  5
10FFB
100
AcDbEntity
  8
0
100
AcDbLine
 10
1415.449923
 20
638.627522
 30
0.0
 11
1414.366923
 21
637.544522
 31
0.0
  0
LINE
  5
10FFC
100
AcDbEntity
  8
0
100
AcDbLine
 10
1417.593323
 20
638.627522
 30
0.0
 11
1417.593323
 21
641.338404
 31
0.0
  0
LINE
  5
10FFD
100
AcDbEntity
  8
0
100
AcDbLine
 10
1418.676323
 20
637.544522
 30
0.0
 11
1417.593323
 21
638.627522
 31
0.0
  0
ARC
  5
10FFE
100
AcDbEntity
  8
0
100
AcDbCircle
 10
1450.737219
 20
639.338404
 30
0.0
 40
15.0
100
AcDbArc
 50
46.337673
 51
90.0
  0
LINE
  5
10FFF
100
AcDbEntity
  8
0
100
AcDbLine
 10
1461.093323
 20
641.338404
 30
0.0
 11
1485.093323
 21
641.338404
 31
0.0
  0
ARC
  5
11000
100
AcDbEntity
  8
0
100
AcDbCircle
 10
1467.093323
 20
656.082987
 30
0.0
 40
14.744583
100
AcDbArc
 50
245.987929
 51
294.012071
  0
LINE
  5
11001
100
AcDbEntity
  8
0
100
AcDbLine
 10
1461.093323
 20
641.338404
 30
0.0
 11
1461.093323
 21
654.338404
 31
0.0
  0
LINE
  5
11002
100
AcDbEntity
  8
0
100
AcDbLine
 10
1437.593323
 20
641.338404
 30
0.0
 11
1437.593323
 21
654.338404
 31
0.0
  0
LINE
  5
11003
100
AcDbEntity
  8
0
100
AcDbLine
 10
1433.593323
 20
641.338404
 30
0.0
 11
1433.593323
 21
638.627522
 31
0.0
  0
LINE
  5
11004
100
AcDbEntity
  8
0
100
AcDbLine
 10
1433.593323
 20
638.627522
 30
0.0
 11
1432.510323
 21
637.544522
 31
0.0
  0
LINE
  5
11005
100
AcDbEntity
  8
0
100
AcDbLine
 10
1473.093323
 20
642.614404
 30
0.0
 11
1473.093323
 21
654.338404
 31
0.0
  0
LINE
  5
11006
100
AcDbEntity
  8
0
100
AcDbLine
 10
1485.093323
 20
641.338404
 30
0.0
 11
1485.093323
 21
654.338404
 31
0.0
  0
ARC
  5
11007
100
AcDbEntity
  8
0
100
AcDbCircle
 10
1479.093323
 20
656.082987
 30
0.0
 40
14.744583
100
AcDbArc
 50
245.987929
 51
294.012071
  0
LINE
  5
11008
100
AcDbEntity
  8
0
100
AcDbLine
 10
1481.093323
 20
641.338404
 30
0.0
 11
1481.093323
 21
638.627522
 31
0.0
  0
LINE
  5
11009
100
AcDbEntity
  8
0
100
AcDbLine
 10
1481.093323
 20
638.627522
 30
0.0
 11
1480.010323
 21
637.544522
 31
0.0
  0
LINE
  5
1100A
100
AcDbEntity
  8
0
100
AcDbLine
 10
1465.093323
 20
638.627522
 30
0.0
 11
1465.093323
 21
641.338404
 31
0.0
  0
LINE
  5
1100B
100
AcDbEntity
  8
0
100
AcDbLine
 10
1466.176323
 20
637.544522
 30
0.0
 11
1465.093323
 21
638.627522
 31
0.0
  0
LINE
  5
1100C
100
AcDbEntity
  8
0
100
AcDbLine
 10
1480.010323
 20
637.544522
 30
0.0
 11
1466.176323
 21
637.544522
 31
0.0
  0
LINE
  5
1100D
100
AcDbEntity
  8
0
100
AcDbLine
 10
1524.890523
 20
637.544522
 30
0.0
 11
1538.724523
 21
637.544522
 31
0.0
  0
ARC
  5
1100E
100
AcDbEntity
  8
0
100
AcDbCircle
 10
1525.807523
 20
656.082987
 30
0.0
 40
14.744583
100
AcDbArc
 50
245.987929
 51
294.012071
  0
LINE
  5
1100F
100
AcDbEntity
  8
0
100
AcDbLine
 10
1543.807523
 20
641.338404
 30
0.0
 11
1519.807523
 21
641.338404
 31
0.0
  0
LINE
  5
11010
100
AcDbEntity
  8
0
100
AcDbLine
 10
1523.807523
 20
638.627522
 30
0.0
 11
1524.890523
 21
637.544522
 31
0.0
  0
LINE
  5
11011
100
AcDbEntity
  8
0
100
AcDbLine
 10
1523.807523
 20
641.338404
 30
0.0
 11
1523.807523
 21
638.627522
 31
0.0
  0
LINE
  5
11012
100
AcDbEntity
  8
0
100
AcDbLine
 10
1519.807523
 20
641.338404
 30
0.0
 11
1519.807523
 21
654.338404
 31
0.0
  0
LINE
  5
11013
100
AcDbEntity
  8
0
100
AcDbLine
 10
1538.724523
 20
637.544522
 30
0.0
 11
1539.807523
 21
638.627522
 31
0.0
  0
LINE
  5
11014
100
AcDbEntity
  8
0
100
AcDbLine
 10
1539.807523
 20
638.627522
 30
0.0
 11
1539.807523
 21
641.338404
 31
0.0
  0
LINE
  5
11015
100
AcDbEntity
  8
0
100
AcDbLine
 10
1531.807523
 20
642.614404
 30
0.0
 11
1531.807523
 21
654.338404
 31
0.0
  0
LINE
  5
11016
100
AcDbEntity
  8
0
100
AcDbLine
 10
1543.807523
 20
641.338404
 30
0.0
 11
1543.807523
 21
654.338404
 31
0.0
  0
ARC
  5
11017
100
AcDbEntity
  8
0
100
AcDbCircle
 10
1537.807523
 20
656.082987
 30
0.0
 40
14.744583
100
AcDbArc
 50
245.987929
 51
294.012071
  0
ARC
  5
11018
100
AcDbEntity
  8
0
100
AcDbCircle
 10
1554.163626
 20
639.338404
 30
0.0
 40
15.0
100
AcDbArc
 50
90.0
 51
133.662327
  0
LINE
  5
11019
100
AcDbEntity
  8
0
100
AcDbLine
 10
1590.533923
 20
637.544522
 30
0.0
 11
1604.367923
 21
637.544522
 31
0.0
  0
ARC
  5
1101A
100
AcDbEntity
  8
0
100
AcDbCircle
 10
1603.450923
 20
656.082987
 30
0.0
 40
14.744583
100
AcDbArc
 50
245.987929
 51
294.012071
  0
LINE
  5
1101B
100
AcDbEntity
  8
0
100
AcDbLine
 10
1609.450923
 20
641.338404
 30
0.0
 11
1585.450923
 21
641.338404
 31
0.0
  0
LINE
  5
1101C
100
AcDbEntity
  8
0
100
AcDbLine
 10
1571.307523
 20
638.627522
 30
0.0
 11
1572.390523
 21
637.544522
 31
0.0
  0
LINE
  5
1101D
100
AcDbEntity
  8
0
100
AcDbLine
 10
1571.307523
 20
641.338404
 30
0.0
 11
1571.307523
 21
638.627522
 31
0.0
  0
LINE
  5
1101E
100
AcDbEntity
  8
0
100
AcDbLine
 10
1567.307523
 20
641.338404
 30
0.0
 11
1567.307523
 21
654.338404
 31
0.0
  0
LINE
  5
1101F
100
AcDbEntity
  8
0
100
AcDbLine
 10
1586.224523
 20
637.544522
 30
0.0
 11
1587.307523
 21
638.627522
 31
0.0
  0
LINE
  5
11020
100
AcDbEntity
  8
0
100
AcDbLine
 10
1587.307523
 20
638.627522
 30
0.0
 11
1587.307523
 21
641.338404
 31
0.0
  0
LINE
  5
11021
100
AcDbEntity
  8
0
100
AcDbLine
 10
1589.450923
 20
638.627522
 30
0.0
 11
1590.533923
 21
637.544522
 31
0.0
  0
LINE
  5
11022
100
AcDbEntity
  8
0
100
AcDbLine
 10
1589.450923
 20
641.338404
 30
0.0
 11
1589.450923
 21
638.627522
 31
0.0
  0
LINE
  5
11023
100
AcDbEntity
  8
0
100
AcDbLine
 10
1597.450923
 20
642.614404
 30
0.0
 11
1597.450923
 21
654.338404
 31
0.0
  0
ARC
  5
11024
100
AcDbEntity
  8
0
100
AcDbCircle
 10
1585.307523
 20
656.082987
 30
0.0
 40
14.744583
100
AcDbArc
 50
245.987929
 51
294.012071
  0
LINE
  5
11025
100
AcDbEntity
  8
0
100
AcDbLine
 10
1591.307523
 20
641.338404
 30
0.0
 11
1591.307523
 21
654.338404
 31
0.0
  0
LINE
  5
11026
100
AcDbEntity
  8
0
100
AcDbLine
 10
1579.307523
 20
642.614404
 30
0.0
 11
1579.307523
 21
654.338404
 31
0.0
  0
ARC
  5
11027
100
AcDbEntity
  8
0
100
AcDbCircle
 10
1591.450923
 20
656.082987
 30
0.0
 40
14.744583
100
AcDbArc
 50
269.442755
 51
294.012071
  0
LINE
  5
11028
100
AcDbEntity
  8
0
100
AcDbLine
 10
1572.390523
 20
637.544522
 30
0.0
 11
1586.224523
 21
637.544522
 31
0.0
  0
LINE
  5
11029
100
AcDbEntity
  8
0
100
AcDbLine
 10
1591.307523
 20
641.338404
 30
0.0
 11
1567.307523
 21
641.338404
 31
0.0
  0
ARC
  5
1102A
100
AcDbEntity
  8
0
100
AcDbCircle
 10
1573.307523
 20
656.082987
 30
0.0
 40
14.744583
100
AcDbArc
 50
245.987929
 51
294.012071
  0
LINE
  5
1102B
100
AcDbEntity
  8
0
100
AcDbLine
 10
1605.450923
 20
638.627522
 30
0.0
 11
1605.450923
 21
641.338404
 31
0.0
  0
LINE
  5
1102C
100
AcDbEntity
  8
0
100
AcDbLine
 10
1604.367923
 20
637.544522
 30
0.0
 11
1605.450923
 21
638.627522
 31
0.0
  0
LINE
  5
1102D
100
AcDbEntity
  8
0
100
AcDbLine
 10
1609.450923
 20
641.338404
 30
0.0
 11
1609.450923
 21
654.338404
 31
0.0
  0
LINE
  5
110BF
100
AcDbEntity
  8
0
100
AcDbLine
 10
2000.550773
 20
599.338404
 30
0.0
 11
2024.550773
 21
599.338404
 31
0.0
  0
ARC
  5
110C0
100
AcDbEntity
  8
0
100
AcDbCircle
 10
2006.550773
 20
614.082987
 30
0.0
 40
14.744583
100
AcDbArc
 50
245.987929
 51
294.012071
  0
LINE
  5
110C2
100
AcDbEntity
  8
0
100
AcDbLine
 10
2000.550773
 20
599.338404
 30
0.0
 11
2000.550773
 21
612.338404
 31
0.0
  0
LINE
  5
110C4
100
AcDbEntity
  8
0
100
AcDbLine
 10
2202.551773
 20
600.614404
 30
0.0
 11
2202.551773
 21
612.338404
 31
0.0
  0
LINE
  5
110C5
100
AcDbEntity
  8
0
100
AcDbLine
 10
2214.551773
 20
599.338404
 30
0.0
 11
2214.551773
 21
612.338404
 31
0.0
  0
LINE
  5
110C6
100
AcDbEntity
  8
0
100
AcDbLine
 10
2184.408373
 20
600.614404
 30
0.0
 11
2184.408373
 21
612.338404
 31
0.0
  0
LINE
  5
110C7
100
AcDbEntity
  8
0
100
AcDbLine
 10
2172.408373
 20
599.338404
 30
0.0
 11
2172.408373
 21
612.338404
 31
0.0
  0
LINE
  5
110C8
100
AcDbEntity
  8
0
100
AcDbLine
 10
2196.408373
 20
599.338404
 30
0.0
 11
2196.408373
 21
612.338404
 31
0.0
  0
LINE
  5
110C9
100
AcDbEntity
  8
0
100
AcDbLine
 10
2148.908373
 20
599.338404
 30
0.0
 11
2148.908373
 21
612.338404
 31
0.0
  0
LINE
  5
110CA
100
AcDbEntity
  8
0
100
AcDbLine
 10
2136.908373
 20
600.614404
 30
0.0
 11
2136.908373
 21
612.338404
 31
0.0
  0
LINE
  5
110CB
100
AcDbEntity
  8
0
100
AcDbLine
 10
2124.908373
 20
599.338404
 30
0.0
 11
2124.908373
 21
612.338404
 31
0.0
  0
LINE
  5
110CC
100
AcDbEntity
  8
0
100
AcDbLine
 10
2066.194173
 20
599.338404
 30
0.0
 11
2066.194173
 21
612.338404
 31
0.0
  0
LINE
  5
110CD
100
AcDbEntity
  8
0
100
AcDbLine
 10
2090.194173
 20
599.338404
 30
0.0
 11
2090.194173
 21
612.338404
 31
0.0
  0
LINE
  5
110CE
100
AcDbEntity
  8
0
100
AcDbLine
 10
2078.194173
 20
600.614404
 30
0.0
 11
2078.194173
 21
612.338404
 31
0.0
  0
LINE
  5
110CF
100
AcDbEntity
  8
0
100
AcDbLine
 10
2018.694173
 20
599.338404
 30
0.0
 11
2018.694173
 21
612.338404
 31
0.0
  0
LINE
  5
110D0
100
AcDbEntity
  8
0
100
AcDbLine
 10
2042.694173
 20
599.338404
 30
0.0
 11
2042.694173
 21
612.338404
 31
0.0
  0
LINE
  5
110D1
100
AcDbEntity
  8
0
100
AcDbLine
 10
2030.694173
 20
600.614404
 30
0.0
 11
2030.694173
 21
612.338404
 31
0.0
  0
LINE
  5
110D2
100
AcDbEntity
  8
0
100
AcDbLine
 10
2012.550773
 20
600.614404
 30
0.0
 11
2012.550773
 21
612.338404
 31
0.0
  0
LINE
  5
110D3
100
AcDbEntity
  8
0
100
AcDbLine
 10
2129.991373
 20
595.544522
 30
0.0
 11
2143.825373
 21
595.544522
 31
0.0
  0
ARC
  5
110D4
100
AcDbEntity
  8
0
100
AcDbCircle
 10
2142.908373
 20
614.082987
 30
0.0
 40
14.744583
100
AcDbArc
 50
245.987929
 51
294.012071
  0
LINE
  5
110D5
100
AcDbEntity
  8
0
100
AcDbLine
 10
2148.908373
 20
599.338404
 30
0.0
 11
2124.908373
 21
599.338404
 31
0.0
  0
ARC
  5
110D6
100
AcDbEntity
  8
0
100
AcDbCircle
 10
2072.194173
 20
614.082987
 30
0.0
 40
14.744583
100
AcDbArc
 50
245.987929
 51
294.012071
  0
LINE
  5
110D7
100
AcDbEntity
  8
0
100
AcDbLine
 10
2066.194173
 20
599.338404
 30
0.0
 11
2090.194173
 21
599.338404
 31
0.0
  0
LINE
  5
110D8
100
AcDbEntity
  8
0
100
AcDbLine
 10
2085.111173
 20
595.544522
 30
0.0
 11
2071.277173
 21
595.544522
 31
0.0
  0
LINE
  5
110D9
100
AcDbEntity
  8
0
100
AcDbLine
 10
2038.694173
 20
596.627522
 30
0.0
 11
2037.611173
 21
595.544522
 31
0.0
  0
ARC
  5
110DA
100
AcDbEntity
  8
0
100
AcDbCircle
 10
2036.694173
 20
614.082987
 30
0.0
 40
14.744583
100
AcDbArc
 50
245.987929
 51
294.012071
  0
LINE
  5
110DB
100
AcDbEntity
  8
0
100
AcDbLine
 10
2018.694173
 20
599.338404
 30
0.0
 11
2042.694173
 21
599.338404
 31
0.0
  0
ARC
  5
110DC
100
AcDbEntity
  8
0
100
AcDbCircle
 10
2018.550773
 20
614.082987
 30
0.0
 40
14.744583
100
AcDbArc
 50
245.987929
 51
270.557245
  0
LINE
  5
110DD
100
AcDbEntity
  8
0
100
AcDbLine
 10
2037.611173
 20
595.544522
 30
0.0
 11
2023.777173
 21
595.544522
 31
0.0
  0
LINE
  5
110DE
100
AcDbEntity
  8
0
100
AcDbLine
 10
2023.777173
 20
595.544522
 30
0.0
 11
2022.694173
 21
596.627522
 31
0.0
  0
LINE
  5
110DF
100
AcDbEntity
  8
0
100
AcDbLine
 10
2022.694173
 20
596.627522
 30
0.0
 11
2022.694173
 21
599.338404
 31
0.0
  0
LINE
  5
110E0
100
AcDbEntity
  8
0
100
AcDbLine
 10
2020.550773
 20
596.627522
 30
0.0
 11
2019.467773
 21
595.544522
 31
0.0
  0
LINE
  5
110E1
100
AcDbEntity
  8
0
100
AcDbLine
 10
2020.550773
 20
599.338404
 30
0.0
 11
2020.550773
 21
596.627522
 31
0.0
  0
ARC
  5
110E2
100
AcDbEntity
  8
0
100
AcDbCircle
 10
2024.694173
 20
614.082987
 30
0.0
 40
14.744583
100
AcDbArc
 50
245.987929
 51
294.012071
  0
LINE
  5
110E3
100
AcDbEntity
  8
0
100
AcDbLine
 10
2004.550773
 20
596.627522
 30
0.0
 11
2004.550773
 21
599.338404
 31
0.0
  0
LINE
  5
110E4
100
AcDbEntity
  8
0
100
AcDbLine
 10
2005.633773
 20
595.544522
 30
0.0
 11
2004.550773
 21
596.627522
 31
0.0
  0
LINE
  5
110E5
100
AcDbEntity
  8
0
100
AcDbLine
 10
2019.467773
 20
595.544522
 30
0.0
 11
2005.633773
 21
595.544522
 31
0.0
  0
LINE
  5
110E6
100
AcDbEntity
  8
0
100
AcDbLine
 10
2071.277173
 20
595.544522
 30
0.0
 11
2070.194173
 21
596.627522
 31
0.0
  0
LINE
  5
110E7
100
AcDbEntity
  8
0
100
AcDbLine
 10
2070.194173
 20
596.627522
 30
0.0
 11
2070.194173
 21
599.338404
 31
0.0
  0
LINE
  5
110E8
100
AcDbEntity
  8
0
100
AcDbLine
 10
2038.694173
 20
599.338404
 30
0.0
 11
2038.694173
 21
596.627522
 31
0.0
  0
LINE
  5
110E9
100
AcDbEntity
  8
0
100
AcDbLine
 10
2086.194173
 20
596.627522
 30
0.0
 11
2085.111173
 21
595.544522
 31
0.0
  0
LINE
  5
110EA
100
AcDbEntity
  8
0
100
AcDbLine
 10
2086.194173
 20
599.338404
 30
0.0
 11
2086.194173
 21
596.627522
 31
0.0
  0
ARC
  5
110EB
100
AcDbEntity
  8
0
100
AcDbCircle
 10
2084.194173
 20
614.082987
 30
0.0
 40
14.744583
100
AcDbArc
 50
245.987929
 51
294.012071
  0
LINE
  5
110EC
100
AcDbEntity
  8
0
100
AcDbLine
 10
2128.908373
 20
599.338404
 30
0.0
 11
2128.908373
 21
596.627522
 31
0.0
  0
LINE
  5
110ED
100
AcDbEntity
  8
0
100
AcDbLine
 10
2128.908373
 20
596.627522
 30
0.0
 11
2129.991373
 21
595.544522
 31
0.0
  0
ARC
  5
110EE
100
AcDbEntity
  8
0
100
AcDbCircle
 10
2130.908373
 20
614.082987
 30
0.0
 40
14.744583
100
AcDbArc
 50
245.987929
 51
294.012071
  0
ARC
  5
110EF
100
AcDbEntity
  8
0
100
AcDbCircle
 10
2208.551773
 20
614.082987
 30
0.0
 40
14.744583
100
AcDbArc
 50
245.987929
 51
294.012071
  0
LINE
  5
110F0
100
AcDbEntity
  8
0
100
AcDbLine
 10
2214.551773
 20
599.338404
 30
0.0
 11
2190.551773
 21
599.338404
 31
0.0
  0
LINE
  5
110F1
100
AcDbEntity
  8
0
100
AcDbLine
 10
2177.491373
 20
595.544522
 30
0.0
 11
2191.325373
 21
595.544522
 31
0.0
  0
LINE
  5
110F2
100
AcDbEntity
  8
0
100
AcDbLine
 10
2196.408373
 20
599.338404
 30
0.0
 11
2172.408373
 21
599.338404
 31
0.0
  0
ARC
  5
110F3
100
AcDbEntity
  8
0
100
AcDbCircle
 10
2178.408373
 20
614.082987
 30
0.0
 40
14.744583
100
AcDbArc
 50
245.987929
 51
294.012071
  0
LINE
  5
110F4
100
AcDbEntity
  8
0
100
AcDbLine
 10
2176.408373
 20
599.338404
 30
0.0
 11
2176.408373
 21
596.627522
 31
0.0
  0
LINE
  5
110F5
100
AcDbEntity
  8
0
100
AcDbLine
 10
2176.408373
 20
596.627522
 30
0.0
 11
2177.491373
 21
595.544522
 31
0.0
  0
LINE
  5
110F6
100
AcDbEntity
  8
0
100
AcDbLine
 10
2144.908373
 20
596.627522
 30
0.0
 11
2144.908373
 21
599.338404
 31
0.0
  0
LINE
  5
110F7
100
AcDbEntity
  8
0
100
AcDbLine
 10
2143.825373
 20
595.544522
 30
0.0
 11
2144.908373
 21
596.627522
 31
0.0
  0
ARC
  5
110F8
100
AcDbEntity
  8
0
100
AcDbCircle
 10
2190.408373
 20
614.082987
 30
0.0
 40
14.744583
100
AcDbArc
 50
245.987929
 51
294.012071
  0
ARC
  5
110F9
100
AcDbEntity
  8
0
100
AcDbCircle
 10
2196.551773
 20
614.082987
 30
0.0
 40
14.744583
100
AcDbArc
 50
269.442755
 51
294.012071
  0
LINE
  5
110FA
100
AcDbEntity
  8
0
100
AcDbLine
 10
2209.468773
 20
595.544522
 30
0.0
 11
2210.551773
 21
596.627522
 31
0.0
  0
LINE
  5
110FB
100
AcDbEntity
  8
0
100
AcDbLine
 10
2210.551773
 20
596.627522
 30
0.0
 11
2210.551773
 21
599.338404
 31
0.0
  0
LINE
  5
110FC
100
AcDbEntity
  8
0
100
AcDbLine
 10
2195.634773
 20
595.544522
 30
0.0
 11
2209.468773
 21
595.544522
 31
0.0
  0
LINE
  5
110FD
100
AcDbEntity
  8
0
100
AcDbLine
 10
2194.551773
 20
599.338404
 30
0.0
 11
2194.551773
 21
596.627522
 31
0.0
  0
LINE
  5
110FE
100
AcDbEntity
  8
0
100
AcDbLine
 10
2192.408373
 20
596.627522
 30
0.0
 11
2192.408373
 21
599.338404
 31
0.0
  0
LINE
  5
110FF
100
AcDbEntity
  8
0
100
AcDbLine
 10
2191.325373
 20
595.544522
 30
0.0
 11
2192.408373
 21
596.627522
 31
0.0
  0
LINE
  5
11100
100
AcDbEntity
  8
0
100
AcDbLine
 10
2194.551773
 20
596.627522
 30
0.0
 11
2195.634773
 21
595.544522
 31
0.0
  0
ARC
  5
11101
100
AcDbEntity
  8
0
100
AcDbCircle
 10
2055.83807
 20
597.338404
 30
0.0
 40
15.0
100
AcDbArc
 50
46.337673
 51
90.0
  0
ARC
  5
11102
100
AcDbEntity
  8
0
100
AcDbCircle
 10
2159.264477
 20
597.338404
 30
0.0
 40
15.0
100
AcDbArc
 50
90.0
 51
133.662327
  0
LINE
  5
11107
100
AcDbEntity
  8
0
100
AcDbLine
 10
2075.104489
 20
783.913404
 30
0.0
 11
2075.104489
 21
798.538404
 31
0.0
  0
LINE
  5
11108
100
AcDbEntity
  8
0
100
AcDbLine
 10
2061.604489
 20
783.913404
 30
0.0
 11
2061.604489
 21
798.538404
 31
0.0
  0
ARC
  5
1110B
100
AcDbEntity
  8
0
100
AcDbCircle
 10
2068.354489
 20
800.507
 30
0.0
 40
16.593596
100
AcDbArc
 50
245.997065
 51
294.002935
  0
LINE
  5
1110C
100
AcDbEntity
  8
0
100
AcDbLine
 10
2088.604489
 20
783.913404
 30
0.0
 11
2088.604489
 21
798.538404
 31
0.0
  0
ARC
  5
1110D
100
AcDbEntity
  8
0
100
AcDbCircle
 10
2081.854489
 20
800.507
 30
0.0
 40
16.593596
100
AcDbArc
 50
245.997065
 51
294.002935
  0
LINE
  5
1110E
100
AcDbEntity
  8
0
100
AcDbLine
 10
2036.104489
 20
783.913404
 30
0.0
 11
2009.104489
 21
783.913404
 31
0.0
  0
LINE
  5
1110F
100
AcDbEntity
  8
0
100
AcDbLine
 10
2036.104489
 20
783.913404
 30
0.0
 11
2036.104489
 21
798.538404
 31
0.0
  0
ARC
  5
11110
100
AcDbEntity
  8
0
100
AcDbCircle
 10
2029.354489
 20
800.507
 30
0.0
 40
16.593596
100
AcDbArc
 50
245.997065
 51
294.002935
  0
LINE
  5
11111
100
AcDbEntity
  8
0
100
AcDbLine
 10
2022.604489
 20
783.913404
 30
0.0
 11
2022.604489
 21
798.538404
 31
0.0
  0
LINE
  5
11112
100
AcDbEntity
  8
0
100
AcDbLine
 10
2009.104489
 20
783.913404
 30
0.0
 11
2009.104489
 21
798.538404
 31
0.0
  0
ARC
  5
11113
100
AcDbEntity
  8
0
100
AcDbCircle
 10
2015.854489
 20
800.507
 30
0.0
 40
16.593596
100
AcDbArc
 50
245.997065
 51
294.002935
  0
LINE
  5
11114
100
AcDbEntity
  8
0
100
AcDbLine
 10
2016.051273
 20
783.913404
 30
0.0
 11
1989.051273
 21
783.913404
 31
0.0
  0
ARC
  5
11116
100
AcDbEntity
  8
0
100
AcDbCircle
 10
2009.301273
 20
800.507
 30
0.0
 40
16.593596
100
AcDbArc
 50
245.997065
 51
269.32051
  0
LINE
  5
11117
100
AcDbEntity
  8
0
100
AcDbLine
 10
2002.551273
 20
783.913404
 30
0.0
 11
2002.551273
 21
798.538404
 31
0.0
  0
LINE
  5
11118
100
AcDbEntity
  8
0
100
AcDbLine
 10
1989.051273
 20
783.913404
 30
0.0
 11
1989.051273
 21
798.538404
 31
0.0
  0
ARC
  5
11119
100
AcDbEntity
  8
0
100
AcDbCircle
 10
1995.801273
 20
800.507
 30
0.0
 40
16.593596
100
AcDbArc
 50
245.997065
 51
294.002935
  0
ARC
  5
1111A
100
AcDbEntity
  8
0
100
AcDbCircle
 10
2219.301273
 20
800.507
 30
0.0
 40
16.593596
100
AcDbArc
 50
245.997065
 51
294.002935
  0
LINE
  5
1111B
100
AcDbEntity
  8
0
100
AcDbLine
 10
2199.051273
 20
783.913404
 30
0.0
 11
2226.051273
 21
783.913404
 31
0.0
  0
LINE
  5
1111C
100
AcDbEntity
  8
0
100
AcDbLine
 10
2226.051273
 20
783.913404
 30
0.0
 11
2226.051273
 21
798.538404
 31
0.0
  0
ARC
  5
1111D
100
AcDbEntity
  8
0
100
AcDbCircle
 10
2185.748058
 20
800.507
 30
0.0
 40
16.593596
100
AcDbArc
 50
245.997065
 51
294.002935
  0
LINE
  5
1111E
100
AcDbEntity
  8
0
100
AcDbLine
 10
2178.998058
 20
783.913404
 30
0.0
 11
2205.998058
 21
783.913404
 31
0.0
  0
LINE
  5
1111F
100
AcDbEntity
  8
0
100
AcDbLine
 10
2200.279683
 20
779.413404
 30
0.0
 11
2184.716433
 21
779.413404
 31
0.0
  0
ARC
  5
11120
100
AcDbEntity
  8
0
100
AcDbCircle
 10
2205.801273
 20
800.507
 30
0.0
 40
16.593596
100
AcDbArc
 50
270.67949
 51
294.002935
  0
LINE
  5
11121
100
AcDbEntity
  8
0
100
AcDbLine
 10
2212.551273
 20
783.913404
 30
0.0
 11
2212.551273
 21
798.538404
 31
0.0
  0
ARC
  5
11122
100
AcDbEntity
  8
0
100
AcDbCircle
 10
2199.248058
 20
800.507
 30
0.0
 40
16.593596
100
AcDbArc
 50
245.997065
 51
294.002935
  0
LINE
  5
11123
100
AcDbEntity
  8
0
100
AcDbLine
 10
2205.998058
 20
783.913404
 30
0.0
 11
2205.998058
 21
798.538404
 31
0.0
  0
LINE
  5
11124
100
AcDbEntity
  8
0
100
AcDbLine
 10
2192.498058
 20
783.913404
 30
0.0
 11
2192.498058
 21
798.538404
 31
0.0
  0
LINE
  5
11125
100
AcDbEntity
  8
0
100
AcDbLine
 10
2203.551273
 20
780.631779
 30
0.0
 11
2203.551273
 21
783.913404
 31
0.0
  0
LINE
  5
11126
100
AcDbEntity
  8
0
100
AcDbLine
 10
2204.769648
 20
779.413404
 30
0.0
 11
2203.551273
 21
780.631779
 31
0.0
  0
LINE
  5
11127
100
AcDbEntity
  8
0
100
AcDbLine
 10
2201.498058
 20
780.631779
 30
0.0
 11
2200.279683
 21
779.413404
 31
0.0
  0
LINE
  5
11128
100
AcDbEntity
  8
0
100
AcDbLine
 10
2201.498058
 20
783.913404
 30
0.0
 11
2201.498058
 21
780.631779
 31
0.0
  0
LINE
  5
11129
100
AcDbEntity
  8
0
100
AcDbLine
 10
2221.551273
 20
780.631779
 30
0.0
 11
2220.332898
 21
779.413404
 31
0.0
  0
LINE
  5
1112A
100
AcDbEntity
  8
0
100
AcDbLine
 10
2221.551273
 20
783.913404
 30
0.0
 11
2221.551273
 21
780.631779
 31
0.0
  0
LINE
  5
1112B
100
AcDbEntity
  8
0
100
AcDbLine
 10
2220.332898
 20
779.413404
 30
0.0
 11
2204.769648
 21
779.413404
 31
0.0
  0
LINE
  5
1112C
100
AcDbEntity
  8
0
100
AcDbLine
 10
2178.998058
 20
783.913404
 30
0.0
 11
2178.998058
 21
798.538404
 31
0.0
  0
LINE
  5
1112D
100
AcDbEntity
  8
0
100
AcDbLine
 10
2184.716433
 20
779.413404
 30
0.0
 11
2183.498058
 21
780.631779
 31
0.0
  0
LINE
  5
1112E
100
AcDbEntity
  8
0
100
AcDbLine
 10
2183.498058
 20
780.631779
 30
0.0
 11
2183.498058
 21
783.913404
 31
0.0
  0
LINE
  5
1112F
100
AcDbEntity
  8
0
100
AcDbLine
 10
2184.726273
 20
779.413404
 30
0.0
 11
2184.551273
 21
778.538404
 31
0.0
  0
LINE
  5
11130
100
AcDbEntity
  8
0
100
AcDbLine
 10
2126.498058
 20
783.913404
 30
0.0
 11
2153.498058
 21
783.913404
 31
0.0
  0
LINE
  5
11131
100
AcDbEntity
  8
0
100
AcDbLine
 10
2126.498058
 20
783.913404
 30
0.0
 11
2126.498058
 21
798.538404
 31
0.0
  0
ARC
  5
11132
100
AcDbEntity
  8
0
100
AcDbCircle
 10
2133.248058
 20
800.507
 30
0.0
 40
16.593596
100
AcDbArc
 50
245.997065
 51
294.002935
  0
LINE
  5
11133
100
AcDbEntity
  8
0
100
AcDbLine
 10
2139.998058
 20
783.913404
 30
0.0
 11
2139.998058
 21
798.538404
 31
0.0
  0
LINE
  5
11134
100
AcDbEntity
  8
0
100
AcDbLine
 10
2153.498058
 20
783.913404
 30
0.0
 11
2153.498058
 21
798.538404
 31
0.0
  0
ARC
  5
11135
100
AcDbEntity
  8
0
100
AcDbCircle
 10
2146.748058
 20
800.507
 30
0.0
 40
16.593596
100
AcDbArc
 50
245.997065
 51
294.002935
  0
LINE
  5
11136
100
AcDbEntity
  8
0
100
AcDbLine
 10
2147.779683
 20
779.413404
 30
0.0
 11
2132.216433
 21
779.413404
 31
0.0
  0
LINE
  5
11137
100
AcDbEntity
  8
0
100
AcDbLine
 10
2148.998058
 20
783.913404
 30
0.0
 11
2148.998058
 21
780.631779
 31
0.0
  0
LINE
  5
11138
100
AcDbEntity
  8
0
100
AcDbLine
 10
2148.998058
 20
780.631779
 30
0.0
 11
2147.779683
 21
779.413404
 31
0.0
  0
LINE
  5
11139
100
AcDbEntity
  8
0
100
AcDbLine
 10
2130.998058
 20
780.631779
 30
0.0
 11
2130.998058
 21
783.913404
 31
0.0
  0
LINE
  5
1113A
100
AcDbEntity
  8
0
100
AcDbLine
 10
2132.216433
 20
779.413404
 30
0.0
 11
2130.998058
 21
780.631779
 31
0.0
  0
ARC
  5
1113B
100
AcDbEntity
  8
0
100
AcDbCircle
 10
2927.521983
 20
800.507
 30
0.0
 40
16.593596
100
AcDbArc
 50
245.997065
 51
294.002935
  0
LINE
  5
1113C
100
AcDbEntity
  8
0
100
AcDbLine
 10
2947.771983
 20
783.913404
 30
0.0
 11
2920.771983
 21
783.913404
 31
0.0
  0
LINE
  5
1113D
100
AcDbEntity
  8
0
100
AcDbLine
 10
2920.771983
 20
783.913404
 30
0.0
 11
2920.771983
 21
798.538404
 31
0.0
  0
ARC
  5
1113E
100
AcDbEntity
  8
0
100
AcDbCircle
 10
2961.075199
 20
800.507
 30
0.0
 40
16.593596
100
AcDbArc
 50
245.997065
 51
294.002935
  0
LINE
  5
1113F
100
AcDbEntity
  8
0
100
AcDbLine
 10
2967.825199
 20
783.913404
 30
0.0
 11
2940.825199
 21
783.913404
 31
0.0
  0
LINE
  5
11140
100
AcDbEntity
  8
0
100
AcDbLine
 10
2946.543574
 20
779.413404
 30
0.0
 11
2962.106824
 21
779.413404
 31
0.0
  0
ARC
  5
11141
100
AcDbEntity
  8
0
100
AcDbCircle
 10
2941.021983
 20
800.507
 30
0.0
 40
16.593596
100
AcDbArc
 50
245.997065
 51
269.32051
  0
LINE
  5
11142
100
AcDbEntity
  8
0
100
AcDbLine
 10
2934.271983
 20
783.913404
 30
0.0
 11
2934.271983
 21
798.538404
 31
0.0
  0
ARC
  5
11143
100
AcDbEntity
  8
0
100
AcDbCircle
 10
2947.575199
 20
800.507
 30
0.0
 40
16.593596
100
AcDbArc
 50
245.997065
 51
294.002935
  0
LINE
  5
11144
100
AcDbEntity
  8
0
100
AcDbLine
 10
2940.825199
 20
783.913404
 30
0.0
 11
2940.825199
 21
798.538404
 31
0.0
  0
LINE
  5
11145
100
AcDbEntity
  8
0
100
AcDbLine
 10
2954.325199
 20
783.913404
 30
0.0
 11
2954.325199
 21
798.538404
 31
0.0
  0
LINE
  5
11146
100
AcDbEntity
  8
0
100
AcDbLine
 10
2943.271983
 20
780.631779
 30
0.0
 11
2943.271983
 21
783.913404
 31
0.0
  0
LINE
  5
11147
100
AcDbEntity
  8
0
100
AcDbLine
 10
2942.053608
 20
779.413404
 30
0.0
 11
2943.271983
 21
780.631779
 31
0.0
  0
LINE
  5
11148
100
AcDbEntity
  8
0
100
AcDbLine
 10
2945.325199
 20
780.631779
 30
0.0
 11
2946.543574
 21
779.413404
 31
0.0
  0
LINE
  5
11149
100
AcDbEntity
  8
0
100
AcDbLine
 10
2945.325199
 20
783.913404
 30
0.0
 11
2945.325199
 21
780.631779
 31
0.0
  0
LINE
  5
1114A
100
AcDbEntity
  8
0
100
AcDbLine
 10
2925.271983
 20
780.631779
 30
0.0
 11
2926.490358
 21
779.413404
 31
0.0
  0
LINE
  5
1114B
100
AcDbEntity
  8
0
100
AcDbLine
 10
2925.271983
 20
783.913404
 30
0.0
 11
2925.271983
 21
780.631779
 31
0.0
  0
LINE
  5
1114C
100
AcDbEntity
  8
0
100
AcDbLine
 10
2926.490358
 20
779.413404
 30
0.0
 11
2942.053608
 21
779.413404
 31
0.0
  0
LINE
  5
1114D
100
AcDbEntity
  8
0
100
AcDbLine
 10
2967.825199
 20
783.913404
 30
0.0
 11
2967.825199
 21
798.538404
 31
0.0
  0
LINE
  5
1114E
100
AcDbEntity
  8
0
100
AcDbLine
 10
2962.106824
 20
779.413404
 30
0.0
 11
2963.325199
 21
780.631779
 31
0.0
  0
LINE
  5
1114F
100
AcDbEntity
  8
0
100
AcDbLine
 10
2963.325199
 20
780.631779
 30
0.0
 11
2963.325199
 21
783.913404
 31
0.0
  0
LINE
  5
11150
100
AcDbEntity
  8
0
100
AcDbLine
 10
2962.096983
 20
779.413404
 30
0.0
 11
2962.271983
 21
778.538404
 31
0.0
  0
ARC
  5
11151
100
AcDbEntity
  8
0
100
AcDbCircle
 10
3130.968768
 20
800.507
 30
0.0
 40
16.593596
100
AcDbArc
 50
245.997065
 51
294.002935
  0
LINE
  5
11152
100
AcDbEntity
  8
0
100
AcDbLine
 10
3132.000393
 20
779.413404
 30
0.0
 11
3116.437143
 21
779.413404
 31
0.0
  0
LINE
  5
11153
100
AcDbEntity
  8
0
100
AcDbLine
 10
3110.718768
 20
783.913404
 30
0.0
 11
3137.718768
 21
783.913404
 31
0.0
  0
LINE
  5
11154
100
AcDbEntity
  8
0
100
AcDbLine
 10
3130.771983
 20
783.913404
 30
0.0
 11
3157.771983
 21
783.913404
 31
0.0
  0
ARC
  5
11155
100
AcDbEntity
  8
0
100
AcDbCircle
 10
3064.968768
 20
800.507
 30
0.0
 40
16.593596
100
AcDbArc
 50
245.997065
 51
294.002935
  0
LINE
  5
11156
100
AcDbEntity
  8
0
100
AcDbLine
 10
3058.218768
 20
783.913404
 30
0.0
 11
3085.218768
 21
783.913404
 31
0.0
  0
LINE
  5
11157
100
AcDbEntity
  8
0
100
AcDbLine
 10
3020.325199
 20
783.913404
 30
0.0
 11
2993.325199
 21
783.913404
 31
0.0
  0
LINE
  5
11158
100
AcDbEntity
  8
0
100
AcDbLine
 10
3020.325199
 20
783.913404
 30
0.0
 11
3020.325199
 21
798.538404
 31
0.0
  0
ARC
  5
11159
100
AcDbEntity
  8
0
100
AcDbCircle
 10
3013.575199
 20
800.507
 30
0.0
 40
16.593596
100
AcDbArc
 50
245.997065
 51
294.002935
  0
LINE
  5
1115A
100
AcDbEntity
  8
0
100
AcDbLine
 10
3006.825199
 20
783.913404
 30
0.0
 11
3006.825199
 21
798.538404
 31
0.0
  0
LINE
  5
1115B
100
AcDbEntity
  8
0
100
AcDbLine
 10
2993.325199
 20
783.913404
 30
0.0
 11
2993.325199
 21
798.538404
 31
0.0
  0
ARC
  5
1115C
100
AcDbEntity
  8
0
100
AcDbCircle
 10
3000.075199
 20
800.507
 30
0.0
 40
16.593596
100
AcDbArc
 50
245.997065
 51
294.002935
  0
LINE
  5
1115D
100
AcDbEntity
  8
0
100
AcDbLine
 10
2999.043574
 20
779.413404
 30
0.0
 11
3014.606824
 21
779.413404
 31
0.0
  0
LINE
  5
1115E
100
AcDbEntity
  8
0
100
AcDbLine
 10
2997.825199
 20
783.913404
 30
0.0
 11
2997.825199
 21
780.631779
 31
0.0
  0
LINE
  5
1115F
100
AcDbEntity
  8
0
100
AcDbLine
 10
2997.825199
 20
780.631779
 30
0.0
 11
2999.043574
 21
779.413404
 31
0.0
  0
LINE
  5
11160
100
AcDbEntity
  8
0
100
AcDbLine
 10
3015.825199
 20
780.631779
 30
0.0
 11
3015.825199
 21
783.913404
 31
0.0
  0
LINE
  5
11161
100
AcDbEntity
  8
0
100
AcDbLine
 10
3014.606824
 20
779.413404
 30
0.0
 11
3015.825199
 21
780.631779
 31
0.0
  0
LINE
  5
11162
100
AcDbEntity
  8
0
100
AcDbLine
 10
3058.218768
 20
783.913404
 30
0.0
 11
3058.218768
 21
798.538404
 31
0.0
  0
LINE
  5
11163
100
AcDbEntity
  8
0
100
AcDbLine
 10
3063.937143
 20
779.413404
 30
0.0
 11
3062.718768
 21
780.631779
 31
0.0
  0
LINE
  5
11164
100
AcDbEntity
  8
0
100
AcDbLine
 10
3062.718768
 20
780.631779
 30
0.0
 11
3062.718768
 21
783.913404
 31
0.0
  0
LINE
  5
11165
100
AcDbEntity
  8
0
100
AcDbLine
 10
3080.718768
 20
780.631779
 30
0.0
 11
3079.500393
 21
779.413404
 31
0.0
  0
LINE
  5
11166
100
AcDbEntity
  8
0
100
AcDbLine
 10
3080.718768
 20
783.913404
 30
0.0
 11
3080.718768
 21
780.631779
 31
0.0
  0
LINE
  5
11167
100
AcDbEntity
  8
0
100
AcDbLine
 10
3079.500393
 20
779.413404
 30
0.0
 11
3063.937143
 21
779.413404
 31
0.0
  0
ARC
  5
11168
100
AcDbEntity
  8
0
100
AcDbCircle
 10
3078.468768
 20
800.507
 30
0.0
 40
16.593596
100
AcDbArc
 50
245.997065
 51
294.002935
  0
LINE
  5
11169
100
AcDbEntity
  8
0
100
AcDbLine
 10
3085.218768
 20
783.913404
 30
0.0
 11
3085.218768
 21
798.538404
 31
0.0
  0
LINE
  5
1116A
100
AcDbEntity
  8
0
100
AcDbLine
 10
3071.718768
 20
783.913404
 30
0.0
 11
3071.718768
 21
798.538404
 31
0.0
  0
LINE
  5
1116B
100
AcDbEntity
  8
0
100
AcDbLine
 10
3116.446983
 20
779.413404
 30
0.0
 11
3116.271983
 21
778.538404
 31
0.0
  0
LINE
  5
1116C
100
AcDbEntity
  8
0
100
AcDbLine
 10
3115.218768
 20
780.631779
 30
0.0
 11
3115.218768
 21
783.913404
 31
0.0
  0
LINE
  5
1116D
100
AcDbEntity
  8
0
100
AcDbLine
 10
3116.437143
 20
779.413404
 30
0.0
 11
3115.218768
 21
780.631779
 31
0.0
  0
LINE
  5
1116E
100
AcDbEntity
  8
0
100
AcDbLine
 10
3110.718768
 20
783.913404
 30
0.0
 11
3110.718768
 21
798.538404
 31
0.0
  0
LINE
  5
1116F
100
AcDbEntity
  8
0
100
AcDbLine
 10
3124.218768
 20
783.913404
 30
0.0
 11
3124.218768
 21
798.538404
 31
0.0
  0
ARC
  5
11170
100
AcDbEntity
  8
0
100
AcDbCircle
 10
3117.468768
 20
800.507
 30
0.0
 40
16.593596
100
AcDbArc
 50
245.997065
 51
294.002935
  0
LINE
  5
11171
100
AcDbEntity
  8
0
100
AcDbLine
 10
3152.053608
 20
779.413404
 30
0.0
 11
3136.490358
 21
779.413404
 31
0.0
  0
LINE
  5
11172
100
AcDbEntity
  8
0
100
AcDbLine
 10
3153.271983
 20
783.913404
 30
0.0
 11
3153.271983
 21
780.631779
 31
0.0
  0
LINE
  5
11173
100
AcDbEntity
  8
0
100
AcDbLine
 10
3153.271983
 20
780.631779
 30
0.0
 11
3152.053608
 21
779.413404
 31
0.0
  0
LINE
  5
11174
100
AcDbEntity
  8
0
100
AcDbLine
 10
3133.218768
 20
783.913404
 30
0.0
 11
3133.218768
 21
780.631779
 31
0.0
  0
LINE
  5
11175
100
AcDbEntity
  8
0
100
AcDbLine
 10
3133.218768
 20
780.631779
 30
0.0
 11
3132.000393
 21
779.413404
 31
0.0
  0
LINE
  5
11176
100
AcDbEntity
  8
0
100
AcDbLine
 10
3136.490358
 20
779.413404
 30
0.0
 11
3135.271983
 21
780.631779
 31
0.0
  0
LINE
  5
11177
100
AcDbEntity
  8
0
100
AcDbLine
 10
3135.271983
 20
780.631779
 30
0.0
 11
3135.271983
 21
783.913404
 31
0.0
  0
LINE
  5
11178
100
AcDbEntity
  8
0
100
AcDbLine
 10
3137.718768
 20
783.913404
 30
0.0
 11
3137.718768
 21
798.538404
 31
0.0
  0
LINE
  5
11179
100
AcDbEntity
  8
0
100
AcDbLine
 10
3144.271983
 20
783.913404
 30
0.0
 11
3144.271983
 21
798.538404
 31
0.0
  0
ARC
  5
1117A
100
AcDbEntity
  8
0
100
AcDbCircle
 10
3137.521983
 20
800.507
 30
0.0
 40
16.593596
100
AcDbArc
 50
270.67949
 51
294.002935
  0
LINE
  5
1117B
100
AcDbEntity
  8
0
100
AcDbLine
 10
3157.771983
 20
783.913404
 30
0.0
 11
3157.771983
 21
798.538404
 31
0.0
  0
ARC
  5
1117C
100
AcDbEntity
  8
0
100
AcDbCircle
 10
3151.021983
 20
800.507
 30
0.0
 40
16.593596
100
AcDbArc
 50
245.997065
 51
294.002935
  0
ARC
  5
1117D
100
AcDbEntity
  8
0
100
AcDbCircle
 10
2987.55878
 20
597.338404
 30
0.0
 40
15.0
100
AcDbArc
 50
46.337673
 51
90.0
  0
LINE
  5
1117E
100
AcDbEntity
  8
0
100
AcDbLine
 10
2926.771983
 20
612.338404
 30
0.0
 11
3151.771983
 21
612.338404
 31
0.0
  0
LINE
  5
1117F
100
AcDbEntity
  8
0
100
AcDbLine
 10
2950.414883
 20
599.338404
 30
0.0
 11
2974.414883
 21
599.338404
 31
0.0
  0
LINE
  5
11180
100
AcDbEntity
  8
0
100
AcDbLine
 10
2969.331883
 20
595.544522
 30
0.0
 11
2955.497883
 21
595.544522
 31
0.0
  0
ARC
  5
11181
100
AcDbEntity
  8
0
100
AcDbCircle
 10
2956.414883
 20
614.082987
 30
0.0
 40
14.744583
100
AcDbArc
 50
245.987929
 51
294.012071
  0
LINE
  5
11182
100
AcDbEntity
  8
0
100
AcDbLine
 10
2950.414883
 20
599.338404
 30
0.0
 11
2950.414883
 21
612.338404
 31
0.0
  0
LINE
  5
11183
100
AcDbEntity
  8
0
100
AcDbLine
 10
2955.497883
 20
595.544522
 30
0.0
 11
2954.414883
 21
596.627522
 31
0.0
  0
LINE
  5
11184
100
AcDbEntity
  8
0
100
AcDbLine
 10
2954.414883
 20
596.627522
 30
0.0
 11
2954.414883
 21
599.338404
 31
0.0
  0
LINE
  5
11185
100
AcDbEntity
  8
0
100
AcDbLine
 10
2952.271483
 20
596.627522
 30
0.0
 11
2951.188483
 21
595.544522
 31
0.0
  0
LINE
  5
11186
100
AcDbEntity
  8
0
100
AcDbLine
 10
2952.271483
 20
599.338404
 30
0.0
 11
2952.271483
 21
596.627522
 31
0.0
  0
ARC
  5
11187
100
AcDbEntity
  8
0
100
AcDbCircle
 10
2938.271483
 20
614.082987
 30
0.0
 40
14.744583
100
AcDbArc
 50
245.987929
 51
294.012071
  0
LINE
  5
11188
100
AcDbEntity
  8
0
100
AcDbLine
 10
2932.271483
 20
599.338404
 30
0.0
 11
2932.271483
 21
612.338404
 31
0.0
  0
LINE
  5
11189
100
AcDbEntity
  8
0
100
AcDbLine
 10
2944.271483
 20
600.614404
 30
0.0
 11
2944.271483
 21
612.338404
 31
0.0
  0
LINE
  5
1118A
100
AcDbEntity
  8
0
100
AcDbLine
 10
2936.271483
 20
596.627522
 30
0.0
 11
2936.271483
 21
599.338404
 31
0.0
  0
LINE
  5
1118B
100
AcDbEntity
  8
0
100
AcDbLine
 10
2937.354483
 20
595.544522
 30
0.0
 11
2936.271483
 21
596.627522
 31
0.0
  0
LINE
  5
1118C
100
AcDbEntity
  8
0
100
AcDbLine
 10
2932.271483
 20
599.338404
 30
0.0
 11
2956.271483
 21
599.338404
 31
0.0
  0
ARC
  5
1118D
100
AcDbEntity
  8
0
100
AcDbCircle
 10
2950.271483
 20
614.082987
 30
0.0
 40
14.744583
100
AcDbArc
 50
245.987929
 51
270.557245
  0
LINE
  5
1118E
100
AcDbEntity
  8
0
100
AcDbLine
 10
2951.188483
 20
595.544522
 30
0.0
 11
2937.354483
 21
595.544522
 31
0.0
  0
LINE
  5
1118F
100
AcDbEntity
  8
0
100
AcDbLine
 10
2974.414883
 20
599.338404
 30
0.0
 11
2974.414883
 21
612.338404
 31
0.0
  0
LINE
  5
11190
100
AcDbEntity
  8
0
100
AcDbLine
 10
2962.414883
 20
600.614404
 30
0.0
 11
2962.414883
 21
612.338404
 31
0.0
  0
LINE
  5
11191
100
AcDbEntity
  8
0
100
AcDbLine
 10
2970.414883
 20
596.627522
 30
0.0
 11
2969.331883
 21
595.544522
 31
0.0
  0
ARC
  5
11192
100
AcDbEntity
  8
0
100
AcDbCircle
 10
2968.414883
 20
614.082987
 30
0.0
 40
14.744583
100
AcDbArc
 50
245.987929
 51
294.012071
  0
LINE
  5
11193
100
AcDbEntity
  8
0
100
AcDbLine
 10
2970.414883
 20
599.338404
 30
0.0
 11
2970.414883
 21
596.627522
 31
0.0
  0
LINE
  5
11194
100
AcDbEntity
  8
0
100
AcDbLine
 10
3146.272483
 20
599.338404
 30
0.0
 11
3122.272483
 21
599.338404
 31
0.0
  0
ARC
  5
11195
100
AcDbEntity
  8
0
100
AcDbCircle
 10
3128.272483
 20
614.082987
 30
0.0
 40
14.744583
100
AcDbArc
 50
269.442755
 51
294.012071
  0
LINE
  5
11196
100
AcDbEntity
  8
0
100
AcDbLine
 10
3127.355483
 20
595.544522
 30
0.0
 11
3141.189483
 21
595.544522
 31
0.0
  0
LINE
  5
11197
100
AcDbEntity
  8
0
100
AcDbLine
 10
3061.712083
 20
595.544522
 30
0.0
 11
3075.546083
 21
595.544522
 31
0.0
  0
LINE
  5
11198
100
AcDbEntity
  8
0
100
AcDbLine
 10
3080.629083
 20
599.338404
 30
0.0
 11
3056.629083
 21
599.338404
 31
0.0
  0
ARC
  5
11199
100
AcDbEntity
  8
0
100
AcDbCircle
 10
3062.629083
 20
614.082987
 30
0.0
 40
14.744583
100
AcDbArc
 50
245.987929
 51
294.012071
  0
LINE
  5
1119A
100
AcDbEntity
  8
0
100
AcDbLine
 10
3021.914883
 20
599.338404
 30
0.0
 11
3021.914883
 21
612.338404
 31
0.0
  0
LINE
  5
1119B
100
AcDbEntity
  8
0
100
AcDbLine
 10
3017.914883
 20
596.627522
 30
0.0
 11
3016.831883
 21
595.544522
 31
0.0
  0
LINE
  5
1119C
100
AcDbEntity
  8
0
100
AcDbLine
 10
3017.914883
 20
599.338404
 30
0.0
 11
3017.914883
 21
596.627522
 31
0.0
  0
LINE
  5
1119D
100
AcDbEntity
  8
0
100
AcDbLine
 10
2997.914883
 20
599.338404
 30
0.0
 11
2997.914883
 21
612.338404
 31
0.0
  0
LINE
  5
1119E
100
AcDbEntity
  8
0
100
AcDbLine
 10
3009.914883
 20
600.614404
 30
0.0
 11
3009.914883
 21
612.338404
 31
0.0
  0
ARC
  5
1119F
100
AcDbEntity
  8
0
100
AcDbCircle
 10
3003.914883
 20
614.082987
 30
0.0
 40
14.744583
100
AcDbArc
 50
245.987929
 51
294.012071
  0
LINE
  5
111A0
100
AcDbEntity
  8
0
100
AcDbLine
 10
3002.997883
 20
595.544522
 30
0.0
 11
3001.914883
 21
596.627522
 31
0.0
  0
LINE
  5
111A1
100
AcDbEntity
  8
0
100
AcDbLine
 10
3001.914883
 20
596.627522
 30
0.0
 11
3001.914883
 21
599.338404
 31
0.0
  0
LINE
  5
111A2
100
AcDbEntity
  8
0
100
AcDbLine
 10
2997.914883
 20
599.338404
 30
0.0
 11
3021.914883
 21
599.338404
 31
0.0
  0
LINE
  5
111A3
100
AcDbEntity
  8
0
100
AcDbLine
 10
3016.831883
 20
595.544522
 30
0.0
 11
3002.997883
 21
595.544522
 31
0.0
  0
ARC
  5
111A4
100
AcDbEntity
  8
0
100
AcDbCircle
 10
3015.914883
 20
614.082987
 30
0.0
 40
14.744583
100
AcDbArc
 50
245.987929
 51
294.012071
  0
LINE
  5
111A6
100
AcDbEntity
  8
0
100
AcDbLine
 10
3056.629083
 20
599.338404
 30
0.0
 11
3056.629083
 21
612.338404
 31
0.0
  0
LINE
  5
111A7
100
AcDbEntity
  8
0
100
AcDbLine
 10
3060.629083
 20
599.338404
 30
0.0
 11
3060.629083
 21
596.627522
 31
0.0
  0
LINE
  5
111A8
100
AcDbEntity
  8
0
100
AcDbLine
 10
3060.629083
 20
596.627522
 30
0.0
 11
3061.712083
 21
595.544522
 31
0.0
  0
LINE
  5
111A9
100
AcDbEntity
  8
0
100
AcDbLine
 10
3080.629083
 20
599.338404
 30
0.0
 11
3080.629083
 21
612.338404
 31
0.0
  0
LINE
  5
111AA
100
AcDbEntity
  8
0
100
AcDbLine
 10
3068.629083
 20
600.614404
 30
0.0
 11
3068.629083
 21
612.338404
 31
0.0
  0
ARC
  5
111AB
100
AcDbEntity
  8
0
100
AcDbCircle
 10
3074.629083
 20
614.082987
 30
0.0
 40
14.744583
100
AcDbArc
 50
245.987929
 51
294.012071
  0
LINE
  5
111AC
100
AcDbEntity
  8
0
100
AcDbLine
 10
3076.629083
 20
596.627522
 30
0.0
 11
3076.629083
 21
599.338404
 31
0.0
  0
LINE
  5
111AD
100
AcDbEntity
  8
0
100
AcDbLine
 10
3075.546083
 20
595.544522
 30
0.0
 11
3076.629083
 21
596.627522
 31
0.0
  0
ARC
  5
111AE
100
AcDbEntity
  8
0
100
AcDbCircle
 10
3090.985187
 20
597.338404
 30
0.0
 40
15.0
100
AcDbArc
 50
90.0
 51
133.662327
  0
LINE
  5
111B0
100
AcDbEntity
  8
0
100
AcDbLine
 10
3128.129083
 20
599.338404
 30
0.0
 11
3128.129083
 21
612.338404
 31
0.0
  0
LINE
  5
111B1
100
AcDbEntity
  8
0
100
AcDbLine
 10
3126.272483
 20
599.338404
 30
0.0
 11
3126.272483
 21
596.627522
 31
0.0
  0
LINE
  5
111B2
100
AcDbEntity
  8
0
100
AcDbLine
 10
3124.129083
 20
596.627522
 30
0.0
 11
3124.129083
 21
599.338404
 31
0.0
  0
LINE
  5
111B3
100
AcDbEntity
  8
0
100
AcDbLine
 10
3123.046083
 20
595.544522
 30
0.0
 11
3124.129083
 21
596.627522
 31
0.0
  0
LINE
  5
111B4
100
AcDbEntity
  8
0
100
AcDbLine
 10
3126.272483
 20
596.627522
 30
0.0
 11
3127.355483
 21
595.544522
 31
0.0
  0
LINE
  5
111B5
100
AcDbEntity
  8
0
100
AcDbLine
 10
3116.129083
 20
600.614404
 30
0.0
 11
3116.129083
 21
612.338404
 31
0.0
  0
LINE
  5
111B6
100
AcDbEntity
  8
0
100
AcDbLine
 10
3104.129083
 20
599.338404
 30
0.0
 11
3104.129083
 21
612.338404
 31
0.0
  0
ARC
  5
111B7
100
AcDbEntity
  8
0
100
AcDbCircle
 10
3110.129083
 20
614.082987
 30
0.0
 40
14.744583
100
AcDbArc
 50
245.987929
 51
294.012071
  0
LINE
  5
111B8
100
AcDbEntity
  8
0
100
AcDbLine
 10
3108.129083
 20
599.338404
 30
0.0
 11
3108.129083
 21
596.627522
 31
0.0
  0
LINE
  5
111B9
100
AcDbEntity
  8
0
100
AcDbLine
 10
3108.129083
 20
596.627522
 30
0.0
 11
3109.212083
 21
595.544522
 31
0.0
  0
LINE
  5
111BA
100
AcDbEntity
  8
0
100
AcDbLine
 10
3109.212083
 20
595.544522
 30
0.0
 11
3123.046083
 21
595.544522
 31
0.0
  0
LINE
  5
111BB
100
AcDbEntity
  8
0
100
AcDbLine
 10
3128.129083
 20
599.338404
 30
0.0
 11
3104.129083
 21
599.338404
 31
0.0
  0
ARC
  5
111BC
100
AcDbEntity
  8
0
100
AcDbCircle
 10
3122.129083
 20
614.082987
 30
0.0
 40
14.744583
100
AcDbArc
 50
245.987929
 51
294.012071
  0
LINE
  5
111BD
100
AcDbEntity
  8
0
100
AcDbLine
 10
3134.272483
 20
600.614404
 30
0.0
 11
3134.272483
 21
612.338404
 31
0.0
  0
LINE
  5
111BE
100
AcDbEntity
  8
0
100
AcDbLine
 10
3146.272483
 20
599.338404
 30
0.0
 11
3146.272483
 21
612.338404
 31
0.0
  0
ARC
  5
111BF
100
AcDbEntity
  8
0
100
AcDbCircle
 10
3140.272483
 20
614.082987
 30
0.0
 40
14.744583
100
AcDbArc
 50
245.987929
 51
294.012071
  0
LINE
  5
111C0
100
AcDbEntity
  8
0
100
AcDbLine
 10
3141.189483
 20
595.544522
 30
0.0
 11
3142.272483
 21
596.627522
 31
0.0
  0
LINE
  5
111C1
100
AcDbEntity
  8
0
100
AcDbLine
 10
3142.272483
 20
596.627522
 30
0.0
 11
3142.272483
 21
599.338404
 31
0.0
  0
LINE
  5
111C4
100
AcDbEntity
  8
0
100
AcDbLine
 10
657.429119
 20
641.338404
 30
0.0
 11
692.143319
 21
641.338404
 31
0.0
  0
LINE
  5
111CF
100
AcDbEntity
  8
0
100
AcDbLine
 10
2090.194173
 20
599.338404
 30
0.0
 11
2124.908373
 21
599.338404
 31
0.0
  0
ARC
  5
111DC
100
AcDbEntity
  8
0
100
AcDbCircle
 10
1432.924371
 20
1460.73665
 30
0.0
 40
363.944559
100
AcDbArc
 50
193.422719
 51
196.91432
  0
ARC
  5
111E1
100
AcDbEntity
  8
0
100
AcDbCircle
 10
2414.340616
 20
1318.757133
 30
0.0
 40
127.802564
100
AcDbArc
 50
16.404227
 51
28.18063
  0
ARC
  5
111E2
100
AcDbEntity
  8
0
100
AcDbCircle
 10
2414.340616
 20
1378.943148
 30
0.0
 40
127.802564
100
AcDbArc
 50
331.81937
 51
343.595773
  0
ARC
  5
111E7
100
AcDbEntity
  8
0
100
AcDbCircle
 10
1432.924371
 20
1236.963631
 30
0.0
 40
363.944559
100
AcDbArc
 50
163.08568
 51
166.577281
  0
VIEWPORT
  5
41
100
AcDbEntity
 67
     1
  8
0
100
AcDbViewport
 10
117.358407
 20
73.5
 30
0.0
 40
234.716814
 41
147.0
 68
    -1
 69
     1
1001
ACAD
1000
MVIEW
1002
{
1070
    16
1010
0.0
1020
0.0
1030
0.0
1010
0.0
1020
0.0
1030
1.0
1040
0.0
1040
147.0
1040
117.358407
1040
73.5
1040
50.0
1040
0.0
1040
0.0
1070
     0
1070
   100
1070
     1
1070
     1
1070
     0
1070
     0
1070
     0
1070
     0
1040
0.0
1040
0.0
1040
0.0
1040
1.0
1040
1.0
1040
0.0
1040
0.0
1070
     0
1002
{
1002
}
1002
}
  0
ENDSEC
  0
SECTION
  2
OBJECTS
  0
DICTIONARY
  5
C
100
AcDbDictionary
  3
ACAD_GROUP
350
D
  3
ACAD_MLINESTYLE
350
E
  0
DICTIONARY
  5
D
102
{ACAD_REACTORS
330
C
102
}
100
AcDbDictionary
  0
DICTIONARY
  5
E
102
{ACAD_REACTORS
330
C
102
}
100
AcDbDictionary
  3
STANDARD
350
1B
  0
MLINESTYLE
  5
1B
102
{ACAD_REACTORS
330
E
102
}
100
AcDbMlineStyle
  2
STANDARD
 70
     0
  3

 62
     0
 51
90.0
 52
90.0
 71
     2
 49
0.5
 62
   256
  6
BYLAYER
 49
-0.5
 62
   256
  6
BYLAYER
  0
ENDSEC
  0
EOF
