  0
SECTION
  2
HEADER
  9
$ACADVER
  1
AC1012
  9
$DWGCODEPAGE
  3
dos932
  9
$INSBASE
 10
0.0
 20
0.0
 30
0.0
  9
$EXTMIN
 10
110.0
 20
50.0
 30
0.0
  9
$EXTMAX
 10
2860.0
 20
1910.0
 30
0.0
  9
$LIMMIN
 10
0.0
 20
0.0
  9
$LIMMAX
 10
2970.0
 20
2100.0
  9
$ORTHOMODE
 70
     1
  9
$REGENMODE
 70
     1
  9
$FILLMODE
 70
     1
  9
$QTEXTMODE
 70
     0
  9
$MIRRTEXT
 70
     1
  9
$DRAGMODE
 70
     2
  9
$LTSCALE
 40
40.0
  9
$OSMODE
 70
   163
  9
$ATTMODE
 70
     1
  9
$TEXTSIZE
 40
40.0
  9
$TRACEWID
 40
0.05
  9
$TEXTSTYLE
  7
STANDARD
  9
$CLAYER
  8
0
  9
$CELTYPE
  6
BYLAYER
  9
$CECOLOR
 62
   256
  9
$CELTSCALE
 40
1.0
  9
$DELOBJ
 70
     1
  9
$DISPSILH
 70
     0
  9
$DIMSCALE
 40
10.0
  9
$DIMASZ
 40
2.8
  9
$DIMEXO
 40
1.0
  9
$DIMDLI
 40
5.0
  9
$DIMRND
 40
0.1
  9
$DIMDLE
 40
0.0
  9
$DIMEXE
 40
1.0
  9
$DIMTP
 40
0.0
  9
$DIMTM
 40
0.0
  9
$DIMTXT
 40
2.5
  9
$DIMCEN
 40
0.0
  9
$DIMTSZ
 40
0.0
  9
$DIMTOL
 70
     0
  9
$DIMLIM
 70
     0
  9
$DIMTIH
 70
     0
  9
$DIMTOH
 70
     0
  9
$DIMSE1
 70
     0
  9
$DIMSE2
 70
     0
  9
$DIMTAD
 70
     3
  9
$DIMZIN
 70
     8
  9
$DIMBLK
  1

  9
$DIMASO
 70
     1
  9
$DIMSHO
 70
     1
  9
$DIMPOST
  1
 
  9
$DIMAPOST
  1

  9
$DIMALT
 70
     0
  9
$DIMALTD
 70
     2
  9
$DIMALTF
 40
1.0
  9
$DIMLFAC
 40
1.0
  9
$DIMTOFL
 70
     1
  9
$DIMTVP
 40
0.0
  9
$DIMTIX
 70
     0
  9
$DIMSOXD
 70
     0
  9
$DIMSAH
 70
     1
  9
$DIMBLK1
  1
_OPEN
  9
$DIMBLK2
  1
_OPEN
  9
$DIMSTYLE
  2
DIM1
  9
$DIMCLRD
 70
     2
  9
$DIMCLRE
 70
     2
  9
$DIMCLRT
 70
     2
  9
$DIMTFAC
 40
0.7
  9
$DIMGAP
 40
0.85
  9
$DIMJUST
 70
     0
  9
$DIMSD1
 70
     0
  9
$DIMSD2
 70
     0
  9
$DIMTOLJ
 70
     1
  9
$DIMTZIN
 70
     8
  9
$DIMALTZ
 70
     8
  9
$DIMALTTZ
 70
     8
  9
$DIMFIT
 70
     3
  9
$DIMUPT
 70
     0
  9
$DIMUNIT
 70
     2
  9
$DIMDEC
 70
     2
  9
$DIMTDEC
 70
     3
  9
$DIMALTU
 70
     2
  9
$DIMALTTD
 70
     3
  9
$DIMTXSTY
  7
DIM
  9
$DIMAUNIT
 70
     0
  9
$LUNITS
 70
     2
  9
$LUPREC
 70
     4
  9
$SKETCHINC
 40
0.1
  9
$FILLETRAD
 40
15.0
  9
$AUNITS
 70
     0
  9
$AUPREC
 70
     0
  9
$MENU
  1
C:\ACADR13\WIN\SUPPORT\ACAD.mnc
  9
$ELEVATION
 40
0.0
  9
$PELEVATION
 40
0.0
  9
$THICKNESS
 40
0.0
  9
$LIMCHECK
 70
     0
  9
$BLIPMODE
 70
     1
  9
$CHAMFERA
 40
1.5
  9
$CHAMFERB
 40
1.5
  9
$CHAMFERC
 40
0.0
  9
$CHAMFERD
 40
0.0
  9
$SKPOLY
 70
     0
  9
$TDCREATE
 40
2451564.492637881
  9
$TDUPDATE
 40
2451981.563262801
  9
$TDINDWG
 40
0.1508737963
  9
$TDUSRTIMER
 40
0.1508737963
  9
$USRTIMER
 70
     1
  9
$ANGBASE
 50
0.0
  9
$ANGDIR
 70
     0
  9
$PDMODE
 70
     0
  9
$PDSIZE
 40
0.0
  9
$PLINEWID
 40
0.0
  9
$COORDS
 70
     1
  9
$SPLFRAME
 70
     0
  9
$SPLINETYPE
 70
     6
  9
$SPLINESEGS
 70
     8
  9
$ATTDIA
 70
     0
  9
$ATTREQ
 70
     1
  9
$HANDLING
 70
     1
  9
$HANDSEED
  5
C09E
  9
$SURFTAB1
 70
     6
  9
$SURFTAB2
 70
     6
  9
$SURFTYPE
 70
     6
  9
$SURFU
 70
     6
  9
$SURFV
 70
     6
  9
$UCSNAME
  2

  9
$UCSORG
 10
0.0
 20
0.0
 30
0.0
  9
$UCSXDIR
 10
1.0
 20
0.0
 30
0.0
  9
$UCSYDIR
 10
0.0
 20
1.0
 30
0.0
  9
$PUCSNAME
  2

  9
$PUCSORG
 10
0.0
 20
0.0
 30
0.0
  9
$PUCSXDIR
 10
1.0
 20
0.0
 30
0.0
  9
$PUCSYDIR
 10
0.0
 20
1.0
 30
0.0
  9
$USERI1
 70
     0
  9
$USERI2
 70
     0
  9
$USERI3
 70
     0
  9
$USERI4
 70
     0
  9
$USERI5
 70
     0
  9
$USERR1
 40
0.0
  9
$USERR2
 40
0.0
  9
$USERR3
 40
0.0
  9
$USERR4
 40
0.0
  9
$USERR5
 40
0.0
  9
$WORLDVIEW
 70
     1
  9
$SHADEDGE
 70
     3
  9
$SHADEDIF
 70
    70
  9
$TILEMODE
 70
     1
  9
$MAXACTVP
 70
    16
  9
$PINSBASE
 10
0.0
 20
0.0
 30
0.0
  9
$PLIMCHECK
 70
     0
  9
$PEXTMIN
 10
1.000000E+20
 20
1.000000E+20
 30
1.000000E+20
  9
$PEXTMAX
 10
-1.000000E+20
 20
-1.000000E+20
 30
-1.000000E+20
  9
$PLIMMIN
 10
0.0
 20
0.0
  9
$PLIMMAX
 10
20.0
 20
147.0
  9
$UNITMODE
 70
     0
  9
$VISRETAIN
 70
     0
  9
$PLINEGEN
 70
     0
  9
$PSLTSCALE
 70
     1
  9
$TREEDEPTH
 70
  3020
  9
$PICKSTYLE
 70
     1
  9
$CMLSTYLE
  2
STANDARD
  9
$CMLJUST
 70
     0
  9
$CMLSCALE
 40
1.0
  9
$SAVEIMAGES
 70
     1
  0
ENDSEC
  0
SECTION
  2
CLASSES
  0
CLASS
  1
LWPOLYLINE
  2
AcDbPolyline
  3
"AutoCAD"
 90
    32768
280
     0
281
     1
  0
ENDSEC
  0
SECTION
  2
TABLES
  0
TABLE
  2
VPORT
  5
8
100
AcDbSymbolTable
 70
     2
  0
VPORT
  5
C09D
100
AcDbSymbolTableRecord
100
AcDbViewportTableRecord
  2
*ACTIVE
 70
     0
 10
0.0
 20
0.0
 11
1.0
 21
1.0
 12
1913.969336
 22
1086.209226
 13
0.0
 23
0.0
 14
1.0
 24
1.0
 15
0.0
 25
0.0
 16
0.0
 26
0.0
 36
1.0
 17
0.0
 27
0.0
 37
0.0
 40
2172.418453
 41
1.762063
 42
50.0
 43
0.0
 44
0.0
 50
0.0
 51
0.0
 71
     0
 72
   100
 73
     1
 74
     1
 75
     0
 76
     0
 77
     0
 78
     0
  0
ENDTAB
  0
TABLE
  2
LTYPE
  5
5
100
AcDbSymbolTable
 70
     1
  0
LTYPE
  5
12
100
AcDbSymbolTableRecord
100
AcDbLinetypeTableRecord
  2
BYBLOCK
 70
     0
  3

 72
    65
 73
     0
 40
0.0
  0
LTYPE
  5
13
100
AcDbSymbolTableRecord
100
AcDbLinetypeTableRecord
  2
BYLAYER
 70
     0
  3

 72
    65
 73
     0
 40
0.0
  0
LTYPE
  5
14
100
AcDbSymbolTableRecord
100
AcDbLinetypeTableRecord
  2
CONTINUOUS
 70
     0
  3
Solid line
 72
    65
 73
     0
 40
0.0
  0
ENDTAB
  0
TABLE
  2
LAYER
  5
2
100
AcDbSymbolTable
 70
     1
  0
LAYER
  5
F
100
AcDbSymbolTableRecord
100
AcDbLayerTableRecord
  2
0
 70
     0
 62
     7
  6
CONTINUOUS
  0
ENDTAB
  0
TABLE
  2
STYLE
  5
3
100
AcDbSymbolTable
 70
     3
  0
STYLE
  5
10
100
AcDbSymbolTableRecord
100
AcDbTextStyleTableRecord
  2
STANDARD
 70
     0
 40
0.0
 41
0.8
 50
0.0
 71
     0
 42
40.0
  3
simplex
  4
extfont
  0
STYLE
  5
237C
100
AcDbSymbolTableRecord
100
AcDbTextStyleTableRecord
  2
PTSH
 70
     0
 40
0.0
 41
0.9
 50
0.0
 71
     0
 42
4.0
  3
SIMPLEX
  4
EXTFONT
  0
STYLE
  5
2592
100
AcDbSymbolTableRecord
100
AcDbTextStyleTableRecord
  2
DIM
 70
     0
 40
0.0
 41
0.8
 50
0.0
 71
     0
 42
4.0
  3
simplex
  4
extfont
  0
ENDTAB
  0
TABLE
  2
VIEW
  5
6
100
AcDbSymbolTable
 70
     0
  0
ENDTAB
  0
TABLE
  2
UCS
  5
7
100
AcDbSymbolTable
 70
     0
  0
ENDTAB
  0
TABLE
  2
APPID
  5
9
100
AcDbSymbolTable
 70
     1
  0
APPID
  5
11
100
AcDbSymbolTableRecord
100
AcDbRegAppTableRecord
  2
ACAD
 70
     0
  0
ENDTAB
  0
TABLE
  2
DIMSTYLE
  5
A
100
AcDbSymbolTable
 70
     1
  0
DIMSTYLE
105
2237
100
AcDbSymbolTableRecord
100
AcDbDimStyleTableRecord
  2
DIM1
 70
     0
  3
 
  4

  5

  6
_OPEN
  7
_OPEN
 40
10.0
 41
2.8
 42
1.0
 43
5.0
 44
1.0
 45
0.1
 46
0.0
 47
0.0
 48
0.0
140
2.5
141
0.0
142
0.0
143
1.0
144
1.0
145
0.0
146
0.7
147
0.85
 71
     0
 72
     0
 73
     0
 74
     0
 75
     0
 76
     0
 77
     3
 78
     8
170
     0
171
     2
172
     1
173
     1
174
     0
175
     0
176
     2
177
     2
178
     2
270
     2
271
     2
272
     3
273
     2
274
     3
340
2592
275
     0
280
     0
281
     0
282
     0
283
     1
284
     8
285
     8
286
     8
287
     3
288
     0
  0
ENDTAB
  0
TABLE
  2
BLOCK_RECORD
  5
1
100
AcDbSymbolTable
 70
     2
  0
BLOCK_RECORD
  5
18
100
AcDbSymbolTableRecord
100
AcDbBlockTableRecord
  2
*MODEL_SPACE
  0
BLOCK_RECORD
  5
15
100
AcDbSymbolTableRecord
100
AcDbBlockTableRecord
  2
*PAPER_SPACE
  0
BLOCK_RECORD
  5
2448
100
AcDbSymbolTableRecord
100
AcDbBlockTableRecord
  2
_OPEN
  0
BLOCK_RECORD
  5
9259
100
AcDbSymbolTableRecord
100
AcDbBlockTableRecord
  2
YA
  0
ENDTAB
  0
ENDSEC
  0
SECTION
  2
BLOCKS
  0
BLOCK
  5
3C
100
AcDbEntity
  8
0
100
AcDbBlockBegin
  2
*MODEL_SPACE
 70
     0
 10
0.0
 20
0.0
 30
0.0
  3
*MODEL_SPACE
  1

  0
ENDBLK
  5
3D
100
AcDbEntity
  8
0
100
AcDbBlockEnd
  0
BLOCK
  5
3A
100
AcDbEntity
 67
     1
  8
0
100
AcDbBlockBegin
  2
*PAPER_SPACE
 70
     0
 10
0.0
 20
0.0
 30
0.0
  3
*PAPER_SPACE
  1

  0
ENDBLK
  5
3B
100
AcDbEntity
 67
     1
  8
0
100
AcDbBlockEnd
  0
BLOCK
  5
2449
100
AcDbEntity
  8
0
 48
4.0
100
AcDbBlockBegin
  2
_OPEN
 70
     0
 10
0.0
 20
0.0
 30
0.0
  3
_OPEN
  1
H1111.DWG
  0
LINE
  5
244A
100
AcDbEntity
  8
0
  6
BYBLOCK
 62
     0
 48
4.0
100
AcDbLine
 10
-1.0
 20
0.166667
 30
0.0
 11
0.0
 21
0.0
 31
0.0
  0
LINE
  5
244B
100
AcDbEntity
  8
0
  6
BYBLOCK
 62
     0
 48
4.0
100
AcDbLine
 10
0.0
 20
0.0
 30
0.0
 11
-1.0
 21
-0.166667
 31
0.0
  0
LINE
  5
244C
100
AcDbEntity
  8
0
  6
BYBLOCK
 62
     0
 48
4.0
100
AcDbLine
 10
0.0
 20
0.0
 30
0.0
 11
-1.0
 21
0.0
 31
0.0
  0
ENDBLK
  5
244D
100
AcDbEntity
  8
0
 48
4.0
100
AcDbBlockEnd
  0
BLOCK
  5
9261
100
AcDbEntity
  8
0
100
AcDbBlockBegin
  2
YA
 70
     0
 10
0.0
 20
0.0
 30
0.0
  3
YA
  1

  0
LINE
  5
925A
100
AcDbEntity
  8
0
100
AcDbLine
 10
-16.8065
 20
2.801
 30
0.0
 11
-8.4035
 21
2.801
 31
0.0
  0
LINE
  5
925B
100
AcDbEntity
  8
0
100
AcDbLine
 10
-8.4035
 20
2.801
 30
0.0
 11
-7.0025
 21
1.4005
 31
0.0
  0
LINE
  5
925C
100
AcDbEntity
  8
0
100
AcDbLine
 10
-7.0025
 20
1.4005
 30
0.0
 11
-2.862
 21
1.4005
 31
0.0
  0
LINE
  5
925D
100
AcDbEntity
  8
0
100
AcDbLine
 10
-2.862
 20
1.4005
 30
0.0
 11
-2.862
 21
2.801
 31
0.0
  0
LINE
  5
925E
100
AcDbEntity
  8
0
100
AcDbLine
 10
-2.862
 20
2.801
 30
0.0
 11
0.0
 21
0.0
 31
0.0
  0
LINE
  5
925F
100
AcDbEntity
  8
0
100
AcDbLine
 10
0.0
 20
0.0
 30
0.0
 11
-14.0055
 21
0.0
 31
0.0
  0
LINE
  5
9260
100
AcDbEntity
  8
0
100
AcDbLine
 10
-14.0055
 20
0.0
 30
0.0
 11
-16.8065
 21
2.801
 31
0.0
  0
ENDBLK
  5
9262
100
AcDbEntity
  8
0
100
AcDbBlockEnd
  0
ENDSEC
  0
SECTION
  2
ENTITIES
  0
MTEXT
  5
ADA
100
AcDbEntity
  8
0
100
AcDbMText
 10
3801.392798
 20
498.463111
 30
0.0
 40
2.0
 41
472.264648
 71
     1
 72
     1
  1

  0
MTEXT
  5
ADB
100
AcDbEntity
  8
0
100
AcDbMText
 10
3890.499332
 20
578.507937
 30
0.0
 40
2.0
 41
454.443342
 71
     1
 72
     1
  1

  0
MTEXT
  5
ADC
100
AcDbEntity
  8
0
100
AcDbMText
 10
3837.035411
 20
-479.862464
 30
0.0
 40
2.0
 41
516.817915
 71
     1
 72
     1
  1

  0
TEXT
  5
2529
100
AcDbEntity
  8
0
  6
CONTINUOUS
100
AcDbText
 10
2617.142857
 20
70.0
 30
0.0
 40
30.0
  1
DC3AH,SH
 41
0.9
  7
PTSH
 72
     2
 11
2810.0
 21
85.0
 31
0.0
100
AcDbText
 73
     2
  0
POLYLINE
  5
2563
100
AcDbEntity
  8
0
100
AcDb2dPolyline
 66
     1
 10
0.0
 20
0.0
 30
0.0
 70
     1
  0
VERTEX
  5
C098
100
AcDbEntity
  8
0
100
AcDbVertex
100
AcDb2dVertex
 10
110.0
 20
50.0
 30
0.0
  0
VERTEX
  5
C099
100
AcDbEntity
  8
0
100
AcDbVertex
100
AcDb2dVertex
 10
2860.0
 20
50.0
 30
0.0
  0
VERTEX
  5
C09A
100
AcDbEntity
  8
0
100
AcDbVertex
100
AcDb2dVertex
 10
2860.0
 20
1910.0
 30
0.0
  0
VERTEX
  5
C09B
100
AcDbEntity
  8
0
100
AcDbVertex
100
AcDb2dVertex
 10
110.0
 20
1910.0
 30
0.0
  0
SEQEND
  5
C09C
100
AcDbEntity
  8
0
  0
TEXT
  5
2FCF
100
AcDbEntity
  8
0
100
AcDbText
 10
450.948814
 20
182.5
 30
0.0
 40
35.0
  1
TLV  DC3A-H,DC3S-H,DC3-H (PT)
 72
     1
 11
904.948814
 21
200.0
 31
0.0
100
AcDbText
 73
     2
  0
TEXT
  5
9266
100
AcDbEntity
  8
0
100
AcDbText
 10
1671.592225
 20
182.5
 30
0.0
 40
35.0
  1
TLV  DC3A-H,DC3S-H,DC3-H (SW)
 72
     1
 11
2129.758892
 21
200.0
 31
0.0
100
AcDbText
 73
     2
  0
LINE
  5
B324
100
AcDbEntity
  8
0
100
AcDbLine
 10
2287.588756
 20
758.609838
 30
0.0
 11
2310.62002
 21
758.609838
 31
0.0
  0
LINE
  5
B325
100
AcDbEntity
  8
0
100
AcDbLine
 10
2296.62002
 20
705.609838
 30
0.0
 11
2310.62002
 21
705.609838
 31
0.0
  0
LINE
  5
B326
100
AcDbEntity
  8
0
100
AcDbLine
 10
2310.62002
 20
1117.63586
 30
0.0
 11
2262.194668
 21
1117.63586
 31
0.0
  0
LINE
  5
B327
100
AcDbEntity
  8
0
100
AcDbLine
 10
2310.62002
 20
1064.63586
 30
0.0
 11
2262.194668
 21
1064.63586
 31
0.0
  0
LINE
  5
B328
100
AcDbEntity
  8
0
100
AcDbLine
 10
2288.62002
 20
1748.566081
 30
0.0
 11
2310.62002
 21
1748.566081
 31
0.0
  0
LINE
  5
B329
100
AcDbEntity
  8
0
100
AcDbLine
 10
2310.62002
 20
1695.566081
 30
0.0
 11
2284.62002
 21
1695.566081
 31
0.0
  0
LINE
  5
B32A
100
AcDbEntity
  8
0
100
AcDbLine
 10
2331.12002
 20
1508.566081
 30
0.0
 11
2106.12002
 21
1508.566081
 31
0.0
  0
LINE
  5
B32B
100
AcDbEntity
  8
0
100
AcDbLine
 10
2303.62002
 20
1654.566081
 30
0.0
 11
2133.62002
 21
1654.566081
 31
0.0
  0
LINE
  5
B32C
100
AcDbEntity
  8
0
100
AcDbLine
 10
2303.62002
 20
1628.066081
 30
0.0
 11
2133.62002
 21
1628.066081
 31
0.0
  0
LINE
  5
B32D
100
AcDbEntity
  8
0
100
AcDbLine
 10
2303.62002
 20
1629.566081
 30
0.0
 11
2133.62002
 21
1629.566081
 31
0.0
  0
LINE
  5
B32E
100
AcDbEntity
  8
0
100
AcDbLine
 10
2303.62002
 20
1603.066081
 30
0.0
 11
2133.62002
 21
1603.066081
 31
0.0
  0
LINE
  5
B32F
100
AcDbEntity
  8
0
100
AcDbLine
 10
2269.197219
 20
1577.024748
 30
0.0
 11
2299.504594
 21
1512.030371
 31
0.0
  0
ARC
  5
B330
100
AcDbEntity
  8
0
100
AcDbCircle
 10
2298.578889
 20
1438.885835
 30
0.0
 40
6.537699
100
AcDbArc
 50
237.999511
 51
302.000489
  0
LINE
  5
B331
100
AcDbEntity
  8
0
100
AcDbLine
 10
2320.617389
 20
1432.066081
 30
0.0
 11
2297.323389
 21
1432.066081
 31
0.0
  0
LINE
  5
B332
100
AcDbEntity
  8
0
100
AcDbLine
 10
2331.12002
 20
1475.066081
 30
0.0
 11
2106.12002
 21
1475.066081
 31
0.0
  0
LINE
  5
B333
100
AcDbEntity
  8
0
100
AcDbLine
 10
2328.12002
 20
1445.066081
 30
0.0
 11
2109.12002
 21
1445.066081
 31
0.0
  0
LINE
  5
B334
100
AcDbEntity
  8
0
100
AcDbLine
 10
2331.12002
 20
1476.566081
 30
0.0
 11
2106.12002
 21
1476.566081
 31
0.0
  0
ARC
  5
B335
100
AcDbEntity
  8
0
100
AcDbCircle
 10
2218.62002
 20
1091.13586
 30
0.0
 40
85.0
100
AcDbArc
 50
198.165612
 51
341.834388
  0
ARC
  5
B336
100
AcDbEntity
  8
0
100
AcDbCircle
 10
2218.62002
 20
1091.13586
 30
0.0
 40
85.0
100
AcDbArc
 50
18.165612
 51
161.834388
  0
CIRCLE
  5
B337
100
AcDbEntity
  8
0
100
AcDbCircle
 10
2218.62002
 20
1091.13586
 30
0.0
 40
112.5
  0
LINE
  5
B338
100
AcDbEntity
  8
0
100
AcDbLine
 10
2133.62002
 20
664.609838
 30
0.0
 11
2303.62002
 21
664.609838
 31
0.0
  0
LINE
  5
B339
100
AcDbEntity
  8
0
100
AcDbLine
 10
2133.62002
 20
638.109838
 30
0.0
 11
2303.62002
 21
638.109838
 31
0.0
  0
LINE
  5
B33A
100
AcDbEntity
  8
0
100
AcDbLine
 10
2133.62002
 20
639.609838
 30
0.0
 11
2303.62002
 21
639.609838
 31
0.0
  0
LINE
  5
B33B
100
AcDbEntity
  8
0
100
AcDbLine
 10
2133.62002
 20
613.109838
 30
0.0
 11
2303.62002
 21
613.109838
 31
0.0
  0
LINE
  5
B33C
100
AcDbEntity
  8
0
100
AcDbLine
 10
2269.197219
 20
587.068505
 30
0.0
 11
2299.504594
 21
522.074129
 31
0.0
  0
ARC
  5
B33D
100
AcDbEntity
  8
0
100
AcDbCircle
 10
2298.578889
 20
448.929592
 30
0.0
 40
6.537699
100
AcDbArc
 50
237.999511
 51
302.000489
  0
LINE
  5
B33E
100
AcDbEntity
  8
0
100
AcDbLine
 10
2297.323389
 20
442.109838
 30
0.0
 11
2320.617389
 21
442.109838
 31
0.0
  0
LINE
  5
B33F
100
AcDbEntity
  8
0
100
AcDbLine
 10
2106.12002
 20
485.109838
 30
0.0
 11
2331.12002
 21
485.109838
 31
0.0
  0
LINE
  5
B340
100
AcDbEntity
  8
0
100
AcDbLine
 10
2109.12002
 20
455.109838
 30
0.0
 11
2328.12002
 21
455.109838
 31
0.0
  0
LINE
  5
B341
100
AcDbEntity
  8
0
100
AcDbLine
 10
2106.12002
 20
486.609838
 30
0.0
 11
2331.12002
 21
486.609838
 31
0.0
  0
LINE
  5
B342
100
AcDbEntity
  8
0
100
AcDbLine
 10
2106.12002
 20
518.609838
 30
0.0
 11
2331.12002
 21
518.609838
 31
0.0
  0
TEXT
  5
B343
100
AcDbEntity
  8
0
100
AcDbText
 10
2114.570542
 20
314.840408
 30
0.0
 40
25.0
  1
15A.20A,25A
 41
0.8
 72
     1
 11
2207.903876
 21
327.340408
 31
0.0
100
AcDbText
 73
     2
  0
INSERT
  5
B344
100
AcDbEntity
  8
0
100
AcDbBlockReference
  2
YA
 10
826.531257
 20
732.109838
 30
0.0
 41
3.427225
 42
3.427225
 43
3.427225
  0
LINE
  5
B345
100
AcDbEntity
  8
0
100
AcDbLine
 10
625.587181
 20
518.609838
 30
0.0
 11
625.587181
 21
522.232956
 31
0.0
  0
LINE
  5
B346
100
AcDbEntity
  8
0
100
AcDbLine
 10
609.587181
 20
522.232956
 30
0.0
 11
609.587181
 21
518.609838
 31
0.0
  0
LINE
  5
B347
100
AcDbEntity
  8
0
100
AcDbLine
 10
643.730581
 20
518.609838
 30
0.0
 11
643.730581
 21
522.232956
 31
0.0
  0
LINE
  5
B348
100
AcDbEntity
  8
0
100
AcDbLine
 10
627.730581
 20
522.232956
 30
0.0
 11
627.730581
 21
518.609838
 31
0.0
  0
LINE
  5
B349
100
AcDbEntity
  8
0
100
AcDbLine
 10
578.087181
 20
518.609838
 30
0.0
 11
578.087181
 21
522.232956
 31
0.0
  0
LINE
  5
B34A
100
AcDbEntity
  8
0
100
AcDbLine
 10
562.087181
 20
522.232956
 30
0.0
 11
562.087181
 21
518.609838
 31
0.0
  0
LINE
  5
B34B
100
AcDbEntity
  8
0
100
AcDbLine
 10
519.372981
 20
522.232956
 30
0.0
 11
519.372981
 21
518.609838
 31
0.0
  0
LINE
  5
B34C
100
AcDbEntity
  8
0
100
AcDbLine
 10
503.372981
 20
518.609838
 30
0.0
 11
503.372981
 21
522.232956
 31
0.0
  0
LINE
  5
B34D
100
AcDbEntity
  8
0
100
AcDbLine
 10
453.729581
 20
522.232956
 30
0.0
 11
453.729581
 21
518.609838
 31
0.0
  0
LINE
  5
B34E
100
AcDbEntity
  8
0
100
AcDbLine
 10
437.729581
 20
518.609838
 30
0.0
 11
437.729581
 21
522.232956
 31
0.0
  0
LINE
  5
B34F
100
AcDbEntity
  8
0
100
AcDbLine
 10
471.872981
 20
522.232956
 30
0.0
 11
471.872981
 21
518.609838
 31
0.0
  0
LINE
  5
B350
100
AcDbEntity
  8
0
100
AcDbLine
 10
455.872981
 20
518.609838
 30
0.0
 11
455.872981
 21
522.232956
 31
0.0
  0
ARC
  5
B351
100
AcDbEntity
  8
0
100
AcDbCircle
 10
592.443285
 20
440.109838
 30
0.0
 40
15.0
100
AcDbArc
 50
90.0
 51
133.662327
  0
LINE
  5
B352
100
AcDbEntity
  8
0
100
AcDbLine
 10
653.230081
 20
485.109838
 30
0.0
 11
428.230081
 21
485.109838
 31
0.0
  0
LINE
  5
B353
100
AcDbEntity
  8
0
100
AcDbLine
 10
653.230081
 20
486.609838
 30
0.0
 11
428.230081
 21
486.609838
 31
0.0
  0
LINE
  5
B354
100
AcDbEntity
  8
0
100
AcDbLine
 10
653.230081
 20
518.609838
 30
0.0
 11
428.230081
 21
518.609838
 31
0.0
  0
LINE
  5
B355
100
AcDbEntity
  8
0
100
AcDbLine
 10
650.230081
 20
455.109838
 30
0.0
 11
431.230081
 21
455.109838
 31
0.0
  0
LINE
  5
B356
100
AcDbEntity
  8
0
100
AcDbLine
 10
428.230081
 20
458.109838
 30
0.0
 11
428.230081
 21
485.109838
 31
0.0
  0
ARC
  5
B359
100
AcDbEntity
  8
0
100
AcDbCircle
 10
431.230081
 20
458.109838
 30
0.0
 40
3.0
100
AcDbArc
 50
180.0
 51
270.0
  0
LINE
  5
B35D
100
AcDbEntity
  8
0
100
AcDbLine
 10
471.872981
 20
439.398956
 30
0.0
 11
470.789981
 21
438.315956
 31
0.0
  0
LINE
  5
B360
100
AcDbEntity
  8
0
100
AcDbLine
 10
471.872981
 20
442.109838
 30
0.0
 11
471.872981
 21
439.398956
 31
0.0
  0
LINE
  5
B361
100
AcDbEntity
  8
0
100
AcDbLine
 10
453.729581
 20
439.398956
 30
0.0
 11
452.646581
 21
438.315956
 31
0.0
  0
LINE
  5
B365
100
AcDbEntity
  8
0
100
AcDbLine
 10
438.812581
 20
438.315956
 30
0.0
 11
437.729581
 21
439.398956
 31
0.0
  0
LINE
  5
B366
100
AcDbEntity
  8
0
100
AcDbLine
 10
437.729581
 20
439.398956
 30
0.0
 11
437.729581
 21
442.109838
 31
0.0
  0
LINE
  5
B367
100
AcDbEntity
  8
0
100
AcDbLine
 10
452.646581
 20
438.315956
 30
0.0
 11
438.812581
 21
438.315956
 31
0.0
  0
LINE
  5
B36A
100
AcDbEntity
  8
0
100
AcDbLine
 10
453.729581
 20
442.109838
 30
0.0
 11
453.729581
 21
439.398956
 31
0.0
  0
LINE
  5
B36C
100
AcDbEntity
  8
0
100
AcDbLine
 10
456.955981
 20
438.315956
 30
0.0
 11
455.872981
 21
439.398956
 31
0.0
  0
LINE
  5
B36D
100
AcDbEntity
  8
0
100
AcDbLine
 10
455.872981
 20
439.398956
 30
0.0
 11
455.872981
 21
442.109838
 31
0.0
  0
LINE
  5
B370
100
AcDbEntity
  8
0
100
AcDbLine
 10
470.789981
 20
438.315956
 30
0.0
 11
456.955981
 21
438.315956
 31
0.0
  0
LINE
  5
B372
100
AcDbEntity
  8
0
100
AcDbLine
 10
428.230081
 20
518.609838
 30
0.0
 11
428.230081
 21
486.609838
 31
0.0
  0
LINE
  5
B373
100
AcDbEntity
  8
0
100
AcDbLine
 10
455.730081
 20
485.109838
 30
0.0
 11
455.730081
 21
486.609838
 31
0.0
  0
LINE
  5
B374
100
AcDbEntity
  8
0
100
AcDbLine
 10
455.730081
 20
485.109838
 30
0.0
 11
455.730081
 21
486.609838
 31
0.0
  0
LINE
  5
B375
100
AcDbEntity
  8
0
100
AcDbLine
 10
521.230081
 20
434.109838
 30
0.0
 11
560.230081
 21
434.109838
 31
0.0
  0
LINE
  5
B376
100
AcDbEntity
  8
0
100
AcDbLine
 10
558.730081
 20
421.109838
 30
0.0
 11
522.730081
 21
421.109838
 31
0.0
  0
ARC
  5
B377
100
AcDbEntity
  8
0
100
AcDbCircle
 10
521.230081
 20
437.109838
 30
0.0
 40
3.0
100
AcDbArc
 50
180.0
 51
270.0
  0
LINE
  5
B378
100
AcDbEntity
  8
0
100
AcDbLine
 10
519.372981
 20
439.398956
 30
0.0
 11
518.289981
 21
438.315956
 31
0.0
  0
LINE
  5
B37A
100
AcDbEntity
  8
0
100
AcDbLine
 10
518.230081
 20
437.109838
 30
0.0
 11
518.230081
 21
438.315956
 31
0.0
  0
LINE
  5
B37C
100
AcDbEntity
  8
0
100
AcDbLine
 10
519.372981
 20
442.109838
 30
0.0
 11
519.372981
 21
439.398956
 31
0.0
  0
ARC
  5
B37F
100
AcDbEntity
  8
0
100
AcDbCircle
 10
489.016878
 20
440.109838
 30
0.0
 40
15.0
100
AcDbArc
 50
46.337673
 51
90.0
  0
LINE
  5
B382
100
AcDbEntity
  8
0
100
AcDbLine
 10
504.455981
 20
438.315956
 30
0.0
 11
503.372981
 21
439.398956
 31
0.0
  0
LINE
  5
B385
100
AcDbEntity
  8
0
100
AcDbLine
 10
503.372981
 20
439.398956
 30
0.0
 11
503.372981
 21
442.109838
 31
0.0
  0
LINE
  5
B388
100
AcDbEntity
  8
0
100
AcDbLine
 10
516.730081
 20
427.109838
 30
0.0
 11
516.730081
 21
438.315956
 31
0.0
  0
LINE
  5
B38A
100
AcDbEntity
  8
0
100
AcDbLine
 10
522.730081
 20
421.109838
 30
0.0
 11
516.730081
 21
427.109838
 31
0.0
  0
LINE
  5
B38B
100
AcDbEntity
  8
0
100
AcDbLine
 10
518.289981
 20
438.315956
 30
0.0
 11
504.455981
 21
438.315956
 31
0.0
  0
LINE
  5
B38D
100
AcDbEntity
  8
0
100
AcDbLine
 10
578.087181
 20
439.398956
 30
0.0
 11
578.087181
 21
442.109838
 31
0.0
  0
LINE
  5
B390
100
AcDbEntity
  8
0
100
AcDbLine
 10
577.004181
 20
438.315956
 30
0.0
 11
578.087181
 21
439.398956
 31
0.0
  0
ARC
  5
B393
100
AcDbEntity
  8
0
100
AcDbCircle
 10
560.230081
 20
437.109838
 30
0.0
 40
3.0
100
AcDbArc
 50
270.0
 51
0.0
  0
LINE
  5
B395
100
AcDbEntity
  8
0
100
AcDbLine
 10
558.730081
 20
421.109838
 30
0.0
 11
564.730081
 21
427.109838
 31
0.0
  0
LINE
  5
B398
100
AcDbEntity
  8
0
100
AcDbLine
 10
563.230081
 20
437.109838
 30
0.0
 11
563.230081
 21
438.315956
 31
0.0
  0
LINE
  5
B39B
100
AcDbEntity
  8
0
100
AcDbLine
 10
562.087181
 20
442.109838
 30
0.0
 11
562.087181
 21
439.398956
 31
0.0
  0
LINE
  5
B39C
100
AcDbEntity
  8
0
100
AcDbLine
 10
562.087181
 20
439.398956
 30
0.0
 11
563.170181
 21
438.315956
 31
0.0
  0
LINE
  5
B39E
100
AcDbEntity
  8
0
100
AcDbLine
 10
564.730081
 20
427.109838
 30
0.0
 11
564.730081
 21
438.315956
 31
0.0
  0
LINE
  5
B3A1
100
AcDbEntity
  8
0
100
AcDbLine
 10
563.170181
 20
438.315956
 30
0.0
 11
577.004181
 21
438.315956
 31
0.0
  0
LINE
  5
B3A2
100
AcDbEntity
  8
0
100
AcDbLine
 10
653.230081
 20
458.109838
 30
0.0
 11
653.230081
 21
485.109838
 31
0.0
  0
LINE
  5
B3A5
100
AcDbEntity
  8
0
100
AcDbLine
 10
624.504181
 20
438.315956
 30
0.0
 11
625.587181
 21
439.398956
 31
0.0
  0
LINE
  5
B3A8
100
AcDbEntity
  8
0
100
AcDbLine
 10
625.587181
 20
439.398956
 30
0.0
 11
625.587181
 21
442.109838
 31
0.0
  0
LINE
  5
B3A9
100
AcDbEntity
  8
0
100
AcDbLine
 10
627.730581
 20
442.109838
 30
0.0
 11
627.730581
 21
439.398956
 31
0.0
  0
LINE
  5
B3AC
100
AcDbEntity
  8
0
100
AcDbLine
 10
628.813581
 20
438.315956
 30
0.0
 11
642.647581
 21
438.315956
 31
0.0
  0
LINE
  5
B3AD
100
AcDbEntity
  8
0
100
AcDbLine
 10
643.730581
 20
439.398956
 30
0.0
 11
643.730581
 21
442.109838
 31
0.0
  0
LINE
  5
B3AE
100
AcDbEntity
  8
0
100
AcDbLine
 10
642.647581
 20
438.315956
 30
0.0
 11
643.730581
 21
439.398956
 31
0.0
  0
LINE
  5
B3B1
100
AcDbEntity
  8
0
100
AcDbLine
 10
627.730581
 20
439.398956
 30
0.0
 11
628.813581
 21
438.315956
 31
0.0
  0
LINE
  5
B3B2
100
AcDbEntity
  8
0
100
AcDbLine
 10
609.587181
 20
442.109838
 30
0.0
 11
609.587181
 21
439.398956
 31
0.0
  0
LINE
  5
B3B5
100
AcDbEntity
  8
0
100
AcDbLine
 10
609.587181
 20
439.398956
 30
0.0
 11
610.670181
 21
438.315956
 31
0.0
  0
LINE
  5
B3BA
100
AcDbEntity
  8
0
100
AcDbLine
 10
610.670181
 20
438.315956
 30
0.0
 11
624.504181
 21
438.315956
 31
0.0
  0
ARC
  5
B3BB
100
AcDbEntity
  8
0
100
AcDbCircle
 10
650.230081
 20
458.109838
 30
0.0
 40
3.0
100
AcDbArc
 50
270.0
 51
0.0
  0
LINE
  5
B3BE
100
AcDbEntity
  8
0
100
AcDbLine
 10
625.730081
 20
485.109838
 30
0.0
 11
625.730081
 21
486.609838
 31
0.0
  0
LINE
  5
B3BF
100
AcDbEntity
  8
0
100
AcDbLine
 10
653.230081
 20
518.609838
 30
0.0
 11
653.230081
 21
486.609838
 31
0.0
  0
TEXT
  5
B3C0
100
AcDbEntity
  8
0
100
AcDbText
 10
175.143873
 20
732.109838
 30
0.0
 40
35.0
  1
正面
100
AcDbText
  0
CIRCLE
  5
B3C1
100
AcDbEntity
  8
0
100
AcDbCircle
 10
540.730081
 20
732.109838
 30
0.0
 40
26.5
  0
ARC
  5
B3C2
100
AcDbEntity
  8
0
100
AcDbCircle
 10
550.730081
 20
761.980392
 30
0.0
 40
5.0
100
AcDbArc
 50
180.0
 51
251.490595
  0
ARC
  5
B3C3
100
AcDbEntity
  8
0
100
AcDbCircle
 10
530.730081
 20
761.980392
 30
0.0
 40
5.0
100
AcDbArc
 50
288.509405
 51
0.0
  0
ARC
  5
B3C4
100
AcDbEntity
  8
0
100
AcDbCircle
 10
554.605081
 20
745.917365
 30
0.0
 40
23.0
100
AcDbArc
 50
3.881946
 51
72.041182
  0
ARC
  5
B3C5
100
AcDbEntity
  8
0
100
AcDbCircle
 10
526.855081
 20
745.917365
 30
0.0
 40
23.0
100
AcDbArc
 50
107.958818
 51
176.118054
  0
ARC
  5
B3C6
100
AcDbEntity
  8
0
100
AcDbCircle
 10
594.730081
 20
725.609838
 30
0.0
 40
3.0
100
AcDbArc
 50
180.0
 51
270.0
  0
ARC
  5
B3C7
100
AcDbEntity
  8
0
100
AcDbCircle
 10
575.730081
 20
726.109838
 30
0.0
 40
16.0
100
AcDbArc
 50
0.0
 51
65.889684
  0
ARC
  5
B3C8
100
AcDbEntity
  8
0
100
AcDbCircle
 10
649.529528
 20
702.217892
 30
0.0
 40
60.76523
100
AcDbArc
 50
163.194975
 51
200.781207
  0
ARC
  5
B3C9
100
AcDbEntity
  8
0
100
AcDbCircle
 10
595.141127
 20
609.109838
 30
0.0
 40
4.0
100
AcDbArc
 50
90.0
 51
170.912537
  0
LINE
  5
B3CA
100
AcDbEntity
  8
0
100
AcDbLine
 10
591.307281
 20
587.068505
 30
0.0
 11
621.035582
 21
523.315956
 31
0.0
  0
LINE
  5
B3CB
100
AcDbEntity
  8
0
100
AcDbLine
 10
625.730081
 20
638.109838
 30
0.0
 11
455.730081
 21
638.109838
 31
0.0
  0
LINE
  5
B3CC
100
AcDbEntity
  8
0
100
AcDbLine
 10
625.730081
 20
639.609838
 30
0.0
 11
455.730081
 21
639.609838
 31
0.0
  0
LINE
  5
B3CD
100
AcDbEntity
  8
0
100
AcDbLine
 10
625.730081
 20
664.609838
 30
0.0
 11
455.730081
 21
664.609838
 31
0.0
  0
LINE
  5
B3CE
100
AcDbEntity
  8
0
100
AcDbLine
 10
625.730081
 20
613.109838
 30
0.0
 11
455.730081
 21
613.109838
 31
0.0
  0
LINE
  5
B3CF
100
AcDbEntity
  8
0
100
AcDbLine
 10
481.730081
 20
638.109838
 30
0.0
 11
481.730081
 21
639.609838
 31
0.0
  0
LINE
  5
B3D2
100
AcDbEntity
  8
0
100
AcDbLine
 10
490.152882
 20
587.068505
 30
0.0
 11
460.42458
 21
523.315956
 31
0.0
  0
LINE
  5
B3D3
100
AcDbEntity
  8
0
100
AcDbLine
 10
471.872981
 20
522.232956
 30
0.0
 11
470.789981
 21
523.315956
 31
0.0
  0
LINE
  5
B3D4
100
AcDbEntity
  8
0
100
AcDbLine
 10
453.729581
 20
522.232956
 30
0.0
 11
452.646581
 21
523.315956
 31
0.0
  0
LINE
  5
B3D5
100
AcDbEntity
  8
0
100
AcDbLine
 10
437.729581
 20
522.232956
 30
0.0
 11
438.812581
 21
523.315956
 31
0.0
  0
LINE
  5
B3D6
100
AcDbEntity
  8
0
100
AcDbLine
 10
452.646581
 20
523.315956
 30
0.0
 11
438.812581
 21
523.315956
 31
0.0
  0
LINE
  5
B3D7
100
AcDbEntity
  8
0
100
AcDbLine
 10
455.872981
 20
522.232956
 30
0.0
 11
456.955981
 21
523.315956
 31
0.0
  0
LINE
  5
B3D8
100
AcDbEntity
  8
0
100
AcDbLine
 10
470.789981
 20
523.315956
 30
0.0
 11
456.955981
 21
523.315956
 31
0.0
  0
LINE
  5
B3D9
100
AcDbEntity
  8
0
100
AcDbLine
 10
466.313081
 20
596.315956
 30
0.0
 11
465.230081
 21
597.398956
 31
0.0
  0
LINE
  5
B3DA
100
AcDbEntity
  8
0
100
AcDbLine
 10
465.230081
 20
597.398956
 30
0.0
 11
465.230081
 21
600.109838
 31
0.0
  0
LINE
  5
B3DC
100
AcDbEntity
  8
0
100
AcDbLine
 10
481.230081
 20
597.398956
 30
0.0
 11
480.147081
 21
596.315956
 31
0.0
  0
LINE
  5
B3DD
100
AcDbEntity
  8
0
100
AcDbLine
 10
481.230081
 20
600.109838
 30
0.0
 11
481.230081
 21
597.398956
 31
0.0
  0
LINE
  5
B3DF
100
AcDbEntity
  8
0
100
AcDbLine
 10
480.147081
 20
596.315956
 30
0.0
 11
466.313081
 21
596.315956
 31
0.0
  0
LINE
  5
B3E1
100
AcDbEntity
  8
0
100
AcDbLine
 10
455.730081
 20
613.109838
 30
0.0
 11
455.730081
 21
638.109838
 31
0.0
  0
LINE
  5
B3E6
100
AcDbEntity
  8
0
100
AcDbLine
 10
519.372981
 20
522.232956
 30
0.0
 11
518.289981
 21
523.315956
 31
0.0
  0
LINE
  5
B3E7
100
AcDbEntity
  8
0
100
AcDbLine
 10
503.372981
 20
522.232956
 30
0.0
 11
504.455981
 21
523.315956
 31
0.0
  0
LINE
  5
B3E8
100
AcDbEntity
  8
0
100
AcDbLine
 10
518.289981
 20
523.315956
 30
0.0
 11
504.455981
 21
523.315956
 31
0.0
  0
LINE
  5
B3E9
100
AcDbEntity
  8
0
100
AcDbLine
 10
578.087181
 20
522.232956
 30
0.0
 11
577.004181
 21
523.315956
 31
0.0
  0
LINE
  5
B3EA
100
AcDbEntity
  8
0
100
AcDbLine
 10
562.087181
 20
522.232956
 30
0.0
 11
563.170181
 21
523.315956
 31
0.0
  0
LINE
  5
B3EB
100
AcDbEntity
  8
0
100
AcDbLine
 10
563.170181
 20
523.315956
 30
0.0
 11
577.004181
 21
523.315956
 31
0.0
  0
LINE
  5
B3EF
100
AcDbEntity
  8
0
100
AcDbLine
 10
513.897081
 20
596.315956
 30
0.0
 11
500.063081
 21
596.315956
 31
0.0
  0
LINE
  5
B3F0
100
AcDbEntity
  8
0
100
AcDbLine
 10
490.268829
 20
609.741606
 30
0.0
 11
492.129326
 21
598.109838
 31
0.0
  0
LINE
  5
B3F4
100
AcDbEntity
  8
0
100
AcDbLine
 10
498.980081
 20
597.398956
 30
0.0
 11
498.980081
 21
600.109838
 31
0.0
  0
LINE
  5
B3F5
100
AcDbEntity
  8
0
100
AcDbLine
 10
500.063081
 20
596.315956
 30
0.0
 11
498.980081
 21
597.398956
 31
0.0
  0
ARC
  5
B3F7
100
AcDbEntity
  8
0
100
AcDbCircle
 10
472.026726
 20
595.52087
 30
0.0
 40
20.0
100
AcDbArc
 50
335.0
 51
358.0
  0
LINE
  5
B3F8
100
AcDbEntity
  8
0
100
AcDbLine
 10
492.129326
 20
598.109838
 30
0.0
 11
492.014543
 21
594.82288
 31
0.0
  0
LINE
  5
B3FA
100
AcDbEntity
  8
0
100
AcDbLine
 10
514.980081
 20
600.109838
 30
0.0
 11
514.980081
 21
597.398956
 31
0.0
  0
LINE
  5
B3FB
100
AcDbEntity
  8
0
100
AcDbLine
 10
514.980081
 20
597.398956
 30
0.0
 11
513.897081
 21
596.315956
 31
0.0
  0
ARC
  5
B3FD
100
AcDbEntity
  8
0
100
AcDbCircle
 10
486.319035
 20
609.109838
 30
0.0
 40
4.0
100
AcDbArc
 50
9.087463
 51
90.0
  0
LINE
  5
B400
100
AcDbEntity
  8
0
100
AcDbLine
 10
589.330837
 20
598.109838
 30
0.0
 11
589.44562
 21
594.82288
 31
0.0
  0
ARC
  5
B401
100
AcDbEntity
  8
0
100
AcDbCircle
 10
609.433436
 20
595.52087
 30
0.0
 40
20.0
100
AcDbArc
 50
182.0
 51
205.0
  0
LINE
  5
B403
100
AcDbEntity
  8
0
100
AcDbLine
 10
581.397081
 20
596.315956
 30
0.0
 11
582.480081
 21
597.398956
 31
0.0
  0
LINE
  5
B404
100
AcDbEntity
  8
0
100
AcDbLine
 10
582.480081
 20
597.398956
 30
0.0
 11
582.480081
 21
600.109838
 31
0.0
  0
LINE
  5
B408
100
AcDbEntity
  8
0
100
AcDbLine
 10
591.191334
 20
609.741606
 30
0.0
 11
589.330837
 21
598.109838
 31
0.0
  0
LINE
  5
B40B
100
AcDbEntity
  8
0
100
AcDbLine
 10
566.480081
 20
597.398956
 30
0.0
 11
567.563081
 21
596.315956
 31
0.0
  0
LINE
  5
B40C
100
AcDbEntity
  8
0
100
AcDbLine
 10
566.480081
 20
600.109838
 30
0.0
 11
566.480081
 21
597.398956
 31
0.0
  0
LINE
  5
B410
100
AcDbEntity
  8
0
100
AcDbLine
 10
567.563081
 20
596.315956
 30
0.0
 11
581.397081
 21
596.315956
 31
0.0
  0
LINE
  5
B412
100
AcDbEntity
  8
0
100
AcDbLine
 10
477.730081
 20
722.609838
 30
0.0
 11
486.730081
 21
722.609838
 31
0.0
  0
ARC
  5
B413
100
AcDbEntity
  8
0
100
AcDbCircle
 10
482.450866
 20
668.609838
 30
0.0
 40
4.0
100
AcDbArc
 50
270.0
 51
348.690068
  0
ARC
  5
B414
100
AcDbEntity
  8
0
100
AcDbCircle
 10
484.67067
 20
674.609838
 30
0.0
 40
3.0
100
AcDbArc
 50
348.690068
 51
90.0
  0
LINE
  5
B415
100
AcDbEntity
  8
0
100
AcDbLine
 10
477.730081
 20
722.609838
 30
0.0
 11
477.730081
 21
677.609838
 31
0.0
  0
LINE
  5
B416
100
AcDbEntity
  8
0
100
AcDbLine
 10
477.730081
 20
722.609838
 30
0.0
 11
477.730081
 21
677.609838
 31
0.0
  0
LINE
  5
B417
100
AcDbEntity
  8
0
100
AcDbLine
 10
465.230081
 20
664.609838
 30
0.0
 11
465.230081
 21
670.232956
 31
0.0
  0
LINE
  5
B418
100
AcDbEntity
  8
0
100
AcDbLine
 10
465.230081
 20
670.232956
 30
0.0
 11
466.313081
 21
671.315956
 31
0.0
  0
LINE
  5
B419
100
AcDbEntity
  8
0
100
AcDbLine
 10
477.730081
 20
677.609838
 30
0.0
 11
484.67067
 21
677.609838
 31
0.0
  0
LINE
  5
B41A
100
AcDbEntity
  8
0
100
AcDbLine
 10
481.230081
 20
670.232956
 30
0.0
 11
481.230081
 21
664.609838
 31
0.0
  0
LINE
  5
B41B
100
AcDbEntity
  8
0
100
AcDbLine
 10
481.230081
 20
670.232956
 30
0.0
 11
480.147081
 21
671.315956
 31
0.0
  0
LINE
  5
B41C
100
AcDbEntity
  8
0
100
AcDbLine
 10
480.147081
 20
671.315956
 30
0.0
 11
466.313081
 21
671.315956
 31
0.0
  0
LINE
  5
B41D
100
AcDbEntity
  8
0
100
AcDbLine
 10
455.730081
 20
639.609838
 30
0.0
 11
455.730081
 21
664.609838
 31
0.0
  0
ARC
  5
B41E
100
AcDbEntity
  8
0
100
AcDbCircle
 10
431.930635
 20
702.217892
 30
0.0
 40
60.76523
100
AcDbArc
 50
339.218793
 51
16.805025
  0
LINE
  5
B41F
100
AcDbEntity
  8
0
100
AcDbLine
 10
513.897081
 20
671.315956
 30
0.0
 11
500.063081
 21
671.315956
 31
0.0
  0
LINE
  5
B420
100
AcDbEntity
  8
0
100
AcDbLine
 10
498.980081
 20
670.232956
 30
0.0
 11
500.063081
 21
671.315956
 31
0.0
  0
LINE
  5
B421
100
AcDbEntity
  8
0
100
AcDbLine
 10
498.980081
 20
664.609838
 30
0.0
 11
498.980081
 21
670.232956
 31
0.0
  0
LINE
  5
B422
100
AcDbEntity
  8
0
100
AcDbLine
 10
514.980081
 20
670.232956
 30
0.0
 11
513.897081
 21
671.315956
 31
0.0
  0
LINE
  5
B423
100
AcDbEntity
  8
0
100
AcDbLine
 10
514.980081
 20
670.232956
 30
0.0
 11
514.980081
 21
664.609838
 31
0.0
  0
LINE
  5
B424
100
AcDbEntity
  8
0
100
AcDbLine
 10
487.612412
 20
674.02149
 30
0.0
 11
487.071305
 21
671.315956
 31
0.0
  0
LINE
  5
B425
100
AcDbEntity
  8
0
100
AcDbLine
 10
487.612412
 20
674.02149
 30
0.0
 11
486.373188
 21
667.825374
 31
0.0
  0
LINE
  5
B426
100
AcDbEntity
  8
0
100
AcDbLine
 10
582.480081
 20
664.609838
 30
0.0
 11
582.480081
 21
670.232956
 31
0.0
  0
LINE
  5
B427
100
AcDbEntity
  8
0
100
AcDbLine
 10
582.480081
 20
670.232956
 30
0.0
 11
581.397081
 21
671.315956
 31
0.0
  0
LINE
  5
B428
100
AcDbEntity
  8
0
100
AcDbLine
 10
566.480081
 20
670.232956
 30
0.0
 11
566.480081
 21
664.609838
 31
0.0
  0
LINE
  5
B429
100
AcDbEntity
  8
0
100
AcDbLine
 10
566.480081
 20
670.232956
 30
0.0
 11
567.563081
 21
671.315956
 31
0.0
  0
LINE
  5
B42A
100
AcDbEntity
  8
0
100
AcDbLine
 10
567.563081
 20
671.315956
 30
0.0
 11
581.397081
 21
671.315956
 31
0.0
  0
LINE
  5
B42B
100
AcDbEntity
  8
0
100
AcDbLine
 10
489.730081
 20
726.109838
 30
0.0
 11
489.730081
 21
725.609838
 31
0.0
  0
ARC
  5
B42C
100
AcDbEntity
  8
0
100
AcDbCircle
 10
495.926206
 20
748.016094
 30
0.0
 40
8.0
100
AcDbArc
 50
294.110316
 51
356.118054
  0
ARC
  5
B42D
100
AcDbEntity
  8
0
100
AcDbCircle
 10
486.730081
 20
725.609838
 30
0.0
 40
3.0
100
AcDbArc
 50
270.0
 51
0.0
  0
ARC
  5
B42E
100
AcDbEntity
  8
0
100
AcDbCircle
 10
505.730081
 20
726.109838
 30
0.0
 40
16.0
100
AcDbArc
 50
114.110316
 51
180.0
  0
LINE
  5
B42F
100
AcDbEntity
  8
0
100
AcDbLine
 10
591.730081
 20
726.109838
 30
0.0
 11
591.730081
 21
725.609838
 31
0.0
  0
ARC
  5
B430
100
AcDbEntity
  8
0
100
AcDbCircle
 10
585.533957
 20
748.016094
 30
0.0
 40
8.0
100
AcDbArc
 50
183.881946
 51
245.889684
  0
LINE
  5
B431
100
AcDbEntity
  8
0
100
AcDbLine
 10
608.772867
 20
638.109838
 30
0.0
 11
608.772867
 21
639.609838
 31
0.0
  0
LINE
  5
B432
100
AcDbEntity
  8
0
100
AcDbLine
 10
625.587181
 20
522.232956
 30
0.0
 11
624.504181
 21
523.315956
 31
0.0
  0
LINE
  5
B433
100
AcDbEntity
  8
0
100
AcDbLine
 10
628.813581
 20
523.315956
 30
0.0
 11
642.647581
 21
523.315956
 31
0.0
  0
LINE
  5
B434
100
AcDbEntity
  8
0
100
AcDbLine
 10
643.730581
 20
522.232956
 30
0.0
 11
642.647581
 21
523.315956
 31
0.0
  0
LINE
  5
B435
100
AcDbEntity
  8
0
100
AcDbLine
 10
627.730581
 20
522.232956
 30
0.0
 11
628.813581
 21
523.315956
 31
0.0
  0
LINE
  5
B436
100
AcDbEntity
  8
0
100
AcDbLine
 10
609.587181
 20
522.232956
 30
0.0
 11
610.670181
 21
523.315956
 31
0.0
  0
LINE
  5
B437
100
AcDbEntity
  8
0
100
AcDbLine
 10
610.670181
 20
523.315956
 30
0.0
 11
624.504181
 21
523.315956
 31
0.0
  0
LINE
  5
B438
100
AcDbEntity
  8
0
100
AcDbLine
 10
625.730081
 20
613.109838
 30
0.0
 11
625.730081
 21
638.109838
 31
0.0
  0
LINE
  5
B43A
100
AcDbEntity
  8
0
100
AcDbLine
 10
601.313081
 20
596.315956
 30
0.0
 11
615.147081
 21
596.315956
 31
0.0
  0
LINE
  5
B43D
100
AcDbEntity
  8
0
100
AcDbLine
 10
600.230081
 20
600.109838
 30
0.0
 11
600.230081
 21
597.398956
 31
0.0
  0
LINE
  5
B43E
100
AcDbEntity
  8
0
100
AcDbLine
 10
600.230081
 20
597.398956
 30
0.0
 11
601.313081
 21
596.315956
 31
0.0
  0
LINE
  5
B442
100
AcDbEntity
  8
0
100
AcDbLine
 10
616.230081
 20
597.398956
 30
0.0
 11
616.230081
 21
600.109838
 31
0.0
  0
LINE
  5
B443
100
AcDbEntity
  8
0
100
AcDbLine
 10
615.147081
 20
596.315956
 30
0.0
 11
616.230081
 21
597.398956
 31
0.0
  0
LINE
  5
B448
100
AcDbEntity
  8
0
100
AcDbLine
 10
603.730081
 20
722.609838
 30
0.0
 11
603.730081
 21
677.609838
 31
0.0
  0
LINE
  5
B449
100
AcDbEntity
  8
0
100
AcDbLine
 10
625.730081
 20
639.609838
 30
0.0
 11
625.730081
 21
664.609838
 31
0.0
  0
LINE
  5
B44A
100
AcDbEntity
  8
0
100
AcDbLine
 10
601.313081
 20
671.315956
 30
0.0
 11
615.147081
 21
671.315956
 31
0.0
  0
LINE
  5
B44B
100
AcDbEntity
  8
0
100
AcDbLine
 10
603.730081
 20
677.609838
 30
0.0
 11
596.789493
 21
677.609838
 31
0.0
  0
LINE
  5
B44C
100
AcDbEntity
  8
0
100
AcDbLine
 10
600.230081
 20
670.232956
 30
0.0
 11
601.313081
 21
671.315956
 31
0.0
  0
LINE
  5
B44D
100
AcDbEntity
  8
0
100
AcDbLine
 10
600.230081
 20
670.232956
 30
0.0
 11
600.230081
 21
664.609838
 31
0.0
  0
LINE
  5
B44E
100
AcDbEntity
  8
0
100
AcDbLine
 10
616.230081
 20
670.232956
 30
0.0
 11
615.147081
 21
671.315956
 31
0.0
  0
LINE
  5
B44F
100
AcDbEntity
  8
0
100
AcDbLine
 10
616.230081
 20
664.609838
 30
0.0
 11
616.230081
 21
670.232956
 31
0.0
  0
ARC
  5
B450
100
AcDbEntity
  8
0
100
AcDbCircle
 10
596.789493
 20
674.609838
 30
0.0
 40
3.0
100
AcDbArc
 50
90.0
 51
191.309932
  0
LINE
  5
B451
100
AcDbEntity
  8
0
100
AcDbLine
 10
593.847751
 20
674.02149
 30
0.0
 11
595.086974
 21
667.825374
 31
0.0
  0
ARC
  5
B452
100
AcDbEntity
  8
0
100
AcDbCircle
 10
599.009297
 20
668.609838
 30
0.0
 40
4.0
100
AcDbArc
 50
191.309932
 51
270.0
  0
LINE
  5
B453
100
AcDbEntity
  8
0
100
AcDbLine
 10
603.730081
 20
722.609838
 30
0.0
 11
594.730081
 21
722.609838
 31
0.0
  0
LINE
  5
B454
100
AcDbEntity
  8
0
100
AcDbLine
 10
545.730081
 20
802.856445
 30
0.0
 11
535.730081
 21
802.856445
 31
0.0
  0
LINE
  5
B455
100
AcDbEntity
  8
0
100
AcDbLine
 10
535.730081
 20
802.856445
 30
0.0
 11
535.730081
 21
761.980392
 31
0.0
  0
ARC
  5
B456
100
AcDbEntity
  8
0
100
AcDbCircle
 10
532.730081
 20
773.657694
 30
0.0
 40
3.0
100
AcDbArc
 50
276.469602
 51
0.0
  0
ARC
  5
B457
100
AcDbEntity
  8
0
100
AcDbCircle
 10
540.730081
 20
703.109838
 30
0.0
 40
68.0
100
AcDbArc
 50
96.469602
 51
107.958818
  0
ARC
  5
B458
100
AcDbEntity
  8
0
100
AcDbCircle
 10
540.730081
 20
703.109838
 30
0.0
 40
68.0
100
AcDbArc
 50
72.041182
 51
83.530398
  0
ARC
  5
B459
100
AcDbEntity
  8
0
100
AcDbCircle
 10
548.730081
 20
773.657694
 30
0.0
 40
3.0
100
AcDbArc
 50
180.0
 51
263.530398
  0
LINE
  5
B45A
100
AcDbEntity
  8
0
100
AcDbLine
 10
545.730081
 20
802.856445
 30
0.0
 11
545.730081
 21
761.980392
 31
0.0
  0
LINE
  5
B467
100
AcDbEntity
  8
0
100
AcDbLine
 10
867.476246
 20
518.609838
 30
0.0
 11
867.476246
 21
522.232956
 31
0.0
  0
LINE
  5
B468
100
AcDbEntity
  8
0
100
AcDbLine
 10
917.987016
 20
522.232956
 30
0.0
 11
917.987016
 21
518.609838
 31
0.0
  0
LINE
  5
B469
100
AcDbEntity
  8
0
100
AcDbLine
 10
883.476246
 20
522.232956
 30
0.0
 11
883.476246
 21
518.609838
 31
0.0
  0
LINE
  5
B46A
100
AcDbEntity
  8
0
100
AcDbLine
 10
901.987016
 20
518.609838
 30
0.0
 11
901.987016
 21
522.232956
 31
0.0
  0
LINE
  5
B46B
100
AcDbEntity
  8
0
100
AcDbLine
 10
957.826615
 20
518.609838
 30
0.0
 11
957.826615
 21
522.232956
 31
0.0
  0
LINE
  5
B46C
100
AcDbEntity
  8
0
100
AcDbLine
 10
973.826615
 20
522.232956
 30
0.0
 11
973.826615
 21
518.609838
 31
0.0
  0
LINE
  5
B46D
100
AcDbEntity
  8
0
100
AcDbLine
 10
1029.666214
 20
522.232956
 30
0.0
 11
1029.666214
 21
518.609838
 31
0.0
  0
LINE
  5
B46E
100
AcDbEntity
  8
0
100
AcDbLine
 10
1013.666214
 20
518.609838
 30
0.0
 11
1013.666214
 21
522.232956
 31
0.0
  0
LINE
  5
B46F
100
AcDbEntity
  8
0
100
AcDbLine
 10
1048.176984
 20
518.609838
 30
0.0
 11
1048.176984
 21
522.232956
 31
0.0
  0
LINE
  5
B470
100
AcDbEntity
  8
0
100
AcDbLine
 10
1064.176984
 20
522.232956
 30
0.0
 11
1064.176984
 21
518.609838
 31
0.0
  0
LINE
  5
B475
100
AcDbEntity
  8
0
100
AcDbLine
 10
1202.373129
 20
518.609838
 30
0.0
 11
1427.373129
 21
518.609838
 31
0.0
  0
LINE
  5
B476
100
AcDbEntity
  8
0
100
AcDbLine
 10
1202.373129
 20
486.609838
 30
0.0
 11
1427.373129
 21
486.609838
 31
0.0
  0
LINE
  5
B477
100
AcDbEntity
  8
0
100
AcDbLine
 10
1202.373129
 20
485.109838
 30
0.0
 11
1427.373129
 21
485.109838
 31
0.0
  0
TEXT
  5
B478
100
AcDbEntity
  8
0
100
AcDbText
 10
861.777638
 20
314.840408
 30
0.0
 40
25.0
  1
15A.20A,25A
 41
0.8
 72
     1
 11
955.110971
 21
327.340408
 31
0.0
100
AcDbText
 73
     2
  0
LINE
  5
B479
100
AcDbEntity
  8
0
100
AcDbLine
 10
990.827115
 20
421.109838
 30
0.0
 11
1026.827115
 21
421.109838
 31
0.0
  0
ARC
  5
B47A
100
AcDbEntity
  8
0
100
AcDbCircle
 10
1021.666214
 20
467.045162
 30
0.0
 40
24.653145
100
AcDbArc
 50
253.680185
 51
286.319815
  0
LINE
  5
B47B
100
AcDbEntity
  8
0
100
AcDbLine
 10
1010.019714
 20
442.109838
 30
0.0
 11
1033.313714
 21
442.109838
 31
0.0
  0
LINE
  5
B47C
100
AcDbEntity
  8
0
100
AcDbLine
 10
1028.583214
 20
438.315956
 30
0.0
 11
1014.749214
 21
438.315956
 31
0.0
  0
LINE
  5
B47D
100
AcDbEntity
  8
0
100
AcDbLine
 10
853.327115
 20
518.609838
 30
0.0
 11
1078.327115
 21
518.609838
 31
0.0
  0
LINE
  5
B47E
100
AcDbEntity
  8
0
100
AcDbLine
 10
853.327115
 20
486.609838
 30
0.0
 11
1078.327115
 21
486.609838
 31
0.0
  0
LINE
  5
B47F
100
AcDbEntity
  8
0
100
AcDbLine
 10
856.327115
 20
455.109838
 30
0.0
 11
1075.327115
 21
455.109838
 31
0.0
  0
LINE
  5
B480
100
AcDbEntity
  8
0
100
AcDbLine
 10
853.327115
 20
485.109838
 30
0.0
 11
1078.327115
 21
485.109838
 31
0.0
  0
LINE
  5
B481
100
AcDbEntity
  8
0
100
AcDbLine
 10
898.340516
 20
442.109838
 30
0.0
 11
921.634516
 21
442.109838
 31
0.0
  0
ARC
  5
B482
100
AcDbEntity
  8
0
100
AcDbCircle
 10
909.987016
 20
467.045162
 30
0.0
 40
24.653145
100
AcDbArc
 50
253.680185
 51
286.319815
  0
LINE
  5
B483
100
AcDbEntity
  8
0
100
AcDbLine
 10
916.904016
 20
438.315956
 30
0.0
 11
903.070016
 21
438.315956
 31
0.0
  0
LINE
  5
B484
100
AcDbEntity
  8
0
100
AcDbLine
 10
853.327115
 20
458.109838
 30
0.0
 11
853.327115
 21
485.109838
 31
0.0
  0
ARC
  5
B485
100
AcDbEntity
  8
0
100
AcDbCircle
 10
856.327115
 20
458.109838
 30
0.0
 40
3.0
100
AcDbArc
 50
180.0
 51
270.0
  0
LINE
  5
B486
100
AcDbEntity
  8
0
100
AcDbLine
 10
883.476246
 20
442.109838
 30
0.0
 11
883.476246
 21
439.398956
 31
0.0
  0
LINE
  5
B487
100
AcDbEntity
  8
0
100
AcDbLine
 10
887.123746
 20
442.109838
 30
0.0
 11
889.332746
 21
443.385338
 31
0.0
  0
ARC
  5
B488
100
AcDbEntity
  8
0
100
AcDbCircle
 10
885.868246
 20
448.929592
 30
0.0
 40
6.537699
100
AcDbArc
 50
237.999511
 51
302.000489
  0
LINE
  5
B489
100
AcDbEntity
  8
0
100
AcDbLine
 10
883.476246
 20
439.398956
 30
0.0
 11
882.393246
 21
438.315956
 31
0.0
  0
LINE
  5
B48A
100
AcDbEntity
  8
0
100
AcDbLine
 10
901.987016
 20
439.398956
 30
0.0
 11
901.987016
 21
442.109838
 31
0.0
  0
LINE
  5
B48B
100
AcDbEntity
  8
0
100
AcDbLine
 10
896.131516
 20
443.385338
 30
0.0
 11
898.340516
 21
442.109838
 31
0.0
  0
ARC
  5
B48C
100
AcDbEntity
  8
0
100
AcDbCircle
 10
899.596016
 20
448.929592
 30
0.0
 40
6.537699
100
AcDbArc
 50
237.999511
 51
302.000489
  0
LINE
  5
B48D
100
AcDbEntity
  8
0
100
AcDbLine
 10
903.070016
 20
438.315956
 30
0.0
 11
901.987016
 21
439.398956
 31
0.0
  0
LINE
  5
B48E
100
AcDbEntity
  8
0
100
AcDbLine
 10
882.403746
 20
443.385338
 30
0.0
 11
882.403746
 21
455.109838
 31
0.0
  0
LINE
  5
B48F
100
AcDbEntity
  8
0
100
AcDbLine
 10
889.332746
 20
443.385338
 30
0.0
 11
889.332746
 21
455.109838
 31
0.0
  0
LINE
  5
B490
100
AcDbEntity
  8
0
100
AcDbLine
 10
896.131516
 20
455.109838
 30
0.0
 11
896.131516
 21
443.385338
 31
0.0
  0
LINE
  5
B491
100
AcDbEntity
  8
0
100
AcDbLine
 10
903.059516
 20
443.385338
 30
0.0
 11
903.059516
 21
455.109838
 31
0.0
  0
LINE
  5
B492
100
AcDbEntity
  8
0
100
AcDbLine
 10
867.476246
 20
439.398956
 30
0.0
 11
867.476246
 21
442.109838
 31
0.0
  0
LINE
  5
B493
100
AcDbEntity
  8
0
100
AcDbLine
 10
861.620746
 20
443.385338
 30
0.0
 11
863.829746
 21
442.109838
 31
0.0
  0
ARC
  5
B494
100
AcDbEntity
  8
0
100
AcDbCircle
 10
865.085246
 20
448.929592
 30
0.0
 40
6.537699
100
AcDbArc
 50
237.999511
 51
302.000489
  0
LINE
  5
B495
100
AcDbEntity
  8
0
100
AcDbLine
 10
868.559246
 20
438.315956
 30
0.0
 11
867.476246
 21
439.398956
 31
0.0
  0
LINE
  5
B496
100
AcDbEntity
  8
0
100
AcDbLine
 10
861.620746
 20
455.109838
 30
0.0
 11
861.620746
 21
443.385338
 31
0.0
  0
LINE
  5
B497
100
AcDbEntity
  8
0
100
AcDbLine
 10
868.548746
 20
443.385338
 30
0.0
 11
868.548746
 21
455.109838
 31
0.0
  0
ARC
  5
B498
100
AcDbEntity
  8
0
100
AcDbCircle
 10
875.476246
 20
467.045162
 30
0.0
 40
24.653145
100
AcDbArc
 50
253.680185
 51
286.319815
  0
LINE
  5
B499
100
AcDbEntity
  8
0
100
AcDbLine
 10
863.829746
 20
442.109838
 30
0.0
 11
887.123746
 21
442.109838
 31
0.0
  0
LINE
  5
B49A
100
AcDbEntity
  8
0
100
AcDbLine
 10
882.393246
 20
438.315956
 30
0.0
 11
868.559246
 21
438.315956
 31
0.0
  0
LINE
  5
B49B
100
AcDbEntity
  8
0
100
AcDbLine
 10
853.327115
 20
518.609838
 30
0.0
 11
853.327115
 21
486.609838
 31
0.0
  0
LINE
  5
B49C
100
AcDbEntity
  8
0
100
AcDbLine
 10
880.827115
 20
485.109838
 30
0.0
 11
880.827115
 21
486.609838
 31
0.0
  0
ARC
  5
B49D
100
AcDbEntity
  8
0
100
AcDbCircle
 10
965.826615
 20
467.045162
 30
0.0
 40
24.653145
100
AcDbArc
 50
253.680185
 51
286.319815
  0
LINE
  5
B49E
100
AcDbEntity
  8
0
100
AcDbLine
 10
954.180115
 20
442.109838
 30
0.0
 11
977.474115
 21
442.109838
 31
0.0
  0
LINE
  5
B49F
100
AcDbEntity
  8
0
100
AcDbLine
 10
972.743615
 20
438.315956
 30
0.0
 11
958.909615
 21
438.315956
 31
0.0
  0
LINE
  5
B4A1
100
AcDbEntity
  8
0
100
AcDbLine
 10
957.826615
 20
439.398956
 30
0.0
 11
957.826615
 21
442.109838
 31
0.0
  0
LINE
  5
B4A2
100
AcDbEntity
  8
0
100
AcDbLine
 10
951.971115
 20
443.385338
 30
0.0
 11
954.180115
 21
442.109838
 31
0.0
  0
ARC
  5
B4A3
100
AcDbEntity
  8
0
100
AcDbCircle
 10
955.435615
 20
448.929592
 30
0.0
 40
6.537699
100
AcDbArc
 50
237.999511
 51
302.000489
  0
LINE
  5
B4A4
100
AcDbEntity
  8
0
100
AcDbLine
 10
958.909615
 20
438.315956
 30
0.0
 11
957.826615
 21
439.398956
 31
0.0
  0
LINE
  5
B4A5
100
AcDbEntity
  8
0
100
AcDbLine
 10
951.971115
 20
455.109838
 30
0.0
 11
951.971115
 21
443.385338
 31
0.0
  0
LINE
  5
B4A6
100
AcDbEntity
  8
0
100
AcDbLine
 10
958.899115
 20
443.385338
 30
0.0
 11
958.899115
 21
455.109838
 31
0.0
  0
ARC
  5
B4AB
100
AcDbEntity
  8
0
100
AcDbCircle
 10
920.379016
 20
448.929592
 30
0.0
 40
6.537699
100
AcDbArc
 50
237.999511
 51
302.000489
  0
LINE
  5
B4AC
100
AcDbEntity
  8
0
100
AcDbLine
 10
917.987016
 20
442.109838
 30
0.0
 11
917.987016
 21
439.398956
 31
0.0
  0
LINE
  5
B4AD
100
AcDbEntity
  8
0
100
AcDbLine
 10
917.987016
 20
439.398956
 30
0.0
 11
916.904016
 21
438.315956
 31
0.0
  0
LINE
  5
B4AE
100
AcDbEntity
  8
0
100
AcDbLine
 10
916.914516
 20
443.385338
 30
0.0
 11
916.914516
 21
455.109838
 31
0.0
  0
LINE
  5
B4AF
100
AcDbEntity
  8
0
100
AcDbLine
 10
921.634516
 20
442.109838
 30
0.0
 11
923.843516
 21
443.385338
 31
0.0
  0
LINE
  5
B4B0
100
AcDbEntity
  8
0
100
AcDbLine
 10
923.843516
 20
443.385338
 30
0.0
 11
923.843516
 21
455.109838
 31
0.0
  0
LINE
  5
B4B2
100
AcDbEntity
  8
0
100
AcDbLine
 10
1013.666214
 20
439.398956
 30
0.0
 11
1013.666214
 21
442.109838
 31
0.0
  0
LINE
  5
B4B3
100
AcDbEntity
  8
0
100
AcDbLine
 10
1007.810714
 20
443.385338
 30
0.0
 11
1010.019714
 21
442.109838
 31
0.0
  0
ARC
  5
B4B4
100
AcDbEntity
  8
0
100
AcDbCircle
 10
1011.275214
 20
448.929592
 30
0.0
 40
6.537699
100
AcDbArc
 50
237.999511
 51
302.000489
  0
LINE
  5
B4B5
100
AcDbEntity
  8
0
100
AcDbLine
 10
1014.749214
 20
438.315956
 30
0.0
 11
1013.666214
 21
439.398956
 31
0.0
  0
LINE
  5
B4B6
100
AcDbEntity
  8
0
100
AcDbLine
 10
1007.810714
 20
455.109838
 30
0.0
 11
1007.810714
 21
443.385338
 31
0.0
  0
LINE
  5
B4B7
100
AcDbEntity
  8
0
100
AcDbLine
 10
1014.738714
 20
443.385338
 30
0.0
 11
1014.738714
 21
455.109838
 31
0.0
  0
LINE
  5
B4BC
100
AcDbEntity
  8
0
100
AcDbLine
 10
973.826615
 20
442.109838
 30
0.0
 11
973.826615
 21
439.398956
 31
0.0
  0
LINE
  5
B4BD
100
AcDbEntity
  8
0
100
AcDbLine
 10
977.474115
 20
442.109838
 30
0.0
 11
979.683115
 21
443.385338
 31
0.0
  0
ARC
  5
B4BE
100
AcDbEntity
  8
0
100
AcDbCircle
 10
976.218615
 20
448.929592
 30
0.0
 40
6.537699
100
AcDbArc
 50
237.999511
 51
302.000489
  0
LINE
  5
B4BF
100
AcDbEntity
  8
0
100
AcDbLine
 10
973.826615
 20
439.398956
 30
0.0
 11
972.743615
 21
438.315956
 31
0.0
  0
LINE
  5
B4C0
100
AcDbEntity
  8
0
100
AcDbLine
 10
972.754115
 20
443.385338
 30
0.0
 11
972.754115
 21
455.109838
 31
0.0
  0
LINE
  5
B4C1
100
AcDbEntity
  8
0
100
AcDbLine
 10
979.683115
 20
443.385338
 30
0.0
 11
979.683115
 21
455.109838
 31
0.0
  0
LINE
  5
B4C8
100
AcDbEntity
  8
0
100
AcDbLine
 10
1078.327115
 20
458.109838
 30
0.0
 11
1078.327115
 21
485.109838
 31
0.0
  0
ARC
  5
B4C9
100
AcDbEntity
  8
0
100
AcDbCircle
 10
1056.176984
 20
467.045162
 30
0.0
 40
24.653145
100
AcDbArc
 50
253.680185
 51
286.319815
  0
LINE
  5
B4CA
100
AcDbEntity
  8
0
100
AcDbLine
 10
1044.530484
 20
442.109838
 30
0.0
 11
1067.824484
 21
442.109838
 31
0.0
  0
LINE
  5
B4CB
100
AcDbEntity
  8
0
100
AcDbLine
 10
1063.093984
 20
438.315956
 30
0.0
 11
1049.259984
 21
438.315956
 31
0.0
  0
LINE
  5
B4CC
100
AcDbEntity
  8
0
100
AcDbLine
 10
1064.176984
 20
442.109838
 30
0.0
 11
1064.176984
 21
439.398956
 31
0.0
  0
LINE
  5
B4CD
100
AcDbEntity
  8
0
100
AcDbLine
 10
1067.824484
 20
442.109838
 30
0.0
 11
1070.033484
 21
443.385338
 31
0.0
  0
ARC
  5
B4CE
100
AcDbEntity
  8
0
100
AcDbCircle
 10
1066.568984
 20
448.929592
 30
0.0
 40
6.537699
100
AcDbArc
 50
237.999511
 51
302.000489
  0
LINE
  5
B4CF
100
AcDbEntity
  8
0
100
AcDbLine
 10
1064.176984
 20
439.398956
 30
0.0
 11
1063.093984
 21
438.315956
 31
0.0
  0
LINE
  5
B4D0
100
AcDbEntity
  8
0
100
AcDbLine
 10
1048.176984
 20
439.398956
 30
0.0
 11
1048.176984
 21
442.109838
 31
0.0
  0
LINE
  5
B4D1
100
AcDbEntity
  8
0
100
AcDbLine
 10
1049.259984
 20
438.315956
 30
0.0
 11
1048.176984
 21
439.398956
 31
0.0
  0
LINE
  5
B4D2
100
AcDbEntity
  8
0
100
AcDbLine
 10
1042.321484
 20
443.385338
 30
0.0
 11
1044.530484
 21
442.109838
 31
0.0
  0
ARC
  5
B4D3
100
AcDbEntity
  8
0
100
AcDbCircle
 10
1045.785984
 20
448.929592
 30
0.0
 40
6.537699
100
AcDbArc
 50
237.999511
 51
302.000489
  0
LINE
  5
B4D4
100
AcDbEntity
  8
0
100
AcDbLine
 10
1063.104484
 20
443.385338
 30
0.0
 11
1063.104484
 21
455.109838
 31
0.0
  0
LINE
  5
B4D5
100
AcDbEntity
  8
0
100
AcDbLine
 10
1070.033484
 20
443.385338
 30
0.0
 11
1070.033484
 21
455.109838
 31
0.0
  0
LINE
  5
B4D6
100
AcDbEntity
  8
0
100
AcDbLine
 10
1042.321484
 20
455.109838
 30
0.0
 11
1042.321484
 21
443.385338
 31
0.0
  0
LINE
  5
B4D7
100
AcDbEntity
  8
0
100
AcDbLine
 10
1049.249484
 20
443.385338
 30
0.0
 11
1049.249484
 21
455.109838
 31
0.0
  0
LINE
  5
B4D9
100
AcDbEntity
  8
0
100
AcDbLine
 10
1029.666214
 20
442.109838
 30
0.0
 11
1029.666214
 21
439.398956
 31
0.0
  0
LINE
  5
B4DA
100
AcDbEntity
  8
0
100
AcDbLine
 10
1033.313714
 20
442.109838
 30
0.0
 11
1035.522714
 21
443.385338
 31
0.0
  0
ARC
  5
B4DB
100
AcDbEntity
  8
0
100
AcDbCircle
 10
1032.058214
 20
448.929592
 30
0.0
 40
6.537699
100
AcDbArc
 50
237.999511
 51
302.000489
  0
LINE
  5
B4DC
100
AcDbEntity
  8
0
100
AcDbLine
 10
1029.666214
 20
439.398956
 30
0.0
 11
1028.583214
 21
438.315956
 31
0.0
  0
LINE
  5
B4DE
100
AcDbEntity
  8
0
100
AcDbLine
 10
1028.593714
 20
443.385338
 30
0.0
 11
1028.593714
 21
455.109838
 31
0.0
  0
LINE
  5
B4DF
100
AcDbEntity
  8
0
100
AcDbLine
 10
1035.522714
 20
443.385338
 30
0.0
 11
1035.522714
 21
455.109838
 31
0.0
  0
ARC
  5
B4E0
100
AcDbEntity
  8
0
100
AcDbCircle
 10
1075.327115
 20
458.109838
 30
0.0
 40
3.0
100
AcDbArc
 50
270.0
 51
0.0
  0
LINE
  5
B4E1
100
AcDbEntity
  8
0
100
AcDbLine
 10
1050.827115
 20
485.109838
 30
0.0
 11
1050.827115
 21
486.609838
 31
0.0
  0
LINE
  5
B4E2
100
AcDbEntity
  8
0
100
AcDbLine
 10
1078.327115
 20
518.609838
 30
0.0
 11
1078.327115
 21
486.609838
 31
0.0
  0
LINE
  5
B4E3
100
AcDbEntity
  8
0
100
AcDbLine
 10
1202.373129
 20
458.109838
 30
0.0
 11
1202.373129
 21
485.109838
 31
0.0
  0
LINE
  5
B4F6
100
AcDbEntity
  8
0
100
AcDbLine
 10
1229.873129
 20
485.109838
 30
0.0
 11
1229.873129
 21
486.609838
 31
0.0
  0
LINE
  5
B4F7
100
AcDbEntity
  8
0
100
AcDbLine
 10
1202.373129
 20
518.609838
 30
0.0
 11
1202.373129
 21
486.609838
 31
0.0
  0
LINE
  5
B50C
100
AcDbEntity
  8
0
100
AcDbLine
 10
1332.873129
 20
421.109838
 30
0.0
 11
1338.873129
 21
427.109838
 31
0.0
  0
LINE
  5
B510
100
AcDbEntity
  8
0
100
AcDbLine
 10
1338.873129
 20
427.109838
 30
0.0
 11
1338.873129
 21
438.315956
 31
0.0
  0
LINE
  5
B514
100
AcDbEntity
  8
0
100
AcDbLine
 10
1290.873129
 20
427.109838
 30
0.0
 11
1290.873129
 21
438.315956
 31
0.0
  0
LINE
  5
B515
100
AcDbEntity
  8
0
100
AcDbLine
 10
1296.873129
 20
421.109838
 30
0.0
 11
1290.873129
 21
427.109838
 31
0.0
  0
LINE
  5
B51D
100
AcDbEntity
  8
0
100
AcDbLine
 10
1296.873129
 20
421.109838
 30
0.0
 11
1332.873129
 21
421.109838
 31
0.0
  0
LINE
  5
B51E
100
AcDbEntity
  8
0
100
AcDbLine
 10
1427.373129
 20
458.109838
 30
0.0
 11
1427.373129
 21
485.109838
 31
0.0
  0
ARC
  5
B530
100
AcDbEntity
  8
0
100
AcDbCircle
 10
1424.373129
 20
458.109838
 30
0.0
 40
3.0
100
AcDbArc
 50
270.0
 51
0.0
  0
LINE
  5
B541
100
AcDbEntity
  8
0
100
AcDbLine
 10
1427.373129
 20
518.609838
 30
0.0
 11
1427.373129
 21
486.609838
 31
0.0
  0
LINE
  5
B542
100
AcDbEntity
  8
0
100
AcDbLine
 10
1399.873129
 20
485.109838
 30
0.0
 11
1399.873129
 21
486.609838
 31
0.0
  0
LINE
  5
B543
100
AcDbEntity
  8
0
100
AcDbLine
 10
1399.873129
 20
485.109838
 30
0.0
 11
1399.873129
 21
486.609838
 31
0.0
  0
LINE
  5
B548
100
AcDbEntity
  8
0
100
AcDbLine
 10
1229.873129
 20
664.609838
 30
0.0
 11
1399.873129
 21
664.609838
 31
0.0
  0
LINE
  5
B549
100
AcDbEntity
  8
0
100
AcDbLine
 10
1229.873129
 20
639.609838
 30
0.0
 11
1399.873129
 21
639.609838
 31
0.0
  0
LINE
  5
B54A
100
AcDbEntity
  8
0
100
AcDbLine
 10
1229.873129
 20
638.109838
 30
0.0
 11
1399.873129
 21
638.109838
 31
0.0
  0
ARC
  5
B54B
100
AcDbEntity
  8
0
100
AcDbCircle
 10
895.341412
 20
710.509148
 30
0.0
 40
48.0
100
AcDbArc
 50
57.178941
 51
89.942239
  0
ARC
  5
B54C
100
AcDbEntity
  8
0
100
AcDbCircle
 10
951.827115
 20
745.876648
 30
0.0
 40
23.0
100
AcDbArc
 50
108.126204
 51
159.802749
  0
ARC
  5
B54D
100
AcDbEntity
  8
0
100
AcDbCircle
 10
1034.795852
 20
768.609838
 30
0.0
 40
10.0
100
AcDbArc
 50
231.672865
 51
270.0
  0
LINE
  5
B54E
100
AcDbEntity
  8
0
100
AcDbLine
 10
867.327115
 20
758.609838
 30
0.0
 11
865.827115
 21
757.109838
 31
0.0
  0
LINE
  5
B54F
100
AcDbEntity
  8
0
100
AcDbLine
 10
1064.327115
 20
758.609838
 30
0.0
 11
1065.827115
 21
757.109838
 31
0.0
  0
ARC
  5
B550
100
AcDbEntity
  8
0
100
AcDbCircle
 10
1022.827115
 20
703.860466
 30
0.0
 40
6.0
100
AcDbArc
 50
67.11462
 51
180.0
  0
ARC
  5
B551
100
AcDbEntity
  8
0
100
AcDbCircle
 10
1000.827115
 20
726.109838
 30
0.0
 40
16.0
100
AcDbArc
 50
0.0
 51
90.0
  0
LINE
  5
B552
100
AcDbEntity
  8
0
100
AcDbLine
 10
1031.20033
 20
671.315956
 30
0.0
 11
1017.36633
 21
671.315956
 31
0.0
  0
ARC
  5
B553
100
AcDbEntity
  8
0
100
AcDbCircle
 10
1024.28333
 20
625.045162
 30
0.0
 40
24.653145
100
AcDbArc
 50
253.680185
 51
286.319815
  0
LINE
  5
B554
100
AcDbEntity
  8
0
100
AcDbLine
 10
1031.20033
 20
596.315956
 30
0.0
 11
1017.36633
 21
596.315956
 31
0.0
  0
LINE
  5
B555
100
AcDbEntity
  8
0
100
AcDbLine
 10
1012.63683
 20
600.109838
 30
0.0
 11
1035.93083
 21
600.109838
 31
0.0
  0
LINE
  5
B556
100
AcDbEntity
  8
0
100
AcDbLine
 10
1028.583214
 20
523.315956
 30
0.0
 11
1014.749214
 21
523.315956
 31
0.0
  0
LINE
  5
B557
100
AcDbEntity
  8
0
100
AcDbLine
 10
1016.404315
 20
587.068505
 30
0.0
 11
1046.71169
 21
522.074129
 31
0.0
  0
LINE
  5
B558
100
AcDbEntity
  8
0
100
AcDbLine
 10
880.827115
 20
613.109838
 30
0.0
 11
1050.827115
 21
613.109838
 31
0.0
  0
LINE
  5
B559
100
AcDbEntity
  8
0
100
AcDbLine
 10
880.827115
 20
639.609838
 30
0.0
 11
1050.827115
 21
639.609838
 31
0.0
  0
LINE
  5
B55A
100
AcDbEntity
  8
0
100
AcDbLine
 10
880.827115
 20
638.109838
 30
0.0
 11
1050.827115
 21
638.109838
 31
0.0
  0
LINE
  5
B55B
100
AcDbEntity
  8
0
100
AcDbLine
 10
880.827115
 20
664.609838
 30
0.0
 11
1050.827115
 21
664.609838
 31
0.0
  0
LINE
  5
B55C
100
AcDbEntity
  8
0
100
AcDbLine
 10
906.827115
 20
638.109838
 30
0.0
 11
906.827115
 21
639.609838
 31
0.0
  0
LINE
  5
B55D
100
AcDbEntity
  8
0
100
AcDbLine
 10
895.7234
 20
600.109838
 30
0.0
 11
919.0174
 21
600.109838
 31
0.0
  0
ARC
  5
B55E
100
AcDbEntity
  8
0
100
AcDbCircle
 10
907.3699
 20
625.045162
 30
0.0
 40
24.653145
100
AcDbArc
 50
253.680185
 51
286.319815
  0
LINE
  5
B55F
100
AcDbEntity
  8
0
100
AcDbLine
 10
914.2869
 20
596.315956
 30
0.0
 11
900.4529
 21
596.315956
 31
0.0
  0
LINE
  5
B560
100
AcDbEntity
  8
0
100
AcDbLine
 10
916.904016
 20
523.315956
 30
0.0
 11
903.070016
 21
523.315956
 31
0.0
  0
LINE
  5
B561
100
AcDbEntity
  8
0
100
AcDbLine
 10
915.249916
 20
587.068505
 30
0.0
 11
884.94254
 21
522.074129
 31
0.0
  0
LINE
  5
B562
100
AcDbEntity
  8
0
100
AcDbLine
 10
883.476246
 20
522.232956
 30
0.0
 11
882.393246
 21
523.315956
 31
0.0
  0
LINE
  5
B563
100
AcDbEntity
  8
0
100
AcDbLine
 10
901.987016
 20
522.232956
 30
0.0
 11
903.070016
 21
523.315956
 31
0.0
  0
ARC
  5
B564
100
AcDbEntity
  8
0
100
AcDbCircle
 10
879.504694
 20
524.609838
 30
0.0
 40
6.0
100
AcDbArc
 50
311.446882
 51
335.0
  0
LINE
  5
B565
100
AcDbEntity
  8
0
100
AcDbLine
 10
867.476246
 20
522.232956
 30
0.0
 11
868.559246
 21
523.315956
 31
0.0
  0
LINE
  5
B566
100
AcDbEntity
  8
0
100
AcDbLine
 10
882.393246
 20
523.315956
 30
0.0
 11
868.559246
 21
523.315956
 31
0.0
  0
ARC
  5
B567
100
AcDbEntity
  8
0
100
AcDbCircle
 10
896.9789
 20
606.929592
 30
0.0
 40
6.537699
100
AcDbArc
 50
237.999511
 51
302.000489
  0
LINE
  5
B568
100
AcDbEntity
  8
0
100
AcDbLine
 10
899.3699
 20
597.398956
 30
0.0
 11
899.3699
 21
600.109838
 31
0.0
  0
LINE
  5
B569
100
AcDbEntity
  8
0
100
AcDbLine
 10
900.4529
 20
596.315956
 30
0.0
 11
899.3699
 21
597.398956
 31
0.0
  0
LINE
  5
B56A
100
AcDbEntity
  8
0
100
AcDbLine
 10
893.5144
 20
601.385338
 30
0.0
 11
895.7234
 21
600.109838
 31
0.0
  0
LINE
  5
B56B
100
AcDbEntity
  8
0
100
AcDbLine
 10
900.4424
 20
601.385338
 30
0.0
 11
900.4424
 21
613.109838
 31
0.0
  0
LINE
  5
B56C
100
AcDbEntity
  8
0
100
AcDbLine
 10
893.5144
 20
613.109838
 30
0.0
 11
893.5144
 21
601.385338
 31
0.0
  0
LINE
  5
B56D
100
AcDbEntity
  8
0
100
AcDbLine
 10
880.827115
 20
613.109838
 30
0.0
 11
880.827115
 21
638.109838
 31
0.0
  0
LINE
  5
B56E
100
AcDbEntity
  8
0
100
AcDbLine
 10
972.743615
 20
523.315956
 30
0.0
 11
958.909615
 21
523.315956
 31
0.0
  0
LINE
  5
B56F
100
AcDbEntity
  8
0
100
AcDbLine
 10
957.826615
 20
522.232956
 30
0.0
 11
958.909615
 21
523.315956
 31
0.0
  0
LINE
  5
B570
100
AcDbEntity
  8
0
100
AcDbLine
 10
917.987016
 20
522.232956
 30
0.0
 11
916.904016
 21
523.315956
 31
0.0
  0
LINE
  5
B571
100
AcDbEntity
  8
0
100
AcDbLine
 10
1013.666214
 20
522.232956
 30
0.0
 11
1014.749214
 21
523.315956
 31
0.0
  0
LINE
  5
B572
100
AcDbEntity
  8
0
100
AcDbLine
 10
973.826615
 20
522.232956
 30
0.0
 11
972.743615
 21
523.315956
 31
0.0
  0
LINE
  5
B573
100
AcDbEntity
  8
0
100
AcDbLine
 10
954.180115
 20
600.109838
 30
0.0
 11
977.474115
 21
600.109838
 31
0.0
  0
ARC
  5
B574
100
AcDbEntity
  8
0
100
AcDbCircle
 10
965.826615
 20
625.045162
 30
0.0
 40
24.653145
100
AcDbArc
 50
253.680185
 51
286.319815
  0
LINE
  5
B575
100
AcDbEntity
  8
0
100
AcDbLine
 10
972.743615
 20
596.315956
 30
0.0
 11
958.909615
 21
596.315956
 31
0.0
  0
ARC
  5
B576
100
AcDbEntity
  8
0
100
AcDbCircle
 10
955.435615
 20
606.929592
 30
0.0
 40
6.537699
100
AcDbArc
 50
237.999511
 51
302.000489
  0
LINE
  5
B577
100
AcDbEntity
  8
0
100
AcDbLine
 10
957.826615
 20
597.398956
 30
0.0
 11
957.826615
 21
600.109838
 31
0.0
  0
LINE
  5
B578
100
AcDbEntity
  8
0
100
AcDbLine
 10
958.909615
 20
596.315956
 30
0.0
 11
957.826615
 21
597.398956
 31
0.0
  0
LINE
  5
B579
100
AcDbEntity
  8
0
100
AcDbLine
 10
951.971115
 20
601.385338
 30
0.0
 11
954.180115
 21
600.109838
 31
0.0
  0
LINE
  5
B57A
100
AcDbEntity
  8
0
100
AcDbLine
 10
958.899115
 20
601.385338
 30
0.0
 11
958.899115
 21
613.109838
 31
0.0
  0
LINE
  5
B57B
100
AcDbEntity
  8
0
100
AcDbLine
 10
951.971115
 20
613.109838
 30
0.0
 11
951.971115
 21
601.385338
 31
0.0
  0
LINE
  5
B57C
100
AcDbEntity
  8
0
100
AcDbLine
 10
919.0174
 20
600.109838
 30
0.0
 11
921.2264
 21
601.385338
 31
0.0
  0
ARC
  5
B57D
100
AcDbEntity
  8
0
100
AcDbCircle
 10
917.7619
 20
606.929592
 30
0.0
 40
6.537699
100
AcDbArc
 50
237.999511
 51
302.000489
  0
ARC
  5
B57E
100
AcDbEntity
  8
0
100
AcDbCircle
 10
897.12376
 20
595.52087
 30
0.0
 40
20.0
100
AcDbArc
 50
335.0
 51
358.0
  0
LINE
  5
B57F
100
AcDbEntity
  8
0
100
AcDbLine
 10
917.22636
 20
598.109838
 30
0.0
 11
917.111577
 21
594.82288
 31
0.0
  0
LINE
  5
B580
100
AcDbEntity
  8
0
100
AcDbLine
 10
915.3699
 20
600.109838
 30
0.0
 11
915.3699
 21
597.398956
 31
0.0
  0
LINE
  5
B581
100
AcDbEntity
  8
0
100
AcDbLine
 10
915.3699
 20
597.398956
 30
0.0
 11
914.2869
 21
596.315956
 31
0.0
  0
LINE
  5
B582
100
AcDbEntity
  8
0
100
AcDbLine
 10
916.90646
 20
600.109838
 30
0.0
 11
917.22636
 21
598.109838
 31
0.0
  0
LINE
  5
B583
100
AcDbEntity
  8
0
100
AcDbLine
 10
914.2974
 20
601.385338
 30
0.0
 11
914.2974
 21
613.109838
 31
0.0
  0
LINE
  5
B584
100
AcDbEntity
  8
0
100
AcDbLine
 10
921.2264
 20
601.385338
 30
0.0
 11
921.2264
 21
613.109838
 31
0.0
  0
LINE
  5
B585
100
AcDbEntity
  8
0
100
AcDbLine
 10
1016.28333
 20
597.398956
 30
0.0
 11
1016.28333
 21
600.109838
 31
0.0
  0
LINE
  5
B586
100
AcDbEntity
  8
0
100
AcDbLine
 10
1017.36633
 20
596.315956
 30
0.0
 11
1016.28333
 21
597.398956
 31
0.0
  0
LINE
  5
B587
100
AcDbEntity
  8
0
100
AcDbLine
 10
1017.35583
 20
601.385338
 30
0.0
 11
1017.35583
 21
613.109838
 31
0.0
  0
LINE
  5
B588
100
AcDbEntity
  8
0
100
AcDbLine
 10
1014.427871
 20
598.109838
 30
0.0
 11
1014.542654
 21
594.82288
 31
0.0
  0
LINE
  5
B589
100
AcDbEntity
  8
0
100
AcDbLine
 10
1010.42783
 20
601.385338
 30
0.0
 11
1012.63683
 21
600.109838
 31
0.0
  0
LINE
  5
B58A
100
AcDbEntity
  8
0
100
AcDbLine
 10
1014.74777
 20
600.109838
 30
0.0
 11
1014.427871
 21
598.109838
 31
0.0
  0
LINE
  5
B58B
100
AcDbEntity
  8
0
100
AcDbLine
 10
1010.42783
 20
613.109838
 30
0.0
 11
1010.42783
 21
601.385338
 31
0.0
  0
ARC
  5
B58C
100
AcDbEntity
  8
0
100
AcDbCircle
 10
1034.53047
 20
595.52087
 30
0.0
 40
20.0
100
AcDbArc
 50
182.0
 51
205.0
  0
ARC
  5
B58D
100
AcDbEntity
  8
0
100
AcDbCircle
 10
1013.89233
 20
606.929592
 30
0.0
 40
6.537699
100
AcDbArc
 50
237.999511
 51
302.000489
  0
LINE
  5
B58E
100
AcDbEntity
  8
0
100
AcDbLine
 10
973.826615
 20
600.109838
 30
0.0
 11
973.826615
 21
597.398956
 31
0.0
  0
LINE
  5
B58F
100
AcDbEntity
  8
0
100
AcDbLine
 10
973.826615
 20
597.398956
 30
0.0
 11
972.743615
 21
596.315956
 31
0.0
  0
LINE
  5
B590
100
AcDbEntity
  8
0
100
AcDbLine
 10
977.474115
 20
600.109838
 30
0.0
 11
979.683115
 21
601.385338
 31
0.0
  0
ARC
  5
B591
100
AcDbEntity
  8
0
100
AcDbCircle
 10
976.218615
 20
606.929592
 30
0.0
 40
6.537699
100
AcDbArc
 50
237.999511
 51
302.000489
  0
LINE
  5
B592
100
AcDbEntity
  8
0
100
AcDbLine
 10
972.754115
 20
601.385338
 30
0.0
 11
972.754115
 21
613.109838
 31
0.0
  0
LINE
  5
B593
100
AcDbEntity
  8
0
100
AcDbLine
 10
979.683115
 20
601.385338
 30
0.0
 11
979.683115
 21
613.109838
 31
0.0
  0
ARC
  5
B594
100
AcDbEntity
  8
0
100
AcDbCircle
 10
930.827115
 20
726.109838
 30
0.0
 40
16.0
100
AcDbArc
 50
90.0
 51
180.0
  0
LINE
  5
B595
100
AcDbEntity
  8
0
100
AcDbLine
 10
914.827115
 20
684.609838
 30
0.0
 11
912.168339
 21
671.315956
 31
0.0
  0
LINE
  5
B596
100
AcDbEntity
  8
0
100
AcDbLine
 10
914.2869
 20
671.315956
 30
0.0
 11
900.4529
 21
671.315956
 31
0.0
  0
ARC
  5
B597
100
AcDbEntity
  8
0
100
AcDbCircle
 10
899.827115
 20
690.609838
 30
0.0
 40
15.0
100
AcDbArc
 50
0.0
 51
90.0
  0
LINE
  5
B598
100
AcDbEntity
  8
0
100
AcDbLine
 10
880.827115
 20
639.609838
 30
0.0
 11
880.827115
 21
664.609838
 31
0.0
  0
LINE
  5
B599
100
AcDbEntity
  8
0
100
AcDbLine
 10
899.3699
 20
670.232956
 30
0.0
 11
900.4529
 21
671.315956
 31
0.0
  0
LINE
  5
B59A
100
AcDbEntity
  8
0
100
AcDbLine
 10
899.3699
 20
664.609838
 30
0.0
 11
899.3699
 21
670.232956
 31
0.0
  0
LINE
  5
B59B
100
AcDbEntity
  8
0
100
AcDbLine
 10
865.827115
 20
732.109838
 30
0.0
 11
865.827115
 21
757.109838
 31
0.0
  0
LINE
  5
B59C
100
AcDbEntity
  8
0
100
AcDbLine
 10
865.827115
 20
707.109838
 30
0.0
 11
865.827115
 21
732.109838
 31
0.0
  0
LINE
  5
B59D
100
AcDbEntity
  8
0
100
AcDbLine
 10
865.827115
 20
707.109838
 30
0.0
 11
867.327115
 21
705.609838
 31
0.0
  0
LINE
  5
B59E
100
AcDbEntity
  8
0
100
AcDbLine
 10
867.327115
 20
705.609838
 30
0.0
 11
899.827115
 21
705.609838
 31
0.0
  0
CIRCLE
  5
B59F
100
AcDbEntity
  8
0
100
AcDbCircle
 10
958.827115
 20
700.109838
 30
0.0
 40
22.5
  0
LINE
  5
B5A0
100
AcDbEntity
  8
0
100
AcDbLine
 10
1016.827115
 20
684.609838
 30
0.0
 11
1016.827115
 21
703.860466
 31
0.0
  0
LINE
  5
B5A1
100
AcDbEntity
  8
0
100
AcDbLine
 10
972.743615
 20
671.315956
 30
0.0
 11
958.909615
 21
671.315956
 31
0.0
  0
LINE
  5
B5A2
100
AcDbEntity
  8
0
100
AcDbLine
 10
957.826615
 20
670.232956
 30
0.0
 11
958.909615
 21
671.315956
 31
0.0
  0
LINE
  5
B5A3
100
AcDbEntity
  8
0
100
AcDbLine
 10
957.826615
 20
664.609838
 30
0.0
 11
957.826615
 21
670.232956
 31
0.0
  0
LINE
  5
B5A4
100
AcDbEntity
  8
0
100
AcDbLine
 10
914.827115
 20
690.609838
 30
0.0
 11
914.827115
 21
684.609838
 31
0.0
  0
LINE
  5
B5A5
100
AcDbEntity
  8
0
100
AcDbLine
 10
915.3699
 20
670.232956
 30
0.0
 11
914.2869
 21
671.315956
 31
0.0
  0
LINE
  5
B5A6
100
AcDbEntity
  8
0
100
AcDbLine
 10
915.3699
 20
670.232956
 30
0.0
 11
915.3699
 21
664.609838
 31
0.0
  0
LINE
  5
B5A7
100
AcDbEntity
  8
0
100
AcDbLine
 10
1016.28333
 20
670.232956
 30
0.0
 11
1017.36633
 21
671.315956
 31
0.0
  0
LINE
  5
B5A8
100
AcDbEntity
  8
0
100
AcDbLine
 10
1016.827115
 20
684.609838
 30
0.0
 11
1019.485892
 21
671.315956
 31
0.0
  0
LINE
  5
B5A9
100
AcDbEntity
  8
0
100
AcDbLine
 10
1016.28333
 20
664.609838
 30
0.0
 11
1016.28333
 21
670.232956
 31
0.0
  0
LINE
  5
B5AA
100
AcDbEntity
  8
0
100
AcDbLine
 10
973.826615
 20
670.232956
 30
0.0
 11
972.743615
 21
671.315956
 31
0.0
  0
LINE
  5
B5AB
100
AcDbEntity
  8
0
100
AcDbLine
 10
973.826615
 20
670.232956
 30
0.0
 11
973.826615
 21
664.609838
 31
0.0
  0
LINE
  5
B5AC
100
AcDbEntity
  8
0
100
AcDbLine
 10
930.827115
 20
742.109838
 30
0.0
 11
1000.827115
 21
742.109838
 31
0.0
  0
ARC
  5
B5AD
100
AcDbEntity
  8
0
100
AcDbCircle
 10
924.610337
 20
755.888989
 30
0.0
 40
6.0
100
AcDbArc
 50
237.178941
 51
339.802749
  0
LINE
  5
B5AE
100
AcDbEntity
  8
0
100
AcDbLine
 10
1024.827115
 20
638.109838
 30
0.0
 11
1024.827115
 21
639.609838
 31
0.0
  0
LINE
  5
B5AF
100
AcDbEntity
  8
0
100
AcDbLine
 10
1063.093984
 20
523.315956
 30
0.0
 11
1049.259984
 21
523.315956
 31
0.0
  0
LINE
  5
B5B0
100
AcDbEntity
  8
0
100
AcDbLine
 10
1064.176984
 20
522.232956
 30
0.0
 11
1063.093984
 21
523.315956
 31
0.0
  0
LINE
  5
B5B1
100
AcDbEntity
  8
0
100
AcDbLine
 10
1048.176984
 20
522.232956
 30
0.0
 11
1049.259984
 21
523.315956
 31
0.0
  0
ARC
  5
B5B2
100
AcDbEntity
  8
0
100
AcDbCircle
 10
1052.149537
 20
524.609838
 30
0.0
 40
6.0
100
AcDbArc
 50
205.0
 51
228.540377
  0
LINE
  5
B5B3
100
AcDbEntity
  8
0
100
AcDbLine
 10
1029.666214
 20
522.232956
 30
0.0
 11
1028.583214
 21
523.315956
 31
0.0
  0
LINE
  5
B5B4
100
AcDbEntity
  8
0
100
AcDbLine
 10
1050.827115
 20
613.109838
 30
0.0
 11
1050.827115
 21
638.109838
 31
0.0
  0
LINE
  5
B5B5
100
AcDbEntity
  8
0
100
AcDbLine
 10
1035.93083
 20
600.109838
 30
0.0
 11
1038.13983
 21
601.385338
 31
0.0
  0
ARC
  5
B5B6
100
AcDbEntity
  8
0
100
AcDbCircle
 10
1034.67533
 20
606.929592
 30
0.0
 40
6.537699
100
AcDbArc
 50
237.999511
 51
302.000489
  0
LINE
  5
B5B7
100
AcDbEntity
  8
0
100
AcDbLine
 10
1032.28333
 20
600.109838
 30
0.0
 11
1032.28333
 21
597.398956
 31
0.0
  0
LINE
  5
B5B8
100
AcDbEntity
  8
0
100
AcDbLine
 10
1032.28333
 20
597.398956
 30
0.0
 11
1031.20033
 21
596.315956
 31
0.0
  0
LINE
  5
B5B9
100
AcDbEntity
  8
0
100
AcDbLine
 10
1031.21083
 20
601.385338
 30
0.0
 11
1031.21083
 21
613.109838
 31
0.0
  0
LINE
  5
B5BA
100
AcDbEntity
  8
0
100
AcDbLine
 10
1038.13983
 20
601.385338
 30
0.0
 11
1038.13983
 21
613.109838
 31
0.0
  0
LINE
  5
B5C0
100
AcDbEntity
  8
0
100
AcDbLine
 10
1229.873129
 20
613.109838
 30
0.0
 11
1229.873129
 21
638.109838
 31
0.0
  0
LINE
  5
B5C1
100
AcDbEntity
  8
0
100
AcDbLine
 10
1050.827115
 20
639.609838
 30
0.0
 11
1050.827115
 21
664.609838
 31
0.0
  0
LINE
  5
B5C2
100
AcDbEntity
  8
0
100
AcDbLine
 10
1032.28333
 20
670.232956
 30
0.0
 11
1031.20033
 21
671.315956
 31
0.0
  0
LINE
  5
B5C3
100
AcDbEntity
  8
0
100
AcDbLine
 10
1032.28333
 20
670.232956
 30
0.0
 11
1032.28333
 21
664.609838
 31
0.0
  0
LINE
  5
B5C4
100
AcDbEntity
  8
0
100
AcDbLine
 10
1065.827115
 20
732.109838
 30
0.0
 11
1065.827115
 21
757.109838
 31
0.0
  0
LINE
  5
B5C5
100
AcDbEntity
  8
0
100
AcDbLine
 10
1065.827115
 20
732.109838
 30
0.0
 11
1065.827115
 21
707.109838
 31
0.0
  0
LINE
  5
B5C6
100
AcDbEntity
  8
0
100
AcDbLine
 10
1043.827115
 20
705.609838
 30
0.0
 11
1064.327115
 21
705.609838
 31
0.0
  0
LINE
  5
B5C7
100
AcDbEntity
  8
0
100
AcDbLine
 10
1065.827115
 20
707.109838
 30
0.0
 11
1064.327115
 21
705.609838
 31
0.0
  0
ARC
  5
B5C8
100
AcDbEntity
  8
0
100
AcDbCircle
 10
1043.827115
 20
753.609838
 30
0.0
 40
48.0
100
AcDbArc
 50
247.11462
 51
270.0
  0
LINE
  5
B5C9
100
AcDbEntity
  8
0
100
AcDbLine
 10
1229.873129
 20
639.609838
 30
0.0
 11
1229.873129
 21
664.609838
 31
0.0
  0
ARC
  5
B5CA
100
AcDbEntity
  8
0
100
AcDbCircle
 10
998.827115
 20
723.109838
 30
0.0
 40
48.0
100
AcDbArc
 50
51.672865
 51
90.0
  0
LINE
  5
B5CB
100
AcDbEntity
  8
0
100
AcDbLine
 10
895.827115
 20
758.609838
 30
0.0
 11
940.455953
 21
766.885528
 31
0.0
  0
LINE
  5
B5CC
100
AcDbEntity
  8
0
100
AcDbLine
 10
895.827115
 20
758.609838
 30
0.0
 11
867.327115
 21
758.609838
 31
0.0
  0
CIRCLE
  5
B5CD
100
AcDbEntity
  8
0
100
AcDbCircle
 10
965.827115
 20
781.109838
 30
0.0
 40
10.0
  0
LINE
  5
B5CE
100
AcDbEntity
  8
0
100
AcDbLine
 10
965.827115
 20
771.109838
 30
0.0
 11
998.827115
 21
771.109838
 31
0.0
  0
ARC
  5
B5CF
100
AcDbEntity
  8
0
100
AcDbCircle
 10
965.827115
 20
781.109838
 30
0.0
 40
22.0
100
AcDbArc
 50
0.0
 51
197.408908
  0
ARC
  5
B5D0
100
AcDbEntity
  8
0
100
AcDbCircle
 10
965.827115
 20
703.109838
 30
0.0
 40
68.0
100
AcDbArc
 50
90.0
 51
108.126204
  0
ARC
  5
B5D1
100
AcDbEntity
  8
0
100
AcDbCircle
 10
939.109688
 20
772.732542
 30
0.0
 40
6.0
100
AcDbArc
 50
282.966276
 51
17.408908
  0
ARC
  5
B5D2
100
AcDbEntity
  8
0
100
AcDbCircle
 10
995.110569
 20
777.109838
 30
0.0
 40
6.0
100
AcDbArc
 50
195.0
 51
270.0
  0
LINE
  5
B5D3
100
AcDbEntity
  8
0
100
AcDbLine
 10
987.827115
 20
781.109838
 30
0.0
 11
989.315014
 21
775.556924
 31
0.0
  0
LINE
  5
B5D4
100
AcDbEntity
  8
0
100
AcDbLine
 10
1034.795852
 20
758.609838
 30
0.0
 11
1064.327115
 21
758.609838
 31
0.0
  0
ARC
  5
B5D5
100
AcDbEntity
  8
0
100
AcDbCircle
 10
1328.748129
 20
745.917365
 30
0.0
 40
23.0
100
AcDbArc
 50
3.881946
 51
72.041182
  0
ARC
  5
B5D6
100
AcDbEntity
  8
0
100
AcDbCircle
 10
1300.998129
 20
745.917365
 30
0.0
 40
23.0
100
AcDbArc
 50
107.958818
 51
176.118054
  0
CIRCLE
  5
B5D7
100
AcDbEntity
  8
0
100
AcDbCircle
 10
1314.873129
 20
732.109838
 30
0.0
 40
26.5
  0
LINE
  5
B5D8
100
AcDbEntity
  8
0
100
AcDbLine
 10
1373.873129
 20
638.109838
 30
0.0
 11
1373.873129
 21
639.609838
 31
0.0
  0
LINE
  5
B5D9
100
AcDbEntity
  8
0
100
AcDbLine
 10
1246.830344
 20
638.109838
 30
0.0
 11
1246.830344
 21
639.609838
 31
0.0
  0
LINE
  5
B5DD
100
AcDbEntity
  8
0
100
AcDbLine
 10
1264.29593
 20
587.068505
 30
0.0
 11
1234.567628
 21
523.315956
 31
0.0
  0
ARC
  5
B5ED
100
AcDbEntity
  8
0
100
AcDbCircle
 10
1246.169774
 20
595.52087
 30
0.0
 40
20.0
100
AcDbArc
 50
335.0
 51
358.0
  0
LINE
  5
B604
100
AcDbEntity
  8
0
100
AcDbLine
 10
1365.450329
 20
587.068505
 30
0.0
 11
1395.17863
 21
523.315956
 31
0.0
  0
ARC
  5
B61A
100
AcDbEntity
  8
0
100
AcDbCircle
 10
1383.576484
 20
595.52087
 30
0.0
 40
20.0
100
AcDbArc
 50
182.0
 51
205.0
  0
LINE
  5
B62A
100
AcDbEntity
  8
0
100
AcDbLine
 10
1399.873129
 20
613.109838
 30
0.0
 11
1399.873129
 21
638.109838
 31
0.0
  0
ARC
  5
B62B
100
AcDbEntity
  8
0
100
AcDbCircle
 10
1206.073683
 20
702.217892
 30
0.0
 40
60.76523
100
AcDbArc
 50
339.218793
 51
16.805025
  0
LINE
  5
B62C
100
AcDbEntity
  8
0
100
AcDbLine
 10
1251.873129
 20
722.609838
 30
0.0
 11
1251.873129
 21
677.609838
 31
0.0
  0
LINE
  5
B62D
100
AcDbEntity
  8
0
100
AcDbLine
 10
1288.040129
 20
671.315956
 30
0.0
 11
1274.206129
 21
671.315956
 31
0.0
  0
LINE
  5
B62E
100
AcDbEntity
  8
0
100
AcDbLine
 10
1273.123129
 20
670.232956
 30
0.0
 11
1274.206129
 21
671.315956
 31
0.0
  0
LINE
  5
B62F
100
AcDbEntity
  8
0
100
AcDbLine
 10
1273.123129
 20
664.609838
 30
0.0
 11
1273.123129
 21
670.232956
 31
0.0
  0
ARC
  5
B630
100
AcDbEntity
  8
0
100
AcDbCircle
 10
1256.593914
 20
668.609838
 30
0.0
 40
4.0
100
AcDbArc
 50
270.0
 51
348.690068
  0
LINE
  5
B631
100
AcDbEntity
  8
0
100
AcDbLine
 10
1254.290129
 20
671.315956
 30
0.0
 11
1240.456129
 21
671.315956
 31
0.0
  0
LINE
  5
B632
100
AcDbEntity
  8
0
100
AcDbLine
 10
1239.373129
 20
664.609838
 30
0.0
 11
1239.373129
 21
670.232956
 31
0.0
  0
LINE
  5
B633
100
AcDbEntity
  8
0
100
AcDbLine
 10
1239.373129
 20
670.232956
 30
0.0
 11
1240.456129
 21
671.315956
 31
0.0
  0
LINE
  5
B634
100
AcDbEntity
  8
0
100
AcDbLine
 10
1255.373129
 20
670.232956
 30
0.0
 11
1255.373129
 21
664.609838
 31
0.0
  0
LINE
  5
B635
100
AcDbEntity
  8
0
100
AcDbLine
 10
1255.373129
 20
670.232956
 30
0.0
 11
1254.290129
 21
671.315956
 31
0.0
  0
LINE
  5
B636
100
AcDbEntity
  8
0
100
AcDbLine
 10
1251.873129
 20
677.609838
 30
0.0
 11
1258.813718
 21
677.609838
 31
0.0
  0
LINE
  5
B637
100
AcDbEntity
  8
0
100
AcDbLine
 10
1261.75546
 20
674.02149
 30
0.0
 11
1260.516236
 21
667.825374
 31
0.0
  0
ARC
  5
B638
100
AcDbEntity
  8
0
100
AcDbCircle
 10
1258.813718
 20
674.609838
 30
0.0
 40
3.0
100
AcDbArc
 50
348.690068
 51
90.0
  0
LINE
  5
B639
100
AcDbEntity
  8
0
100
AcDbLine
 10
1289.123129
 20
670.232956
 30
0.0
 11
1288.040129
 21
671.315956
 31
0.0
  0
LINE
  5
B63A
100
AcDbEntity
  8
0
100
AcDbLine
 10
1289.123129
 20
670.232956
 30
0.0
 11
1289.123129
 21
664.609838
 31
0.0
  0
ARC
  5
B63B
100
AcDbEntity
  8
0
100
AcDbCircle
 10
1270.069254
 20
748.016094
 30
0.0
 40
8.0
100
AcDbArc
 50
294.110316
 51
356.118054
  0
ARC
  5
B63C
100
AcDbEntity
  8
0
100
AcDbCircle
 10
1279.873129
 20
726.109838
 30
0.0
 40
16.0
100
AcDbArc
 50
114.110316
 51
180.0
  0
LINE
  5
B63D
100
AcDbEntity
  8
0
100
AcDbLine
 10
1263.873129
 20
726.109838
 30
0.0
 11
1263.873129
 21
725.609838
 31
0.0
  0
LINE
  5
B63E
100
AcDbEntity
  8
0
100
AcDbLine
 10
1251.873129
 20
722.609838
 30
0.0
 11
1260.873129
 21
722.609838
 31
0.0
  0
ARC
  5
B63F
100
AcDbEntity
  8
0
100
AcDbCircle
 10
1260.873129
 20
725.609838
 30
0.0
 40
3.0
100
AcDbArc
 50
270.0
 51
0.0
  0
LINE
  5
B640
100
AcDbEntity
  8
0
100
AcDbLine
 10
1377.873129
 20
722.609838
 30
0.0
 11
1377.873129
 21
677.609838
 31
0.0
  0
LINE
  5
B641
100
AcDbEntity
  8
0
100
AcDbLine
 10
1377.873129
 20
722.609838
 30
0.0
 11
1377.873129
 21
677.609838
 31
0.0
  0
ARC
  5
B642
100
AcDbEntity
  8
0
100
AcDbCircle
 10
1423.672576
 20
702.217892
 30
0.0
 40
60.76523
100
AcDbArc
 50
163.194975
 51
200.781207
  0
LINE
  5
B643
100
AcDbEntity
  8
0
100
AcDbLine
 10
1375.456129
 20
671.315956
 30
0.0
 11
1389.290129
 21
671.315956
 31
0.0
  0
LINE
  5
B644
100
AcDbEntity
  8
0
100
AcDbLine
 10
1374.373129
 20
670.232956
 30
0.0
 11
1375.456129
 21
671.315956
 31
0.0
  0
LINE
  5
B645
100
AcDbEntity
  8
0
100
AcDbLine
 10
1374.373129
 20
670.232956
 30
0.0
 11
1374.373129
 21
664.609838
 31
0.0
  0
ARC
  5
B646
100
AcDbEntity
  8
0
100
AcDbCircle
 10
1373.152345
 20
668.609838
 30
0.0
 40
4.0
100
AcDbArc
 50
191.309932
 51
270.0
  0
LINE
  5
B647
100
AcDbEntity
  8
0
100
AcDbLine
 10
1377.873129
 20
677.609838
 30
0.0
 11
1370.932541
 21
677.609838
 31
0.0
  0
LINE
  5
B648
100
AcDbEntity
  8
0
100
AcDbLine
 10
1390.373129
 20
670.232956
 30
0.0
 11
1389.290129
 21
671.315956
 31
0.0
  0
LINE
  5
B649
100
AcDbEntity
  8
0
100
AcDbLine
 10
1390.373129
 20
664.609838
 30
0.0
 11
1390.373129
 21
670.232956
 31
0.0
  0
LINE
  5
B64A
100
AcDbEntity
  8
0
100
AcDbLine
 10
1340.623129
 20
670.232956
 30
0.0
 11
1340.623129
 21
664.609838
 31
0.0
  0
LINE
  5
B64B
100
AcDbEntity
  8
0
100
AcDbLine
 10
1340.623129
 20
670.232956
 30
0.0
 11
1341.706129
 21
671.315956
 31
0.0
  0
LINE
  5
B64C
100
AcDbEntity
  8
0
100
AcDbLine
 10
1356.623129
 20
664.609838
 30
0.0
 11
1356.623129
 21
670.232956
 31
0.0
  0
LINE
  5
B64D
100
AcDbEntity
  8
0
100
AcDbLine
 10
1356.623129
 20
670.232956
 30
0.0
 11
1355.540129
 21
671.315956
 31
0.0
  0
LINE
  5
B64E
100
AcDbEntity
  8
0
100
AcDbLine
 10
1341.706129
 20
671.315956
 30
0.0
 11
1355.540129
 21
671.315956
 31
0.0
  0
LINE
  5
B64F
100
AcDbEntity
  8
0
100
AcDbLine
 10
1367.990799
 20
674.02149
 30
0.0
 11
1368.531906
 21
671.315956
 31
0.0
  0
LINE
  5
B650
100
AcDbEntity
  8
0
100
AcDbLine
 10
1367.990799
 20
674.02149
 30
0.0
 11
1369.230022
 21
667.825374
 31
0.0
  0
ARC
  5
B651
100
AcDbEntity
  8
0
100
AcDbCircle
 10
1370.932541
 20
674.609838
 30
0.0
 40
3.0
100
AcDbArc
 50
90.0
 51
191.309932
  0
LINE
  5
B652
100
AcDbEntity
  8
0
100
AcDbLine
 10
1399.873129
 20
639.609838
 30
0.0
 11
1399.873129
 21
664.609838
 31
0.0
  0
LINE
  5
B653
100
AcDbEntity
  8
0
100
AcDbLine
 10
1377.873129
 20
722.609838
 30
0.0
 11
1368.873129
 21
722.609838
 31
0.0
  0
ARC
  5
B654
100
AcDbEntity
  8
0
100
AcDbCircle
 10
1359.677005
 20
748.016094
 30
0.0
 40
8.0
100
AcDbArc
 50
183.881946
 51
245.889684
  0
ARC
  5
B655
100
AcDbEntity
  8
0
100
AcDbCircle
 10
1349.873129
 20
726.109838
 30
0.0
 40
16.0
100
AcDbArc
 50
0.0
 51
65.889684
  0
LINE
  5
B656
100
AcDbEntity
  8
0
100
AcDbLine
 10
1365.873129
 20
726.109838
 30
0.0
 11
1365.873129
 21
725.609838
 31
0.0
  0
ARC
  5
B657
100
AcDbEntity
  8
0
100
AcDbCircle
 10
1368.873129
 20
725.609838
 30
0.0
 40
3.0
100
AcDbArc
 50
180.0
 51
270.0
  0
LINE
  5
B658
100
AcDbEntity
  8
0
100
AcDbLine
 10
1319.873129
 20
802.856445
 30
0.0
 11
1319.873129
 21
773.657694
 31
0.0
  0
ARC
  5
B659
100
AcDbEntity
  8
0
100
AcDbCircle
 10
1322.873129
 20
773.657694
 30
0.0
 40
3.0
100
AcDbArc
 50
180.0
 51
263.530398
  0
LINE
  5
B65A
100
AcDbEntity
  8
0
100
AcDbLine
 10
1309.873129
 20
802.856445
 30
0.0
 11
1309.873129
 21
773.657694
 31
0.0
  0
ARC
  5
B65B
100
AcDbEntity
  8
0
100
AcDbCircle
 10
1306.873129
 20
773.657694
 30
0.0
 40
3.0
100
AcDbArc
 50
276.469602
 51
0.0
  0
ARC
  5
B65C
100
AcDbEntity
  8
0
100
AcDbCircle
 10
1314.873129
 20
703.109838
 30
0.0
 40
68.0
100
AcDbArc
 50
72.041182
 51
107.958818
  0
LINE
  5
B65D
100
AcDbEntity
  8
0
100
AcDbLine
 10
1309.873129
 20
802.856445
 30
0.0
 11
1319.873129
 21
802.856445
 31
0.0
  0
LINE
  5
B65E
100
AcDbEntity
  8
0
100
AcDbLine
 10
2266.459119
 20
518.609838
 30
0.0
 11
2266.459119
 21
522.232956
 31
0.0
  0
LINE
  5
B65F
100
AcDbEntity
  8
0
100
AcDbLine
 10
2282.459119
 20
522.232956
 30
0.0
 11
2282.459119
 21
518.609838
 31
0.0
  0
LINE
  5
B660
100
AcDbEntity
  8
0
100
AcDbLine
 10
2226.61952
 20
522.232956
 30
0.0
 11
2226.61952
 21
518.609838
 31
0.0
  0
LINE
  5
B661
100
AcDbEntity
  8
0
100
AcDbLine
 10
2210.61952
 20
518.609838
 30
0.0
 11
2210.61952
 21
522.232956
 31
0.0
  0
LINE
  5
B662
100
AcDbEntity
  8
0
100
AcDbLine
 10
2154.779921
 20
518.609838
 30
0.0
 11
2154.779921
 21
522.232956
 31
0.0
  0
LINE
  5
B663
100
AcDbEntity
  8
0
100
AcDbLine
 10
2136.269151
 20
522.232956
 30
0.0
 11
2136.269151
 21
518.609838
 31
0.0
  0
LINE
  5
B664
100
AcDbEntity
  8
0
100
AcDbLine
 10
2170.779921
 20
522.232956
 30
0.0
 11
2170.779921
 21
518.609838
 31
0.0
  0
LINE
  5
B665
100
AcDbEntity
  8
0
100
AcDbLine
 10
2120.269151
 20
518.609838
 30
0.0
 11
2120.269151
 21
522.232956
 31
0.0
  0
LINE
  5
B666
100
AcDbEntity
  8
0
100
AcDbLine
 10
1708.665886
 20
518.609838
 30
0.0
 11
1708.665886
 21
522.232956
 31
0.0
  0
LINE
  5
B667
100
AcDbEntity
  8
0
100
AcDbLine
 10
1724.665886
 20
522.232956
 30
0.0
 11
1724.665886
 21
518.609838
 31
0.0
  0
LINE
  5
B668
100
AcDbEntity
  8
0
100
AcDbLine
 10
1690.522486
 20
518.609838
 30
0.0
 11
1690.522486
 21
522.232956
 31
0.0
  0
LINE
  5
B669
100
AcDbEntity
  8
0
100
AcDbLine
 10
1706.522486
 20
522.232956
 30
0.0
 11
1706.522486
 21
518.609838
 31
0.0
  0
LINE
  5
B66A
100
AcDbEntity
  8
0
100
AcDbLine
 10
1756.165886
 20
518.609838
 30
0.0
 11
1756.165886
 21
522.232956
 31
0.0
  0
LINE
  5
B66B
100
AcDbEntity
  8
0
100
AcDbLine
 10
1772.165886
 20
522.232956
 30
0.0
 11
1772.165886
 21
518.609838
 31
0.0
  0
LINE
  5
B66C
100
AcDbEntity
  8
0
100
AcDbLine
 10
1814.880086
 20
522.232956
 30
0.0
 11
1814.880086
 21
518.609838
 31
0.0
  0
LINE
  5
B66D
100
AcDbEntity
  8
0
100
AcDbLine
 10
1830.880086
 20
518.609838
 30
0.0
 11
1830.880086
 21
522.232956
 31
0.0
  0
LINE
  5
B66E
100
AcDbEntity
  8
0
100
AcDbLine
 10
1880.523486
 20
522.232956
 30
0.0
 11
1880.523486
 21
518.609838
 31
0.0
  0
LINE
  5
B66F
100
AcDbEntity
  8
0
100
AcDbLine
 10
1896.523486
 20
518.609838
 30
0.0
 11
1896.523486
 21
522.232956
 31
0.0
  0
LINE
  5
B670
100
AcDbEntity
  8
0
100
AcDbLine
 10
1862.380086
 20
522.232956
 30
0.0
 11
1862.380086
 21
518.609838
 31
0.0
  0
LINE
  5
B671
100
AcDbEntity
  8
0
100
AcDbLine
 10
1878.380086
 20
518.609838
 30
0.0
 11
1878.380086
 21
522.232956
 31
0.0
  0
LINE
  5
B676
100
AcDbEntity
  8
0
100
AcDbLine
 10
1906.022986
 20
518.609838
 30
0.0
 11
1681.022986
 21
518.609838
 31
0.0
  0
LINE
  5
B677
100
AcDbEntity
  8
0
100
AcDbLine
 10
1906.022986
 20
486.609838
 30
0.0
 11
1681.022986
 21
486.609838
 31
0.0
  0
LINE
  5
B678
100
AcDbEntity
  8
0
100
AcDbLine
 10
1906.022986
 20
485.109838
 30
0.0
 11
1681.022986
 21
485.109838
 31
0.0
  0
LINE
  5
B67C
100
AcDbEntity
  8
0
100
AcDbLine
 10
1681.022986
 20
458.109838
 30
0.0
 11
1681.022986
 21
485.109838
 31
0.0
  0
LINE
  5
B69F
100
AcDbEntity
  8
0
100
AcDbLine
 10
1708.522986
 20
485.109838
 30
0.0
 11
1708.522986
 21
486.609838
 31
0.0
  0
LINE
  5
B6A0
100
AcDbEntity
  8
0
100
AcDbLine
 10
1708.522986
 20
485.109838
 30
0.0
 11
1708.522986
 21
486.609838
 31
0.0
  0
LINE
  5
B6A1
100
AcDbEntity
  8
0
100
AcDbLine
 10
1681.022986
 20
518.609838
 30
0.0
 11
1681.022986
 21
486.609838
 31
0.0
  0
LINE
  5
B6A5
100
AcDbEntity
  8
0
100
AcDbLine
 10
1817.522986
 20
427.109838
 30
0.0
 11
1817.522986
 21
438.315956
 31
0.0
  0
LINE
  5
B6AC
100
AcDbEntity
  8
0
100
AcDbLine
 10
1811.522986
 20
421.109838
 30
0.0
 11
1817.522986
 21
427.109838
 31
0.0
  0
LINE
  5
B6AF
100
AcDbEntity
  8
0
100
AcDbLine
 10
1775.522986
 20
421.109838
 30
0.0
 11
1769.522986
 21
427.109838
 31
0.0
  0
LINE
  5
B6B0
100
AcDbEntity
  8
0
100
AcDbLine
 10
1769.522986
 20
427.109838
 30
0.0
 11
1769.522986
 21
438.315956
 31
0.0
  0
LINE
  5
B6BB
100
AcDbEntity
  8
0
100
AcDbLine
 10
1811.522986
 20
421.109838
 30
0.0
 11
1775.522986
 21
421.109838
 31
0.0
  0
LINE
  5
B6CC
100
AcDbEntity
  8
0
100
AcDbLine
 10
1906.022986
 20
458.109838
 30
0.0
 11
1906.022986
 21
485.109838
 31
0.0
  0
LINE
  5
B6DF
100
AcDbEntity
  8
0
100
AcDbLine
 10
1906.022986
 20
518.609838
 30
0.0
 11
1906.022986
 21
486.609838
 31
0.0
  0
LINE
  5
B6E0
100
AcDbEntity
  8
0
100
AcDbLine
 10
1878.522986
 20
485.109838
 30
0.0
 11
1878.522986
 21
486.609838
 31
0.0
  0
LINE
  5
B6E2
100
AcDbEntity
  8
0
100
AcDbLine
 10
2106.12002
 20
458.109838
 30
0.0
 11
2106.12002
 21
485.109838
 31
0.0
  0
LINE
  5
B6E3
100
AcDbEntity
  8
0
100
AcDbLine
 10
2116.622651
 20
442.109838
 30
0.0
 11
2139.916651
 21
442.109838
 31
0.0
  0
ARC
  5
B6E4
100
AcDbEntity
  8
0
100
AcDbCircle
 10
2138.661151
 20
448.929592
 30
0.0
 40
6.537699
100
AcDbArc
 50
237.999511
 51
302.000489
  0
LINE
  5
B6E5
100
AcDbEntity
  8
0
100
AcDbLine
 10
2135.186151
 20
438.315956
 30
0.0
 11
2121.352151
 21
438.315956
 31
0.0
  0
ARC
  5
B6E6
100
AcDbEntity
  8
0
100
AcDbCircle
 10
2128.269151
 20
467.045162
 30
0.0
 40
24.653145
100
AcDbArc
 50
253.680185
 51
286.319815
  0
LINE
  5
B6E7
100
AcDbEntity
  8
0
100
AcDbLine
 10
2121.341651
 20
443.385338
 30
0.0
 11
2121.341651
 21
455.109838
 31
0.0
  0
LINE
  5
B6E8
100
AcDbEntity
  8
0
100
AcDbLine
 10
2114.413651
 20
455.109838
 30
0.0
 11
2114.413651
 21
443.385338
 31
0.0
  0
LINE
  5
B6E9
100
AcDbEntity
  8
0
100
AcDbLine
 10
2121.352151
 20
438.315956
 30
0.0
 11
2120.269151
 21
439.398956
 31
0.0
  0
ARC
  5
B6EA
100
AcDbEntity
  8
0
100
AcDbCircle
 10
2117.878151
 20
448.929592
 30
0.0
 40
6.537699
100
AcDbArc
 50
237.999511
 51
302.000489
  0
LINE
  5
B6EB
100
AcDbEntity
  8
0
100
AcDbLine
 10
2114.413651
 20
443.385338
 30
0.0
 11
2116.622651
 21
442.109838
 31
0.0
  0
LINE
  5
B6EC
100
AcDbEntity
  8
0
100
AcDbLine
 10
2120.269151
 20
439.398956
 30
0.0
 11
2120.269151
 21
442.109838
 31
0.0
  0
LINE
  5
B6ED
100
AcDbEntity
  8
0
100
AcDbLine
 10
2135.196651
 20
443.385338
 30
0.0
 11
2135.196651
 21
455.109838
 31
0.0
  0
LINE
  5
B6EE
100
AcDbEntity
  8
0
100
AcDbLine
 10
2136.269151
 20
439.398956
 30
0.0
 11
2135.186151
 21
438.315956
 31
0.0
  0
LINE
  5
B6EF
100
AcDbEntity
  8
0
100
AcDbLine
 10
2136.269151
 20
442.109838
 30
0.0
 11
2136.269151
 21
439.398956
 31
0.0
  0
ARC
  5
B6F0
100
AcDbEntity
  8
0
100
AcDbCircle
 10
2109.12002
 20
458.109838
 30
0.0
 40
3.0
100
AcDbArc
 50
180.0
 51
270.0
  0
LINE
  5
B6F2
100
AcDbEntity
  8
0
100
AcDbLine
 10
2176.636421
 20
443.385338
 30
0.0
 11
2176.636421
 21
455.109838
 31
0.0
  0
LINE
  5
B6F3
100
AcDbEntity
  8
0
100
AcDbLine
 10
2174.427421
 20
442.109838
 30
0.0
 11
2176.636421
 21
443.385338
 31
0.0
  0
LINE
  5
B6F4
100
AcDbEntity
  8
0
100
AcDbLine
 10
2169.707421
 20
443.385338
 30
0.0
 11
2169.707421
 21
455.109838
 31
0.0
  0
LINE
  5
B6F5
100
AcDbEntity
  8
0
100
AcDbLine
 10
2170.779921
 20
439.398956
 30
0.0
 11
2169.696921
 21
438.315956
 31
0.0
  0
LINE
  5
B6F6
100
AcDbEntity
  8
0
100
AcDbLine
 10
2170.779921
 20
442.109838
 30
0.0
 11
2170.779921
 21
439.398956
 31
0.0
  0
ARC
  5
B6F7
100
AcDbEntity
  8
0
100
AcDbCircle
 10
2173.171921
 20
448.929592
 30
0.0
 40
6.537699
100
AcDbArc
 50
237.999511
 51
302.000489
  0
LINE
  5
B6FC
100
AcDbEntity
  8
0
100
AcDbLine
 10
2155.852421
 20
443.385338
 30
0.0
 11
2155.852421
 21
455.109838
 31
0.0
  0
LINE
  5
B6FD
100
AcDbEntity
  8
0
100
AcDbLine
 10
2148.924421
 20
455.109838
 30
0.0
 11
2148.924421
 21
443.385338
 31
0.0
  0
LINE
  5
B6FE
100
AcDbEntity
  8
0
100
AcDbLine
 10
2142.125651
 20
443.385338
 30
0.0
 11
2142.125651
 21
455.109838
 31
0.0
  0
LINE
  5
B6FF
100
AcDbEntity
  8
0
100
AcDbLine
 10
2155.862921
 20
438.315956
 30
0.0
 11
2154.779921
 21
439.398956
 31
0.0
  0
ARC
  5
B700
100
AcDbEntity
  8
0
100
AcDbCircle
 10
2152.388921
 20
448.929592
 30
0.0
 40
6.537699
100
AcDbArc
 50
237.999511
 51
302.000489
  0
LINE
  5
B701
100
AcDbEntity
  8
0
100
AcDbLine
 10
2148.924421
 20
443.385338
 30
0.0
 11
2151.133421
 21
442.109838
 31
0.0
  0
LINE
  5
B702
100
AcDbEntity
  8
0
100
AcDbLine
 10
2154.779921
 20
439.398956
 30
0.0
 11
2154.779921
 21
442.109838
 31
0.0
  0
LINE
  5
B703
100
AcDbEntity
  8
0
100
AcDbLine
 10
2139.916651
 20
442.109838
 30
0.0
 11
2142.125651
 21
443.385338
 31
0.0
  0
LINE
  5
B704
100
AcDbEntity
  8
0
100
AcDbLine
 10
2169.696921
 20
438.315956
 30
0.0
 11
2155.862921
 21
438.315956
 31
0.0
  0
ARC
  5
B705
100
AcDbEntity
  8
0
100
AcDbCircle
 10
2162.779921
 20
467.045162
 30
0.0
 40
24.653145
100
AcDbArc
 50
253.680185
 51
286.319815
  0
LINE
  5
B706
100
AcDbEntity
  8
0
100
AcDbLine
 10
2151.133421
 20
442.109838
 30
0.0
 11
2174.427421
 21
442.109838
 31
0.0
  0
LINE
  5
B707
100
AcDbEntity
  8
0
100
AcDbLine
 10
2133.62002
 20
485.109838
 30
0.0
 11
2133.62002
 21
486.609838
 31
0.0
  0
LINE
  5
B708
100
AcDbEntity
  8
0
100
AcDbLine
 10
2106.12002
 20
518.609838
 30
0.0
 11
2106.12002
 21
486.609838
 31
0.0
  0
LINE
  5
B70A
100
AcDbEntity
  8
0
100
AcDbLine
 10
2243.62002
 20
421.109838
 30
0.0
 11
2279.62002
 21
421.109838
 31
0.0
  0
LINE
  5
B711
100
AcDbEntity
  8
0
100
AcDbLine
 10
2232.47602
 20
443.385338
 30
0.0
 11
2232.47602
 21
455.109838
 31
0.0
  0
LINE
  5
B712
100
AcDbEntity
  8
0
100
AcDbLine
 10
2225.54702
 20
443.385338
 30
0.0
 11
2225.54702
 21
455.109838
 31
0.0
  0
LINE
  5
B713
100
AcDbEntity
  8
0
100
AcDbLine
 10
2226.61952
 20
439.398956
 30
0.0
 11
2225.53652
 21
438.315956
 31
0.0
  0
ARC
  5
B714
100
AcDbEntity
  8
0
100
AcDbCircle
 10
2229.01152
 20
448.929592
 30
0.0
 40
6.537699
100
AcDbArc
 50
237.999511
 51
302.000489
  0
LINE
  5
B715
100
AcDbEntity
  8
0
100
AcDbLine
 10
2230.26702
 20
442.109838
 30
0.0
 11
2232.47602
 21
443.385338
 31
0.0
  0
LINE
  5
B716
100
AcDbEntity
  8
0
100
AcDbLine
 10
2226.61952
 20
442.109838
 30
0.0
 11
2226.61952
 21
439.398956
 31
0.0
  0
LINE
  5
B718
100
AcDbEntity
  8
0
100
AcDbLine
 10
2211.69202
 20
443.385338
 30
0.0
 11
2211.69202
 21
455.109838
 31
0.0
  0
LINE
  5
B719
100
AcDbEntity
  8
0
100
AcDbLine
 10
2204.76402
 20
455.109838
 30
0.0
 11
2204.76402
 21
443.385338
 31
0.0
  0
LINE
  5
B71A
100
AcDbEntity
  8
0
100
AcDbLine
 10
2211.70252
 20
438.315956
 30
0.0
 11
2210.61952
 21
439.398956
 31
0.0
  0
ARC
  5
B71B
100
AcDbEntity
  8
0
100
AcDbCircle
 10
2208.22852
 20
448.929592
 30
0.0
 40
6.537699
100
AcDbArc
 50
237.999511
 51
302.000489
  0
LINE
  5
B71C
100
AcDbEntity
  8
0
100
AcDbLine
 10
2204.76402
 20
443.385338
 30
0.0
 11
2206.97302
 21
442.109838
 31
0.0
  0
LINE
  5
B71D
100
AcDbEntity
  8
0
100
AcDbLine
 10
2210.61952
 20
439.398956
 30
0.0
 11
2210.61952
 21
442.109838
 31
0.0
  0
LINE
  5
B71E
100
AcDbEntity
  8
0
100
AcDbLine
 10
2225.53652
 20
438.315956
 30
0.0
 11
2211.70252
 21
438.315956
 31
0.0
  0
LINE
  5
B71F
100
AcDbEntity
  8
0
100
AcDbLine
 10
2206.97302
 20
442.109838
 30
0.0
 11
2230.26702
 21
442.109838
 31
0.0
  0
ARC
  5
B720
100
AcDbEntity
  8
0
100
AcDbCircle
 10
2218.61952
 20
467.045162
 30
0.0
 40
24.653145
100
AcDbArc
 50
253.680185
 51
286.319815
  0
LINE
  5
B721
100
AcDbEntity
  8
0
100
AcDbLine
 10
2288.315619
 20
443.385338
 30
0.0
 11
2288.315619
 21
455.109838
 31
0.0
  0
LINE
  5
B722
100
AcDbEntity
  8
0
100
AcDbLine
 10
2281.386619
 20
443.385338
 30
0.0
 11
2281.386619
 21
455.109838
 31
0.0
  0
LINE
  5
B724
100
AcDbEntity
  8
0
100
AcDbLine
 10
2282.459119
 20
439.398956
 30
0.0
 11
2281.376119
 21
438.315956
 31
0.0
  0
ARC
  5
B725
100
AcDbEntity
  8
0
100
AcDbCircle
 10
2284.851119
 20
448.929592
 30
0.0
 40
6.537699
100
AcDbArc
 50
237.999511
 51
302.000489
  0
LINE
  5
B726
100
AcDbEntity
  8
0
100
AcDbLine
 10
2286.106619
 20
442.109838
 30
0.0
 11
2288.315619
 21
443.385338
 31
0.0
  0
LINE
  5
B727
100
AcDbEntity
  8
0
100
AcDbLine
 10
2282.459119
 20
442.109838
 30
0.0
 11
2282.459119
 21
439.398956
 31
0.0
  0
LINE
  5
B729
100
AcDbEntity
  8
0
100
AcDbLine
 10
2295.114389
 20
455.109838
 30
0.0
 11
2295.114389
 21
443.385338
 31
0.0
  0
LINE
  5
B72A
100
AcDbEntity
  8
0
100
AcDbLine
 10
2295.114389
 20
443.385338
 30
0.0
 11
2297.323389
 21
442.109838
 31
0.0
  0
LINE
  5
B72D
100
AcDbEntity
  8
0
100
AcDbLine
 10
2267.531619
 20
443.385338
 30
0.0
 11
2267.531619
 21
455.109838
 31
0.0
  0
LINE
  5
B72E
100
AcDbEntity
  8
0
100
AcDbLine
 10
2260.603619
 20
455.109838
 30
0.0
 11
2260.603619
 21
443.385338
 31
0.0
  0
LINE
  5
B72F
100
AcDbEntity
  8
0
100
AcDbLine
 10
2267.542119
 20
438.315956
 30
0.0
 11
2266.459119
 21
439.398956
 31
0.0
  0
ARC
  5
B730
100
AcDbEntity
  8
0
100
AcDbCircle
 10
2264.068119
 20
448.929592
 30
0.0
 40
6.537699
100
AcDbArc
 50
237.999511
 51
302.000489
  0
LINE
  5
B731
100
AcDbEntity
  8
0
100
AcDbLine
 10
2260.603619
 20
443.385338
 30
0.0
 11
2262.812619
 21
442.109838
 31
0.0
  0
LINE
  5
B732
100
AcDbEntity
  8
0
100
AcDbLine
 10
2266.459119
 20
439.398956
 30
0.0
 11
2266.459119
 21
442.109838
 31
0.0
  0
LINE
  5
B733
100
AcDbEntity
  8
0
100
AcDbLine
 10
2281.376119
 20
438.315956
 30
0.0
 11
2267.542119
 21
438.315956
 31
0.0
  0
LINE
  5
B734
100
AcDbEntity
  8
0
100
AcDbLine
 10
2262.812619
 20
442.109838
 30
0.0
 11
2286.106619
 21
442.109838
 31
0.0
  0
ARC
  5
B735
100
AcDbEntity
  8
0
100
AcDbCircle
 10
2274.459119
 20
467.045162
 30
0.0
 40
24.653145
100
AcDbArc
 50
253.680185
 51
286.319815
  0
LINE
  5
B738
100
AcDbEntity
  8
0
100
AcDbLine
 10
1863.463086
 20
523.315956
 30
0.0
 11
1877.297086
 21
523.315956
 31
0.0
  0
LINE
  5
B73A
100
AcDbEntity
  8
0
100
AcDbLine
 10
1878.522986
 20
664.609838
 30
0.0
 11
1708.522986
 21
664.609838
 31
0.0
  0
LINE
  5
B73B
100
AcDbEntity
  8
0
100
AcDbLine
 10
1878.522986
 20
639.609838
 30
0.0
 11
1708.522986
 21
639.609838
 31
0.0
  0
LINE
  5
B73C
100
AcDbEntity
  8
0
100
AcDbLine
 10
1878.522986
 20
638.109838
 30
0.0
 11
1708.522986
 21
638.109838
 31
0.0
  0
LINE
  5
B73D
100
AcDbEntity
  8
0
100
AcDbLine
 10
1844.100185
 20
587.068505
 30
0.0
 11
1873.828487
 21
523.315956
 31
0.0
  0
ARC
  5
B73E
100
AcDbEntity
  8
0
100
AcDbCircle
 10
1779.647986
 20
745.917365
 30
0.0
 40
23.0
100
AcDbArc
 50
107.958818
 51
176.118054
  0
ARC
  5
B73F
100
AcDbEntity
  8
0
100
AcDbCircle
 10
1807.397986
 20
745.917365
 30
0.0
 40
23.0
100
AcDbArc
 50
3.881946
 51
72.041182
  0
ARC
  5
B740
100
AcDbEntity
  8
0
100
AcDbCircle
 10
1783.522986
 20
761.980392
 30
0.0
 40
5.0
100
AcDbArc
 50
288.509405
 51
0.0
  0
ARC
  5
B741
100
AcDbEntity
  8
0
100
AcDbCircle
 10
1803.522986
 20
761.980392
 30
0.0
 40
5.0
100
AcDbArc
 50
180.0
 51
251.490595
  0
CIRCLE
  5
B742
100
AcDbEntity
  8
0
100
AcDbCircle
 10
1793.522986
 20
732.109838
 30
0.0
 40
26.5
  0
LINE
  5
B743
100
AcDbEntity
  8
0
100
AcDbLine
 10
1861.565771
 20
638.109838
 30
0.0
 11
1861.565771
 21
639.609838
 31
0.0
  0
LINE
  5
B744
100
AcDbEntity
  8
0
100
AcDbLine
 10
1734.522986
 20
638.109838
 30
0.0
 11
1734.522986
 21
639.609838
 31
0.0
  0
LINE
  5
B748
100
AcDbEntity
  8
0
100
AcDbLine
 10
1771.082886
 20
523.315956
 30
0.0
 11
1757.248886
 21
523.315956
 31
0.0
  0
LINE
  5
B749
100
AcDbEntity
  8
0
100
AcDbLine
 10
1742.945786
 20
587.068505
 30
0.0
 11
1713.217485
 21
523.315956
 31
0.0
  0
LINE
  5
B74A
100
AcDbEntity
  8
0
100
AcDbLine
 10
1723.582886
 20
523.315956
 30
0.0
 11
1709.748886
 21
523.315956
 31
0.0
  0
LINE
  5
B74B
100
AcDbEntity
  8
0
100
AcDbLine
 10
1708.665886
 20
522.232956
 30
0.0
 11
1709.748886
 21
523.315956
 31
0.0
  0
LINE
  5
B74C
100
AcDbEntity
  8
0
100
AcDbLine
 10
1705.439486
 20
523.315956
 30
0.0
 11
1691.605486
 21
523.315956
 31
0.0
  0
LINE
  5
B74D
100
AcDbEntity
  8
0
100
AcDbLine
 10
1690.522486
 20
522.232956
 30
0.0
 11
1691.605486
 21
523.315956
 31
0.0
  0
LINE
  5
B74E
100
AcDbEntity
  8
0
100
AcDbLine
 10
1706.522486
 20
522.232956
 30
0.0
 11
1705.439486
 21
523.315956
 31
0.0
  0
LINE
  5
B74F
100
AcDbEntity
  8
0
100
AcDbLine
 10
1756.165886
 20
522.232956
 30
0.0
 11
1757.248886
 21
523.315956
 31
0.0
  0
LINE
  5
B750
100
AcDbEntity
  8
0
100
AcDbLine
 10
1724.665886
 20
522.232956
 30
0.0
 11
1723.582886
 21
523.315956
 31
0.0
  0
LINE
  5
B751
100
AcDbEntity
  8
0
100
AcDbLine
 10
1708.522986
 20
613.109838
 30
0.0
 11
1708.522986
 21
638.109838
 31
0.0
  0
LINE
  5
B76B
100
AcDbEntity
  8
0
100
AcDbLine
 10
1815.963086
 20
523.315956
 30
0.0
 11
1829.797086
 21
523.315956
 31
0.0
  0
LINE
  5
B76C
100
AcDbEntity
  8
0
100
AcDbLine
 10
1814.880086
 20
522.232956
 30
0.0
 11
1815.963086
 21
523.315956
 31
0.0
  0
LINE
  5
B76D
100
AcDbEntity
  8
0
100
AcDbLine
 10
1772.165886
 20
522.232956
 30
0.0
 11
1771.082886
 21
523.315956
 31
0.0
  0
LINE
  5
B76E
100
AcDbEntity
  8
0
100
AcDbLine
 10
1862.380086
 20
522.232956
 30
0.0
 11
1863.463086
 21
523.315956
 31
0.0
  0
LINE
  5
B76F
100
AcDbEntity
  8
0
100
AcDbLine
 10
1830.880086
 20
522.232956
 30
0.0
 11
1829.797086
 21
523.315956
 31
0.0
  0
LINE
  5
B794
100
AcDbEntity
  8
0
100
AcDbLine
 10
1766.689986
 20
671.315956
 30
0.0
 11
1752.855986
 21
671.315956
 31
0.0
  0
ARC
  5
B795
100
AcDbEntity
  8
0
100
AcDbCircle
 10
1684.723539
 20
702.217892
 30
0.0
 40
60.76523
100
AcDbArc
 50
339.218793
 51
16.805025
  0
LINE
  5
B796
100
AcDbEntity
  8
0
100
AcDbLine
 10
1730.522986
 20
722.609838
 30
0.0
 11
1730.522986
 21
677.609838
 31
0.0
  0
LINE
  5
B797
100
AcDbEntity
  8
0
100
AcDbLine
 10
1730.522986
 20
722.609838
 30
0.0
 11
1730.522986
 21
677.609838
 31
0.0
  0
LINE
  5
B798
100
AcDbEntity
  8
0
100
AcDbLine
 10
1708.522986
 20
639.609838
 30
0.0
 11
1708.522986
 21
664.609838
 31
0.0
  0
LINE
  5
B799
100
AcDbEntity
  8
0
100
AcDbLine
 10
1740.405316
 20
674.02149
 30
0.0
 11
1739.166093
 21
667.825374
 31
0.0
  0
LINE
  5
B79A
100
AcDbEntity
  8
0
100
AcDbLine
 10
1740.405316
 20
674.02149
 30
0.0
 11
1739.864209
 21
671.315956
 31
0.0
  0
LINE
  5
B79B
100
AcDbEntity
  8
0
100
AcDbLine
 10
1751.772986
 20
664.609838
 30
0.0
 11
1751.772986
 21
670.232956
 31
0.0
  0
LINE
  5
B79C
100
AcDbEntity
  8
0
100
AcDbLine
 10
1751.772986
 20
670.232956
 30
0.0
 11
1752.855986
 21
671.315956
 31
0.0
  0
LINE
  5
B79D
100
AcDbEntity
  8
0
100
AcDbLine
 10
1732.939986
 20
671.315956
 30
0.0
 11
1719.105986
 21
671.315956
 31
0.0
  0
LINE
  5
B79E
100
AcDbEntity
  8
0
100
AcDbLine
 10
1734.022986
 20
670.232956
 30
0.0
 11
1732.939986
 21
671.315956
 31
0.0
  0
LINE
  5
B79F
100
AcDbEntity
  8
0
100
AcDbLine
 10
1734.022986
 20
670.232956
 30
0.0
 11
1734.022986
 21
664.609838
 31
0.0
  0
LINE
  5
B7A0
100
AcDbEntity
  8
0
100
AcDbLine
 10
1730.522986
 20
677.609838
 30
0.0
 11
1737.463574
 21
677.609838
 31
0.0
  0
LINE
  5
B7A1
100
AcDbEntity
  8
0
100
AcDbLine
 10
1718.022986
 20
670.232956
 30
0.0
 11
1719.105986
 21
671.315956
 31
0.0
  0
LINE
  5
B7A2
100
AcDbEntity
  8
0
100
AcDbLine
 10
1718.022986
 20
664.609838
 30
0.0
 11
1718.022986
 21
670.232956
 31
0.0
  0
ARC
  5
B7A3
100
AcDbEntity
  8
0
100
AcDbCircle
 10
1737.463574
 20
674.609838
 30
0.0
 40
3.0
100
AcDbArc
 50
348.690068
 51
90.0
  0
ARC
  5
B7A4
100
AcDbEntity
  8
0
100
AcDbCircle
 10
1735.24377
 20
668.609838
 30
0.0
 40
4.0
100
AcDbArc
 50
270.0
 51
348.690068
  0
ARC
  5
B7A5
100
AcDbEntity
  8
0
100
AcDbCircle
 10
1758.522986
 20
726.109838
 30
0.0
 40
16.0
100
AcDbArc
 50
114.110316
 51
180.0
  0
ARC
  5
B7A6
100
AcDbEntity
  8
0
100
AcDbCircle
 10
1739.522986
 20
725.609838
 30
0.0
 40
3.0
100
AcDbArc
 50
270.0
 51
0.0
  0
ARC
  5
B7A7
100
AcDbEntity
  8
0
100
AcDbCircle
 10
1748.71911
 20
748.016094
 30
0.0
 40
8.0
100
AcDbArc
 50
294.110316
 51
356.118054
  0
LINE
  5
B7A8
100
AcDbEntity
  8
0
100
AcDbLine
 10
1742.522986
 20
726.109838
 30
0.0
 11
1742.522986
 21
725.609838
 31
0.0
  0
LINE
  5
B7A9
100
AcDbEntity
  8
0
100
AcDbLine
 10
1730.522986
 20
722.609838
 30
0.0
 11
1739.522986
 21
722.609838
 31
0.0
  0
LINE
  5
B7AA
100
AcDbEntity
  8
0
100
AcDbLine
 10
1856.522986
 20
722.609838
 30
0.0
 11
1856.522986
 21
677.609838
 31
0.0
  0
ARC
  5
B7AB
100
AcDbEntity
  8
0
100
AcDbCircle
 10
1902.322432
 20
702.217892
 30
0.0
 40
60.76523
100
AcDbArc
 50
163.194975
 51
200.781207
  0
LINE
  5
B7AC
100
AcDbEntity
  8
0
100
AcDbLine
 10
1767.772986
 20
670.232956
 30
0.0
 11
1767.772986
 21
664.609838
 31
0.0
  0
LINE
  5
B7AD
100
AcDbEntity
  8
0
100
AcDbLine
 10
1767.772986
 20
670.232956
 30
0.0
 11
1766.689986
 21
671.315956
 31
0.0
  0
ARC
  5
B7AE
100
AcDbEntity
  8
0
100
AcDbCircle
 10
1851.802201
 20
668.609838
 30
0.0
 40
4.0
100
AcDbArc
 50
191.309932
 51
270.0
  0
LINE
  5
B7AF
100
AcDbEntity
  8
0
100
AcDbLine
 10
1846.640655
 20
674.02149
 30
0.0
 11
1847.879879
 21
667.825374
 31
0.0
  0
ARC
  5
B7B0
100
AcDbEntity
  8
0
100
AcDbCircle
 10
1849.582397
 20
674.609838
 30
0.0
 40
3.0
100
AcDbArc
 50
90.0
 51
191.309932
  0
LINE
  5
B7B1
100
AcDbEntity
  8
0
100
AcDbLine
 10
1869.022986
 20
664.609838
 30
0.0
 11
1869.022986
 21
670.232956
 31
0.0
  0
LINE
  5
B7B2
100
AcDbEntity
  8
0
100
AcDbLine
 10
1869.022986
 20
670.232956
 30
0.0
 11
1867.939986
 21
671.315956
 31
0.0
  0
LINE
  5
B7B3
100
AcDbEntity
  8
0
100
AcDbLine
 10
1853.022986
 20
670.232956
 30
0.0
 11
1853.022986
 21
664.609838
 31
0.0
  0
LINE
  5
B7B4
100
AcDbEntity
  8
0
100
AcDbLine
 10
1853.022986
 20
670.232956
 30
0.0
 11
1854.105986
 21
671.315956
 31
0.0
  0
LINE
  5
B7B5
100
AcDbEntity
  8
0
100
AcDbLine
 10
1856.522986
 20
677.609838
 30
0.0
 11
1849.582397
 21
677.609838
 31
0.0
  0
LINE
  5
B7B6
100
AcDbEntity
  8
0
100
AcDbLine
 10
1854.105986
 20
671.315956
 30
0.0
 11
1867.939986
 21
671.315956
 31
0.0
  0
LINE
  5
B7B7
100
AcDbEntity
  8
0
100
AcDbLine
 10
1820.355986
 20
671.315956
 30
0.0
 11
1834.189986
 21
671.315956
 31
0.0
  0
LINE
  5
B7B8
100
AcDbEntity
  8
0
100
AcDbLine
 10
1819.272986
 20
670.232956
 30
0.0
 11
1820.355986
 21
671.315956
 31
0.0
  0
LINE
  5
B7B9
100
AcDbEntity
  8
0
100
AcDbLine
 10
1819.272986
 20
670.232956
 30
0.0
 11
1819.272986
 21
664.609838
 31
0.0
  0
LINE
  5
B7BA
100
AcDbEntity
  8
0
100
AcDbLine
 10
1835.272986
 20
670.232956
 30
0.0
 11
1834.189986
 21
671.315956
 31
0.0
  0
LINE
  5
B7BB
100
AcDbEntity
  8
0
100
AcDbLine
 10
1835.272986
 20
664.609838
 30
0.0
 11
1835.272986
 21
670.232956
 31
0.0
  0
LINE
  5
B7BC
100
AcDbEntity
  8
0
100
AcDbLine
 10
1856.522986
 20
722.609838
 30
0.0
 11
1847.522986
 21
722.609838
 31
0.0
  0
ARC
  5
B7BD
100
AcDbEntity
  8
0
100
AcDbCircle
 10
1838.326861
 20
748.016094
 30
0.0
 40
8.0
100
AcDbArc
 50
183.881946
 51
245.889684
  0
LINE
  5
B7BE
100
AcDbEntity
  8
0
100
AcDbLine
 10
1844.522986
 20
726.109838
 30
0.0
 11
1844.522986
 21
725.609838
 31
0.0
  0
ARC
  5
B7BF
100
AcDbEntity
  8
0
100
AcDbCircle
 10
1828.522986
 20
726.109838
 30
0.0
 40
16.0
100
AcDbArc
 50
0.0
 51
65.889684
  0
ARC
  5
B7C0
100
AcDbEntity
  8
0
100
AcDbCircle
 10
1847.522986
 20
725.609838
 30
0.0
 40
3.0
100
AcDbArc
 50
180.0
 51
270.0
  0
LINE
  5
B7C1
100
AcDbEntity
  8
0
100
AcDbLine
 10
1798.522986
 20
802.856445
 30
0.0
 11
1798.522986
 21
761.980392
 31
0.0
  0
ARC
  5
B7C2
100
AcDbEntity
  8
0
100
AcDbCircle
 10
1801.522986
 20
773.657694
 30
0.0
 40
3.0
100
AcDbArc
 50
180.0
 51
263.530398
  0
ARC
  5
B7C3
100
AcDbEntity
  8
0
100
AcDbCircle
 10
1793.522986
 20
703.109838
 30
0.0
 40
68.0
100
AcDbArc
 50
72.041182
 51
83.530398
  0
ARC
  5
B7C4
100
AcDbEntity
  8
0
100
AcDbCircle
 10
1793.522986
 20
703.109838
 30
0.0
 40
68.0
100
AcDbArc
 50
96.469602
 51
107.958818
  0
ARC
  5
B7C5
100
AcDbEntity
  8
0
100
AcDbCircle
 10
1785.522986
 20
773.657694
 30
0.0
 40
3.0
100
AcDbArc
 50
276.469602
 51
0.0
  0
LINE
  5
B7C6
100
AcDbEntity
  8
0
100
AcDbLine
 10
1788.522986
 20
802.856445
 30
0.0
 11
1788.522986
 21
761.980392
 31
0.0
  0
LINE
  5
B7C7
100
AcDbEntity
  8
0
100
AcDbLine
 10
1798.522986
 20
802.856445
 30
0.0
 11
1788.522986
 21
802.856445
 31
0.0
  0
LINE
  5
B7C8
100
AcDbEntity
  8
0
100
AcDbLine
 10
2126.62002
 20
758.609838
 30
0.0
 11
2126.62002
 21
705.609838
 31
0.0
  0
LINE
  5
B7C9
100
AcDbEntity
  8
0
100
AcDbLine
 10
2118.62002
 20
750.609838
 30
0.0
 11
2126.62002
 21
758.609838
 31
0.0
  0
ARC
  5
B7CA
100
AcDbEntity
  8
0
100
AcDbCircle
 10
2287.588756
 20
768.609838
 30
0.0
 40
10.0
100
AcDbArc
 50
231.672865
 51
270.0
  0
ARC
  5
B7CB
100
AcDbEntity
  8
0
100
AcDbCircle
 10
2204.62002
 20
745.876648
 30
0.0
 40
23.0
100
AcDbArc
 50
108.126204
 51
159.802749
  0
ARC
  5
B7CC
100
AcDbEntity
  8
0
100
AcDbCircle
 10
2148.134317
 20
710.509148
 30
0.0
 40
48.0
100
AcDbArc
 50
57.178941
 51
89.942239
  0
LINE
  5
B7CD
100
AcDbEntity
  8
0
100
AcDbLine
 10
1880.523486
 20
522.232956
 30
0.0
 11
1881.606486
 21
523.315956
 31
0.0
  0
LINE
  5
B7CE
100
AcDbEntity
  8
0
100
AcDbLine
 10
1896.523486
 20
522.232956
 30
0.0
 11
1895.440486
 21
523.315956
 31
0.0
  0
LINE
  5
B7CF
100
AcDbEntity
  8
0
100
AcDbLine
 10
1881.606486
 20
523.315956
 30
0.0
 11
1895.440486
 21
523.315956
 31
0.0
  0
LINE
  5
B7D0
100
AcDbEntity
  8
0
100
AcDbLine
 10
1878.380086
 20
522.232956
 30
0.0
 11
1877.297086
 21
523.315956
 31
0.0
  0
LINE
  5
B7D3
100
AcDbEntity
  8
0
100
AcDbLine
 10
1878.522986
 20
613.109838
 30
0.0
 11
1878.522986
 21
638.109838
 31
0.0
  0
LINE
  5
B7D4
100
AcDbEntity
  8
0
100
AcDbLine
 10
1878.522986
 20
639.609838
 30
0.0
 11
1878.522986
 21
664.609838
 31
0.0
  0
INSERT
  5
B7D5
100
AcDbEntity
  8
0
100
AcDbBlockReference
  2
YA
 10
2079.324162
 20
732.109838
 30
0.0
 41
3.427225
 42
3.427225
 43
3.427225
  0
LINE
  5
B7D6
100
AcDbEntity
  8
0
100
AcDbLine
 10
2277.62002
 20
638.109838
 30
0.0
 11
2277.62002
 21
639.609838
 31
0.0
  0
LINE
  5
B7D7
100
AcDbEntity
  8
0
100
AcDbLine
 10
2159.62002
 20
638.109838
 30
0.0
 11
2159.62002
 21
639.609838
 31
0.0
  0
LINE
  5
B7D8
100
AcDbEntity
  8
0
100
AcDbLine
 10
2168.04282
 20
587.068505
 30
0.0
 11
2137.735445
 21
522.074129
 31
0.0
  0
LINE
  5
B7D9
100
AcDbEntity
  8
0
100
AcDbLine
 10
2135.186151
 20
523.315956
 30
0.0
 11
2121.352151
 21
523.315956
 31
0.0
  0
LINE
  5
B7DA
100
AcDbEntity
  8
0
100
AcDbLine
 10
2120.269151
 20
522.232956
 30
0.0
 11
2121.352151
 21
523.315956
 31
0.0
  0
ARC
  5
B7DB
100
AcDbEntity
  8
0
100
AcDbCircle
 10
2132.297598
 20
524.609838
 30
0.0
 40
6.0
100
AcDbArc
 50
311.446882
 51
335.0
  0
LINE
  5
B7DC
100
AcDbEntity
  8
0
100
AcDbLine
 10
2136.269151
 20
522.232956
 30
0.0
 11
2135.186151
 21
523.315956
 31
0.0
  0
LINE
  5
B7DD
100
AcDbEntity
  8
0
100
AcDbLine
 10
2170.779921
 20
522.232956
 30
0.0
 11
2169.696921
 21
523.315956
 31
0.0
  0
LINE
  5
B7DE
100
AcDbEntity
  8
0
100
AcDbLine
 10
2154.779921
 20
522.232956
 30
0.0
 11
2155.862921
 21
523.315956
 31
0.0
  0
LINE
  5
B7DF
100
AcDbEntity
  8
0
100
AcDbLine
 10
2169.696921
 20
523.315956
 30
0.0
 11
2155.862921
 21
523.315956
 31
0.0
  0
LINE
  5
B7E0
100
AcDbEntity
  8
0
100
AcDbLine
 10
2133.62002
 20
613.109838
 30
0.0
 11
2133.62002
 21
638.109838
 31
0.0
  0
LINE
  5
B7E1
100
AcDbEntity
  8
0
100
AcDbLine
 10
2174.019305
 20
601.385338
 30
0.0
 11
2174.019305
 21
613.109838
 31
0.0
  0
LINE
  5
B7E2
100
AcDbEntity
  8
0
100
AcDbLine
 10
2167.090305
 20
601.385338
 30
0.0
 11
2167.090305
 21
613.109838
 31
0.0
  0
LINE
  5
B7E3
100
AcDbEntity
  8
0
100
AcDbLine
 10
2169.699365
 20
600.109838
 30
0.0
 11
2170.019264
 21
598.109838
 31
0.0
  0
LINE
  5
B7E4
100
AcDbEntity
  8
0
100
AcDbLine
 10
2168.162805
 20
597.398956
 30
0.0
 11
2167.079805
 21
596.315956
 31
0.0
  0
LINE
  5
B7E5
100
AcDbEntity
  8
0
100
AcDbLine
 10
2168.162805
 20
600.109838
 30
0.0
 11
2168.162805
 21
597.398956
 31
0.0
  0
LINE
  5
B7E6
100
AcDbEntity
  8
0
100
AcDbLine
 10
2170.019264
 20
598.109838
 30
0.0
 11
2169.904481
 21
594.82288
 31
0.0
  0
ARC
  5
B7E7
100
AcDbEntity
  8
0
100
AcDbCircle
 10
2149.916664
 20
595.52087
 30
0.0
 40
20.0
100
AcDbArc
 50
335.0
 51
358.0
  0
ARC
  5
B7E8
100
AcDbEntity
  8
0
100
AcDbCircle
 10
2170.554805
 20
606.929592
 30
0.0
 40
6.537699
100
AcDbArc
 50
237.999511
 51
302.000489
  0
LINE
  5
B7E9
100
AcDbEntity
  8
0
100
AcDbLine
 10
2171.810305
 20
600.109838
 30
0.0
 11
2174.019305
 21
601.385338
 31
0.0
  0
LINE
  5
B7EA
100
AcDbEntity
  8
0
100
AcDbLine
 10
2146.307305
 20
613.109838
 30
0.0
 11
2146.307305
 21
601.385338
 31
0.0
  0
LINE
  5
B7EB
100
AcDbEntity
  8
0
100
AcDbLine
 10
2153.235305
 20
601.385338
 30
0.0
 11
2153.235305
 21
613.109838
 31
0.0
  0
LINE
  5
B7EC
100
AcDbEntity
  8
0
100
AcDbLine
 10
2146.307305
 20
601.385338
 30
0.0
 11
2148.516305
 21
600.109838
 31
0.0
  0
LINE
  5
B7ED
100
AcDbEntity
  8
0
100
AcDbLine
 10
2153.245805
 20
596.315956
 30
0.0
 11
2152.162805
 21
597.398956
 31
0.0
  0
LINE
  5
B7EE
100
AcDbEntity
  8
0
100
AcDbLine
 10
2152.162805
 20
597.398956
 30
0.0
 11
2152.162805
 21
600.109838
 31
0.0
  0
ARC
  5
B7EF
100
AcDbEntity
  8
0
100
AcDbCircle
 10
2149.771805
 20
606.929592
 30
0.0
 40
6.537699
100
AcDbArc
 50
237.999511
 51
302.000489
  0
LINE
  5
B7F0
100
AcDbEntity
  8
0
100
AcDbLine
 10
2167.079805
 20
596.315956
 30
0.0
 11
2153.245805
 21
596.315956
 31
0.0
  0
ARC
  5
B7F1
100
AcDbEntity
  8
0
100
AcDbCircle
 10
2160.162805
 20
625.045162
 30
0.0
 40
24.653145
100
AcDbArc
 50
253.680185
 51
286.319815
  0
LINE
  5
B7F2
100
AcDbEntity
  8
0
100
AcDbLine
 10
2148.516305
 20
600.109838
 30
0.0
 11
2171.810305
 21
600.109838
 31
0.0
  0
LINE
  5
B7F3
100
AcDbEntity
  8
0
100
AcDbLine
 10
2226.61952
 20
522.232956
 30
0.0
 11
2225.53652
 21
523.315956
 31
0.0
  0
LINE
  5
B7F4
100
AcDbEntity
  8
0
100
AcDbLine
 10
2210.61952
 20
522.232956
 30
0.0
 11
2211.70252
 21
523.315956
 31
0.0
  0
LINE
  5
B7F5
100
AcDbEntity
  8
0
100
AcDbLine
 10
2225.53652
 20
523.315956
 30
0.0
 11
2211.70252
 21
523.315956
 31
0.0
  0
LINE
  5
B7F6
100
AcDbEntity
  8
0
100
AcDbLine
 10
2282.459119
 20
522.232956
 30
0.0
 11
2281.376119
 21
523.315956
 31
0.0
  0
LINE
  5
B7F7
100
AcDbEntity
  8
0
100
AcDbLine
 10
2266.459119
 20
522.232956
 30
0.0
 11
2267.542119
 21
523.315956
 31
0.0
  0
LINE
  5
B7F8
100
AcDbEntity
  8
0
100
AcDbLine
 10
2281.376119
 20
523.315956
 30
0.0
 11
2267.542119
 21
523.315956
 31
0.0
  0
LINE
  5
B7F9
100
AcDbEntity
  8
0
100
AcDbLine
 10
2232.47602
 20
601.385338
 30
0.0
 11
2232.47602
 21
613.109838
 31
0.0
  0
LINE
  5
B7FA
100
AcDbEntity
  8
0
100
AcDbLine
 10
2225.54702
 20
601.385338
 30
0.0
 11
2225.54702
 21
613.109838
 31
0.0
  0
ARC
  5
B7FB
100
AcDbEntity
  8
0
100
AcDbCircle
 10
2229.01152
 20
606.929592
 30
0.0
 40
6.537699
100
AcDbArc
 50
237.999511
 51
302.000489
  0
LINE
  5
B7FC
100
AcDbEntity
  8
0
100
AcDbLine
 10
2230.26702
 20
600.109838
 30
0.0
 11
2232.47602
 21
601.385338
 31
0.0
  0
LINE
  5
B7FD
100
AcDbEntity
  8
0
100
AcDbLine
 10
2226.61952
 20
597.398956
 30
0.0
 11
2225.53652
 21
596.315956
 31
0.0
  0
LINE
  5
B7FE
100
AcDbEntity
  8
0
100
AcDbLine
 10
2226.61952
 20
600.109838
 30
0.0
 11
2226.61952
 21
597.398956
 31
0.0
  0
LINE
  5
B7FF
100
AcDbEntity
  8
0
100
AcDbLine
 10
2204.76402
 20
613.109838
 30
0.0
 11
2204.76402
 21
601.385338
 31
0.0
  0
LINE
  5
B800
100
AcDbEntity
  8
0
100
AcDbLine
 10
2211.69202
 20
601.385338
 30
0.0
 11
2211.69202
 21
613.109838
 31
0.0
  0
LINE
  5
B801
100
AcDbEntity
  8
0
100
AcDbLine
 10
2204.76402
 20
601.385338
 30
0.0
 11
2206.97302
 21
600.109838
 31
0.0
  0
LINE
  5
B802
100
AcDbEntity
  8
0
100
AcDbLine
 10
2211.70252
 20
596.315956
 30
0.0
 11
2210.61952
 21
597.398956
 31
0.0
  0
LINE
  5
B803
100
AcDbEntity
  8
0
100
AcDbLine
 10
2210.61952
 20
597.398956
 30
0.0
 11
2210.61952
 21
600.109838
 31
0.0
  0
ARC
  5
B804
100
AcDbEntity
  8
0
100
AcDbCircle
 10
2208.22852
 20
606.929592
 30
0.0
 40
6.537699
100
AcDbArc
 50
237.999511
 51
302.000489
  0
LINE
  5
B805
100
AcDbEntity
  8
0
100
AcDbLine
 10
2225.53652
 20
596.315956
 30
0.0
 11
2211.70252
 21
596.315956
 31
0.0
  0
ARC
  5
B806
100
AcDbEntity
  8
0
100
AcDbCircle
 10
2218.61952
 20
625.045162
 30
0.0
 40
24.653145
100
AcDbArc
 50
253.680185
 51
286.319815
  0
LINE
  5
B807
100
AcDbEntity
  8
0
100
AcDbLine
 10
2206.97302
 20
600.109838
 30
0.0
 11
2230.26702
 21
600.109838
 31
0.0
  0
LINE
  5
B808
100
AcDbEntity
  8
0
100
AcDbLine
 10
2290.932734
 20
601.385338
 30
0.0
 11
2290.932734
 21
613.109838
 31
0.0
  0
LINE
  5
B809
100
AcDbEntity
  8
0
100
AcDbLine
 10
2284.003734
 20
601.385338
 30
0.0
 11
2284.003734
 21
613.109838
 31
0.0
  0
LINE
  5
B80A
100
AcDbEntity
  8
0
100
AcDbLine
 10
2285.076234
 20
597.398956
 30
0.0
 11
2283.993234
 21
596.315956
 31
0.0
  0
LINE
  5
B80B
100
AcDbEntity
  8
0
100
AcDbLine
 10
2285.076234
 20
600.109838
 30
0.0
 11
2285.076234
 21
597.398956
 31
0.0
  0
ARC
  5
B80C
100
AcDbEntity
  8
0
100
AcDbCircle
 10
2287.468234
 20
606.929592
 30
0.0
 40
6.537699
100
AcDbArc
 50
237.999511
 51
302.000489
  0
LINE
  5
B80D
100
AcDbEntity
  8
0
100
AcDbLine
 10
2288.723734
 20
600.109838
 30
0.0
 11
2290.932734
 21
601.385338
 31
0.0
  0
ARC
  5
B80E
100
AcDbEntity
  8
0
100
AcDbCircle
 10
2266.685234
 20
606.929592
 30
0.0
 40
6.537699
100
AcDbArc
 50
237.999511
 51
302.000489
  0
ARC
  5
B80F
100
AcDbEntity
  8
0
100
AcDbCircle
 10
2287.323375
 20
595.52087
 30
0.0
 40
20.0
100
AcDbArc
 50
182.0
 51
205.0
  0
LINE
  5
B810
100
AcDbEntity
  8
0
100
AcDbLine
 10
2263.220734
 20
613.109838
 30
0.0
 11
2263.220734
 21
601.385338
 31
0.0
  0
LINE
  5
B811
100
AcDbEntity
  8
0
100
AcDbLine
 10
2267.540674
 20
600.109838
 30
0.0
 11
2267.220775
 21
598.109838
 31
0.0
  0
LINE
  5
B812
100
AcDbEntity
  8
0
100
AcDbLine
 10
2263.220734
 20
601.385338
 30
0.0
 11
2265.429734
 21
600.109838
 31
0.0
  0
LINE
  5
B813
100
AcDbEntity
  8
0
100
AcDbLine
 10
2267.220775
 20
598.109838
 30
0.0
 11
2267.335558
 21
594.82288
 31
0.0
  0
LINE
  5
B814
100
AcDbEntity
  8
0
100
AcDbLine
 10
2270.148734
 20
601.385338
 30
0.0
 11
2270.148734
 21
613.109838
 31
0.0
  0
LINE
  5
B815
100
AcDbEntity
  8
0
100
AcDbLine
 10
2270.159234
 20
596.315956
 30
0.0
 11
2269.076234
 21
597.398956
 31
0.0
  0
LINE
  5
B816
100
AcDbEntity
  8
0
100
AcDbLine
 10
2269.076234
 20
597.398956
 30
0.0
 11
2269.076234
 21
600.109838
 31
0.0
  0
LINE
  5
B817
100
AcDbEntity
  8
0
100
AcDbLine
 10
2265.429734
 20
600.109838
 30
0.0
 11
2288.723734
 21
600.109838
 31
0.0
  0
LINE
  5
B818
100
AcDbEntity
  8
0
100
AcDbLine
 10
2283.993234
 20
596.315956
 30
0.0
 11
2270.159234
 21
596.315956
 31
0.0
  0
ARC
  5
B819
100
AcDbEntity
  8
0
100
AcDbCircle
 10
2277.076234
 20
625.045162
 30
0.0
 40
24.653145
100
AcDbArc
 50
253.680185
 51
286.319815
  0
LINE
  5
B81A
100
AcDbEntity
  8
0
100
AcDbLine
 10
2183.62002
 20
742.109838
 30
0.0
 11
2253.62002
 21
742.109838
 31
0.0
  0
CIRCLE
  5
B81B
100
AcDbEntity
  8
0
100
AcDbCircle
 10
2211.62002
 20
700.109838
 30
0.0
 40
22.5
  0
ARC
  5
B81C
100
AcDbEntity
  8
0
100
AcDbCircle
 10
2152.62002
 20
690.609838
 30
0.0
 40
15.0
100
AcDbArc
 50
0.0
 51
90.0
  0
LINE
  5
B81D
100
AcDbEntity
  8
0
100
AcDbLine
 10
2133.62002
 20
639.609838
 30
0.0
 11
2133.62002
 21
664.609838
 31
0.0
  0
LINE
  5
B81E
100
AcDbEntity
  8
0
100
AcDbLine
 10
2168.162805
 20
670.232956
 30
0.0
 11
2168.162805
 21
664.609838
 31
0.0
  0
LINE
  5
B81F
100
AcDbEntity
  8
0
100
AcDbLine
 10
2168.162805
 20
670.232956
 30
0.0
 11
2167.079805
 21
671.315956
 31
0.0
  0
LINE
  5
B820
100
AcDbEntity
  8
0
100
AcDbLine
 10
2167.62002
 20
690.609838
 30
0.0
 11
2167.62002
 21
684.609838
 31
0.0
  0
LINE
  5
B821
100
AcDbEntity
  8
0
100
AcDbLine
 10
2152.162805
 20
664.609838
 30
0.0
 11
2152.162805
 21
670.232956
 31
0.0
  0
LINE
  5
B822
100
AcDbEntity
  8
0
100
AcDbLine
 10
2152.162805
 20
670.232956
 30
0.0
 11
2153.245805
 21
671.315956
 31
0.0
  0
LINE
  5
B823
100
AcDbEntity
  8
0
100
AcDbLine
 10
2167.079805
 20
671.315956
 30
0.0
 11
2153.245805
 21
671.315956
 31
0.0
  0
LINE
  5
B824
100
AcDbEntity
  8
0
100
AcDbLine
 10
2167.62002
 20
684.609838
 30
0.0
 11
2164.961243
 21
671.315956
 31
0.0
  0
LINE
  5
B825
100
AcDbEntity
  8
0
100
AcDbLine
 10
2126.62002
 20
705.609838
 30
0.0
 11
2152.62002
 21
705.609838
 31
0.0
  0
LINE
  5
B826
100
AcDbEntity
  8
0
100
AcDbLine
 10
2118.62002
 20
713.609838
 30
0.0
 11
2118.62002
 21
732.109838
 31
0.0
  0
LINE
  5
B827
100
AcDbEntity
  8
0
100
AcDbLine
 10
2118.62002
 20
713.609838
 30
0.0
 11
2126.62002
 21
705.609838
 31
0.0
  0
LINE
  5
B828
100
AcDbEntity
  8
0
100
AcDbLine
 10
2118.62002
 20
732.109838
 30
0.0
 11
2118.62002
 21
750.609838
 31
0.0
  0
ARC
  5
B829
100
AcDbEntity
  8
0
100
AcDbCircle
 10
2177.403241
 20
755.888989
 30
0.0
 40
6.0
100
AcDbArc
 50
237.178941
 51
339.802749
  0
ARC
  5
B82A
100
AcDbEntity
  8
0
100
AcDbCircle
 10
2183.62002
 20
726.109838
 30
0.0
 40
16.0
100
AcDbArc
 50
90.0
 51
180.0
  0
LINE
  5
B82B
100
AcDbEntity
  8
0
100
AcDbLine
 10
2269.62002
 20
684.609838
 30
0.0
 11
2269.62002
 21
703.860466
 31
0.0
  0
LINE
  5
B82C
100
AcDbEntity
  8
0
100
AcDbLine
 10
2226.61952
 20
670.232956
 30
0.0
 11
2226.61952
 21
664.609838
 31
0.0
  0
LINE
  5
B82D
100
AcDbEntity
  8
0
100
AcDbLine
 10
2226.61952
 20
670.232956
 30
0.0
 11
2225.53652
 21
671.315956
 31
0.0
  0
LINE
  5
B82E
100
AcDbEntity
  8
0
100
AcDbLine
 10
2210.61952
 20
664.609838
 30
0.0
 11
2210.61952
 21
670.232956
 31
0.0
  0
LINE
  5
B82F
100
AcDbEntity
  8
0
100
AcDbLine
 10
2210.61952
 20
670.232956
 30
0.0
 11
2211.70252
 21
671.315956
 31
0.0
  0
LINE
  5
B830
100
AcDbEntity
  8
0
100
AcDbLine
 10
2225.53652
 20
671.315956
 30
0.0
 11
2211.70252
 21
671.315956
 31
0.0
  0
LINE
  5
B831
100
AcDbEntity
  8
0
100
AcDbLine
 10
2285.076234
 20
670.232956
 30
0.0
 11
2285.076234
 21
664.609838
 31
0.0
  0
LINE
  5
B832
100
AcDbEntity
  8
0
100
AcDbLine
 10
2285.076234
 20
670.232956
 30
0.0
 11
2283.993234
 21
671.315956
 31
0.0
  0
LINE
  5
B833
100
AcDbEntity
  8
0
100
AcDbLine
 10
2269.076234
 20
664.609838
 30
0.0
 11
2269.076234
 21
670.232956
 31
0.0
  0
LINE
  5
B834
100
AcDbEntity
  8
0
100
AcDbLine
 10
2269.62002
 20
684.609838
 30
0.0
 11
2272.278796
 21
671.315956
 31
0.0
  0
LINE
  5
B835
100
AcDbEntity
  8
0
100
AcDbLine
 10
2269.076234
 20
670.232956
 30
0.0
 11
2270.159234
 21
671.315956
 31
0.0
  0
LINE
  5
B836
100
AcDbEntity
  8
0
100
AcDbLine
 10
2283.993234
 20
671.315956
 30
0.0
 11
2270.159234
 21
671.315956
 31
0.0
  0
ARC
  5
B837
100
AcDbEntity
  8
0
100
AcDbCircle
 10
2296.62002
 20
753.609838
 30
0.0
 40
48.0
100
AcDbArc
 50
247.11462
 51
270.0
  0
ARC
  5
B838
100
AcDbEntity
  8
0
100
AcDbCircle
 10
2253.62002
 20
726.109838
 30
0.0
 40
16.0
100
AcDbArc
 50
0.0
 51
90.0
  0
ARC
  5
B839
100
AcDbEntity
  8
0
100
AcDbCircle
 10
2275.62002
 20
703.860466
 30
0.0
 40
6.0
100
AcDbArc
 50
67.11462
 51
180.0
  0
LINE
  5
B83A
100
AcDbEntity
  8
0
100
AcDbLine
 10
2148.62002
 20
758.609838
 30
0.0
 11
2193.248858
 21
766.885528
 31
0.0
  0
LINE
  5
B83B
100
AcDbEntity
  8
0
100
AcDbLine
 10
2148.62002
 20
758.609838
 30
0.0
 11
2126.62002
 21
758.609838
 31
0.0
  0
ARC
  5
B83C
100
AcDbEntity
  8
0
100
AcDbCircle
 10
2247.903473
 20
777.109838
 30
0.0
 40
6.0
100
AcDbArc
 50
195.0
 51
270.0
  0
LINE
  5
B83D
100
AcDbEntity
  8
0
100
AcDbLine
 10
2218.62002
 20
771.109838
 30
0.0
 11
2251.62002
 21
771.109838
 31
0.0
  0
LINE
  5
B83E
100
AcDbEntity
  8
0
100
AcDbLine
 10
2240.62002
 20
781.109838
 30
0.0
 11
2242.107918
 21
775.556924
 31
0.0
  0
ARC
  5
B83F
100
AcDbEntity
  8
0
100
AcDbCircle
 10
2191.902593
 20
772.732542
 30
0.0
 40
6.0
100
AcDbArc
 50
282.966276
 51
17.408908
  0
ARC
  5
B840
100
AcDbEntity
  8
0
100
AcDbCircle
 10
2218.62002
 20
703.109838
 30
0.0
 40
68.0
100
AcDbArc
 50
90.0
 51
108.126204
  0
ARC
  5
B841
100
AcDbEntity
  8
0
100
AcDbCircle
 10
2218.62002
 20
781.109838
 30
0.0
 40
22.0
100
AcDbArc
 50
0.0
 51
197.408908
  0
CIRCLE
  5
B842
100
AcDbEntity
  8
0
100
AcDbCircle
 10
2218.62002
 20
781.109838
 30
0.0
 40
10.0
  0
ARC
  5
B843
100
AcDbEntity
  8
0
100
AcDbCircle
 10
2251.62002
 20
723.109838
 30
0.0
 40
48.0
100
AcDbArc
 50
51.672865
 51
90.0
  0
INSERT
  5
B844
100
AcDbEntity
  8
0
100
AcDbBlockReference
  2
YA
 10
826.531257
 20
1091.13586
 30
0.0
 41
3.427225
 42
3.427225
 43
3.427225
  0
TEXT
  5
B845
100
AcDbEntity
  8
0
100
AcDbText
 10
175.143873
 20
1722.066081
 30
0.0
 40
35.0
  1
背面
100
AcDbText
  0
TEXT
  5
B846
100
AcDbEntity
  8
0
100
AcDbText
 10
175.143873
 20
1091.13586
 30
0.0
 40
35.0
  1
平面
100
AcDbText
  0
LINE
  5
B847
100
AcDbEntity
  8
0
100
AcDbLine
 10
2126.62002
 20
1748.566081
 30
0.0
 11
2126.62002
 21
1695.566081
 31
0.0
  0
LINE
  5
B848
100
AcDbEntity
  8
0
100
AcDbLine
 10
2118.62002
 20
1722.066081
 30
0.0
 11
2118.62002
 21
1740.566081
 31
0.0
  0
LINE
  5
B849
100
AcDbEntity
  8
0
100
AcDbLine
 10
865.827115
 20
1722.066081
 30
0.0
 11
865.827115
 21
1747.066081
 31
0.0
  0
LINE
  5
B84A
100
AcDbEntity
  8
0
100
AcDbLine
 10
1065.827115
 20
1722.066081
 30
0.0
 11
1065.827115
 21
1747.066081
 31
0.0
  0
CIRCLE
  5
B84B
100
AcDbEntity
  8
0
100
AcDbCircle
 10
965.827115
 20
1091.13586
 30
0.0
 40
112.5
  0
ARC
  5
B84C
100
AcDbEntity
  8
0
100
AcDbCircle
 10
1024.28383
 20
1124.88586
 30
0.0
 40
8.0
100
AcDbArc
 50
295.007833
 51
244.992167
  0
CIRCLE
  5
B84D
100
AcDbEntity
  8
0
100
AcDbCircle
 10
1021.666714
 20
1167.992475
 30
0.0
 40
8.0
  0
LINE
  5
B84E
100
AcDbEntity
  8
0
100
AcDbLine
 10
1064.327115
 20
1064.63586
 30
0.0
 11
1009.401764
 21
1064.63586
 31
0.0
  0
LINE
  5
B84F
100
AcDbEntity
  8
0
100
AcDbLine
 10
1064.327115
 20
1117.63586
 30
0.0
 11
1009.401764
 21
1117.63586
 31
0.0
  0
CIRCLE
  5
B850
100
AcDbEntity
  8
0
100
AcDbCircle
 10
1021.666714
 20
1014.279246
 30
0.0
 40
8.0
  0
ARC
  5
B851
100
AcDbEntity
  8
0
100
AcDbCircle
 10
1024.28383
 20
1057.38586
 30
0.0
 40
8.0
100
AcDbArc
 50
115.007833
 51
64.992167
  0
ARC
  5
B852
100
AcDbEntity
  8
0
100
AcDbCircle
 10
965.827115
 20
1091.13586
 30
0.0
 40
85.0
100
AcDbArc
 50
18.165612
 51
161.834388
  0
ARC
  5
B853
100
AcDbEntity
  8
0
100
AcDbCircle
 10
965.827115
 20
1091.13586
 30
0.0
 40
85.0
100
AcDbArc
 50
198.165612
 51
341.834388
  0
LINE
  5
B854
100
AcDbEntity
  8
0
100
AcDbLine
 10
1009.401764
 20
1064.63586
 30
0.0
 11
975.371063
 21
1055.517361
 31
0.0
  0
ARC
  5
B855
100
AcDbEntity
  8
0
100
AcDbCircle
 10
965.827115
 20
1091.13586
 30
0.0
 40
55.0
100
AcDbArc
 50
286.368749
 51
331.195782
  0
ARC
  5
B856
100
AcDbEntity
  8
0
100
AcDbCircle
 10
907.3704
 20
1057.38586
 30
0.0
 40
8.0
100
AcDbArc
 50
115.007833
 51
64.992167
  0
ARC
  5
B857
100
AcDbEntity
  8
0
100
AcDbCircle
 10
875.476746
 20
1061.779246
 30
0.0
 40
8.0
100
AcDbArc
 50
159.079219
 51
20.920781
  0
ARC
  5
B858
100
AcDbEntity
  8
0
100
AcDbCircle
 10
965.827115
 20
1091.13586
 30
0.0
 40
55.0
100
AcDbArc
 50
208.804218
 51
237.563563
  0
ARC
  5
B859
100
AcDbEntity
  8
0
100
AcDbCircle
 10
965.827115
 20
1091.13586
 30
0.0
 40
36.874983
100
AcDbArc
 50
187.792928
 51
285.0
  0
ARC
  5
B85A
100
AcDbEntity
  8
0
100
AcDbCircle
 10
965.827115
 20
1091.13586
 30
0.0
 40
51.0
100
AcDbArc
 50
211.30595
 51
328.69405
  0
CIRCLE
  5
B85B
100
AcDbEntity
  8
0
100
AcDbCircle
 10
909.987516
 20
1014.279246
 30
0.0
 40
8.0
  0
CIRCLE
  5
B85C
100
AcDbEntity
  8
0
100
AcDbCircle
 10
965.827115
 20
996.13586
 30
0.0
 40
8.0
  0
LINE
  5
B85D
100
AcDbEntity
  8
0
100
AcDbLine
 10
981.327115
 20
1028.13586
 30
0.0
 11
936.327115
 21
1028.13586
 31
0.0
  0
ARC
  5
B85E
100
AcDbEntity
  8
0
100
AcDbCircle
 10
965.827115
 20
1023.63586
 30
0.0
 40
8.0
100
AcDbArc
 50
145.771134
 51
34.228866
  0
LINE
  5
B85F
100
AcDbEntity
  8
0
100
AcDbLine
 10
936.327115
 20
1049.533577
 30
0.0
 11
936.327115
 21
1028.13586
 31
0.0
  0
LINE
  5
B860
100
AcDbEntity
  8
0
100
AcDbLine
 10
981.327115
 20
1042.54831
 30
0.0
 11
981.327115
 21
1028.13586
 31
0.0
  0
ARC
  5
B861
100
AcDbEntity
  8
0
100
AcDbCircle
 10
907.3704
 20
1124.88586
 30
0.0
 40
8.0
100
AcDbArc
 50
295.007833
 51
244.992167
  0
CIRCLE
  5
B862
100
AcDbEntity
  8
0
100
AcDbCircle
 10
909.987516
 20
1167.992475
 30
0.0
 40
8.0
  0
LINE
  5
B863
100
AcDbEntity
  8
0
100
AcDbLine
 10
924.880595
 20
1117.63586
 30
0.0
 11
867.327115
 21
1117.63586
 31
0.0
  0
LINE
  5
B864
100
AcDbEntity
  8
0
100
AcDbLine
 10
924.880595
 20
1064.63586
 30
0.0
 11
867.327115
 21
1064.63586
 31
0.0
  0
LINE
  5
B865
100
AcDbEntity
  8
0
100
AcDbLine
 10
984.315014
 20
1096.13586
 30
0.0
 11
900.827115
 21
1096.13586
 31
0.0
  0
LINE
  5
B866
100
AcDbEntity
  8
0
100
AcDbLine
 10
984.315014
 20
1086.13586
 30
0.0
 11
900.827115
 21
1086.13586
 31
0.0
  0
LINE
  5
B867
100
AcDbEntity
  8
0
100
AcDbLine
 10
867.327115
 20
1117.63586
 30
0.0
 11
865.827115
 21
1116.13586
 31
0.0
  0
ARC
  5
B868
100
AcDbEntity
  8
0
100
AcDbCircle
 10
875.476746
 20
1120.492475
 30
0.0
 40
8.0
100
AcDbArc
 50
339.079219
 51
200.920781
  0
ARC
  5
B869
100
AcDbEntity
  8
0
100
AcDbCircle
 10
900.827115
 20
1081.13586
 30
0.0
 40
5.0
100
AcDbArc
 50
90.0
 51
180.0
  0
ARC
  5
B86A
100
AcDbEntity
  8
0
100
AcDbCircle
 10
900.827115
 20
1101.13586
 30
0.0
 40
5.0
100
AcDbArc
 50
180.0
 51
270.0
  0
LINE
  5
B86B
100
AcDbEntity
  8
0
100
AcDbLine
 10
895.827115
 20
1086.13586
 30
0.0
 11
895.827115
 21
1096.13586
 31
0.0
  0
LINE
  5
B86C
100
AcDbEntity
  8
0
100
AcDbLine
 10
865.827115
 20
1091.13586
 30
0.0
 11
865.827115
 21
1116.13586
 31
0.0
  0
LINE
  5
B86D
100
AcDbEntity
  8
0
100
AcDbLine
 10
865.827115
 20
1066.13586
 30
0.0
 11
865.827115
 21
1091.13586
 31
0.0
  0
LINE
  5
B86E
100
AcDbEntity
  8
0
100
AcDbLine
 10
865.827115
 20
1066.13586
 30
0.0
 11
867.327115
 21
1064.63586
 31
0.0
  0
ARC
  5
B86F
100
AcDbEntity
  8
0
100
AcDbCircle
 10
924.880595
 20
1122.63586
 30
0.0
 40
5.0
100
AcDbArc
 50
270.0
 51
0.0
  0
ARC
  5
B870
100
AcDbEntity
  8
0
100
AcDbCircle
 10
965.827115
 20
1091.13586
 30
0.0
 40
36.874983
100
AcDbArc
 50
75.0
 51
172.207072
  0
LINE
  5
B871
100
AcDbEntity
  8
0
100
AcDbLine
 10
943.827115
 20
1086.13586
 30
0.0
 11
943.827115
 21
1096.13586
 31
0.0
  0
ARC
  5
B872
100
AcDbEntity
  8
0
100
AcDbCircle
 10
924.880595
 20
1059.63586
 30
0.0
 40
5.0
100
AcDbArc
 50
0.0
 51
90.0
  0
LINE
  5
B873
100
AcDbEntity
  8
0
100
AcDbLine
 10
989.315014
 20
1081.13586
 30
0.0
 11
989.315014
 21
1076.879875
 31
0.0
  0
LINE
  5
B874
100
AcDbEntity
  8
0
100
AcDbLine
 10
989.315014
 20
1101.13586
 30
0.0
 11
989.315014
 21
1103.709568
 31
0.0
  0
LINE
  5
B875
100
AcDbEntity
  8
0
100
AcDbLine
 10
989.315014
 20
1086.13586
 30
0.0
 11
989.315014
 21
1096.13586
 31
0.0
  0
LINE
  5
B876
100
AcDbEntity
  8
0
100
AcDbLine
 10
1009.401764
 20
1069.67086
 30
0.0
 11
1009.401764
 21
1112.60086
 31
0.0
  0
ARC
  5
B877
100
AcDbEntity
  8
0
100
AcDbCircle
 10
984.315014
 20
1081.13586
 30
0.0
 40
5.0
100
AcDbArc
 50
0.0
 51
90.0
  0
ARC
  5
B878
100
AcDbEntity
  8
0
100
AcDbCircle
 10
984.315014
 20
1101.13586
 30
0.0
 40
5.0
100
AcDbArc
 50
270.0
 51
0.0
  0
ARC
  5
B879
100
AcDbEntity
  8
0
100
AcDbCircle
 10
965.827115
 20
1158.63586
 30
0.0
 40
8.0
100
AcDbArc
 50
325.771134
 51
214.228866
  0
LINE
  5
B87A
100
AcDbEntity
  8
0
100
AcDbLine
 10
981.327115
 20
1154.13586
 30
0.0
 11
936.327115
 21
1154.13586
 31
0.0
  0
ARC
  5
B87B
100
AcDbEntity
  8
0
100
AcDbCircle
 10
965.827115
 20
1091.13586
 30
0.0
 40
51.0
100
AcDbArc
 50
31.30595
 51
148.69405
  0
LINE
  5
B87C
100
AcDbEntity
  8
0
100
AcDbLine
 10
936.327115
 20
1132.738144
 30
0.0
 11
936.327115
 21
1154.13586
 31
0.0
  0
ARC
  5
B87D
100
AcDbEntity
  8
0
100
AcDbCircle
 10
965.827115
 20
1091.13586
 30
0.0
 40
55.0
100
AcDbArc
 50
122.436437
 51
151.195782
  0
LINE
  5
B87E
100
AcDbEntity
  8
0
100
AcDbLine
 10
981.327115
 20
1139.72341
 30
0.0
 11
981.327115
 21
1154.13586
 31
0.0
  0
ARC
  5
B87F
100
AcDbEntity
  8
0
100
AcDbCircle
 10
965.827115
 20
1091.13586
 30
0.0
 40
55.0
100
AcDbArc
 50
28.804218
 51
73.631251
  0
LINE
  5
B880
100
AcDbEntity
  8
0
100
AcDbLine
 10
1009.401764
 20
1117.63586
 30
0.0
 11
975.371063
 21
1126.754359
 31
0.0
  0
ARC
  5
B881
100
AcDbEntity
  8
0
100
AcDbCircle
 10
1056.177484
 20
1061.779246
 30
0.0
 40
8.0
100
AcDbArc
 50
159.079219
 51
20.920781
  0
LINE
  5
B882
100
AcDbEntity
  8
0
100
AcDbLine
 10
1064.327115
 20
1117.63586
 30
0.0
 11
1065.827115
 21
1116.13586
 31
0.0
  0
ARC
  5
B883
100
AcDbEntity
  8
0
100
AcDbCircle
 10
1056.177484
 20
1120.492475
 30
0.0
 40
8.0
100
AcDbArc
 50
339.079219
 51
200.920781
  0
LINE
  5
B884
100
AcDbEntity
  8
0
100
AcDbLine
 10
1065.827115
 20
1066.13586
 30
0.0
 11
1065.827115
 21
1091.13586
 31
0.0
  0
LINE
  5
B885
100
AcDbEntity
  8
0
100
AcDbLine
 10
1064.327115
 20
1064.63586
 30
0.0
 11
1065.827115
 21
1066.13586
 31
0.0
  0
LINE
  5
B886
100
AcDbEntity
  8
0
100
AcDbLine
 10
1065.827115
 20
1091.13586
 30
0.0
 11
1065.827115
 21
1116.13586
 31
0.0
  0
CIRCLE
  5
B887
100
AcDbEntity
  8
0
100
AcDbCircle
 10
965.827115
 20
1186.13586
 30
0.0
 40
8.0
  0
LINE
  5
B888
100
AcDbEntity
  8
0
100
AcDbLine
 10
853.327115
 20
1508.566081
 30
0.0
 11
853.327115
 21
1476.566081
 31
0.0
  0
LINE
  5
B889
100
AcDbEntity
  8
0
100
AcDbLine
 10
1078.327115
 20
1508.566081
 30
0.0
 11
1078.327115
 21
1476.566081
 31
0.0
  0
LINE
  5
B88A
100
AcDbEntity
  8
0
100
AcDbLine
 10
1033.313714
 20
1432.066081
 30
0.0
 11
1010.019714
 21
1432.066081
 31
0.0
  0
ARC
  5
B88B
100
AcDbEntity
  8
0
100
AcDbCircle
 10
1021.667214
 20
1457.001405
 30
0.0
 40
24.653145
100
AcDbArc
 50
253.680185
 51
286.319815
  0
LINE
  5
B88C
100
AcDbEntity
  8
0
100
AcDbLine
 10
1014.750214
 20
1428.272199
 30
0.0
 11
1028.584214
 21
1428.272199
 31
0.0
  0
LINE
  5
B88D
100
AcDbEntity
  8
0
100
AcDbLine
 10
1078.327115
 20
1476.566081
 30
0.0
 11
853.327115
 21
1476.566081
 31
0.0
  0
LINE
  5
B88E
100
AcDbEntity
  8
0
100
AcDbLine
 10
1075.327115
 20
1445.066081
 30
0.0
 11
856.327115
 21
1445.066081
 31
0.0
  0
LINE
  5
B88F
100
AcDbEntity
  8
0
100
AcDbLine
 10
1078.327115
 20
1475.066081
 30
0.0
 11
853.327115
 21
1475.066081
 31
0.0
  0
ARC
  5
B890
100
AcDbEntity
  8
0
100
AcDbCircle
 10
909.988016
 20
1457.001405
 30
0.0
 40
24.653145
100
AcDbArc
 50
253.680185
 51
286.319815
  0
LINE
  5
B891
100
AcDbEntity
  8
0
100
AcDbLine
 10
921.634516
 20
1432.066081
 30
0.0
 11
898.340516
 21
1432.066081
 31
0.0
  0
LINE
  5
B892
100
AcDbEntity
  8
0
100
AcDbLine
 10
903.071016
 20
1428.272199
 30
0.0
 11
916.905016
 21
1428.272199
 31
0.0
  0
LINE
  5
B894
100
AcDbEntity
  8
0
100
AcDbLine
 10
903.060516
 20
1433.341581
 30
0.0
 11
903.060516
 21
1445.066081
 31
0.0
  0
LINE
  5
B895
100
AcDbEntity
  8
0
100
AcDbLine
 10
896.131516
 20
1433.341581
 30
0.0
 11
896.131516
 21
1445.066081
 31
0.0
  0
LINE
  5
B896
100
AcDbEntity
  8
0
100
AcDbLine
 10
868.549746
 20
1433.341581
 30
0.0
 11
868.549746
 21
1445.066081
 31
0.0
  0
LINE
  5
B897
100
AcDbEntity
  8
0
100
AcDbLine
 10
861.620746
 20
1433.341581
 30
0.0
 11
861.620746
 21
1445.066081
 31
0.0
  0
LINE
  5
B898
100
AcDbEntity
  8
0
100
AcDbLine
 10
889.332746
 20
1445.066081
 30
0.0
 11
889.332746
 21
1433.341581
 31
0.0
  0
LINE
  5
B899
100
AcDbEntity
  8
0
100
AcDbLine
 10
882.404746
 20
1433.341581
 30
0.0
 11
882.404746
 21
1445.066081
 31
0.0
  0
LINE
  5
B89B
100
AcDbEntity
  8
0
100
AcDbLine
 10
901.988016
 20
1432.066081
 30
0.0
 11
901.988016
 21
1429.355199
 31
0.0
  0
LINE
  5
B89C
100
AcDbEntity
  8
0
100
AcDbLine
 10
898.340516
 20
1432.066081
 30
0.0
 11
896.131516
 21
1433.341581
 31
0.0
  0
ARC
  5
B89D
100
AcDbEntity
  8
0
100
AcDbCircle
 10
899.596016
 20
1438.885835
 30
0.0
 40
6.537699
100
AcDbArc
 50
237.999511
 51
302.000489
  0
LINE
  5
B89E
100
AcDbEntity
  8
0
100
AcDbLine
 10
901.988016
 20
1429.355199
 30
0.0
 11
903.071016
 21
1428.272199
 31
0.0
  0
LINE
  5
B8A0
100
AcDbEntity
  8
0
100
AcDbLine
 10
883.477246
 20
1429.355199
 30
0.0
 11
883.477246
 21
1432.066081
 31
0.0
  0
LINE
  5
B8A1
100
AcDbEntity
  8
0
100
AcDbLine
 10
882.394246
 20
1428.272199
 30
0.0
 11
883.477246
 21
1429.355199
 31
0.0
  0
LINE
  5
B8A2
100
AcDbEntity
  8
0
100
AcDbLine
 10
889.332746
 20
1433.341581
 30
0.0
 11
887.123746
 21
1432.066081
 31
0.0
  0
ARC
  5
B8A3
100
AcDbEntity
  8
0
100
AcDbCircle
 10
885.868246
 20
1438.885835
 30
0.0
 40
6.537699
100
AcDbArc
 50
237.999511
 51
302.000489
  0
LINE
  5
B8A4
100
AcDbEntity
  8
0
100
AcDbLine
 10
867.477246
 20
1432.066081
 30
0.0
 11
867.477246
 21
1429.355199
 31
0.0
  0
LINE
  5
B8A5
100
AcDbEntity
  8
0
100
AcDbLine
 10
863.829746
 20
1432.066081
 30
0.0
 11
861.620746
 21
1433.341581
 31
0.0
  0
ARC
  5
B8A6
100
AcDbEntity
  8
0
100
AcDbCircle
 10
865.085246
 20
1438.885835
 30
0.0
 40
6.537699
100
AcDbArc
 50
237.999511
 51
302.000489
  0
LINE
  5
B8A7
100
AcDbEntity
  8
0
100
AcDbLine
 10
867.477246
 20
1429.355199
 30
0.0
 11
868.560246
 21
1428.272199
 31
0.0
  0
ARC
  5
B8A8
100
AcDbEntity
  8
0
100
AcDbCircle
 10
875.477246
 20
1457.001405
 30
0.0
 40
24.653145
100
AcDbArc
 50
253.680185
 51
286.319815
  0
LINE
  5
B8A9
100
AcDbEntity
  8
0
100
AcDbLine
 10
887.123746
 20
1432.066081
 30
0.0
 11
863.829746
 21
1432.066081
 31
0.0
  0
LINE
  5
B8AA
100
AcDbEntity
  8
0
100
AcDbLine
 10
868.560246
 20
1428.272199
 30
0.0
 11
882.394246
 21
1428.272199
 31
0.0
  0
ARC
  5
B8AB
100
AcDbEntity
  8
0
100
AcDbCircle
 10
856.327115
 20
1448.066081
 30
0.0
 40
3.0
100
AcDbArc
 50
180.0
 51
270.0
  0
LINE
  5
B8AC
100
AcDbEntity
  8
0
100
AcDbLine
 10
853.327115
 20
1448.066081
 30
0.0
 11
853.327115
 21
1475.066081
 31
0.0
  0
LINE
  5
B8AD
100
AcDbEntity
  8
0
100
AcDbLine
 10
880.827115
 20
1475.066081
 30
0.0
 11
880.827115
 21
1476.566081
 31
0.0
  0
LINE
  5
B8AE
100
AcDbEntity
  8
0
100
AcDbLine
 10
1014.739714
 20
1433.341581
 30
0.0
 11
1014.739714
 21
1445.066081
 31
0.0
  0
LINE
  5
B8AF
100
AcDbEntity
  8
0
100
AcDbLine
 10
1007.810714
 20
1433.341581
 30
0.0
 11
1007.810714
 21
1445.066081
 31
0.0
  0
LINE
  5
B8B0
100
AcDbEntity
  8
0
100
AcDbLine
 10
979.683115
 20
1445.066081
 30
0.0
 11
979.683115
 21
1433.341581
 31
0.0
  0
LINE
  5
B8B1
100
AcDbEntity
  8
0
100
AcDbLine
 10
972.755115
 20
1433.341581
 30
0.0
 11
972.755115
 21
1445.066081
 31
0.0
  0
LINE
  5
B8B2
100
AcDbEntity
  8
0
100
AcDbLine
 10
958.900115
 20
1433.341581
 30
0.0
 11
958.900115
 21
1445.066081
 31
0.0
  0
LINE
  5
B8B3
100
AcDbEntity
  8
0
100
AcDbLine
 10
951.971115
 20
1433.341581
 30
0.0
 11
951.971115
 21
1445.066081
 31
0.0
  0
LINE
  5
B8B4
100
AcDbEntity
  8
0
100
AcDbLine
 10
923.843516
 20
1445.066081
 30
0.0
 11
923.843516
 21
1433.341581
 31
0.0
  0
LINE
  5
B8B5
100
AcDbEntity
  8
0
100
AcDbLine
 10
916.915516
 20
1433.341581
 30
0.0
 11
916.915516
 21
1445.066081
 31
0.0
  0
ARC
  5
B8B7
100
AcDbEntity
  8
0
100
AcDbCircle
 10
965.827615
 20
1457.001405
 30
0.0
 40
24.653145
100
AcDbArc
 50
253.680185
 51
286.319815
  0
LINE
  5
B8B8
100
AcDbEntity
  8
0
100
AcDbLine
 10
977.474115
 20
1432.066081
 30
0.0
 11
954.180115
 21
1432.066081
 31
0.0
  0
LINE
  5
B8B9
100
AcDbEntity
  8
0
100
AcDbLine
 10
958.910615
 20
1428.272199
 30
0.0
 11
972.744615
 21
1428.272199
 31
0.0
  0
LINE
  5
B8BF
100
AcDbEntity
  8
0
100
AcDbLine
 10
957.827615
 20
1432.066081
 30
0.0
 11
957.827615
 21
1429.355199
 31
0.0
  0
LINE
  5
B8C0
100
AcDbEntity
  8
0
100
AcDbLine
 10
954.180115
 20
1432.066081
 30
0.0
 11
951.971115
 21
1433.341581
 31
0.0
  0
ARC
  5
B8C1
100
AcDbEntity
  8
0
100
AcDbCircle
 10
955.435615
 20
1438.885835
 30
0.0
 40
6.537699
100
AcDbArc
 50
237.999511
 51
302.000489
  0
LINE
  5
B8C2
100
AcDbEntity
  8
0
100
AcDbLine
 10
957.827615
 20
1429.355199
 30
0.0
 11
958.910615
 21
1428.272199
 31
0.0
  0
LINE
  5
B8C7
100
AcDbEntity
  8
0
100
AcDbLine
 10
917.988016
 20
1429.355199
 30
0.0
 11
917.988016
 21
1432.066081
 31
0.0
  0
LINE
  5
B8C8
100
AcDbEntity
  8
0
100
AcDbLine
 10
923.843516
 20
1433.341581
 30
0.0
 11
921.634516
 21
1432.066081
 31
0.0
  0
ARC
  5
B8C9
100
AcDbEntity
  8
0
100
AcDbCircle
 10
920.379016
 20
1438.885835
 30
0.0
 40
6.537699
100
AcDbArc
 50
237.999511
 51
302.000489
  0
LINE
  5
B8CA
100
AcDbEntity
  8
0
100
AcDbLine
 10
916.905016
 20
1428.272199
 30
0.0
 11
917.988016
 21
1429.355199
 31
0.0
  0
ARC
  5
B8CC
100
AcDbEntity
  8
0
100
AcDbCircle
 10
1011.275214
 20
1438.885835
 30
0.0
 40
6.537699
100
AcDbArc
 50
237.999511
 51
302.000489
  0
LINE
  5
B8CD
100
AcDbEntity
  8
0
100
AcDbLine
 10
1013.667214
 20
1432.066081
 30
0.0
 11
1013.667214
 21
1429.355199
 31
0.0
  0
LINE
  5
B8CE
100
AcDbEntity
  8
0
100
AcDbLine
 10
1013.667214
 20
1429.355199
 30
0.0
 11
1014.750214
 21
1428.272199
 31
0.0
  0
LINE
  5
B8CF
100
AcDbEntity
  8
0
100
AcDbLine
 10
1010.019714
 20
1432.066081
 30
0.0
 11
1007.810714
 21
1433.341581
 31
0.0
  0
LINE
  5
B8D4
100
AcDbEntity
  8
0
100
AcDbLine
 10
973.827615
 20
1429.355199
 30
0.0
 11
973.827615
 21
1432.066081
 31
0.0
  0
LINE
  5
B8D5
100
AcDbEntity
  8
0
100
AcDbLine
 10
979.683115
 20
1433.341581
 30
0.0
 11
977.474115
 21
1432.066081
 31
0.0
  0
ARC
  5
B8D6
100
AcDbEntity
  8
0
100
AcDbCircle
 10
976.218615
 20
1438.885835
 30
0.0
 40
6.537699
100
AcDbArc
 50
237.999511
 51
302.000489
  0
LINE
  5
B8D7
100
AcDbEntity
  8
0
100
AcDbLine
 10
972.744615
 20
1428.272199
 30
0.0
 11
973.827615
 21
1429.355199
 31
0.0
  0
LINE
  5
B8D9
100
AcDbEntity
  8
0
100
AcDbLine
 10
1049.250484
 20
1433.341581
 30
0.0
 11
1049.250484
 21
1445.066081
 31
0.0
  0
LINE
  5
B8DA
100
AcDbEntity
  8
0
100
AcDbLine
 10
1042.321484
 20
1433.341581
 30
0.0
 11
1042.321484
 21
1445.066081
 31
0.0
  0
LINE
  5
B8DB
100
AcDbEntity
  8
0
100
AcDbLine
 10
1070.033484
 20
1445.066081
 30
0.0
 11
1070.033484
 21
1433.341581
 31
0.0
  0
LINE
  5
B8DC
100
AcDbEntity
  8
0
100
AcDbLine
 10
1063.105484
 20
1433.341581
 30
0.0
 11
1063.105484
 21
1445.066081
 31
0.0
  0
LINE
  5
B8DD
100
AcDbEntity
  8
0
100
AcDbLine
 10
1035.522714
 20
1445.066081
 30
0.0
 11
1035.522714
 21
1433.341581
 31
0.0
  0
LINE
  5
B8DE
100
AcDbEntity
  8
0
100
AcDbLine
 10
1028.594714
 20
1433.341581
 30
0.0
 11
1028.594714
 21
1445.066081
 31
0.0
  0
ARC
  5
B8DF
100
AcDbEntity
  8
0
100
AcDbCircle
 10
1056.177984
 20
1457.001405
 30
0.0
 40
24.653145
100
AcDbArc
 50
253.680185
 51
286.319815
  0
LINE
  5
B8E0
100
AcDbEntity
  8
0
100
AcDbLine
 10
1067.824484
 20
1432.066081
 30
0.0
 11
1044.530484
 21
1432.066081
 31
0.0
  0
LINE
  5
B8E1
100
AcDbEntity
  8
0
100
AcDbLine
 10
1049.260984
 20
1428.272199
 30
0.0
 11
1063.094984
 21
1428.272199
 31
0.0
  0
LINE
  5
B8E2
100
AcDbEntity
  8
0
100
AcDbLine
 10
1064.177984
 20
1429.355199
 30
0.0
 11
1064.177984
 21
1432.066081
 31
0.0
  0
LINE
  5
B8E3
100
AcDbEntity
  8
0
100
AcDbLine
 10
1070.033484
 20
1433.341581
 30
0.0
 11
1067.824484
 21
1432.066081
 31
0.0
  0
ARC
  5
B8E4
100
AcDbEntity
  8
0
100
AcDbCircle
 10
1066.568984
 20
1438.885835
 30
0.0
 40
6.537699
100
AcDbArc
 50
237.999511
 51
302.000489
  0
LINE
  5
B8E5
100
AcDbEntity
  8
0
100
AcDbLine
 10
1063.094984
 20
1428.272199
 30
0.0
 11
1064.177984
 21
1429.355199
 31
0.0
  0
LINE
  5
B8E6
100
AcDbEntity
  8
0
100
AcDbLine
 10
1048.177984
 20
1432.066081
 30
0.0
 11
1048.177984
 21
1429.355199
 31
0.0
  0
LINE
  5
B8E7
100
AcDbEntity
  8
0
100
AcDbLine
 10
1044.530484
 20
1432.066081
 30
0.0
 11
1042.321484
 21
1433.341581
 31
0.0
  0
ARC
  5
B8E8
100
AcDbEntity
  8
0
100
AcDbCircle
 10
1045.785984
 20
1438.885835
 30
0.0
 40
6.537699
100
AcDbArc
 50
237.999511
 51
302.000489
  0
LINE
  5
B8E9
100
AcDbEntity
  8
0
100
AcDbLine
 10
1048.177984
 20
1429.355199
 30
0.0
 11
1049.260984
 21
1428.272199
 31
0.0
  0
LINE
  5
B8EA
100
AcDbEntity
  8
0
100
AcDbLine
 10
1029.667214
 20
1429.355199
 30
0.0
 11
1029.667214
 21
1432.066081
 31
0.0
  0
LINE
  5
B8EB
100
AcDbEntity
  8
0
100
AcDbLine
 10
1035.522714
 20
1433.341581
 30
0.0
 11
1033.313714
 21
1432.066081
 31
0.0
  0
ARC
  5
B8EC
100
AcDbEntity
  8
0
100
AcDbCircle
 10
1032.058214
 20
1438.885835
 30
0.0
 40
6.537699
100
AcDbArc
 50
237.999511
 51
302.000489
  0
LINE
  5
B8ED
100
AcDbEntity
  8
0
100
AcDbLine
 10
1028.584214
 20
1428.272199
 30
0.0
 11
1029.667214
 21
1429.355199
 31
0.0
  0
LINE
  5
B8EE
100
AcDbEntity
  8
0
100
AcDbLine
 10
1050.827115
 20
1475.066081
 30
0.0
 11
1050.827115
 21
1476.566081
 31
0.0
  0
ARC
  5
B8EF
100
AcDbEntity
  8
0
100
AcDbCircle
 10
1075.327115
 20
1448.066081
 30
0.0
 40
3.0
100
AcDbArc
 50
270.0
 51
0.0
  0
LINE
  5
B8F0
100
AcDbEntity
  8
0
100
AcDbLine
 10
1078.327115
 20
1448.066081
 30
0.0
 11
1078.327115
 21
1475.066081
 31
0.0
  0
ARC
  5
B8F1
100
AcDbEntity
  8
0
100
AcDbCircle
 10
1000.827115
 20
1716.066081
 30
0.0
 40
16.0
100
AcDbArc
 50
0.0
 51
90.0
  0
ARC
  5
B8F2
100
AcDbEntity
  8
0
100
AcDbCircle
 10
1031.827115
 20
1680.566081
 30
0.0
 40
15.0
100
AcDbArc
 50
90.0
 51
180.0
  0
LINE
  5
B8F3
100
AcDbEntity
  8
0
100
AcDbLine
 10
1017.36733
 20
1661.272199
 30
0.0
 11
1031.20133
 21
1661.272199
 31
0.0
  0
LINE
  5
B8F4
100
AcDbEntity
  8
0
100
AcDbLine
 10
1035.93083
 20
1590.066081
 30
0.0
 11
1012.63683
 21
1590.066081
 31
0.0
  0
ARC
  5
B8F5
100
AcDbEntity
  8
0
100
AcDbCircle
 10
1024.28433
 20
1615.001405
 30
0.0
 40
24.653145
100
AcDbArc
 50
253.680185
 51
286.319815
  0
LINE
  5
B8F6
100
AcDbEntity
  8
0
100
AcDbLine
 10
1017.36733
 20
1586.272199
 30
0.0
 11
1031.20133
 21
1586.272199
 31
0.0
  0
LINE
  5
B8F7
100
AcDbEntity
  8
0
100
AcDbLine
 10
1014.750214
 20
1513.272199
 30
0.0
 11
1028.584214
 21
1513.272199
 31
0.0
  0
LINE
  5
B8F8
100
AcDbEntity
  8
0
100
AcDbLine
 10
1016.404315
 20
1577.024748
 30
0.0
 11
1046.71169
 21
1512.030371
 31
0.0
  0
LINE
  5
B8F9
100
AcDbEntity
  8
0
100
AcDbLine
 10
1050.827115
 20
1603.066081
 30
0.0
 11
880.827115
 21
1603.066081
 31
0.0
  0
LINE
  5
B8FA
100
AcDbEntity
  8
0
100
AcDbLine
 10
1050.827115
 20
1629.566081
 30
0.0
 11
880.827115
 21
1629.566081
 31
0.0
  0
LINE
  5
B8FB
100
AcDbEntity
  8
0
100
AcDbLine
 10
1050.827115
 20
1628.066081
 30
0.0
 11
880.827115
 21
1628.066081
 31
0.0
  0
LINE
  5
B8FC
100
AcDbEntity
  8
0
100
AcDbLine
 10
1050.827115
 20
1654.566081
 30
0.0
 11
880.827115
 21
1654.566081
 31
0.0
  0
LINE
  5
B8FD
100
AcDbEntity
  8
0
100
AcDbLine
 10
1078.327115
 20
1508.566081
 30
0.0
 11
853.327115
 21
1508.566081
 31
0.0
  0
LINE
  5
B8FE
100
AcDbEntity
  8
0
100
AcDbLine
 10
880.827115
 20
1603.066081
 30
0.0
 11
880.827115
 21
1628.066081
 31
0.0
  0
ARC
  5
B8FF
100
AcDbEntity
  8
0
100
AcDbCircle
 10
907.3709
 20
1615.001405
 30
0.0
 40
24.653145
100
AcDbArc
 50
253.680185
 51
286.319815
  0
LINE
  5
B900
100
AcDbEntity
  8
0
100
AcDbLine
 10
900.4539
 20
1586.272199
 30
0.0
 11
914.2879
 21
1586.272199
 31
0.0
  0
LINE
  5
B901
100
AcDbEntity
  8
0
100
AcDbLine
 10
919.0174
 20
1590.066081
 30
0.0
 11
895.7234
 21
1590.066081
 31
0.0
  0
LINE
  5
B902
100
AcDbEntity
  8
0
100
AcDbLine
 10
903.071016
 20
1513.272199
 30
0.0
 11
916.905016
 21
1513.272199
 31
0.0
  0
LINE
  5
B903
100
AcDbEntity
  8
0
100
AcDbLine
 10
915.249916
 20
1577.024748
 30
0.0
 11
884.94254
 21
1512.030371
 31
0.0
  0
LINE
  5
B904
100
AcDbEntity
  8
0
100
AcDbLine
 10
901.988016
 20
1512.189199
 30
0.0
 11
903.071016
 21
1513.272199
 31
0.0
  0
LINE
  5
B905
100
AcDbEntity
  8
0
100
AcDbLine
 10
901.988016
 20
1512.189199
 30
0.0
 11
901.988016
 21
1508.566081
 31
0.0
  0
LINE
  5
B906
100
AcDbEntity
  8
0
100
AcDbLine
 10
883.477246
 20
1512.189199
 30
0.0
 11
882.394246
 21
1513.272199
 31
0.0
  0
ARC
  5
B907
100
AcDbEntity
  8
0
100
AcDbCircle
 10
879.504694
 20
1514.566081
 30
0.0
 40
6.0
100
AcDbArc
 50
311.459623
 51
335.0
  0
LINE
  5
B908
100
AcDbEntity
  8
0
100
AcDbLine
 10
883.477246
 20
1508.566081
 30
0.0
 11
883.477246
 21
1512.189199
 31
0.0
  0
LINE
  5
B909
100
AcDbEntity
  8
0
100
AcDbLine
 10
867.477246
 20
1512.189199
 30
0.0
 11
868.560246
 21
1513.272199
 31
0.0
  0
LINE
  5
B90A
100
AcDbEntity
  8
0
100
AcDbLine
 10
867.477246
 20
1512.189199
 30
0.0
 11
867.477246
 21
1508.566081
 31
0.0
  0
LINE
  5
B90B
100
AcDbEntity
  8
0
100
AcDbLine
 10
868.560246
 20
1513.272199
 30
0.0
 11
882.394246
 21
1513.272199
 31
0.0
  0
LINE
  5
B90C
100
AcDbEntity
  8
0
100
AcDbLine
 10
895.7234
 20
1590.066081
 30
0.0
 11
893.5144
 21
1591.341581
 31
0.0
  0
ARC
  5
B90D
100
AcDbEntity
  8
0
100
AcDbCircle
 10
896.9789
 20
1596.885835
 30
0.0
 40
6.537699
100
AcDbArc
 50
237.999511
 51
302.000489
  0
LINE
  5
B90E
100
AcDbEntity
  8
0
100
AcDbLine
 10
899.3709
 20
1590.066081
 30
0.0
 11
899.3709
 21
1587.355199
 31
0.0
  0
LINE
  5
B90F
100
AcDbEntity
  8
0
100
AcDbLine
 10
899.3709
 20
1587.355199
 30
0.0
 11
900.4539
 21
1586.272199
 31
0.0
  0
LINE
  5
B910
100
AcDbEntity
  8
0
100
AcDbLine
 10
900.4434
 20
1591.341581
 30
0.0
 11
900.4434
 21
1603.066081
 31
0.0
  0
LINE
  5
B911
100
AcDbEntity
  8
0
100
AcDbLine
 10
893.5144
 20
1591.341581
 30
0.0
 11
893.5144
 21
1603.066081
 31
0.0
  0
LINE
  5
B912
100
AcDbEntity
  8
0
100
AcDbLine
 10
958.910615
 20
1513.272199
 30
0.0
 11
972.744615
 21
1513.272199
 31
0.0
  0
LINE
  5
B913
100
AcDbEntity
  8
0
100
AcDbLine
 10
957.827615
 20
1512.189199
 30
0.0
 11
958.910615
 21
1513.272199
 31
0.0
  0
LINE
  5
B914
100
AcDbEntity
  8
0
100
AcDbLine
 10
957.827615
 20
1512.189199
 30
0.0
 11
957.827615
 21
1508.566081
 31
0.0
  0
LINE
  5
B915
100
AcDbEntity
  8
0
100
AcDbLine
 10
917.988016
 20
1512.189199
 30
0.0
 11
916.905016
 21
1513.272199
 31
0.0
  0
LINE
  5
B916
100
AcDbEntity
  8
0
100
AcDbLine
 10
917.988016
 20
1508.566081
 30
0.0
 11
917.988016
 21
1512.189199
 31
0.0
  0
LINE
  5
B917
100
AcDbEntity
  8
0
100
AcDbLine
 10
1013.667214
 20
1512.189199
 30
0.0
 11
1014.750214
 21
1513.272199
 31
0.0
  0
LINE
  5
B918
100
AcDbEntity
  8
0
100
AcDbLine
 10
1013.667214
 20
1512.189199
 30
0.0
 11
1013.667214
 21
1508.566081
 31
0.0
  0
LINE
  5
B919
100
AcDbEntity
  8
0
100
AcDbLine
 10
973.827615
 20
1512.189199
 30
0.0
 11
972.744615
 21
1513.272199
 31
0.0
  0
LINE
  5
B91A
100
AcDbEntity
  8
0
100
AcDbLine
 10
973.827615
 20
1508.566081
 30
0.0
 11
973.827615
 21
1512.189199
 31
0.0
  0
LINE
  5
B91B
100
AcDbEntity
  8
0
100
AcDbLine
 10
977.474115
 20
1590.066081
 30
0.0
 11
954.180115
 21
1590.066081
 31
0.0
  0
ARC
  5
B91C
100
AcDbEntity
  8
0
100
AcDbCircle
 10
965.827615
 20
1615.001405
 30
0.0
 40
24.653145
100
AcDbArc
 50
253.680185
 51
286.319815
  0
LINE
  5
B91D
100
AcDbEntity
  8
0
100
AcDbLine
 10
958.910615
 20
1586.272199
 30
0.0
 11
972.744615
 21
1586.272199
 31
0.0
  0
LINE
  5
B91E
100
AcDbEntity
  8
0
100
AcDbLine
 10
957.827615
 20
1590.066081
 30
0.0
 11
957.827615
 21
1587.355199
 31
0.0
  0
LINE
  5
B91F
100
AcDbEntity
  8
0
100
AcDbLine
 10
957.827615
 20
1587.355199
 30
0.0
 11
958.910615
 21
1586.272199
 31
0.0
  0
LINE
  5
B920
100
AcDbEntity
  8
0
100
AcDbLine
 10
954.180115
 20
1590.066081
 30
0.0
 11
951.971115
 21
1591.341581
 31
0.0
  0
ARC
  5
B921
100
AcDbEntity
  8
0
100
AcDbCircle
 10
955.435615
 20
1596.885835
 30
0.0
 40
6.537699
100
AcDbArc
 50
237.999511
 51
302.000489
  0
LINE
  5
B922
100
AcDbEntity
  8
0
100
AcDbLine
 10
958.900115
 20
1591.341581
 30
0.0
 11
958.900115
 21
1603.066081
 31
0.0
  0
LINE
  5
B923
100
AcDbEntity
  8
0
100
AcDbLine
 10
951.971115
 20
1591.341581
 30
0.0
 11
951.971115
 21
1603.066081
 31
0.0
  0
LINE
  5
B924
100
AcDbEntity
  8
0
100
AcDbLine
 10
915.3709
 20
1587.355199
 30
0.0
 11
915.3709
 21
1590.066081
 31
0.0
  0
LINE
  5
B925
100
AcDbEntity
  8
0
100
AcDbLine
 10
914.2879
 20
1586.272199
 30
0.0
 11
915.3709
 21
1587.355199
 31
0.0
  0
LINE
  5
B926
100
AcDbEntity
  8
0
100
AcDbLine
 10
914.2984
 20
1591.341581
 30
0.0
 11
914.2984
 21
1603.066081
 31
0.0
  0
LINE
  5
B927
100
AcDbEntity
  8
0
100
AcDbLine
 10
917.22636
 20
1588.066081
 30
0.0
 11
917.111577
 21
1584.779123
 31
0.0
  0
LINE
  5
B928
100
AcDbEntity
  8
0
100
AcDbLine
 10
921.2264
 20
1591.341581
 30
0.0
 11
919.0174
 21
1590.066081
 31
0.0
  0
LINE
  5
B929
100
AcDbEntity
  8
0
100
AcDbLine
 10
916.90646
 20
1590.066081
 30
0.0
 11
917.22636
 21
1588.066081
 31
0.0
  0
LINE
  5
B92A
100
AcDbEntity
  8
0
100
AcDbLine
 10
921.2264
 20
1603.066081
 30
0.0
 11
921.2264
 21
1591.341581
 31
0.0
  0
ARC
  5
B92B
100
AcDbEntity
  8
0
100
AcDbCircle
 10
897.12376
 20
1585.477113
 30
0.0
 40
20.0
100
AcDbArc
 50
335.0
 51
358.0
  0
ARC
  5
B92C
100
AcDbEntity
  8
0
100
AcDbCircle
 10
917.7619
 20
1596.885835
 30
0.0
 40
6.537699
100
AcDbArc
 50
237.999511
 51
302.000489
  0
LINE
  5
B92D
100
AcDbEntity
  8
0
100
AcDbLine
 10
1012.63683
 20
1590.066081
 30
0.0
 11
1010.42783
 21
1591.341581
 31
0.0
  0
ARC
  5
B92E
100
AcDbEntity
  8
0
100
AcDbCircle
 10
1013.89233
 20
1596.885835
 30
0.0
 40
6.537699
100
AcDbArc
 50
237.999511
 51
302.000489
  0
ARC
  5
B92F
100
AcDbEntity
  8
0
100
AcDbCircle
 10
1034.53047
 20
1585.477113
 30
0.0
 40
20.0
100
AcDbArc
 50
182.0
 51
205.0
  0
LINE
  5
B930
100
AcDbEntity
  8
0
100
AcDbLine
 10
1014.427871
 20
1588.066081
 30
0.0
 11
1014.542654
 21
1584.779123
 31
0.0
  0
LINE
  5
B931
100
AcDbEntity
  8
0
100
AcDbLine
 10
1016.28433
 20
1590.066081
 30
0.0
 11
1016.28433
 21
1587.355199
 31
0.0
  0
LINE
  5
B932
100
AcDbEntity
  8
0
100
AcDbLine
 10
1016.28433
 20
1587.355199
 30
0.0
 11
1017.36733
 21
1586.272199
 31
0.0
  0
LINE
  5
B933
100
AcDbEntity
  8
0
100
AcDbLine
 10
1014.74777
 20
1590.066081
 30
0.0
 11
1014.427871
 21
1588.066081
 31
0.0
  0
LINE
  5
B934
100
AcDbEntity
  8
0
100
AcDbLine
 10
1017.35683
 20
1591.341581
 30
0.0
 11
1017.35683
 21
1603.066081
 31
0.0
  0
LINE
  5
B935
100
AcDbEntity
  8
0
100
AcDbLine
 10
1010.42783
 20
1591.341581
 30
0.0
 11
1010.42783
 21
1603.066081
 31
0.0
  0
ARC
  5
B936
100
AcDbEntity
  8
0
100
AcDbCircle
 10
976.218615
 20
1596.885835
 30
0.0
 40
6.537699
100
AcDbArc
 50
237.999511
 51
302.000489
  0
LINE
  5
B937
100
AcDbEntity
  8
0
100
AcDbLine
 10
973.827615
 20
1587.355199
 30
0.0
 11
973.827615
 21
1590.066081
 31
0.0
  0
LINE
  5
B938
100
AcDbEntity
  8
0
100
AcDbLine
 10
972.744615
 20
1586.272199
 30
0.0
 11
973.827615
 21
1587.355199
 31
0.0
  0
LINE
  5
B939
100
AcDbEntity
  8
0
100
AcDbLine
 10
979.683115
 20
1591.341581
 30
0.0
 11
977.474115
 21
1590.066081
 31
0.0
  0
LINE
  5
B93A
100
AcDbEntity
  8
0
100
AcDbLine
 10
972.755115
 20
1591.341581
 30
0.0
 11
972.755115
 21
1603.066081
 31
0.0
  0
LINE
  5
B93B
100
AcDbEntity
  8
0
100
AcDbLine
 10
979.683115
 20
1603.066081
 30
0.0
 11
979.683115
 21
1591.341581
 31
0.0
  0
ARC
  5
B93C
100
AcDbEntity
  8
0
100
AcDbCircle
 10
908.827115
 20
1693.816709
 30
0.0
 40
6.0
100
AcDbArc
 50
0.0
 51
112.88538
  0
ARC
  5
B93D
100
AcDbEntity
  8
0
100
AcDbCircle
 10
930.827115
 20
1716.066081
 30
0.0
 40
16.0
100
AcDbArc
 50
90.0
 51
180.0
  0
LINE
  5
B93E
100
AcDbEntity
  8
0
100
AcDbLine
 10
900.4539
 20
1661.272199
 30
0.0
 11
914.2879
 21
1661.272199
 31
0.0
  0
LINE
  5
B93F
100
AcDbEntity
  8
0
100
AcDbLine
 10
914.827115
 20
1674.566081
 30
0.0
 11
912.168339
 21
1661.272199
 31
0.0
  0
LINE
  5
B940
100
AcDbEntity
  8
0
100
AcDbLine
 10
899.3709
 20
1660.189199
 30
0.0
 11
900.4539
 21
1661.272199
 31
0.0
  0
LINE
  5
B941
100
AcDbEntity
  8
0
100
AcDbLine
 10
899.3709
 20
1660.189199
 30
0.0
 11
899.3709
 21
1654.566081
 31
0.0
  0
LINE
  5
B942
100
AcDbEntity
  8
0
100
AcDbLine
 10
906.827115
 20
1628.066081
 30
0.0
 11
906.827115
 21
1629.566081
 31
0.0
  0
LINE
  5
B943
100
AcDbEntity
  8
0
100
AcDbLine
 10
880.827115
 20
1629.566081
 30
0.0
 11
880.827115
 21
1654.566081
 31
0.0
  0
ARC
  5
B944
100
AcDbEntity
  8
0
100
AcDbCircle
 10
887.827115
 20
1743.566081
 30
0.0
 40
48.0
100
AcDbArc
 50
270.0
 51
292.88538
  0
LINE
  5
B945
100
AcDbEntity
  8
0
100
AcDbLine
 10
865.827115
 20
1722.066081
 30
0.0
 11
865.827115
 21
1697.066081
 31
0.0
  0
LINE
  5
B946
100
AcDbEntity
  8
0
100
AcDbLine
 10
865.827115
 20
1697.066081
 30
0.0
 11
867.327115
 21
1695.566081
 31
0.0
  0
LINE
  5
B947
100
AcDbEntity
  8
0
100
AcDbLine
 10
887.827115
 20
1695.566081
 30
0.0
 11
867.327115
 21
1695.566081
 31
0.0
  0
LINE
  5
B948
100
AcDbEntity
  8
0
100
AcDbLine
 10
1016.827115
 20
1680.566081
 30
0.0
 11
1016.827115
 21
1674.566081
 31
0.0
  0
CIRCLE
  5
B949
100
AcDbEntity
  8
0
100
AcDbCircle
 10
972.827115
 20
1690.066081
 30
0.0
 40
22.5
  0
LINE
  5
B94A
100
AcDbEntity
  8
0
100
AcDbLine
 10
914.827115
 20
1674.566081
 30
0.0
 11
914.827115
 21
1693.816709
 31
0.0
  0
LINE
  5
B94B
100
AcDbEntity
  8
0
100
AcDbLine
 10
958.910615
 20
1661.272199
 30
0.0
 11
972.744615
 21
1661.272199
 31
0.0
  0
LINE
  5
B94C
100
AcDbEntity
  8
0
100
AcDbLine
 10
957.827615
 20
1660.189199
 30
0.0
 11
958.910615
 21
1661.272199
 31
0.0
  0
LINE
  5
B94D
100
AcDbEntity
  8
0
100
AcDbLine
 10
957.827615
 20
1660.189199
 30
0.0
 11
957.827615
 21
1654.566081
 31
0.0
  0
LINE
  5
B94E
100
AcDbEntity
  8
0
100
AcDbLine
 10
915.3709
 20
1660.189199
 30
0.0
 11
914.2879
 21
1661.272199
 31
0.0
  0
LINE
  5
B94F
100
AcDbEntity
  8
0
100
AcDbLine
 10
915.3709
 20
1654.566081
 30
0.0
 11
915.3709
 21
1660.189199
 31
0.0
  0
LINE
  5
B950
100
AcDbEntity
  8
0
100
AcDbLine
 10
1016.28433
 20
1660.189199
 30
0.0
 11
1017.36733
 21
1661.272199
 31
0.0
  0
LINE
  5
B951
100
AcDbEntity
  8
0
100
AcDbLine
 10
1016.827115
 20
1674.566081
 30
0.0
 11
1019.485892
 21
1661.272199
 31
0.0
  0
LINE
  5
B952
100
AcDbEntity
  8
0
100
AcDbLine
 10
1016.28433
 20
1660.189199
 30
0.0
 11
1016.28433
 21
1654.566081
 31
0.0
  0
LINE
  5
B953
100
AcDbEntity
  8
0
100
AcDbLine
 10
973.827615
 20
1660.189199
 30
0.0
 11
972.744615
 21
1661.272199
 31
0.0
  0
LINE
  5
B954
100
AcDbEntity
  8
0
100
AcDbLine
 10
973.827615
 20
1654.566081
 30
0.0
 11
973.827615
 21
1660.189199
 31
0.0
  0
LINE
  5
B955
100
AcDbEntity
  8
0
100
AcDbLine
 10
1000.827115
 20
1732.066081
 30
0.0
 11
930.827115
 21
1732.066081
 31
0.0
  0
LINE
  5
B956
100
AcDbEntity
  8
0
100
AcDbLine
 10
1050.827115
 20
1603.066081
 30
0.0
 11
1050.827115
 21
1628.066081
 31
0.0
  0
LINE
  5
B957
100
AcDbEntity
  8
0
100
AcDbLine
 10
1049.260984
 20
1513.272199
 30
0.0
 11
1063.094984
 21
1513.272199
 31
0.0
  0
LINE
  5
B958
100
AcDbEntity
  8
0
100
AcDbLine
 10
1064.177984
 20
1512.189199
 30
0.0
 11
1063.094984
 21
1513.272199
 31
0.0
  0
LINE
  5
B959
100
AcDbEntity
  8
0
100
AcDbLine
 10
1064.177984
 20
1508.566081
 30
0.0
 11
1064.177984
 21
1512.189199
 31
0.0
  0
LINE
  5
B95A
100
AcDbEntity
  8
0
100
AcDbLine
 10
1048.177984
 20
1512.189199
 30
0.0
 11
1049.260984
 21
1513.272199
 31
0.0
  0
ARC
  5
B95B
100
AcDbEntity
  8
0
100
AcDbCircle
 10
1052.149537
 20
1514.566081
 30
0.0
 40
6.0
100
AcDbArc
 50
205.0
 51
228.553118
  0
LINE
  5
B95C
100
AcDbEntity
  8
0
100
AcDbLine
 10
1048.177984
 20
1512.189199
 30
0.0
 11
1048.177984
 21
1508.566081
 31
0.0
  0
LINE
  5
B95D
100
AcDbEntity
  8
0
100
AcDbLine
 10
1029.667214
 20
1512.189199
 30
0.0
 11
1028.584214
 21
1513.272199
 31
0.0
  0
LINE
  5
B95E
100
AcDbEntity
  8
0
100
AcDbLine
 10
1029.667214
 20
1508.566081
 30
0.0
 11
1029.667214
 21
1512.189199
 31
0.0
  0
ARC
  5
B95F
100
AcDbEntity
  8
0
100
AcDbCircle
 10
1034.67533
 20
1596.885835
 30
0.0
 40
6.537699
100
AcDbArc
 50
237.999511
 51
302.000489
  0
LINE
  5
B960
100
AcDbEntity
  8
0
100
AcDbLine
 10
1032.28433
 20
1587.355199
 30
0.0
 11
1032.28433
 21
1590.066081
 31
0.0
  0
LINE
  5
B961
100
AcDbEntity
  8
0
100
AcDbLine
 10
1031.20133
 20
1586.272199
 30
0.0
 11
1032.28433
 21
1587.355199
 31
0.0
  0
LINE
  5
B962
100
AcDbEntity
  8
0
100
AcDbLine
 10
1038.13983
 20
1591.341581
 30
0.0
 11
1035.93083
 21
1590.066081
 31
0.0
  0
LINE
  5
B963
100
AcDbEntity
  8
0
100
AcDbLine
 10
1031.21183
 20
1591.341581
 30
0.0
 11
1031.21183
 21
1603.066081
 31
0.0
  0
LINE
  5
B964
100
AcDbEntity
  8
0
100
AcDbLine
 10
1038.13983
 20
1603.066081
 30
0.0
 11
1038.13983
 21
1591.341581
 31
0.0
  0
INSERT
  5
B965
100
AcDbEntity
  8
0
100
AcDbBlockReference
  2
YA
 10
1105.122973
 20
1722.066081
 30
0.0
 41
-3.427225
 42
3.427225
 43
3.427225
  0
LINE
  5
B966
100
AcDbEntity
  8
0
100
AcDbLine
 10
1050.827115
 20
1629.566081
 30
0.0
 11
1050.827115
 21
1654.566081
 31
0.0
  0
LINE
  5
B967
100
AcDbEntity
  8
0
100
AcDbLine
 10
1032.28433
 20
1660.189199
 30
0.0
 11
1031.20133
 21
1661.272199
 31
0.0
  0
LINE
  5
B968
100
AcDbEntity
  8
0
100
AcDbLine
 10
1032.28433
 20
1654.566081
 30
0.0
 11
1032.28433
 21
1660.189199
 31
0.0
  0
LINE
  5
B969
100
AcDbEntity
  8
0
100
AcDbLine
 10
1024.827115
 20
1628.066081
 30
0.0
 11
1024.827115
 21
1629.566081
 31
0.0
  0
LINE
  5
B96A
100
AcDbEntity
  8
0
100
AcDbLine
 10
1065.827115
 20
1697.066081
 30
0.0
 11
1065.827115
 21
1722.066081
 31
0.0
  0
LINE
  5
B96B
100
AcDbEntity
  8
0
100
AcDbLine
 10
1065.827115
 20
1697.066081
 30
0.0
 11
1064.327115
 21
1695.566081
 31
0.0
  0
LINE
  5
B96C
100
AcDbEntity
  8
0
100
AcDbLine
 10
1064.327115
 20
1695.566081
 30
0.0
 11
1031.827115
 21
1695.566081
 31
0.0
  0
INSERT
  5
B96D
100
AcDbEntity
  8
0
100
AcDbBlockReference
  2
YA
 10
2079.324162
 20
1091.13586
 30
0.0
 41
3.427225
 42
3.427225
 43
3.427225
  0
ARC
  5
B96E
100
AcDbEntity
  8
0
100
AcDbCircle
 10
2128.269651
 20
1061.779246
 30
0.0
 40
8.0
100
AcDbArc
 50
128.875844
 51
20.920781
  0
ARC
  5
B96F
100
AcDbEntity
  8
0
100
AcDbCircle
 10
2218.62002
 20
1091.13586
 30
0.0
 40
51.0
100
AcDbArc
 50
211.30595
 51
328.69405
  0
ARC
  5
B970
100
AcDbEntity
  8
0
100
AcDbCircle
 10
2218.62002
 20
1091.13586
 30
0.0
 40
36.874983
100
AcDbArc
 50
187.792928
 51
285.0
  0
ARC
  5
B971
100
AcDbEntity
  8
0
100
AcDbCircle
 10
2218.62002
 20
1091.13586
 30
0.0
 40
55.0
100
AcDbArc
 50
208.804218
 51
237.563563
  0
ARC
  5
B972
100
AcDbEntity
  8
0
100
AcDbCircle
 10
2160.163305
 20
1057.38586
 30
0.0
 40
8.0
100
AcDbArc
 50
115.007833
 51
64.992167
  0
ARC
  5
B973
100
AcDbEntity
  8
0
100
AcDbCircle
 10
2218.62002
 20
1091.13586
 30
0.0
 40
55.0
100
AcDbArc
 50
286.368749
 51
331.195782
  0
LINE
  5
B974
100
AcDbEntity
  8
0
100
AcDbLine
 10
2262.194668
 20
1064.63586
 30
0.0
 11
2228.163968
 21
1055.517361
 31
0.0
  0
ARC
  5
B975
100
AcDbEntity
  8
0
100
AcDbCircle
 10
2277.076734
 20
1057.38586
 30
0.0
 40
8.0
100
AcDbArc
 50
115.007833
 51
64.992167
  0
LINE
  5
B976
100
AcDbEntity
  8
0
100
AcDbLine
 10
2234.12002
 20
1028.13586
 30
0.0
 11
2189.12002
 21
1028.13586
 31
0.0
  0
LINE
  5
B977
100
AcDbEntity
  8
0
100
AcDbLine
 10
2189.12002
 20
1049.533577
 30
0.0
 11
2189.12002
 21
1028.13586
 31
0.0
  0
CIRCLE
  5
B978
100
AcDbEntity
  8
0
100
AcDbCircle
 10
2162.780421
 20
1014.279246
 30
0.0
 40
8.0
  0
CIRCLE
  5
B979
100
AcDbEntity
  8
0
100
AcDbCircle
 10
2218.62002
 20
996.13586
 30
0.0
 40
8.0
  0
LINE
  5
B97A
100
AcDbEntity
  8
0
100
AcDbLine
 10
2234.12002
 20
1042.54831
 30
0.0
 11
2234.12002
 21
1028.13586
 31
0.0
  0
ARC
  5
B97B
100
AcDbEntity
  8
0
100
AcDbCircle
 10
2218.62002
 20
1023.63586
 30
0.0
 40
8.0
100
AcDbArc
 50
145.771134
 51
34.228866
  0
CIRCLE
  5
B97C
100
AcDbEntity
  8
0
100
AcDbCircle
 10
2274.459619
 20
1014.279246
 30
0.0
 40
8.0
  0
ARC
  5
B97D
100
AcDbEntity
  8
0
100
AcDbCircle
 10
2218.62002
 20
1091.13586
 30
0.0
 40
51.0
100
AcDbArc
 50
31.30595
 51
148.69405
  0
LINE
  5
B97E
100
AcDbEntity
  8
0
100
AcDbLine
 10
2234.12002
 20
1154.13586
 30
0.0
 11
2189.12002
 21
1154.13586
 31
0.0
  0
ARC
  5
B97F
100
AcDbEntity
  8
0
100
AcDbCircle
 10
2218.62002
 20
1091.13586
 30
0.0
 40
36.874983
100
AcDbArc
 50
75.0
 51
172.207072
  0
LINE
  5
B980
100
AcDbEntity
  8
0
100
AcDbLine
 10
2237.107918
 20
1086.13586
 30
0.0
 11
2153.62002
 21
1086.13586
 31
0.0
  0
LINE
  5
B981
100
AcDbEntity
  8
0
100
AcDbLine
 10
2237.107918
 20
1096.13586
 30
0.0
 11
2153.62002
 21
1096.13586
 31
0.0
  0
ARC
  5
B982
100
AcDbEntity
  8
0
100
AcDbCircle
 10
2128.269651
 20
1120.492475
 30
0.0
 40
8.0
100
AcDbArc
 50
339.079219
 51
231.124156
  0
LINE
  5
B983
100
AcDbEntity
  8
0
100
AcDbLine
 10
2118.62002
 20
1109.63586
 30
0.0
 11
2126.62002
 21
1117.63586
 31
0.0
  0
LINE
  5
B984
100
AcDbEntity
  8
0
100
AcDbLine
 10
2126.62002
 20
1117.63586
 30
0.0
 11
2126.62002
 21
1064.63586
 31
0.0
  0
ARC
  5
B985
100
AcDbEntity
  8
0
100
AcDbCircle
 10
2177.6735
 20
1122.63586
 30
0.0
 40
5.0
100
AcDbArc
 50
270.0
 51
0.0
  0
LINE
  5
B986
100
AcDbEntity
  8
0
100
AcDbLine
 10
2177.6735
 20
1064.63586
 30
0.0
 11
2126.62002
 21
1064.63586
 31
0.0
  0
LINE
  5
B987
100
AcDbEntity
  8
0
100
AcDbLine
 10
2118.62002
 20
1072.63586
 30
0.0
 11
2126.62002
 21
1064.63586
 31
0.0
  0
LINE
  5
B988
100
AcDbEntity
  8
0
100
AcDbLine
 10
2118.62002
 20
1072.63586
 30
0.0
 11
2118.62002
 21
1091.13586
 31
0.0
  0
LINE
  5
B989
100
AcDbEntity
  8
0
100
AcDbLine
 10
2118.62002
 20
1091.13586
 30
0.0
 11
2118.62002
 21
1109.63586
 31
0.0
  0
ARC
  5
B98A
100
AcDbEntity
  8
0
100
AcDbCircle
 10
2177.6735
 20
1059.63586
 30
0.0
 40
5.0
100
AcDbArc
 50
0.0
 51
90.0
  0
LINE
  5
B98B
100
AcDbEntity
  8
0
100
AcDbLine
 10
2148.62002
 20
1086.13586
 30
0.0
 11
2148.62002
 21
1096.13586
 31
0.0
  0
ARC
  5
B98C
100
AcDbEntity
  8
0
100
AcDbCircle
 10
2153.62002
 20
1101.13586
 30
0.0
 40
5.0
100
AcDbArc
 50
180.0
 51
270.0
  0
ARC
  5
B98D
100
AcDbEntity
  8
0
100
AcDbCircle
 10
2153.62002
 20
1081.13586
 30
0.0
 40
5.0
100
AcDbArc
 50
90.0
 51
180.0
  0
LINE
  5
B98E
100
AcDbEntity
  8
0
100
AcDbLine
 10
2177.6735
 20
1117.63586
 30
0.0
 11
2126.62002
 21
1117.63586
 31
0.0
  0
ARC
  5
B98F
100
AcDbEntity
  8
0
100
AcDbCircle
 10
2218.62002
 20
1091.13586
 30
0.0
 40
55.0
100
AcDbArc
 50
122.436437
 51
151.195782
  0
LINE
  5
B990
100
AcDbEntity
  8
0
100
AcDbLine
 10
2189.12002
 20
1132.738144
 30
0.0
 11
2189.12002
 21
1154.13586
 31
0.0
  0
CIRCLE
  5
B991
100
AcDbEntity
  8
0
100
AcDbCircle
 10
2162.780421
 20
1167.992475
 30
0.0
 40
8.0
  0
ARC
  5
B992
100
AcDbEntity
  8
0
100
AcDbCircle
 10
2160.163305
 20
1124.88586
 30
0.0
 40
8.0
100
AcDbArc
 50
295.007833
 51
244.992167
  0
ARC
  5
B993
100
AcDbEntity
  8
0
100
AcDbCircle
 10
2237.107918
 20
1101.13586
 30
0.0
 40
5.0
100
AcDbArc
 50
270.0
 51
0.0
  0
ARC
  5
B994
100
AcDbEntity
  8
0
100
AcDbCircle
 10
2237.107918
 20
1081.13586
 30
0.0
 40
5.0
100
AcDbArc
 50
0.0
 51
90.0
  0
LINE
  5
B995
100
AcDbEntity
  8
0
100
AcDbLine
 10
2242.107918
 20
1086.13586
 30
0.0
 11
2242.107918
 21
1096.13586
 31
0.0
  0
LINE
  5
B996
100
AcDbEntity
  8
0
100
AcDbLine
 10
2242.107918
 20
1101.13586
 30
0.0
 11
2242.107918
 21
1103.709568
 31
0.0
  0
LINE
  5
B997
100
AcDbEntity
  8
0
100
AcDbLine
 10
2242.107918
 20
1081.13586
 30
0.0
 11
2242.107918
 21
1076.879875
 31
0.0
  0
LINE
  5
B998
100
AcDbEntity
  8
0
100
AcDbLine
 10
2196.62002
 20
1086.13586
 30
0.0
 11
2196.62002
 21
1096.13586
 31
0.0
  0
LINE
  5
B999
100
AcDbEntity
  8
0
100
AcDbLine
 10
2262.194668
 20
1069.67086
 30
0.0
 11
2262.194668
 21
1112.60086
 31
0.0
  0
LINE
  5
B99A
100
AcDbEntity
  8
0
100
AcDbLine
 10
2262.194668
 20
1117.63586
 30
0.0
 11
2228.163968
 21
1126.754359
 31
0.0
  0
ARC
  5
B99B
100
AcDbEntity
  8
0
100
AcDbCircle
 10
2218.62002
 20
1091.13586
 30
0.0
 40
55.0
100
AcDbArc
 50
28.804218
 51
73.631251
  0
LINE
  5
B99C
100
AcDbEntity
  8
0
100
AcDbLine
 10
2234.12002
 20
1139.72341
 30
0.0
 11
2234.12002
 21
1154.13586
 31
0.0
  0
ARC
  5
B99D
100
AcDbEntity
  8
0
100
AcDbCircle
 10
2218.62002
 20
1158.63586
 30
0.0
 40
8.0
100
AcDbArc
 50
325.771134
 51
214.228866
  0
CIRCLE
  5
B99E
100
AcDbEntity
  8
0
100
AcDbCircle
 10
2274.459619
 20
1167.992475
 30
0.0
 40
8.0
  0
ARC
  5
B99F
100
AcDbEntity
  8
0
100
AcDbCircle
 10
2277.076734
 20
1124.88586
 30
0.0
 40
8.0
100
AcDbArc
 50
295.007833
 51
244.992167
  0
CIRCLE
  5
B9A0
100
AcDbEntity
  8
0
100
AcDbCircle
 10
2218.62002
 20
1186.13586
 30
0.0
 40
8.0
  0
LINE
  5
B9A1
100
AcDbEntity
  8
0
100
AcDbLine
 10
2106.12002
 20
1508.566081
 30
0.0
 11
2106.12002
 21
1476.566081
 31
0.0
  0
LINE
  5
B9A5
100
AcDbEntity
  8
0
100
AcDbLine
 10
2169.708421
 20
1433.341581
 30
0.0
 11
2169.708421
 21
1445.066081
 31
0.0
  0
LINE
  5
B9A6
100
AcDbEntity
  8
0
100
AcDbLine
 10
2176.636421
 20
1445.066081
 30
0.0
 11
2176.636421
 21
1433.341581
 31
0.0
  0
LINE
  5
B9A7
100
AcDbEntity
  8
0
100
AcDbLine
 10
2135.197651
 20
1433.341581
 30
0.0
 11
2135.197651
 21
1445.066081
 31
0.0
  0
LINE
  5
B9A8
100
AcDbEntity
  8
0
100
AcDbLine
 10
2142.125651
 20
1445.066081
 30
0.0
 11
2142.125651
 21
1433.341581
 31
0.0
  0
LINE
  5
B9A9
100
AcDbEntity
  8
0
100
AcDbLine
 10
2114.413651
 20
1433.341581
 30
0.0
 11
2114.413651
 21
1445.066081
 31
0.0
  0
LINE
  5
B9AA
100
AcDbEntity
  8
0
100
AcDbLine
 10
2121.342651
 20
1433.341581
 30
0.0
 11
2121.342651
 21
1445.066081
 31
0.0
  0
LINE
  5
B9AB
100
AcDbEntity
  8
0
100
AcDbLine
 10
2148.924421
 20
1433.341581
 30
0.0
 11
2148.924421
 21
1445.066081
 31
0.0
  0
LINE
  5
B9AC
100
AcDbEntity
  8
0
100
AcDbLine
 10
2155.853421
 20
1433.341581
 30
0.0
 11
2155.853421
 21
1445.066081
 31
0.0
  0
LINE
  5
B9AD
100
AcDbEntity
  8
0
100
AcDbLine
 10
2139.916651
 20
1432.066081
 30
0.0
 11
2116.622651
 21
1432.066081
 31
0.0
  0
ARC
  5
B9AE
100
AcDbEntity
  8
0
100
AcDbCircle
 10
2138.661151
 20
1438.885835
 30
0.0
 40
6.537699
100
AcDbArc
 50
237.999511
 51
302.000489
  0
LINE
  5
B9AF
100
AcDbEntity
  8
0
100
AcDbLine
 10
2121.353151
 20
1428.272199
 30
0.0
 11
2135.187151
 21
1428.272199
 31
0.0
  0
ARC
  5
B9B0
100
AcDbEntity
  8
0
100
AcDbCircle
 10
2128.270151
 20
1457.001405
 30
0.0
 40
24.653145
100
AcDbArc
 50
253.680185
 51
286.319815
  0
LINE
  5
B9B1
100
AcDbEntity
  8
0
100
AcDbLine
 10
2120.270151
 20
1429.355199
 30
0.0
 11
2121.353151
 21
1428.272199
 31
0.0
  0
ARC
  5
B9B2
100
AcDbEntity
  8
0
100
AcDbCircle
 10
2117.878151
 20
1438.885835
 30
0.0
 40
6.537699
100
AcDbArc
 50
237.999511
 51
302.000489
  0
LINE
  5
B9B3
100
AcDbEntity
  8
0
100
AcDbLine
 10
2116.622651
 20
1432.066081
 30
0.0
 11
2114.413651
 21
1433.341581
 31
0.0
  0
LINE
  5
B9B4
100
AcDbEntity
  8
0
100
AcDbLine
 10
2120.270151
 20
1432.066081
 30
0.0
 11
2120.270151
 21
1429.355199
 31
0.0
  0
LINE
  5
B9B5
100
AcDbEntity
  8
0
100
AcDbLine
 10
2135.187151
 20
1428.272199
 30
0.0
 11
2136.270151
 21
1429.355199
 31
0.0
  0
LINE
  5
B9B6
100
AcDbEntity
  8
0
100
AcDbLine
 10
2136.270151
 20
1429.355199
 30
0.0
 11
2136.270151
 21
1432.066081
 31
0.0
  0
LINE
  5
B9B7
100
AcDbEntity
  8
0
100
AcDbLine
 10
2169.697921
 20
1428.272199
 30
0.0
 11
2170.780921
 21
1429.355199
 31
0.0
  0
ARC
  5
B9B8
100
AcDbEntity
  8
0
100
AcDbCircle
 10
2173.171921
 20
1438.885835
 30
0.0
 40
6.537699
100
AcDbArc
 50
237.999511
 51
302.000489
  0
LINE
  5
B9B9
100
AcDbEntity
  8
0
100
AcDbLine
 10
2176.636421
 20
1433.341581
 30
0.0
 11
2174.427421
 21
1432.066081
 31
0.0
  0
LINE
  5
B9BA
100
AcDbEntity
  8
0
100
AcDbLine
 10
2170.780921
 20
1429.355199
 30
0.0
 11
2170.780921
 21
1432.066081
 31
0.0
  0
LINE
  5
B9BB
100
AcDbEntity
  8
0
100
AcDbLine
 10
2142.125651
 20
1433.341581
 30
0.0
 11
2139.916651
 21
1432.066081
 31
0.0
  0
LINE
  5
B9BD
100
AcDbEntity
  8
0
100
AcDbLine
 10
2154.780921
 20
1429.355199
 30
0.0
 11
2155.863921
 21
1428.272199
 31
0.0
  0
ARC
  5
B9BE
100
AcDbEntity
  8
0
100
AcDbCircle
 10
2152.388921
 20
1438.885835
 30
0.0
 40
6.537699
100
AcDbArc
 50
237.999511
 51
302.000489
  0
LINE
  5
B9BF
100
AcDbEntity
  8
0
100
AcDbLine
 10
2151.133421
 20
1432.066081
 30
0.0
 11
2148.924421
 21
1433.341581
 31
0.0
  0
LINE
  5
B9C0
100
AcDbEntity
  8
0
100
AcDbLine
 10
2154.780921
 20
1432.066081
 30
0.0
 11
2154.780921
 21
1429.355199
 31
0.0
  0
LINE
  5
B9C2
100
AcDbEntity
  8
0
100
AcDbLine
 10
2155.863921
 20
1428.272199
 30
0.0
 11
2169.697921
 21
1428.272199
 31
0.0
  0
LINE
  5
B9C3
100
AcDbEntity
  8
0
100
AcDbLine
 10
2174.427421
 20
1432.066081
 30
0.0
 11
2151.133421
 21
1432.066081
 31
0.0
  0
ARC
  5
B9C4
100
AcDbEntity
  8
0
100
AcDbCircle
 10
2162.780921
 20
1457.001405
 30
0.0
 40
24.653145
100
AcDbArc
 50
253.680185
 51
286.319815
  0
LINE
  5
B9C5
100
AcDbEntity
  8
0
100
AcDbLine
 10
2133.62002
 20
1475.066081
 30
0.0
 11
2133.62002
 21
1476.566081
 31
0.0
  0
LINE
  5
B9C6
100
AcDbEntity
  8
0
100
AcDbLine
 10
2106.12002
 20
1448.066081
 30
0.0
 11
2106.12002
 21
1475.066081
 31
0.0
  0
ARC
  5
B9C7
100
AcDbEntity
  8
0
100
AcDbCircle
 10
2109.12002
 20
1448.066081
 30
0.0
 40
3.0
100
AcDbArc
 50
180.0
 51
270.0
  0
LINE
  5
B9C9
100
AcDbEntity
  8
0
100
AcDbLine
 10
2281.387619
 20
1433.341581
 30
0.0
 11
2281.387619
 21
1445.066081
 31
0.0
  0
LINE
  5
B9CA
100
AcDbEntity
  8
0
100
AcDbLine
 10
2288.315619
 20
1445.066081
 30
0.0
 11
2288.315619
 21
1433.341581
 31
0.0
  0
LINE
  5
B9CB
100
AcDbEntity
  8
0
100
AcDbLine
 10
2295.114389
 20
1433.341581
 30
0.0
 11
2295.114389
 21
1445.066081
 31
0.0
  0
LINE
  5
B9CC
100
AcDbEntity
  8
0
100
AcDbLine
 10
2204.76402
 20
1433.341581
 30
0.0
 11
2204.76402
 21
1445.066081
 31
0.0
  0
LINE
  5
B9CD
100
AcDbEntity
  8
0
100
AcDbLine
 10
2211.69302
 20
1433.341581
 30
0.0
 11
2211.69302
 21
1445.066081
 31
0.0
  0
LINE
  5
B9CE
100
AcDbEntity
  8
0
100
AcDbLine
 10
2225.54802
 20
1433.341581
 30
0.0
 11
2225.54802
 21
1445.066081
 31
0.0
  0
LINE
  5
B9CF
100
AcDbEntity
  8
0
100
AcDbLine
 10
2232.47602
 20
1445.066081
 30
0.0
 11
2232.47602
 21
1433.341581
 31
0.0
  0
LINE
  5
B9D0
100
AcDbEntity
  8
0
100
AcDbLine
 10
2260.603619
 20
1433.341581
 30
0.0
 11
2260.603619
 21
1445.066081
 31
0.0
  0
LINE
  5
B9D1
100
AcDbEntity
  8
0
100
AcDbLine
 10
2267.532619
 20
1433.341581
 30
0.0
 11
2267.532619
 21
1445.066081
 31
0.0
  0
LINE
  5
B9D3
100
AcDbEntity
  8
0
100
AcDbLine
 10
2225.53752
 20
1428.272199
 30
0.0
 11
2226.62052
 21
1429.355199
 31
0.0
  0
ARC
  5
B9D4
100
AcDbEntity
  8
0
100
AcDbCircle
 10
2229.01152
 20
1438.885835
 30
0.0
 40
6.537699
100
AcDbArc
 50
237.999511
 51
302.000489
  0
LINE
  5
B9D5
100
AcDbEntity
  8
0
100
AcDbLine
 10
2232.47602
 20
1433.341581
 30
0.0
 11
2230.26702
 21
1432.066081
 31
0.0
  0
LINE
  5
B9D6
100
AcDbEntity
  8
0
100
AcDbLine
 10
2226.62052
 20
1429.355199
 30
0.0
 11
2226.62052
 21
1432.066081
 31
0.0
  0
LINE
  5
B9DA
100
AcDbEntity
  8
0
100
AcDbLine
 10
2210.62052
 20
1429.355199
 30
0.0
 11
2211.70352
 21
1428.272199
 31
0.0
  0
ARC
  5
B9DB
100
AcDbEntity
  8
0
100
AcDbCircle
 10
2208.22852
 20
1438.885835
 30
0.0
 40
6.537699
100
AcDbArc
 50
237.999511
 51
302.000489
  0
LINE
  5
B9DC
100
AcDbEntity
  8
0
100
AcDbLine
 10
2206.97302
 20
1432.066081
 30
0.0
 11
2204.76402
 21
1433.341581
 31
0.0
  0
LINE
  5
B9DD
100
AcDbEntity
  8
0
100
AcDbLine
 10
2210.62052
 20
1432.066081
 30
0.0
 11
2210.62052
 21
1429.355199
 31
0.0
  0
LINE
  5
B9E3
100
AcDbEntity
  8
0
100
AcDbLine
 10
2211.70352
 20
1428.272199
 30
0.0
 11
2225.53752
 21
1428.272199
 31
0.0
  0
LINE
  5
B9E4
100
AcDbEntity
  8
0
100
AcDbLine
 10
2230.26702
 20
1432.066081
 30
0.0
 11
2206.97302
 21
1432.066081
 31
0.0
  0
ARC
  5
B9E5
100
AcDbEntity
  8
0
100
AcDbCircle
 10
2218.62052
 20
1457.001405
 30
0.0
 40
24.653145
100
AcDbArc
 50
253.680185
 51
286.319815
  0
LINE
  5
B9E6
100
AcDbEntity
  8
0
100
AcDbLine
 10
2281.377119
 20
1428.272199
 30
0.0
 11
2282.460119
 21
1429.355199
 31
0.0
  0
ARC
  5
B9E7
100
AcDbEntity
  8
0
100
AcDbCircle
 10
2284.851119
 20
1438.885835
 30
0.0
 40
6.537699
100
AcDbArc
 50
237.999511
 51
302.000489
  0
LINE
  5
B9E8
100
AcDbEntity
  8
0
100
AcDbLine
 10
2288.315619
 20
1433.341581
 30
0.0
 11
2286.106619
 21
1432.066081
 31
0.0
  0
LINE
  5
B9E9
100
AcDbEntity
  8
0
100
AcDbLine
 10
2282.460119
 20
1429.355199
 30
0.0
 11
2282.460119
 21
1432.066081
 31
0.0
  0
LINE
  5
B9EA
100
AcDbEntity
  8
0
100
AcDbLine
 10
2297.323389
 20
1432.066081
 30
0.0
 11
2295.114389
 21
1433.341581
 31
0.0
  0
LINE
  5
B9EE
100
AcDbEntity
  8
0
100
AcDbLine
 10
2262.812619
 20
1432.066081
 30
0.0
 11
2260.603619
 21
1433.341581
 31
0.0
  0
LINE
  5
B9EF
100
AcDbEntity
  8
0
100
AcDbLine
 10
2266.460119
 20
1429.355199
 30
0.0
 11
2267.543119
 21
1428.272199
 31
0.0
  0
LINE
  5
B9F0
100
AcDbEntity
  8
0
100
AcDbLine
 10
2266.460119
 20
1432.066081
 30
0.0
 11
2266.460119
 21
1429.355199
 31
0.0
  0
ARC
  5
B9F1
100
AcDbEntity
  8
0
100
AcDbCircle
 10
2264.068119
 20
1438.885835
 30
0.0
 40
6.537699
100
AcDbArc
 50
237.999511
 51
302.000489
  0
LINE
  5
B9F3
100
AcDbEntity
  8
0
100
AcDbLine
 10
2267.543119
 20
1428.272199
 30
0.0
 11
2281.377119
 21
1428.272199
 31
0.0
  0
ARC
  5
B9F4
100
AcDbEntity
  8
0
100
AcDbCircle
 10
2274.460119
 20
1457.001405
 30
0.0
 40
24.653145
100
AcDbArc
 50
253.680185
 51
286.319815
  0
LINE
  5
B9F5
100
AcDbEntity
  8
0
100
AcDbLine
 10
2286.106619
 20
1432.066081
 30
0.0
 11
2262.812619
 21
1432.066081
 31
0.0
  0
LINE
  5
B9F6
100
AcDbEntity
  8
0
100
AcDbLine
 10
2133.62002
 20
1603.066081
 30
0.0
 11
2133.62002
 21
1628.066081
 31
0.0
  0
LINE
  5
B9F7
100
AcDbEntity
  8
0
100
AcDbLine
 10
2168.04282
 20
1577.024748
 30
0.0
 11
2137.735445
 21
1512.030371
 31
0.0
  0
LINE
  5
B9F8
100
AcDbEntity
  8
0
100
AcDbLine
 10
2121.353151
 20
1513.272199
 30
0.0
 11
2135.187151
 21
1513.272199
 31
0.0
  0
LINE
  5
B9F9
100
AcDbEntity
  8
0
100
AcDbLine
 10
2120.270151
 20
1512.189199
 30
0.0
 11
2120.270151
 21
1508.566081
 31
0.0
  0
LINE
  5
B9FA
100
AcDbEntity
  8
0
100
AcDbLine
 10
2120.270151
 20
1512.189199
 30
0.0
 11
2121.353151
 21
1513.272199
 31
0.0
  0
LINE
  5
B9FB
100
AcDbEntity
  8
0
100
AcDbLine
 10
2136.270151
 20
1508.566081
 30
0.0
 11
2136.270151
 21
1512.189199
 31
0.0
  0
ARC
  5
B9FC
100
AcDbEntity
  8
0
100
AcDbCircle
 10
2132.297598
 20
1514.566081
 30
0.0
 40
6.0
100
AcDbArc
 50
311.459623
 51
335.0
  0
LINE
  5
B9FD
100
AcDbEntity
  8
0
100
AcDbLine
 10
2136.270151
 20
1512.189199
 30
0.0
 11
2135.187151
 21
1513.272199
 31
0.0
  0
LINE
  5
B9FE
100
AcDbEntity
  8
0
100
AcDbLine
 10
2170.780921
 20
1508.566081
 30
0.0
 11
2170.780921
 21
1512.189199
 31
0.0
  0
LINE
  5
B9FF
100
AcDbEntity
  8
0
100
AcDbLine
 10
2170.780921
 20
1512.189199
 30
0.0
 11
2169.697921
 21
1513.272199
 31
0.0
  0
LINE
  5
BA00
100
AcDbEntity
  8
0
100
AcDbLine
 10
2154.780921
 20
1512.189199
 30
0.0
 11
2154.780921
 21
1508.566081
 31
0.0
  0
LINE
  5
BA01
100
AcDbEntity
  8
0
100
AcDbLine
 10
2154.780921
 20
1512.189199
 30
0.0
 11
2155.863921
 21
1513.272199
 31
0.0
  0
LINE
  5
BA02
100
AcDbEntity
  8
0
100
AcDbLine
 10
2155.863921
 20
1513.272199
 30
0.0
 11
2169.697921
 21
1513.272199
 31
0.0
  0
ARC
  5
BA03
100
AcDbEntity
  8
0
100
AcDbCircle
 10
2170.554805
 20
1596.885835
 30
0.0
 40
6.537699
100
AcDbArc
 50
237.999511
 51
302.000489
  0
ARC
  5
BA04
100
AcDbEntity
  8
0
100
AcDbCircle
 10
2149.916664
 20
1585.477113
 30
0.0
 40
20.0
100
AcDbArc
 50
335.0
 51
358.0
  0
LINE
  5
BA05
100
AcDbEntity
  8
0
100
AcDbLine
 10
2174.019305
 20
1603.066081
 30
0.0
 11
2174.019305
 21
1591.341581
 31
0.0
  0
LINE
  5
BA06
100
AcDbEntity
  8
0
100
AcDbLine
 10
2169.699365
 20
1590.066081
 30
0.0
 11
2170.019264
 21
1588.066081
 31
0.0
  0
LINE
  5
BA07
100
AcDbEntity
  8
0
100
AcDbLine
 10
2174.019305
 20
1591.341581
 30
0.0
 11
2171.810305
 21
1590.066081
 31
0.0
  0
LINE
  5
BA08
100
AcDbEntity
  8
0
100
AcDbLine
 10
2170.019264
 20
1588.066081
 30
0.0
 11
2169.904481
 21
1584.779123
 31
0.0
  0
LINE
  5
BA09
100
AcDbEntity
  8
0
100
AcDbLine
 10
2167.091305
 20
1591.341581
 30
0.0
 11
2167.091305
 21
1603.066081
 31
0.0
  0
LINE
  5
BA0A
100
AcDbEntity
  8
0
100
AcDbLine
 10
2167.080805
 20
1586.272199
 30
0.0
 11
2168.163805
 21
1587.355199
 31
0.0
  0
LINE
  5
BA0B
100
AcDbEntity
  8
0
100
AcDbLine
 10
2168.163805
 20
1587.355199
 30
0.0
 11
2168.163805
 21
1590.066081
 31
0.0
  0
LINE
  5
BA0C
100
AcDbEntity
  8
0
100
AcDbLine
 10
2146.307305
 20
1591.341581
 30
0.0
 11
2146.307305
 21
1603.066081
 31
0.0
  0
LINE
  5
BA0D
100
AcDbEntity
  8
0
100
AcDbLine
 10
2153.236305
 20
1591.341581
 30
0.0
 11
2153.236305
 21
1603.066081
 31
0.0
  0
LINE
  5
BA0E
100
AcDbEntity
  8
0
100
AcDbLine
 10
2152.163805
 20
1587.355199
 30
0.0
 11
2153.246805
 21
1586.272199
 31
0.0
  0
LINE
  5
BA0F
100
AcDbEntity
  8
0
100
AcDbLine
 10
2152.163805
 20
1590.066081
 30
0.0
 11
2152.163805
 21
1587.355199
 31
0.0
  0
ARC
  5
BA10
100
AcDbEntity
  8
0
100
AcDbCircle
 10
2149.771805
 20
1596.885835
 30
0.0
 40
6.537699
100
AcDbArc
 50
237.999511
 51
302.000489
  0
LINE
  5
BA11
100
AcDbEntity
  8
0
100
AcDbLine
 10
2148.516305
 20
1590.066081
 30
0.0
 11
2146.307305
 21
1591.341581
 31
0.0
  0
LINE
  5
BA12
100
AcDbEntity
  8
0
100
AcDbLine
 10
2171.810305
 20
1590.066081
 30
0.0
 11
2148.516305
 21
1590.066081
 31
0.0
  0
LINE
  5
BA13
100
AcDbEntity
  8
0
100
AcDbLine
 10
2153.246805
 20
1586.272199
 30
0.0
 11
2167.080805
 21
1586.272199
 31
0.0
  0
ARC
  5
BA14
100
AcDbEntity
  8
0
100
AcDbCircle
 10
2160.163805
 20
1615.001405
 30
0.0
 40
24.653145
100
AcDbArc
 50
253.680185
 51
286.319815
  0
LINE
  5
BA15
100
AcDbEntity
  8
0
100
AcDbLine
 10
2226.62052
 20
1508.566081
 30
0.0
 11
2226.62052
 21
1512.189199
 31
0.0
  0
LINE
  5
BA16
100
AcDbEntity
  8
0
100
AcDbLine
 10
2226.62052
 20
1512.189199
 30
0.0
 11
2225.53752
 21
1513.272199
 31
0.0
  0
LINE
  5
BA17
100
AcDbEntity
  8
0
100
AcDbLine
 10
2210.62052
 20
1512.189199
 30
0.0
 11
2210.62052
 21
1508.566081
 31
0.0
  0
LINE
  5
BA18
100
AcDbEntity
  8
0
100
AcDbLine
 10
2210.62052
 20
1512.189199
 30
0.0
 11
2211.70352
 21
1513.272199
 31
0.0
  0
LINE
  5
BA19
100
AcDbEntity
  8
0
100
AcDbLine
 10
2211.70352
 20
1513.272199
 30
0.0
 11
2225.53752
 21
1513.272199
 31
0.0
  0
LINE
  5
BA1A
100
AcDbEntity
  8
0
100
AcDbLine
 10
2282.460119
 20
1508.566081
 30
0.0
 11
2282.460119
 21
1512.189199
 31
0.0
  0
LINE
  5
BA1B
100
AcDbEntity
  8
0
100
AcDbLine
 10
2282.460119
 20
1512.189199
 30
0.0
 11
2281.377119
 21
1513.272199
 31
0.0
  0
LINE
  5
BA1C
100
AcDbEntity
  8
0
100
AcDbLine
 10
2266.460119
 20
1512.189199
 30
0.0
 11
2266.460119
 21
1508.566081
 31
0.0
  0
LINE
  5
BA1D
100
AcDbEntity
  8
0
100
AcDbLine
 10
2266.460119
 20
1512.189199
 30
0.0
 11
2267.543119
 21
1513.272199
 31
0.0
  0
LINE
  5
BA1E
100
AcDbEntity
  8
0
100
AcDbLine
 10
2267.543119
 20
1513.272199
 30
0.0
 11
2281.377119
 21
1513.272199
 31
0.0
  0
LINE
  5
BA1F
100
AcDbEntity
  8
0
100
AcDbLine
 10
2232.47602
 20
1603.066081
 30
0.0
 11
2232.47602
 21
1591.341581
 31
0.0
  0
LINE
  5
BA20
100
AcDbEntity
  8
0
100
AcDbLine
 10
2225.54802
 20
1591.341581
 30
0.0
 11
2225.54802
 21
1603.066081
 31
0.0
  0
LINE
  5
BA21
100
AcDbEntity
  8
0
100
AcDbLine
 10
2232.47602
 20
1591.341581
 30
0.0
 11
2230.26702
 21
1590.066081
 31
0.0
  0
LINE
  5
BA22
100
AcDbEntity
  8
0
100
AcDbLine
 10
2225.53752
 20
1586.272199
 30
0.0
 11
2226.62052
 21
1587.355199
 31
0.0
  0
LINE
  5
BA23
100
AcDbEntity
  8
0
100
AcDbLine
 10
2226.62052
 20
1587.355199
 30
0.0
 11
2226.62052
 21
1590.066081
 31
0.0
  0
ARC
  5
BA24
100
AcDbEntity
  8
0
100
AcDbCircle
 10
2229.01152
 20
1596.885835
 30
0.0
 40
6.537699
100
AcDbArc
 50
237.999511
 51
302.000489
  0
LINE
  5
BA25
100
AcDbEntity
  8
0
100
AcDbLine
 10
2204.76402
 20
1591.341581
 30
0.0
 11
2204.76402
 21
1603.066081
 31
0.0
  0
LINE
  5
BA26
100
AcDbEntity
  8
0
100
AcDbLine
 10
2211.69302
 20
1591.341581
 30
0.0
 11
2211.69302
 21
1603.066081
 31
0.0
  0
ARC
  5
BA27
100
AcDbEntity
  8
0
100
AcDbCircle
 10
2208.22852
 20
1596.885835
 30
0.0
 40
6.537699
100
AcDbArc
 50
237.999511
 51
302.000489
  0
LINE
  5
BA28
100
AcDbEntity
  8
0
100
AcDbLine
 10
2206.97302
 20
1590.066081
 30
0.0
 11
2204.76402
 21
1591.341581
 31
0.0
  0
LINE
  5
BA29
100
AcDbEntity
  8
0
100
AcDbLine
 10
2210.62052
 20
1587.355199
 30
0.0
 11
2211.70352
 21
1586.272199
 31
0.0
  0
LINE
  5
BA2A
100
AcDbEntity
  8
0
100
AcDbLine
 10
2210.62052
 20
1590.066081
 30
0.0
 11
2210.62052
 21
1587.355199
 31
0.0
  0
LINE
  5
BA2B
100
AcDbEntity
  8
0
100
AcDbLine
 10
2211.70352
 20
1586.272199
 30
0.0
 11
2225.53752
 21
1586.272199
 31
0.0
  0
ARC
  5
BA2C
100
AcDbEntity
  8
0
100
AcDbCircle
 10
2218.62052
 20
1615.001405
 30
0.0
 40
24.653145
100
AcDbArc
 50
253.680185
 51
286.319815
  0
LINE
  5
BA2D
100
AcDbEntity
  8
0
100
AcDbLine
 10
2230.26702
 20
1590.066081
 30
0.0
 11
2206.97302
 21
1590.066081
 31
0.0
  0
LINE
  5
BA2E
100
AcDbEntity
  8
0
100
AcDbLine
 10
2290.932734
 20
1603.066081
 30
0.0
 11
2290.932734
 21
1591.341581
 31
0.0
  0
LINE
  5
BA2F
100
AcDbEntity
  8
0
100
AcDbLine
 10
2284.004734
 20
1591.341581
 30
0.0
 11
2284.004734
 21
1603.066081
 31
0.0
  0
LINE
  5
BA30
100
AcDbEntity
  8
0
100
AcDbLine
 10
2290.932734
 20
1591.341581
 30
0.0
 11
2288.723734
 21
1590.066081
 31
0.0
  0
LINE
  5
BA31
100
AcDbEntity
  8
0
100
AcDbLine
 10
2283.994234
 20
1586.272199
 30
0.0
 11
2285.077234
 21
1587.355199
 31
0.0
  0
LINE
  5
BA32
100
AcDbEntity
  8
0
100
AcDbLine
 10
2285.077234
 20
1587.355199
 30
0.0
 11
2285.077234
 21
1590.066081
 31
0.0
  0
ARC
  5
BA33
100
AcDbEntity
  8
0
100
AcDbCircle
 10
2287.468234
 20
1596.885835
 30
0.0
 40
6.537699
100
AcDbArc
 50
237.999511
 51
302.000489
  0
LINE
  5
BA34
100
AcDbEntity
  8
0
100
AcDbLine
 10
2263.220734
 20
1591.341581
 30
0.0
 11
2263.220734
 21
1603.066081
 31
0.0
  0
LINE
  5
BA35
100
AcDbEntity
  8
0
100
AcDbLine
 10
2270.149734
 20
1591.341581
 30
0.0
 11
2270.149734
 21
1603.066081
 31
0.0
  0
LINE
  5
BA36
100
AcDbEntity
  8
0
100
AcDbLine
 10
2267.540674
 20
1590.066081
 30
0.0
 11
2267.220775
 21
1588.066081
 31
0.0
  0
LINE
  5
BA37
100
AcDbEntity
  8
0
100
AcDbLine
 10
2269.077234
 20
1587.355199
 30
0.0
 11
2270.160234
 21
1586.272199
 31
0.0
  0
LINE
  5
BA38
100
AcDbEntity
  8
0
100
AcDbLine
 10
2269.077234
 20
1590.066081
 30
0.0
 11
2269.077234
 21
1587.355199
 31
0.0
  0
LINE
  5
BA39
100
AcDbEntity
  8
0
100
AcDbLine
 10
2267.220775
 20
1588.066081
 30
0.0
 11
2267.335558
 21
1584.779123
 31
0.0
  0
ARC
  5
BA3A
100
AcDbEntity
  8
0
100
AcDbCircle
 10
2287.323375
 20
1585.477113
 30
0.0
 40
20.0
100
AcDbArc
 50
182.0
 51
205.0
  0
ARC
  5
BA3B
100
AcDbEntity
  8
0
100
AcDbCircle
 10
2266.685234
 20
1596.885835
 30
0.0
 40
6.537699
100
AcDbArc
 50
237.999511
 51
302.000489
  0
LINE
  5
BA3C
100
AcDbEntity
  8
0
100
AcDbLine
 10
2265.429734
 20
1590.066081
 30
0.0
 11
2263.220734
 21
1591.341581
 31
0.0
  0
LINE
  5
BA3D
100
AcDbEntity
  8
0
100
AcDbLine
 10
2270.160234
 20
1586.272199
 30
0.0
 11
2283.994234
 21
1586.272199
 31
0.0
  0
ARC
  5
BA3E
100
AcDbEntity
  8
0
100
AcDbCircle
 10
2277.077234
 20
1615.001405
 30
0.0
 40
24.653145
100
AcDbArc
 50
253.680185
 51
286.319815
  0
LINE
  5
BA3F
100
AcDbEntity
  8
0
100
AcDbLine
 10
2288.723734
 20
1590.066081
 30
0.0
 11
2265.429734
 21
1590.066081
 31
0.0
  0
LINE
  5
BA40
100
AcDbEntity
  8
0
100
AcDbLine
 10
2253.62002
 20
1732.066081
 30
0.0
 11
2183.62002
 21
1732.066081
 31
0.0
  0
LINE
  5
BA41
100
AcDbEntity
  8
0
100
AcDbLine
 10
2167.62002
 20
1674.566081
 30
0.0
 11
2167.62002
 21
1693.816709
 31
0.0
  0
LINE
  5
BA42
100
AcDbEntity
  8
0
100
AcDbLine
 10
2133.62002
 20
1629.566081
 30
0.0
 11
2133.62002
 21
1654.566081
 31
0.0
  0
LINE
  5
BA43
100
AcDbEntity
  8
0
100
AcDbLine
 10
2168.163805
 20
1654.566081
 30
0.0
 11
2168.163805
 21
1660.189199
 31
0.0
  0
LINE
  5
BA44
100
AcDbEntity
  8
0
100
AcDbLine
 10
2168.163805
 20
1660.189199
 30
0.0
 11
2167.080805
 21
1661.272199
 31
0.0
  0
LINE
  5
BA45
100
AcDbEntity
  8
0
100
AcDbLine
 10
2159.62002
 20
1628.066081
 30
0.0
 11
2159.62002
 21
1629.566081
 31
0.0
  0
LINE
  5
BA46
100
AcDbEntity
  8
0
100
AcDbLine
 10
2152.163805
 20
1660.189199
 30
0.0
 11
2152.163805
 21
1654.566081
 31
0.0
  0
LINE
  5
BA47
100
AcDbEntity
  8
0
100
AcDbLine
 10
2152.163805
 20
1660.189199
 30
0.0
 11
2153.246805
 21
1661.272199
 31
0.0
  0
LINE
  5
BA48
100
AcDbEntity
  8
0
100
AcDbLine
 10
2167.62002
 20
1674.566081
 30
0.0
 11
2164.961243
 21
1661.272199
 31
0.0
  0
LINE
  5
BA49
100
AcDbEntity
  8
0
100
AcDbLine
 10
2153.246805
 20
1661.272199
 30
0.0
 11
2167.080805
 21
1661.272199
 31
0.0
  0
LINE
  5
BA4A
100
AcDbEntity
  8
0
100
AcDbLine
 10
2140.62002
 20
1695.566081
 30
0.0
 11
2126.62002
 21
1695.566081
 31
0.0
  0
LINE
  5
BA4B
100
AcDbEntity
  8
0
100
AcDbLine
 10
2118.62002
 20
1703.566081
 30
0.0
 11
2126.62002
 21
1695.566081
 31
0.0
  0
LINE
  5
BA4C
100
AcDbEntity
  8
0
100
AcDbLine
 10
2118.62002
 20
1722.066081
 30
0.0
 11
2118.62002
 21
1703.566081
 31
0.0
  0
ARC
  5
BA4D
100
AcDbEntity
  8
0
100
AcDbCircle
 10
2140.62002
 20
1743.566081
 30
0.0
 40
48.0
100
AcDbArc
 50
270.0
 51
292.88538
  0
ARC
  5
BA4E
100
AcDbEntity
  8
0
100
AcDbCircle
 10
2183.62002
 20
1716.066081
 30
0.0
 40
16.0
100
AcDbArc
 50
90.0
 51
180.0
  0
ARC
  5
BA4F
100
AcDbEntity
  8
0
100
AcDbCircle
 10
2161.62002
 20
1693.816709
 30
0.0
 40
6.0
100
AcDbArc
 50
0.0
 51
112.88538
  0
CIRCLE
  5
BA50
100
AcDbEntity
  8
0
100
AcDbCircle
 10
2225.62002
 20
1690.066081
 30
0.0
 40
22.5
  0
LINE
  5
BA51
100
AcDbEntity
  8
0
100
AcDbLine
 10
2269.62002
 20
1680.566081
 30
0.0
 11
2269.62002
 21
1674.566081
 31
0.0
  0
LINE
  5
BA52
100
AcDbEntity
  8
0
100
AcDbLine
 10
2226.62052
 20
1654.566081
 30
0.0
 11
2226.62052
 21
1660.189199
 31
0.0
  0
LINE
  5
BA53
100
AcDbEntity
  8
0
100
AcDbLine
 10
2226.62052
 20
1660.189199
 30
0.0
 11
2225.53752
 21
1661.272199
 31
0.0
  0
LINE
  5
BA54
100
AcDbEntity
  8
0
100
AcDbLine
 10
2210.62052
 20
1660.189199
 30
0.0
 11
2210.62052
 21
1654.566081
 31
0.0
  0
LINE
  5
BA55
100
AcDbEntity
  8
0
100
AcDbLine
 10
2210.62052
 20
1660.189199
 30
0.0
 11
2211.70352
 21
1661.272199
 31
0.0
  0
LINE
  5
BA56
100
AcDbEntity
  8
0
100
AcDbLine
 10
2211.70352
 20
1661.272199
 30
0.0
 11
2225.53752
 21
1661.272199
 31
0.0
  0
LINE
  5
BA57
100
AcDbEntity
  8
0
100
AcDbLine
 10
2277.62002
 20
1628.066081
 30
0.0
 11
2277.62002
 21
1629.566081
 31
0.0
  0
LINE
  5
BA58
100
AcDbEntity
  8
0
100
AcDbLine
 10
2285.077234
 20
1654.566081
 30
0.0
 11
2285.077234
 21
1660.189199
 31
0.0
  0
LINE
  5
BA59
100
AcDbEntity
  8
0
100
AcDbLine
 10
2285.077234
 20
1660.189199
 30
0.0
 11
2283.994234
 21
1661.272199
 31
0.0
  0
LINE
  5
BA5A
100
AcDbEntity
  8
0
100
AcDbLine
 10
2269.077234
 20
1660.189199
 30
0.0
 11
2269.077234
 21
1654.566081
 31
0.0
  0
LINE
  5
BA5B
100
AcDbEntity
  8
0
100
AcDbLine
 10
2269.62002
 20
1674.566081
 30
0.0
 11
2272.278796
 21
1661.272199
 31
0.0
  0
LINE
  5
BA5C
100
AcDbEntity
  8
0
100
AcDbLine
 10
2269.077234
 20
1660.189199
 30
0.0
 11
2270.160234
 21
1661.272199
 31
0.0
  0
LINE
  5
BA5D
100
AcDbEntity
  8
0
100
AcDbLine
 10
2270.160234
 20
1661.272199
 30
0.0
 11
2283.994234
 21
1661.272199
 31
0.0
  0
ARC
  5
BA5E
100
AcDbEntity
  8
0
100
AcDbCircle
 10
2284.62002
 20
1680.566081
 30
0.0
 40
15.0
100
AcDbArc
 50
90.0
 51
180.0
  0
ARC
  5
BA5F
100
AcDbEntity
  8
0
100
AcDbCircle
 10
2253.62002
 20
1716.066081
 30
0.0
 40
16.0
100
AcDbArc
 50
0.0
 51
90.0
  0
LINE
  5
BA60
100
AcDbEntity
  8
0
100
AcDbLine
 10
1035.827115
 20
1748.566081
 30
0.0
 11
991.198277
 21
1756.841771
 31
0.0
  0
ARC
  5
BA61
100
AcDbEntity
  8
0
100
AcDbCircle
 10
1036.312818
 20
1700.46539
 30
0.0
 40
48.0
100
AcDbArc
 50
90.057761
 51
122.821059
  0
ARC
  5
BA62
100
AcDbEntity
  8
0
100
AcDbCircle
 10
932.827115
 20
1713.066081
 30
0.0
 40
48.0
100
AcDbArc
 50
90.0
 51
128.327135
  0
ARC
  5
BA63
100
AcDbEntity
  8
0
100
AcDbCircle
 10
896.858379
 20
1758.566081
 30
0.0
 40
10.0
100
AcDbArc
 50
270.0
 51
308.327135
  0
LINE
  5
BA64
100
AcDbEntity
  8
0
100
AcDbLine
 10
867.327115
 20
1748.566081
 30
0.0
 11
865.827115
 21
1747.066081
 31
0.0
  0
LINE
  5
BA65
100
AcDbEntity
  8
0
100
AcDbLine
 10
896.858379
 20
1748.566081
 30
0.0
 11
867.327115
 21
1748.566081
 31
0.0
  0
CIRCLE
  5
BA66
100
AcDbEntity
  8
0
100
AcDbCircle
 10
965.827115
 20
1771.066081
 30
0.0
 40
10.0
  0
ARC
  5
BA67
100
AcDbEntity
  8
0
100
AcDbCircle
 10
965.827115
 20
1771.066081
 30
0.0
 40
22.0
100
AcDbArc
 50
342.591092
 51
180.0
  0
ARC
  5
BA68
100
AcDbEntity
  8
0
100
AcDbCircle
 10
965.827115
 20
1693.066081
 30
0.0
 40
68.0
100
AcDbArc
 50
71.873796
 51
90.0
  0
LINE
  5
BA69
100
AcDbEntity
  8
0
100
AcDbLine
 10
965.827115
 20
1761.066081
 30
0.0
 11
932.827115
 21
1761.066081
 31
0.0
  0
ARC
  5
BA6A
100
AcDbEntity
  8
0
100
AcDbCircle
 10
936.543661
 20
1767.066081
 30
0.0
 40
6.0
100
AcDbArc
 50
270.0
 51
345.0
  0
LINE
  5
BA6B
100
AcDbEntity
  8
0
100
AcDbLine
 10
943.827115
 20
1771.066081
 30
0.0
 11
942.339216
 21
1765.513167
 31
0.0
  0
ARC
  5
BA6C
100
AcDbEntity
  8
0
100
AcDbCircle
 10
979.827115
 20
1735.832891
 30
0.0
 40
23.0
100
AcDbArc
 50
20.197251
 51
71.873796
  0
ARC
  5
BA6D
100
AcDbEntity
  8
0
100
AcDbCircle
 10
1007.043893
 20
1745.845232
 30
0.0
 40
6.0
100
AcDbArc
 50
200.197251
 51
302.821059
  0
ARC
  5
BA6E
100
AcDbEntity
  8
0
100
AcDbCircle
 10
992.544542
 20
1762.688785
 30
0.0
 40
6.0
100
AcDbArc
 50
162.591092
 51
257.033724
  0
LINE
  5
BA6F
100
AcDbEntity
  8
0
100
AcDbLine
 10
1064.327115
 20
1748.566081
 30
0.0
 11
1065.827115
 21
1747.066081
 31
0.0
  0
LINE
  5
BA70
100
AcDbEntity
  8
0
100
AcDbLine
 10
1035.827115
 20
1748.566081
 30
0.0
 11
1064.327115
 21
1748.566081
 31
0.0
  0
ARC
  5
BA71
100
AcDbEntity
  8
0
100
AcDbCircle
 10
2189.336566
 20
1767.066081
 30
0.0
 40
6.0
100
AcDbArc
 50
270.0
 51
345.0
  0
LINE
  5
BA72
100
AcDbEntity
  8
0
100
AcDbLine
 10
2218.62002
 20
1761.066081
 30
0.0
 11
2185.62002
 21
1761.066081
 31
0.0
  0
LINE
  5
BA73
100
AcDbEntity
  8
0
100
AcDbLine
 10
2149.651283
 20
1748.566081
 30
0.0
 11
2126.62002
 21
1748.566081
 31
0.0
  0
LINE
  5
BA74
100
AcDbEntity
  8
0
100
AcDbLine
 10
2118.62002
 20
1740.566081
 30
0.0
 11
2126.62002
 21
1748.566081
 31
0.0
  0
ARC
  5
BA75
100
AcDbEntity
  8
0
100
AcDbCircle
 10
2149.651283
 20
1758.566081
 30
0.0
 40
10.0
100
AcDbArc
 50
270.0
 51
308.327135
  0
ARC
  5
BA76
100
AcDbEntity
  8
0
100
AcDbCircle
 10
2185.62002
 20
1713.066081
 30
0.0
 40
48.0
100
AcDbArc
 50
90.0
 51
128.327135
  0
ARC
  5
BA77
100
AcDbEntity
  8
0
100
AcDbCircle
 10
2232.62002
 20
1735.832891
 30
0.0
 40
23.0
100
AcDbArc
 50
20.197251
 51
71.873796
  0
LINE
  5
BA78
100
AcDbEntity
  8
0
100
AcDbLine
 10
2288.62002
 20
1748.566081
 30
0.0
 11
2243.991182
 21
1756.841771
 31
0.0
  0
ARC
  5
BA79
100
AcDbEntity
  8
0
100
AcDbCircle
 10
2245.337447
 20
1762.688785
 30
0.0
 40
6.0
100
AcDbArc
 50
162.591092
 51
257.033724
  0
LINE
  5
BA7A
100
AcDbEntity
  8
0
100
AcDbLine
 10
2196.62002
 20
1771.066081
 30
0.0
 11
2195.132121
 21
1765.513167
 31
0.0
  0
ARC
  5
BA7B
100
AcDbEntity
  8
0
100
AcDbCircle
 10
2218.62002
 20
1693.066081
 30
0.0
 40
68.0
100
AcDbArc
 50
71.873796
 51
90.0
  0
ARC
  5
BA7C
100
AcDbEntity
  8
0
100
AcDbCircle
 10
2218.62002
 20
1771.066081
 30
0.0
 40
22.0
100
AcDbArc
 50
342.591092
 51
180.0
  0
CIRCLE
  5
BA7D
100
AcDbEntity
  8
0
100
AcDbCircle
 10
2218.62002
 20
1771.066081
 30
0.0
 40
10.0
  0
ARC
  5
BA7E
100
AcDbEntity
  8
0
100
AcDbCircle
 10
2259.836798
 20
1745.845232
 30
0.0
 40
6.0
100
AcDbArc
 50
200.197251
 51
302.821059
  0
ARC
  5
BA7F
100
AcDbEntity
  8
0
100
AcDbCircle
 10
2289.105722
 20
1700.46539
 30
0.0
 40
48.0
100
AcDbArc
 50
90.057761
 51
122.821059
  0
LINE
  5
BA80
100
AcDbEntity
  8
0
100
AcDbLine
 10
2316.969889
 20
522.232956
 30
0.0
 11
2316.969889
 21
518.609838
 31
0.0
  0
LINE
  5
BA81
100
AcDbEntity
  8
0
100
AcDbLine
 10
2300.969889
 20
518.609838
 30
0.0
 11
2300.969889
 21
522.232956
 31
0.0
  0
LINE
  5
BA82
100
AcDbEntity
  8
0
100
AcDbLine
 10
2482.808934
 20
518.609838
 30
0.0
 11
2482.808934
 21
522.232956
 31
0.0
  0
LINE
  5
BA83
100
AcDbEntity
  8
0
100
AcDbLine
 10
2498.808934
 20
522.232956
 30
0.0
 11
2498.808934
 21
518.609838
 31
0.0
  0
LINE
  5
BA84
100
AcDbEntity
  8
0
100
AcDbLine
 10
2464.665534
 20
518.609838
 30
0.0
 11
2464.665534
 21
522.232956
 31
0.0
  0
LINE
  5
BA85
100
AcDbEntity
  8
0
100
AcDbLine
 10
2480.665534
 20
522.232956
 30
0.0
 11
2480.665534
 21
518.609838
 31
0.0
  0
LINE
  5
BA86
100
AcDbEntity
  8
0
100
AcDbLine
 10
2530.308934
 20
518.609838
 30
0.0
 11
2530.308934
 21
522.232956
 31
0.0
  0
LINE
  5
BA87
100
AcDbEntity
  8
0
100
AcDbLine
 10
2546.308934
 20
522.232956
 30
0.0
 11
2546.308934
 21
518.609838
 31
0.0
  0
LINE
  5
BA88
100
AcDbEntity
  8
0
100
AcDbLine
 10
2589.023134
 20
522.232956
 30
0.0
 11
2589.023134
 21
518.609838
 31
0.0
  0
LINE
  5
BA89
100
AcDbEntity
  8
0
100
AcDbLine
 10
2605.023134
 20
518.609838
 30
0.0
 11
2605.023134
 21
522.232956
 31
0.0
  0
LINE
  5
BA8A
100
AcDbEntity
  8
0
100
AcDbLine
 10
2654.666534
 20
522.232956
 30
0.0
 11
2654.666534
 21
518.609838
 31
0.0
  0
LINE
  5
BA8B
100
AcDbEntity
  8
0
100
AcDbLine
 10
2670.666534
 20
518.609838
 30
0.0
 11
2670.666534
 21
522.232956
 31
0.0
  0
LINE
  5
BA8C
100
AcDbEntity
  8
0
100
AcDbLine
 10
2636.523134
 20
522.232956
 30
0.0
 11
2636.523134
 21
518.609838
 31
0.0
  0
LINE
  5
BA8D
100
AcDbEntity
  8
0
100
AcDbLine
 10
2652.523134
 20
518.609838
 30
0.0
 11
2652.523134
 21
522.232956
 31
0.0
  0
LINE
  5
BA8E
100
AcDbEntity
  8
0
100
AcDbLine
 10
2455.166034
 20
485.109838
 30
0.0
 11
2680.166034
 21
485.109838
 31
0.0
  0
LINE
  5
BA8F
100
AcDbEntity
  8
0
100
AcDbLine
 10
2455.166034
 20
486.609838
 30
0.0
 11
2680.166034
 21
486.609838
 31
0.0
  0
LINE
  5
BA90
100
AcDbEntity
  8
0
100
AcDbLine
 10
2455.166034
 20
518.609838
 30
0.0
 11
2680.166034
 21
518.609838
 31
0.0
  0
LINE
  5
BA92
100
AcDbEntity
  8
0
100
AcDbLine
 10
2331.12002
 20
458.109838
 30
0.0
 11
2331.12002
 21
485.109838
 31
0.0
  0
ARC
  5
BA93
100
AcDbEntity
  8
0
100
AcDbCircle
 10
2328.12002
 20
458.109838
 30
0.0
 40
3.0
100
AcDbArc
 50
270.0
 51
0.0
  0
LINE
  5
BA94
100
AcDbEntity
  8
0
100
AcDbLine
 10
2302.042389
 20
443.385338
 30
0.0
 11
2302.042389
 21
455.109838
 31
0.0
  0
LINE
  5
BA95
100
AcDbEntity
  8
0
100
AcDbLine
 10
2322.826389
 20
443.385338
 30
0.0
 11
2322.826389
 21
455.109838
 31
0.0
  0
LINE
  5
BA96
100
AcDbEntity
  8
0
100
AcDbLine
 10
2315.897389
 20
443.385338
 30
0.0
 11
2315.897389
 21
455.109838
 31
0.0
  0
LINE
  5
BA97
100
AcDbEntity
  8
0
100
AcDbLine
 10
2302.052889
 20
438.315956
 30
0.0
 11
2300.969889
 21
439.398956
 31
0.0
  0
LINE
  5
BA98
100
AcDbEntity
  8
0
100
AcDbLine
 10
2300.969889
 20
439.398956
 30
0.0
 11
2300.969889
 21
442.109838
 31
0.0
  0
LINE
  5
BA99
100
AcDbEntity
  8
0
100
AcDbLine
 10
2316.969889
 20
439.398956
 30
0.0
 11
2315.886889
 21
438.315956
 31
0.0
  0
ARC
  5
BA9A
100
AcDbEntity
  8
0
100
AcDbCircle
 10
2319.361889
 20
448.929592
 30
0.0
 40
6.537699
100
AcDbArc
 50
237.999511
 51
302.000489
  0
LINE
  5
BA9B
100
AcDbEntity
  8
0
100
AcDbLine
 10
2320.617389
 20
442.109838
 30
0.0
 11
2322.826389
 21
443.385338
 31
0.0
  0
LINE
  5
BA9C
100
AcDbEntity
  8
0
100
AcDbLine
 10
2316.969889
 20
442.109838
 30
0.0
 11
2316.969889
 21
439.398956
 31
0.0
  0
LINE
  5
BA9D
100
AcDbEntity
  8
0
100
AcDbLine
 10
2315.886889
 20
438.315956
 30
0.0
 11
2302.052889
 21
438.315956
 31
0.0
  0
ARC
  5
BA9E
100
AcDbEntity
  8
0
100
AcDbCircle
 10
2308.969889
 20
467.045162
 30
0.0
 40
24.653145
100
AcDbArc
 50
253.680185
 51
286.319815
  0
LINE
  5
BA9F
100
AcDbEntity
  8
0
100
AcDbLine
 10
2331.12002
 20
518.609838
 30
0.0
 11
2331.12002
 21
486.609838
 31
0.0
  0
LINE
  5
BAA0
100
AcDbEntity
  8
0
100
AcDbLine
 10
2303.62002
 20
485.109838
 30
0.0
 11
2303.62002
 21
486.609838
 31
0.0
  0
LINE
  5
BAA1
100
AcDbEntity
  8
0
100
AcDbLine
 10
2455.166034
 20
458.109838
 30
0.0
 11
2455.166034
 21
485.109838
 31
0.0
  0
LINE
  5
BABD
100
AcDbEntity
  8
0
100
AcDbLine
 10
2455.166034
 20
518.609838
 30
0.0
 11
2455.166034
 21
486.609838
 31
0.0
  0
LINE
  5
BABE
100
AcDbEntity
  8
0
100
AcDbLine
 10
2482.666034
 20
485.109838
 30
0.0
 11
2482.666034
 21
486.609838
 31
0.0
  0
LINE
  5
BABF
100
AcDbEntity
  8
0
100
AcDbLine
 10
2549.666034
 20
421.109838
 30
0.0
 11
2585.666034
 21
421.109838
 31
0.0
  0
LINE
  5
BAC7
100
AcDbEntity
  8
0
100
AcDbLine
 10
2549.666034
 20
421.109838
 30
0.0
 11
2543.666034
 21
427.109838
 31
0.0
  0
LINE
  5
BAC8
100
AcDbEntity
  8
0
100
AcDbLine
 10
2543.666034
 20
427.109838
 30
0.0
 11
2543.666034
 21
438.315956
 31
0.0
  0
LINE
  5
BADD
100
AcDbEntity
  8
0
100
AcDbLine
 10
2591.666034
 20
427.109838
 30
0.0
 11
2591.666034
 21
438.315956
 31
0.0
  0
LINE
  5
BAE1
100
AcDbEntity
  8
0
100
AcDbLine
 10
2585.666034
 20
421.109838
 30
0.0
 11
2591.666034
 21
427.109838
 31
0.0
  0
LINE
  5
BAE6
100
AcDbEntity
  8
0
100
AcDbLine
 10
2680.166034
 20
458.109838
 30
0.0
 11
2680.166034
 21
485.109838
 31
0.0
  0
LINE
  5
BB02
100
AcDbEntity
  8
0
100
AcDbLine
 10
2652.666034
 20
485.109838
 30
0.0
 11
2652.666034
 21
486.609838
 31
0.0
  0
LINE
  5
BB03
100
AcDbEntity
  8
0
100
AcDbLine
 10
2652.666034
 20
485.109838
 30
0.0
 11
2652.666034
 21
486.609838
 31
0.0
  0
LINE
  5
BB04
100
AcDbEntity
  8
0
100
AcDbLine
 10
2680.166034
 20
518.609838
 30
0.0
 11
2680.166034
 21
486.609838
 31
0.0
  0
LINE
  5
BB05
100
AcDbEntity
  8
0
100
AcDbLine
 10
2310.62002
 20
758.609838
 30
0.0
 11
2310.62002
 21
705.609838
 31
0.0
  0
LINE
  5
BB06
100
AcDbEntity
  8
0
100
AcDbLine
 10
2318.62002
 20
750.609838
 30
0.0
 11
2310.62002
 21
758.609838
 31
0.0
  0
CIRCLE
  5
BB07
100
AcDbEntity
  8
0
100
AcDbCircle
 10
2567.666034
 20
732.109838
 30
0.0
 40
26.5
  0
ARC
  5
BB08
100
AcDbEntity
  8
0
100
AcDbCircle
 10
2553.791034
 20
745.917365
 30
0.0
 40
23.0
100
AcDbArc
 50
107.958818
 51
176.118054
  0
ARC
  5
BB09
100
AcDbEntity
  8
0
100
AcDbCircle
 10
2581.541034
 20
745.917365
 30
0.0
 40
23.0
100
AcDbArc
 50
3.881946
 51
72.041182
  0
LINE
  5
BB0A
100
AcDbEntity
  8
0
100
AcDbLine
 10
2504.666034
 20
722.609838
 30
0.0
 11
2513.666034
 21
722.609838
 31
0.0
  0
ARC
  5
BB0B
100
AcDbEntity
  8
0
100
AcDbCircle
 10
2511.606622
 20
674.609838
 30
0.0
 40
3.0
100
AcDbArc
 50
348.690068
 51
90.0
  0
ARC
  5
BB0C
100
AcDbEntity
  8
0
100
AcDbCircle
 10
2509.386818
 20
668.609838
 30
0.0
 40
4.0
100
AcDbArc
 50
270.0
 51
348.690068
  0
LINE
  5
BB0F
100
AcDbEntity
  8
0
100
AcDbLine
 10
2517.088834
 20
587.068505
 30
0.0
 11
2487.360532
 21
523.315956
 31
0.0
  0
LINE
  5
BB10
100
AcDbEntity
  8
0
100
AcDbLine
 10
2482.666034
 20
638.109838
 30
0.0
 11
2652.666034
 21
638.109838
 31
0.0
  0
LINE
  5
BB11
100
AcDbEntity
  8
0
100
AcDbLine
 10
2482.666034
 20
639.609838
 30
0.0
 11
2652.666034
 21
639.609838
 31
0.0
  0
LINE
  5
BB12
100
AcDbEntity
  8
0
100
AcDbLine
 10
2482.666034
 20
664.609838
 30
0.0
 11
2652.666034
 21
664.609838
 31
0.0
  0
LINE
  5
BB14
100
AcDbEntity
  8
0
100
AcDbLine
 10
2499.623248
 20
638.109838
 30
0.0
 11
2499.623248
 21
639.609838
 31
0.0
  0
ARC
  5
BB15
100
AcDbEntity
  8
0
100
AcDbCircle
 10
2304.942441
 20
524.609838
 30
0.0
 40
6.0
100
AcDbArc
 50
205.0
 51
228.540377
  0
LINE
  5
BB16
100
AcDbEntity
  8
0
100
AcDbLine
 10
2300.969889
 20
522.232956
 30
0.0
 11
2302.052889
 21
523.315956
 31
0.0
  0
LINE
  5
BB17
100
AcDbEntity
  8
0
100
AcDbLine
 10
2316.969889
 20
522.232956
 30
0.0
 11
2315.886889
 21
523.315956
 31
0.0
  0
LINE
  5
BB18
100
AcDbEntity
  8
0
100
AcDbLine
 10
2315.886889
 20
523.315956
 30
0.0
 11
2302.052889
 21
523.315956
 31
0.0
  0
LINE
  5
BB19
100
AcDbEntity
  8
0
100
AcDbLine
 10
2303.62002
 20
613.109838
 30
0.0
 11
2303.62002
 21
638.109838
 31
0.0
  0
LINE
  5
BB1A
100
AcDbEntity
  8
0
100
AcDbLine
 10
2498.808934
 20
522.232956
 30
0.0
 11
2497.725934
 21
523.315956
 31
0.0
  0
LINE
  5
BB1B
100
AcDbEntity
  8
0
100
AcDbLine
 10
2482.808934
 20
522.232956
 30
0.0
 11
2483.891934
 21
523.315956
 31
0.0
  0
LINE
  5
BB1C
100
AcDbEntity
  8
0
100
AcDbLine
 10
2479.582534
 20
523.315956
 30
0.0
 11
2465.748534
 21
523.315956
 31
0.0
  0
LINE
  5
BB1D
100
AcDbEntity
  8
0
100
AcDbLine
 10
2464.665534
 20
522.232956
 30
0.0
 11
2465.748534
 21
523.315956
 31
0.0
  0
LINE
  5
BB1E
100
AcDbEntity
  8
0
100
AcDbLine
 10
2480.665534
 20
522.232956
 30
0.0
 11
2479.582534
 21
523.315956
 31
0.0
  0
LINE
  5
BB1F
100
AcDbEntity
  8
0
100
AcDbLine
 10
2497.725934
 20
523.315956
 30
0.0
 11
2483.891934
 21
523.315956
 31
0.0
  0
LINE
  5
BB29
100
AcDbEntity
  8
0
100
AcDbLine
 10
2482.666034
 20
613.109838
 30
0.0
 11
2482.666034
 21
638.109838
 31
0.0
  0
LINE
  5
BB2D
100
AcDbEntity
  8
0
100
AcDbLine
 10
2303.62002
 20
639.609838
 30
0.0
 11
2303.62002
 21
664.609838
 31
0.0
  0
LINE
  5
BB2E
100
AcDbEntity
  8
0
100
AcDbLine
 10
2318.62002
 20
732.109838
 30
0.0
 11
2318.62002
 21
713.609838
 31
0.0
  0
LINE
  5
BB2F
100
AcDbEntity
  8
0
100
AcDbLine
 10
2318.62002
 20
713.609838
 30
0.0
 11
2310.62002
 21
705.609838
 31
0.0
  0
LINE
  5
BB30
100
AcDbEntity
  8
0
100
AcDbLine
 10
2318.62002
 20
732.109838
 30
0.0
 11
2318.62002
 21
750.609838
 31
0.0
  0
LINE
  5
BB31
100
AcDbEntity
  8
0
100
AcDbLine
 10
2504.666034
 20
722.609838
 30
0.0
 11
2504.666034
 21
677.609838
 31
0.0
  0
LINE
  5
BB32
100
AcDbEntity
  8
0
100
AcDbLine
 10
2504.666034
 20
677.609838
 30
0.0
 11
2511.606622
 21
677.609838
 31
0.0
  0
LINE
  5
BB33
100
AcDbEntity
  8
0
100
AcDbLine
 10
2508.166034
 20
670.232956
 30
0.0
 11
2507.083034
 21
671.315956
 31
0.0
  0
LINE
  5
BB34
100
AcDbEntity
  8
0
100
AcDbLine
 10
2508.166034
 20
670.232956
 30
0.0
 11
2508.166034
 21
664.609838
 31
0.0
  0
LINE
  5
BB35
100
AcDbEntity
  8
0
100
AcDbLine
 10
2492.166034
 20
670.232956
 30
0.0
 11
2493.249034
 21
671.315956
 31
0.0
  0
LINE
  5
BB36
100
AcDbEntity
  8
0
100
AcDbLine
 10
2492.166034
 20
664.609838
 30
0.0
 11
2492.166034
 21
670.232956
 31
0.0
  0
LINE
  5
BB37
100
AcDbEntity
  8
0
100
AcDbLine
 10
2507.083034
 20
671.315956
 30
0.0
 11
2493.249034
 21
671.315956
 31
0.0
  0
LINE
  5
BB38
100
AcDbEntity
  8
0
100
AcDbLine
 10
2482.666034
 20
639.609838
 30
0.0
 11
2482.666034
 21
664.609838
 31
0.0
  0
LINE
  5
BB39
100
AcDbEntity
  8
0
100
AcDbLine
 10
2626.666034
 20
638.109838
 30
0.0
 11
2626.666034
 21
639.609838
 31
0.0
  0
LINE
  5
BB3B
100
AcDbEntity
  8
0
100
AcDbLine
 10
2618.243233
 20
587.068505
 30
0.0
 11
2647.971535
 21
523.315956
 31
0.0
  0
LINE
  5
BB3C
100
AcDbEntity
  8
0
100
AcDbLine
 10
2546.308934
 20
522.232956
 30
0.0
 11
2545.225934
 21
523.315956
 31
0.0
  0
LINE
  5
BB3D
100
AcDbEntity
  8
0
100
AcDbLine
 10
2530.308934
 20
522.232956
 30
0.0
 11
2531.391934
 21
523.315956
 31
0.0
  0
LINE
  5
BB3E
100
AcDbEntity
  8
0
100
AcDbLine
 10
2545.225934
 20
523.315956
 30
0.0
 11
2531.391934
 21
523.315956
 31
0.0
  0
LINE
  5
BB3F
100
AcDbEntity
  8
0
100
AcDbLine
 10
2605.023134
 20
522.232956
 30
0.0
 11
2603.940134
 21
523.315956
 31
0.0
  0
LINE
  5
BB40
100
AcDbEntity
  8
0
100
AcDbLine
 10
2589.023134
 20
522.232956
 30
0.0
 11
2590.106134
 21
523.315956
 31
0.0
  0
LINE
  5
BB41
100
AcDbEntity
  8
0
100
AcDbLine
 10
2590.106134
 20
523.315956
 30
0.0
 11
2603.940134
 21
523.315956
 31
0.0
  0
LINE
  5
BB68
100
AcDbEntity
  8
0
100
AcDbLine
 10
2654.666534
 20
522.232956
 30
0.0
 11
2655.749534
 21
523.315956
 31
0.0
  0
LINE
  5
BB69
100
AcDbEntity
  8
0
100
AcDbLine
 10
2670.666534
 20
522.232956
 30
0.0
 11
2669.583534
 21
523.315956
 31
0.0
  0
LINE
  5
BB6A
100
AcDbEntity
  8
0
100
AcDbLine
 10
2655.749534
 20
523.315956
 30
0.0
 11
2669.583534
 21
523.315956
 31
0.0
  0
LINE
  5
BB6B
100
AcDbEntity
  8
0
100
AcDbLine
 10
2652.523134
 20
522.232956
 30
0.0
 11
2651.440134
 21
523.315956
 31
0.0
  0
LINE
  5
BB6C
100
AcDbEntity
  8
0
100
AcDbLine
 10
2636.523134
 20
522.232956
 30
0.0
 11
2637.606134
 21
523.315956
 31
0.0
  0
LINE
  5
BB6D
100
AcDbEntity
  8
0
100
AcDbLine
 10
2637.606134
 20
523.315956
 30
0.0
 11
2651.440134
 21
523.315956
 31
0.0
  0
LINE
  5
BB6E
100
AcDbEntity
  8
0
100
AcDbLine
 10
2652.666034
 20
613.109838
 30
0.0
 11
2652.666034
 21
638.109838
 31
0.0
  0
ARC
  5
BB7E
100
AcDbEntity
  8
0
100
AcDbCircle
 10
2621.666034
 20
725.609838
 30
0.0
 40
3.0
100
AcDbArc
 50
180.0
 51
270.0
  0
ARC
  5
BB7F
100
AcDbEntity
  8
0
100
AcDbCircle
 10
2602.666034
 20
726.109838
 30
0.0
 40
16.0
100
AcDbArc
 50
0.0
 51
65.889684
  0
ARC
  5
BB80
100
AcDbEntity
  8
0
100
AcDbCircle
 10
2676.46548
 20
702.217892
 30
0.0
 40
60.76523
100
AcDbArc
 50
163.194975
 51
200.781207
  0
ARC
  5
BB81
100
AcDbEntity
  8
0
100
AcDbCircle
 10
2458.866587
 20
702.217892
 30
0.0
 40
60.76523
100
AcDbArc
 50
339.218793
 51
16.805025
  0
LINE
  5
BB82
100
AcDbEntity
  8
0
100
AcDbLine
 10
2541.916034
 20
670.232956
 30
0.0
 11
2541.916034
 21
664.609838
 31
0.0
  0
LINE
  5
BB83
100
AcDbEntity
  8
0
100
AcDbLine
 10
2541.916034
 20
670.232956
 30
0.0
 11
2540.833034
 21
671.315956
 31
0.0
  0
LINE
  5
BB84
100
AcDbEntity
  8
0
100
AcDbLine
 10
2514.548364
 20
674.02149
 30
0.0
 11
2513.309141
 21
667.825374
 31
0.0
  0
LINE
  5
BB85
100
AcDbEntity
  8
0
100
AcDbLine
 10
2525.916034
 20
664.609838
 30
0.0
 11
2525.916034
 21
670.232956
 31
0.0
  0
LINE
  5
BB86
100
AcDbEntity
  8
0
100
AcDbLine
 10
2525.916034
 20
670.232956
 30
0.0
 11
2526.999034
 21
671.315956
 31
0.0
  0
LINE
  5
BB87
100
AcDbEntity
  8
0
100
AcDbLine
 10
2540.833034
 20
671.315956
 30
0.0
 11
2526.999034
 21
671.315956
 31
0.0
  0
LINE
  5
BB88
100
AcDbEntity
  8
0
100
AcDbLine
 10
2594.499034
 20
671.315956
 30
0.0
 11
2608.333034
 21
671.315956
 31
0.0
  0
LINE
  5
BB89
100
AcDbEntity
  8
0
100
AcDbLine
 10
2609.416034
 20
670.232956
 30
0.0
 11
2608.333034
 21
671.315956
 31
0.0
  0
LINE
  5
BB8A
100
AcDbEntity
  8
0
100
AcDbLine
 10
2609.416034
 20
664.609838
 30
0.0
 11
2609.416034
 21
670.232956
 31
0.0
  0
LINE
  5
BB8B
100
AcDbEntity
  8
0
100
AcDbLine
 10
2593.416034
 20
670.232956
 30
0.0
 11
2594.499034
 21
671.315956
 31
0.0
  0
LINE
  5
BB8C
100
AcDbEntity
  8
0
100
AcDbLine
 10
2593.416034
 20
670.232956
 30
0.0
 11
2593.416034
 21
664.609838
 31
0.0
  0
ARC
  5
BB8D
100
AcDbEntity
  8
0
100
AcDbCircle
 10
2513.666034
 20
725.609838
 30
0.0
 40
3.0
100
AcDbArc
 50
270.0
 51
0.0
  0
LINE
  5
BB8E
100
AcDbEntity
  8
0
100
AcDbLine
 10
2516.666034
 20
726.109838
 30
0.0
 11
2516.666034
 21
725.609838
 31
0.0
  0
ARC
  5
BB8F
100
AcDbEntity
  8
0
100
AcDbCircle
 10
2532.666034
 20
726.109838
 30
0.0
 40
16.0
100
AcDbArc
 50
114.110316
 51
180.0
  0
ARC
  5
BB90
100
AcDbEntity
  8
0
100
AcDbCircle
 10
2522.862158
 20
748.016094
 30
0.0
 40
8.0
100
AcDbArc
 50
294.110316
 51
356.118054
  0
LINE
  5
BB91
100
AcDbEntity
  8
0
100
AcDbLine
 10
2618.666034
 20
726.109838
 30
0.0
 11
2618.666034
 21
725.609838
 31
0.0
  0
ARC
  5
BB92
100
AcDbEntity
  8
0
100
AcDbCircle
 10
2612.469909
 20
748.016094
 30
0.0
 40
8.0
100
AcDbArc
 50
183.881946
 51
245.889684
  0
LINE
  5
BB93
100
AcDbEntity
  8
0
100
AcDbLine
 10
2630.666034
 20
722.609838
 30
0.0
 11
2630.666034
 21
677.609838
 31
0.0
  0
LINE
  5
BB94
100
AcDbEntity
  8
0
100
AcDbLine
 10
2630.666034
 20
722.609838
 30
0.0
 11
2630.666034
 21
677.609838
 31
0.0
  0
LINE
  5
BB95
100
AcDbEntity
  8
0
100
AcDbLine
 10
2652.666034
 20
639.609838
 30
0.0
 11
2652.666034
 21
664.609838
 31
0.0
  0
ARC
  5
BB96
100
AcDbEntity
  8
0
100
AcDbCircle
 10
2623.725445
 20
674.609838
 30
0.0
 40
3.0
100
AcDbArc
 50
90.0
 51
191.309932
  0
LINE
  5
BB97
100
AcDbEntity
  8
0
100
AcDbLine
 10
2620.783703
 20
674.02149
 30
0.0
 11
2622.022927
 21
667.825374
 31
0.0
  0
LINE
  5
BB98
100
AcDbEntity
  8
0
100
AcDbLine
 10
2620.783703
 20
674.02149
 30
0.0
 11
2621.32481
 21
671.315956
 31
0.0
  0
LINE
  5
BB99
100
AcDbEntity
  8
0
100
AcDbLine
 10
2643.166034
 20
664.609838
 30
0.0
 11
2643.166034
 21
670.232956
 31
0.0
  0
LINE
  5
BB9A
100
AcDbEntity
  8
0
100
AcDbLine
 10
2643.166034
 20
670.232956
 30
0.0
 11
2642.083034
 21
671.315956
 31
0.0
  0
LINE
  5
BB9B
100
AcDbEntity
  8
0
100
AcDbLine
 10
2630.666034
 20
677.609838
 30
0.0
 11
2623.725445
 21
677.609838
 31
0.0
  0
ARC
  5
BB9C
100
AcDbEntity
  8
0
100
AcDbCircle
 10
2625.945249
 20
668.609838
 30
0.0
 40
4.0
100
AcDbArc
 50
191.309932
 51
270.0
  0
LINE
  5
BB9D
100
AcDbEntity
  8
0
100
AcDbLine
 10
2627.166034
 20
670.232956
 30
0.0
 11
2627.166034
 21
664.609838
 31
0.0
  0
LINE
  5
BB9E
100
AcDbEntity
  8
0
100
AcDbLine
 10
2627.166034
 20
670.232956
 30
0.0
 11
2628.249034
 21
671.315956
 31
0.0
  0
LINE
  5
BB9F
100
AcDbEntity
  8
0
100
AcDbLine
 10
2628.249034
 20
671.315956
 30
0.0
 11
2642.083034
 21
671.315956
 31
0.0
  0
LINE
  5
BBA0
100
AcDbEntity
  8
0
100
AcDbLine
 10
2630.666034
 20
722.609838
 30
0.0
 11
2621.666034
 21
722.609838
 31
0.0
  0
LINE
  5
BBA1
100
AcDbEntity
  8
0
100
AcDbLine
 10
2562.666034
 20
802.856445
 30
0.0
 11
2572.666034
 21
802.856445
 31
0.0
  0
ARC
  5
BBA2
100
AcDbEntity
  8
0
100
AcDbCircle
 10
2567.666034
 20
703.109838
 30
0.0
 40
68.0
100
AcDbArc
 50
72.041182
 51
107.958818
  0
ARC
  5
BBA3
100
AcDbEntity
  8
0
100
AcDbCircle
 10
2559.666034
 20
773.657694
 30
0.0
 40
3.0
100
AcDbArc
 50
276.469602
 51
0.0
  0
LINE
  5
BBA4
100
AcDbEntity
  8
0
100
AcDbLine
 10
2562.666034
 20
802.856445
 30
0.0
 11
2562.666034
 21
773.657694
 31
0.0
  0
ARC
  5
BBA5
100
AcDbEntity
  8
0
100
AcDbCircle
 10
2575.666034
 20
773.657694
 30
0.0
 40
3.0
100
AcDbArc
 50
180.0
 51
263.530398
  0
LINE
  5
BBA6
100
AcDbEntity
  8
0
100
AcDbLine
 10
2572.666034
 20
802.856445
 30
0.0
 11
2572.666034
 21
773.657694
 31
0.0
  0
LINE
  5
BBA7
100
AcDbEntity
  8
0
100
AcDbLine
 10
2310.62002
 20
1748.566081
 30
0.0
 11
2310.62002
 21
1695.566081
 31
0.0
  0
LINE
  5
BBA8
100
AcDbEntity
  8
0
100
AcDbLine
 10
2318.62002
 20
1722.066081
 30
0.0
 11
2318.62002
 21
1740.566081
 31
0.0
  0
ARC
  5
BBA9
100
AcDbEntity
  8
0
100
AcDbCircle
 10
2308.970389
 20
1061.779246
 30
0.0
 40
8.0
100
AcDbArc
 50
159.079219
 51
51.124156
  0
ARC
  5
BBAA
100
AcDbEntity
  8
0
100
AcDbCircle
 10
2308.970389
 20
1120.492475
 30
0.0
 40
8.0
100
AcDbArc
 50
308.875844
 51
200.920781
  0
LINE
  5
BBAB
100
AcDbEntity
  8
0
100
AcDbLine
 10
2318.62002
 20
1109.63586
 30
0.0
 11
2310.62002
 21
1117.63586
 31
0.0
  0
LINE
  5
BBAC
100
AcDbEntity
  8
0
100
AcDbLine
 10
2310.62002
 20
1117.63586
 30
0.0
 11
2310.62002
 21
1064.63586
 31
0.0
  0
LINE
  5
BBAD
100
AcDbEntity
  8
0
100
AcDbLine
 10
2318.62002
 20
1091.13586
 30
0.0
 11
2318.62002
 21
1109.63586
 31
0.0
  0
LINE
  5
BBAE
100
AcDbEntity
  8
0
100
AcDbLine
 10
2318.62002
 20
1072.63586
 30
0.0
 11
2318.62002
 21
1091.13586
 31
0.0
  0
LINE
  5
BBAF
100
AcDbEntity
  8
0
100
AcDbLine
 10
2318.62002
 20
1072.63586
 30
0.0
 11
2310.62002
 21
1064.63586
 31
0.0
  0
LINE
  5
BBB0
100
AcDbEntity
  8
0
100
AcDbLine
 10
2331.12002
 20
1508.566081
 30
0.0
 11
2331.12002
 21
1476.566081
 31
0.0
  0
LINE
  5
BBB1
100
AcDbEntity
  8
0
100
AcDbLine
 10
2315.898389
 20
1433.341581
 30
0.0
 11
2315.898389
 21
1445.066081
 31
0.0
  0
LINE
  5
BBB2
100
AcDbEntity
  8
0
100
AcDbLine
 10
2322.826389
 20
1445.066081
 30
0.0
 11
2322.826389
 21
1433.341581
 31
0.0
  0
LINE
  5
BBB3
100
AcDbEntity
  8
0
100
AcDbLine
 10
2302.043389
 20
1433.341581
 30
0.0
 11
2302.043389
 21
1445.066081
 31
0.0
  0
LINE
  5
BBB4
100
AcDbEntity
  8
0
100
AcDbLine
 10
2300.970889
 20
1429.355199
 30
0.0
 11
2302.053889
 21
1428.272199
 31
0.0
  0
LINE
  5
BBB5
100
AcDbEntity
  8
0
100
AcDbLine
 10
2300.970889
 20
1432.066081
 30
0.0
 11
2300.970889
 21
1429.355199
 31
0.0
  0
LINE
  5
BBB6
100
AcDbEntity
  8
0
100
AcDbLine
 10
2315.887889
 20
1428.272199
 30
0.0
 11
2316.970889
 21
1429.355199
 31
0.0
  0
ARC
  5
BBB7
100
AcDbEntity
  8
0
100
AcDbCircle
 10
2319.361889
 20
1438.885835
 30
0.0
 40
6.537699
100
AcDbArc
 50
237.999511
 51
302.000489
  0
LINE
  5
BBB8
100
AcDbEntity
  8
0
100
AcDbLine
 10
2322.826389
 20
1433.341581
 30
0.0
 11
2320.617389
 21
1432.066081
 31
0.0
  0
LINE
  5
BBB9
100
AcDbEntity
  8
0
100
AcDbLine
 10
2316.970889
 20
1429.355199
 30
0.0
 11
2316.970889
 21
1432.066081
 31
0.0
  0
LINE
  5
BBBA
100
AcDbEntity
  8
0
100
AcDbLine
 10
2302.053889
 20
1428.272199
 30
0.0
 11
2315.887889
 21
1428.272199
 31
0.0
  0
ARC
  5
BBBB
100
AcDbEntity
  8
0
100
AcDbCircle
 10
2308.970889
 20
1457.001405
 30
0.0
 40
24.653145
100
AcDbArc
 50
253.680185
 51
286.319815
  0
LINE
  5
BBBC
100
AcDbEntity
  8
0
100
AcDbLine
 10
2331.12002
 20
1448.066081
 30
0.0
 11
2331.12002
 21
1475.066081
 31
0.0
  0
ARC
  5
BBBD
100
AcDbEntity
  8
0
100
AcDbCircle
 10
2328.12002
 20
1448.066081
 30
0.0
 40
3.0
100
AcDbArc
 50
270.0
 51
0.0
  0
LINE
  5
BBBE
100
AcDbEntity
  8
0
100
AcDbLine
 10
2303.62002
 20
1475.066081
 30
0.0
 11
2303.62002
 21
1476.566081
 31
0.0
  0
LINE
  5
BBBF
100
AcDbEntity
  8
0
100
AcDbLine
 10
2303.62002
 20
1603.066081
 30
0.0
 11
2303.62002
 21
1628.066081
 31
0.0
  0
LINE
  5
BBC0
100
AcDbEntity
  8
0
100
AcDbLine
 10
2300.970889
 20
1512.189199
 30
0.0
 11
2300.970889
 21
1508.566081
 31
0.0
  0
ARC
  5
BBC1
100
AcDbEntity
  8
0
100
AcDbCircle
 10
2304.942441
 20
1514.566081
 30
0.0
 40
6.0
100
AcDbArc
 50
205.0
 51
228.553118
  0
LINE
  5
BBC2
100
AcDbEntity
  8
0
100
AcDbLine
 10
2300.970889
 20
1512.189199
 30
0.0
 11
2302.053889
 21
1513.272199
 31
0.0
  0
LINE
  5
BBC3
100
AcDbEntity
  8
0
100
AcDbLine
 10
2316.970889
 20
1508.566081
 30
0.0
 11
2316.970889
 21
1512.189199
 31
0.0
  0
LINE
  5
BBC4
100
AcDbEntity
  8
0
100
AcDbLine
 10
2316.970889
 20
1512.189199
 30
0.0
 11
2315.887889
 21
1513.272199
 31
0.0
  0
LINE
  5
BBC5
100
AcDbEntity
  8
0
100
AcDbLine
 10
2302.053889
 20
1513.272199
 30
0.0
 11
2315.887889
 21
1513.272199
 31
0.0
  0
INSERT
  5
BBC6
100
AcDbEntity
  8
0
100
AcDbBlockReference
  2
YA
 10
2357.915878
 20
1722.066081
 30
0.0
 41
-3.427225
 42
3.427225
 43
3.427225
  0
LINE
  5
BBC7
100
AcDbEntity
  8
0
100
AcDbLine
 10
2303.62002
 20
1629.566081
 30
0.0
 11
2303.62002
 21
1654.566081
 31
0.0
  0
LINE
  5
BBC8
100
AcDbEntity
  8
0
100
AcDbLine
 10
2318.62002
 20
1703.566081
 30
0.0
 11
2310.62002
 21
1695.566081
 31
0.0
  0
LINE
  5
BBC9
100
AcDbEntity
  8
0
100
AcDbLine
 10
2318.62002
 20
1703.566081
 30
0.0
 11
2318.62002
 21
1722.066081
 31
0.0
  0
LINE
  5
BBCA
100
AcDbEntity
  8
0
100
AcDbLine
 10
2318.62002
 20
1740.566081
 30
0.0
 11
2310.62002
 21
1748.566081
 31
0.0
  0
LINE
  5
BBFD
100
AcDbEntity
  8
0
100
AcDbLine
 10
984.827115
 20
427.109838
 30
0.0
 11
990.827115
 21
421.109838
 31
0.0
  0
LINE
  5
BBFE
100
AcDbEntity
  8
0
100
AcDbLine
 10
984.827115
 20
427.109838
 30
0.0
 11
984.827115
 21
431.109838
 31
0.0
  0
ARC
  5
BBFF
100
AcDbEntity
  8
0
100
AcDbCircle
 10
981.827115
 20
431.109838
 30
0.0
 40
3.0
100
AcDbArc
 50
0.0
 51
90.0
  0
LINE
  5
BC00
100
AcDbEntity
  8
0
100
AcDbLine
 10
984.827115
 20
427.109838
 30
0.0
 11
984.827115
 21
442.109838
 31
0.0
  0
LINE
  5
BC01
100
AcDbEntity
  8
0
100
AcDbLine
 10
1026.827115
 20
421.109838
 30
0.0
 11
1032.827115
 21
427.109838
 31
0.0
  0
LINE
  5
BC02
100
AcDbEntity
  8
0
100
AcDbLine
 10
1032.827115
 20
427.109838
 30
0.0
 11
1032.827115
 21
442.109838
 31
0.0
  0
LINE
  5
BC03
100
AcDbEntity
  8
0
100
AcDbLine
 10
939.327115
 20
434.109838
 30
0.0
 11
981.827115
 21
434.109838
 31
0.0
  0
ARC
  5
BC04
100
AcDbEntity
  8
0
100
AcDbCircle
 10
939.327115
 20
437.109838
 30
0.0
 40
3.0
100
AcDbArc
 50
180.0
 51
270.0
  0
ARC
  5
BC05
100
AcDbEntity
  8
0
100
AcDbCircle
 10
978.327115
 20
437.109838
 30
0.0
 40
3.0
100
AcDbArc
 50
270.0
 51
0.0
  0
LINE
  5
BC06
100
AcDbEntity
  8
0
100
AcDbLine
 10
928.933717
 20
446.503236
 30
0.0
 11
924.720513
 21
450.71644
 31
0.0
  0
ARC
  5
BC07
100
AcDbEntity
  8
0
100
AcDbCircle
 10
939.540319
 20
457.109838
 30
0.0
 40
15.0
100
AcDbArc
 50
225.0
 51
270.0
  0
LINE
  5
BC08
100
AcDbEntity
  8
0
100
AcDbLine
 10
939.540319
 20
442.109838
 30
0.0
 11
954.180115
 21
442.109838
 31
0.0
  0
LINE
  5
BC09
100
AcDbEntity
  8
0
100
AcDbLine
 10
936.327115
 20
437.109838
 30
0.0
 11
936.327115
 21
442.458035
 31
0.0
  0
ARC
  5
BC0A
100
AcDbEntity
  8
0
100
AcDbCircle
 10
914.113912
 20
440.109838
 30
0.0
 40
15.0
100
AcDbArc
 50
45.0
 51
49.560836
  0
LINE
  5
BC0B
100
AcDbEntity
  8
0
100
AcDbLine
 10
977.474115
 20
442.109838
 30
0.0
 11
984.827115
 21
442.109838
 31
0.0
  0
LINE
  5
BC0C
100
AcDbEntity
  8
0
100
AcDbLine
 10
981.327115
 20
437.109838
 30
0.0
 11
981.327115
 21
438.813058
 31
0.0
  0
LINE
  5
BC0D
100
AcDbEntity
  8
0
100
AcDbLine
 10
981.327115
 20
437.109838
 30
0.0
 11
981.327115
 21
442.109838
 31
0.0
  0
LINE
  5
BC25
100
AcDbEntity
  8
0
100
AcDbLine
 10
2237.62002
 20
427.109838
 30
0.0
 11
2243.62002
 21
421.109838
 31
0.0
  0
LINE
  5
BC26
100
AcDbEntity
  8
0
100
AcDbLine
 10
2237.62002
 20
427.109838
 30
0.0
 11
2237.62002
 21
431.109838
 31
0.0
  0
ARC
  5
BC27
100
AcDbEntity
  8
0
100
AcDbCircle
 10
2234.62002
 20
431.109838
 30
0.0
 40
3.0
100
AcDbArc
 50
0.0
 51
90.0
  0
LINE
  5
BC28
100
AcDbEntity
  8
0
100
AcDbLine
 10
2237.62002
 20
427.109838
 30
0.0
 11
2237.62002
 21
442.109838
 31
0.0
  0
LINE
  5
BC29
100
AcDbEntity
  8
0
100
AcDbLine
 10
2279.62002
 20
421.109838
 30
0.0
 11
2285.62002
 21
427.109838
 31
0.0
  0
LINE
  5
BC2A
100
AcDbEntity
  8
0
100
AcDbLine
 10
2285.62002
 20
427.109838
 30
0.0
 11
2285.62002
 21
442.109838
 31
0.0
  0
LINE
  5
BC2B
100
AcDbEntity
  8
0
100
AcDbLine
 10
2192.12002
 20
434.109838
 30
0.0
 11
2234.62002
 21
434.109838
 31
0.0
  0
ARC
  5
BC2C
100
AcDbEntity
  8
0
100
AcDbCircle
 10
2192.12002
 20
437.109838
 30
0.0
 40
3.0
100
AcDbArc
 50
180.0
 51
270.0
  0
ARC
  5
BC2D
100
AcDbEntity
  8
0
100
AcDbCircle
 10
2231.12002
 20
437.109838
 30
0.0
 40
3.0
100
AcDbArc
 50
270.0
 51
0.0
  0
LINE
  5
BC2E
100
AcDbEntity
  8
0
100
AcDbLine
 10
2181.726621
 20
446.503236
 30
0.0
 11
2177.513418
 21
450.71644
 31
0.0
  0
ARC
  5
BC2F
100
AcDbEntity
  8
0
100
AcDbCircle
 10
2192.333223
 20
457.109838
 30
0.0
 40
15.0
100
AcDbArc
 50
225.0
 51
270.0
  0
LINE
  5
BC30
100
AcDbEntity
  8
0
100
AcDbLine
 10
2192.333223
 20
442.109838
 30
0.0
 11
2206.97302
 21
442.109838
 31
0.0
  0
LINE
  5
BC31
100
AcDbEntity
  8
0
100
AcDbLine
 10
2189.12002
 20
437.109838
 30
0.0
 11
2189.12002
 21
442.458035
 31
0.0
  0
ARC
  5
BC32
100
AcDbEntity
  8
0
100
AcDbCircle
 10
2166.906816
 20
440.109838
 30
0.0
 40
15.0
100
AcDbArc
 50
45.0
 51
49.560836
  0
LINE
  5
BC33
100
AcDbEntity
  8
0
100
AcDbLine
 10
2230.26702
 20
442.109838
 30
0.0
 11
2237.62002
 21
442.109838
 31
0.0
  0
LINE
  5
BC34
100
AcDbEntity
  8
0
100
AcDbLine
 10
2234.12002
 20
437.109838
 30
0.0
 11
2234.12002
 21
438.813058
 31
0.0
  0
LINE
  5
BC35
100
AcDbEntity
  8
0
100
AcDbLine
 10
2234.12002
 20
437.109838
 30
0.0
 11
2234.12002
 21
442.109838
 31
0.0
  0
LINE
  5
BC63
100
AcDbEntity
  8
0
100
AcDbLine
 10
2245.12002
 20
1424.066081
 30
0.0
 11
2202.62002
 21
1424.066081
 31
0.0
  0
ARC
  5
BC64
100
AcDbEntity
  8
0
100
AcDbCircle
 10
2245.12002
 20
1427.066081
 30
0.0
 40
3.0
100
AcDbArc
 50
270.0
 51
0.0
  0
ARC
  5
BC65
100
AcDbEntity
  8
0
100
AcDbCircle
 10
2244.906816
 20
1447.066081
 30
0.0
 40
15.0
100
AcDbArc
 50
270.0
 51
315.0
  0
LINE
  5
BC66
100
AcDbEntity
  8
0
100
AcDbLine
 10
2244.906816
 20
1432.066081
 30
0.0
 11
2230.26702
 21
1432.066081
 31
0.0
  0
LINE
  5
BC67
100
AcDbEntity
  8
0
100
AcDbLine
 10
2248.12002
 20
1427.066081
 30
0.0
 11
2248.12002
 21
1432.414278
 31
0.0
  0
LINE
  5
BC68
100
AcDbEntity
  8
0
100
AcDbLine
 10
2193.62002
 20
1411.066081
 30
0.0
 11
2157.62002
 21
1411.066081
 31
0.0
  0
LINE
  5
BC69
100
AcDbEntity
  8
0
100
AcDbLine
 10
2193.62002
 20
1411.066081
 30
0.0
 11
2157.62002
 21
1411.066081
 31
0.0
  0
LINE
  5
BC6A
100
AcDbEntity
  8
0
100
AcDbLine
 10
2206.97302
 20
1432.066081
 30
0.0
 11
2199.62002
 21
1432.066081
 31
0.0
  0
LINE
  5
BC6B
100
AcDbEntity
  8
0
100
AcDbLine
 10
2199.62002
 20
1417.066081
 30
0.0
 11
2199.62002
 21
1432.066081
 31
0.0
  0
LINE
  5
BC6C
100
AcDbEntity
  8
0
100
AcDbLine
 10
2199.62002
 20
1417.066081
 30
0.0
 11
2199.62002
 21
1421.066081
 31
0.0
  0
LINE
  5
BC6D
100
AcDbEntity
  8
0
100
AcDbLine
 10
2199.62002
 20
1417.066081
 30
0.0
 11
2193.62002
 21
1411.066081
 31
0.0
  0
ARC
  5
BC6E
100
AcDbEntity
  8
0
100
AcDbCircle
 10
2202.62002
 20
1421.066081
 30
0.0
 40
3.0
100
AcDbArc
 50
90.0
 51
180.0
  0
LINE
  5
BC6F
100
AcDbEntity
  8
0
100
AcDbLine
 10
2203.12002
 20
1427.066081
 30
0.0
 11
2203.12002
 21
1432.066081
 31
0.0
  0
LINE
  5
BC70
100
AcDbEntity
  8
0
100
AcDbLine
 10
2203.12002
 20
1427.066081
 30
0.0
 11
2203.12002
 21
1428.769301
 31
0.0
  0
ARC
  5
BC71
100
AcDbEntity
  8
0
100
AcDbCircle
 10
2206.12002
 20
1427.066081
 30
0.0
 40
3.0
100
AcDbArc
 50
180.0
 51
270.0
  0
LINE
  5
BC72
100
AcDbEntity
  8
0
100
AcDbLine
 10
2151.62002
 20
1417.066081
 30
0.0
 11
2151.62002
 21
1432.066081
 31
0.0
  0
LINE
  5
BC73
100
AcDbEntity
  8
0
100
AcDbLine
 10
2157.62002
 20
1411.066081
 30
0.0
 11
2151.62002
 21
1417.066081
 31
0.0
  0
LINE
  5
BC74
100
AcDbEntity
  8
0
100
AcDbLine
 10
2255.513418
 20
1436.459479
 30
0.0
 11
2259.726621
 21
1440.672683
 31
0.0
  0
ARC
  5
BC75
100
AcDbEntity
  8
0
100
AcDbCircle
 10
2270.333223
 20
1430.066081
 30
0.0
 40
15.0
100
AcDbArc
 50
130.439164
 51
135.0
  0
LINE
  5
BC8D
100
AcDbEntity
  8
0
100
AcDbLine
 10
992.327115
 20
1424.066081
 30
0.0
 11
949.827115
 21
1424.066081
 31
0.0
  0
ARC
  5
BC8E
100
AcDbEntity
  8
0
100
AcDbCircle
 10
992.327115
 20
1427.066081
 30
0.0
 40
3.0
100
AcDbArc
 50
270.0
 51
0.0
  0
ARC
  5
BC8F
100
AcDbEntity
  8
0
100
AcDbCircle
 10
992.113912
 20
1447.066081
 30
0.0
 40
15.0
100
AcDbArc
 50
270.0
 51
315.0
  0
LINE
  5
BC90
100
AcDbEntity
  8
0
100
AcDbLine
 10
992.113912
 20
1432.066081
 30
0.0
 11
977.474115
 21
1432.066081
 31
0.0
  0
LINE
  5
BC91
100
AcDbEntity
  8
0
100
AcDbLine
 10
995.327115
 20
1427.066081
 30
0.0
 11
995.327115
 21
1432.414278
 31
0.0
  0
LINE
  5
BC92
100
AcDbEntity
  8
0
100
AcDbLine
 10
940.827115
 20
1411.066081
 30
0.0
 11
904.827115
 21
1411.066081
 31
0.0
  0
LINE
  5
BC93
100
AcDbEntity
  8
0
100
AcDbLine
 10
940.827115
 20
1411.066081
 30
0.0
 11
904.827115
 21
1411.066081
 31
0.0
  0
LINE
  5
BC94
100
AcDbEntity
  8
0
100
AcDbLine
 10
954.180115
 20
1432.066081
 30
0.0
 11
946.827115
 21
1432.066081
 31
0.0
  0
LINE
  5
BC95
100
AcDbEntity
  8
0
100
AcDbLine
 10
946.827115
 20
1417.066081
 30
0.0
 11
946.827115
 21
1432.066081
 31
0.0
  0
LINE
  5
BC96
100
AcDbEntity
  8
0
100
AcDbLine
 10
946.827115
 20
1417.066081
 30
0.0
 11
946.827115
 21
1421.066081
 31
0.0
  0
LINE
  5
BC97
100
AcDbEntity
  8
0
100
AcDbLine
 10
946.827115
 20
1417.066081
 30
0.0
 11
940.827115
 21
1411.066081
 31
0.0
  0
ARC
  5
BC98
100
AcDbEntity
  8
0
100
AcDbCircle
 10
949.827115
 20
1421.066081
 30
0.0
 40
3.0
100
AcDbArc
 50
90.0
 51
180.0
  0
LINE
  5
BC99
100
AcDbEntity
  8
0
100
AcDbLine
 10
950.327115
 20
1427.066081
 30
0.0
 11
950.327115
 21
1432.066081
 31
0.0
  0
LINE
  5
BC9A
100
AcDbEntity
  8
0
100
AcDbLine
 10
950.327115
 20
1427.066081
 30
0.0
 11
950.327115
 21
1428.769301
 31
0.0
  0
ARC
  5
BC9B
100
AcDbEntity
  8
0
100
AcDbCircle
 10
953.327115
 20
1427.066081
 30
0.0
 40
3.0
100
AcDbArc
 50
180.0
 51
270.0
  0
LINE
  5
BC9C
100
AcDbEntity
  8
0
100
AcDbLine
 10
898.827115
 20
1417.066081
 30
0.0
 11
898.827115
 21
1432.066081
 31
0.0
  0
LINE
  5
BC9D
100
AcDbEntity
  8
0
100
AcDbLine
 10
904.827115
 20
1411.066081
 30
0.0
 11
898.827115
 21
1417.066081
 31
0.0
  0
LINE
  5
BC9E
100
AcDbEntity
  8
0
100
AcDbLine
 10
1002.720513
 20
1436.459479
 30
0.0
 11
1006.933717
 21
1440.672683
 31
0.0
  0
ARC
  5
BC9F
100
AcDbEntity
  8
0
100
AcDbCircle
 10
1017.540319
 20
1430.066081
 30
0.0
 40
15.0
100
AcDbArc
 50
130.439164
 51
135.0
  0
LINE
  5
BCBA
100
AcDbEntity
  8
0
100
AcDbLine
 10
461.230081
 20
600.109838
 30
0.0
 11
485.230081
 21
600.109838
 31
0.0
  0
ARC
  5
BCBB
100
AcDbEntity
  8
0
100
AcDbCircle
 10
467.230081
 20
614.854421
 30
0.0
 40
14.744583
100
AcDbArc
 50
245.987929
 51
294.012071
  0
LINE
  5
BCBC
100
AcDbEntity
  8
0
100
AcDbLine
 10
461.230081
 20
600.109838
 30
0.0
 11
461.230081
 21
613.109838
 31
0.0
  0
LINE
  5
BCBD
100
AcDbEntity
  8
0
100
AcDbLine
 10
473.230081
 20
601.385838
 30
0.0
 11
473.230081
 21
613.109838
 31
0.0
  0
LINE
  5
BCBE
100
AcDbEntity
  8
0
100
AcDbLine
 10
485.230081
 20
600.109838
 30
0.0
 11
485.230081
 21
613.109838
 31
0.0
  0
ARC
  5
BCBF
100
AcDbEntity
  8
0
100
AcDbCircle
 10
479.230081
 20
614.854421
 30
0.0
 40
14.744583
100
AcDbArc
 50
245.987929
 51
294.012071
  0
ARC
  5
BCDC
100
AcDbEntity
  8
0
100
AcDbCircle
 10
500.980081
 20
614.854421
 30
0.0
 40
14.744583
100
AcDbArc
 50
245.987929
 51
294.012071
  0
LINE
  5
BCDD
100
AcDbEntity
  8
0
100
AcDbLine
 10
494.980081
 20
600.109838
 30
0.0
 11
518.980081
 21
600.109838
 31
0.0
  0
LINE
  5
BCDE
100
AcDbEntity
  8
0
100
AcDbLine
 10
494.980081
 20
600.109838
 30
0.0
 11
494.980081
 21
613.109838
 31
0.0
  0
ARC
  5
BCDF
100
AcDbEntity
  8
0
100
AcDbCircle
 10
512.980081
 20
614.854421
 30
0.0
 40
14.744583
100
AcDbArc
 50
245.987929
 51
294.012071
  0
LINE
  5
BCE0
100
AcDbEntity
  8
0
100
AcDbLine
 10
518.980081
 20
600.109838
 30
0.0
 11
518.980081
 21
613.109838
 31
0.0
  0
LINE
  5
BCE1
100
AcDbEntity
  8
0
100
AcDbLine
 10
506.980081
 20
601.385838
 30
0.0
 11
506.980081
 21
613.109838
 31
0.0
  0
ARC
  5
BCEC
100
AcDbEntity
  8
0
100
AcDbCircle
 10
568.480081
 20
614.854421
 30
0.0
 40
14.744583
100
AcDbArc
 50
245.987929
 51
294.012071
  0
LINE
  5
BCED
100
AcDbEntity
  8
0
100
AcDbLine
 10
562.480081
 20
600.109838
 30
0.0
 11
586.480081
 21
600.109838
 31
0.0
  0
LINE
  5
BCEE
100
AcDbEntity
  8
0
100
AcDbLine
 10
562.480081
 20
600.109838
 30
0.0
 11
562.480081
 21
613.109838
 31
0.0
  0
ARC
  5
BCEF
100
AcDbEntity
  8
0
100
AcDbCircle
 10
580.480081
 20
614.854421
 30
0.0
 40
14.744583
100
AcDbArc
 50
245.987929
 51
294.012071
  0
LINE
  5
BCF0
100
AcDbEntity
  8
0
100
AcDbLine
 10
586.480081
 20
600.109838
 30
0.0
 11
586.480081
 21
613.109838
 31
0.0
  0
LINE
  5
BCF1
100
AcDbEntity
  8
0
100
AcDbLine
 10
574.480081
 20
601.385838
 30
0.0
 11
574.480081
 21
613.109838
 31
0.0
  0
ARC
  5
BCFC
100
AcDbEntity
  8
0
100
AcDbCircle
 10
602.230081
 20
614.854421
 30
0.0
 40
14.744583
100
AcDbArc
 50
245.987929
 51
294.012071
  0
LINE
  5
BCFD
100
AcDbEntity
  8
0
100
AcDbLine
 10
596.230081
 20
600.109838
 30
0.0
 11
620.230081
 21
600.109838
 31
0.0
  0
LINE
  5
BCFE
100
AcDbEntity
  8
0
100
AcDbLine
 10
596.230081
 20
600.109838
 30
0.0
 11
596.230081
 21
613.109838
 31
0.0
  0
ARC
  5
BCFF
100
AcDbEntity
  8
0
100
AcDbCircle
 10
614.230081
 20
614.854421
 30
0.0
 40
14.744583
100
AcDbArc
 50
245.987929
 51
294.012071
  0
LINE
  5
BD00
100
AcDbEntity
  8
0
100
AcDbLine
 10
620.230081
 20
600.109838
 30
0.0
 11
620.230081
 21
613.109838
 31
0.0
  0
LINE
  5
BD01
100
AcDbEntity
  8
0
100
AcDbLine
 10
608.230081
 20
601.385838
 30
0.0
 11
608.230081
 21
613.109838
 31
0.0
  0
ARC
  5
BD0C
100
AcDbEntity
  8
0
100
AcDbCircle
 10
439.729581
 20
456.854421
 30
0.0
 40
14.744583
100
AcDbArc
 50
245.987929
 51
294.012071
  0
LINE
  5
BD0D
100
AcDbEntity
  8
0
100
AcDbLine
 10
433.729581
 20
442.109838
 30
0.0
 11
457.729581
 21
442.109838
 31
0.0
  0
LINE
  5
BD0E
100
AcDbEntity
  8
0
100
AcDbLine
 10
433.729581
 20
442.109838
 30
0.0
 11
433.729581
 21
455.109838
 31
0.0
  0
ARC
  5
BD0F
100
AcDbEntity
  8
0
100
AcDbCircle
 10
451.729581
 20
456.854421
 30
0.0
 40
14.744583
100
AcDbArc
 50
245.987929
 51
270.557245
  0
LINE
  5
BD11
100
AcDbEntity
  8
0
100
AcDbLine
 10
445.729581
 20
443.385838
 30
0.0
 11
445.729581
 21
455.109838
 31
0.0
  0
ARC
  5
BD1C
100
AcDbEntity
  8
0
100
AcDbCircle
 10
457.872981
 20
456.854421
 30
0.0
 40
14.744583
100
AcDbArc
 50
245.987929
 51
294.012071
  0
LINE
  5
BD1D
100
AcDbEntity
  8
0
100
AcDbLine
 10
451.872981
 20
442.109838
 30
0.0
 11
475.872981
 21
442.109838
 31
0.0
  0
LINE
  5
BD1E
100
AcDbEntity
  8
0
100
AcDbLine
 10
451.872981
 20
442.109838
 30
0.0
 11
451.872981
 21
455.109838
 31
0.0
  0
ARC
  5
BD1F
100
AcDbEntity
  8
0
100
AcDbCircle
 10
469.872981
 20
456.854421
 30
0.0
 40
14.744583
100
AcDbArc
 50
245.987929
 51
294.012071
  0
LINE
  5
BD20
100
AcDbEntity
  8
0
100
AcDbLine
 10
475.872981
 20
442.109838
 30
0.0
 11
475.872981
 21
455.109838
 31
0.0
  0
LINE
  5
BD21
100
AcDbEntity
  8
0
100
AcDbLine
 10
463.872981
 20
443.385838
 30
0.0
 11
463.872981
 21
455.109838
 31
0.0
  0
ARC
  5
BD2C
100
AcDbEntity
  8
0
100
AcDbCircle
 10
505.372981
 20
456.854421
 30
0.0
 40
14.744583
100
AcDbArc
 50
245.987929
 51
294.012071
  0
LINE
  5
BD2D
100
AcDbEntity
  8
0
100
AcDbLine
 10
499.372981
 20
442.109838
 30
0.0
 11
523.372981
 21
442.109838
 31
0.0
  0
LINE
  5
BD2E
100
AcDbEntity
  8
0
100
AcDbLine
 10
499.372981
 20
442.109838
 30
0.0
 11
499.372981
 21
455.109838
 31
0.0
  0
ARC
  5
BD2F
100
AcDbEntity
  8
0
100
AcDbCircle
 10
517.372981
 20
456.854421
 30
0.0
 40
14.744583
100
AcDbArc
 50
245.987929
 51
294.012071
  0
LINE
  5
BD30
100
AcDbEntity
  8
0
100
AcDbLine
 10
523.372981
 20
442.109838
 30
0.0
 11
523.372981
 21
455.109838
 31
0.0
  0
LINE
  5
BD31
100
AcDbEntity
  8
0
100
AcDbLine
 10
511.372981
 20
443.385838
 30
0.0
 11
511.372981
 21
455.109838
 31
0.0
  0
ARC
  5
BD3C
100
AcDbEntity
  8
0
100
AcDbCircle
 10
564.087181
 20
456.854421
 30
0.0
 40
14.744583
100
AcDbArc
 50
245.987929
 51
294.012071
  0
LINE
  5
BD3D
100
AcDbEntity
  8
0
100
AcDbLine
 10
558.087181
 20
442.109838
 30
0.0
 11
582.087181
 21
442.109838
 31
0.0
  0
LINE
  5
BD3E
100
AcDbEntity
  8
0
100
AcDbLine
 10
558.087181
 20
442.109838
 30
0.0
 11
558.087181
 21
455.109838
 31
0.0
  0
ARC
  5
BD3F
100
AcDbEntity
  8
0
100
AcDbCircle
 10
576.087181
 20
456.854421
 30
0.0
 40
14.744583
100
AcDbArc
 50
245.987929
 51
294.012071
  0
LINE
  5
BD40
100
AcDbEntity
  8
0
100
AcDbLine
 10
582.087181
 20
442.109838
 30
0.0
 11
582.087181
 21
455.109838
 31
0.0
  0
LINE
  5
BD41
100
AcDbEntity
  8
0
100
AcDbLine
 10
570.087181
 20
443.385838
 30
0.0
 11
570.087181
 21
455.109838
 31
0.0
  0
ARC
  5
BD4C
100
AcDbEntity
  8
0
100
AcDbCircle
 10
611.587181
 20
456.854421
 30
0.0
 40
14.744583
100
AcDbArc
 50
245.987929
 51
294.012071
  0
LINE
  5
BD4D
100
AcDbEntity
  8
0
100
AcDbLine
 10
605.587181
 20
442.109838
 30
0.0
 11
629.587181
 21
442.109838
 31
0.0
  0
LINE
  5
BD4E
100
AcDbEntity
  8
0
100
AcDbLine
 10
605.587181
 20
442.109838
 30
0.0
 11
605.587181
 21
455.109838
 31
0.0
  0
ARC
  5
BD4F
100
AcDbEntity
  8
0
100
AcDbCircle
 10
623.587181
 20
456.854421
 30
0.0
 40
14.744583
100
AcDbArc
 50
245.987929
 51
294.012071
  0
LINE
  5
BD50
100
AcDbEntity
  8
0
100
AcDbLine
 10
629.587181
 20
442.109838
 30
0.0
 11
629.587181
 21
455.109838
 31
0.0
  0
LINE
  5
BD51
100
AcDbEntity
  8
0
100
AcDbLine
 10
617.587181
 20
443.385838
 30
0.0
 11
617.587181
 21
455.109838
 31
0.0
  0
ARC
  5
BD65
100
AcDbEntity
  8
0
100
AcDbCircle
 10
629.730581
 20
456.854421
 30
0.0
 40
14.744583
100
AcDbArc
 50
269.442755
 51
294.012071
  0
LINE
  5
BD66
100
AcDbEntity
  8
0
100
AcDbLine
 10
623.730581
 20
442.109838
 30
0.0
 11
647.730581
 21
442.109838
 31
0.0
  0
ARC
  5
BD68
100
AcDbEntity
  8
0
100
AcDbCircle
 10
641.730581
 20
456.854421
 30
0.0
 40
14.744583
100
AcDbArc
 50
245.987929
 51
294.012071
  0
LINE
  5
BD69
100
AcDbEntity
  8
0
100
AcDbLine
 10
647.730581
 20
442.109838
 30
0.0
 11
647.730581
 21
455.109838
 31
0.0
  0
LINE
  5
BD6A
100
AcDbEntity
  8
0
100
AcDbLine
 10
635.730581
 20
443.385838
 30
0.0
 11
635.730581
 21
455.109838
 31
0.0
  0
LINE
  5
BD6B
100
AcDbEntity
  8
0
100
AcDbLine
 10
1226.789629
 20
523.315956
 30
0.0
 11
1212.955629
 21
523.315956
 31
0.0
  0
LINE
  5
BD6C
100
AcDbEntity
  8
0
100
AcDbLine
 10
1211.872629
 20
522.232956
 30
0.0
 11
1212.955629
 21
523.315956
 31
0.0
  0
LINE
  5
BD6D
100
AcDbEntity
  8
0
100
AcDbLine
 10
1211.872629
 20
518.609838
 30
0.0
 11
1211.872629
 21
522.232956
 31
0.0
  0
LINE
  5
BD6E
100
AcDbEntity
  8
0
100
AcDbLine
 10
1244.933029
 20
523.315956
 30
0.0
 11
1231.099029
 21
523.315956
 31
0.0
  0
LINE
  5
BD6F
100
AcDbEntity
  8
0
100
AcDbLine
 10
1230.016029
 20
522.232956
 30
0.0
 11
1231.099029
 21
523.315956
 31
0.0
  0
LINE
  5
BD70
100
AcDbEntity
  8
0
100
AcDbLine
 10
1227.872629
 20
522.232956
 30
0.0
 11
1226.789629
 21
523.315956
 31
0.0
  0
LINE
  5
BD71
100
AcDbEntity
  8
0
100
AcDbLine
 10
1230.016029
 20
518.609838
 30
0.0
 11
1230.016029
 21
522.232956
 31
0.0
  0
LINE
  5
BD72
100
AcDbEntity
  8
0
100
AcDbLine
 10
1227.872629
 20
522.232956
 30
0.0
 11
1227.872629
 21
518.609838
 31
0.0
  0
LINE
  5
BD73
100
AcDbEntity
  8
0
100
AcDbLine
 10
1246.016029
 20
522.232956
 30
0.0
 11
1244.933029
 21
523.315956
 31
0.0
  0
LINE
  5
BD74
100
AcDbEntity
  8
0
100
AcDbLine
 10
1246.016029
 20
522.232956
 30
0.0
 11
1246.016029
 21
518.609838
 31
0.0
  0
LINE
  5
BD75
100
AcDbEntity
  8
0
100
AcDbLine
 10
1292.433029
 20
523.315956
 30
0.0
 11
1278.599029
 21
523.315956
 31
0.0
  0
LINE
  5
BD76
100
AcDbEntity
  8
0
100
AcDbLine
 10
1277.516029
 20
522.232956
 30
0.0
 11
1278.599029
 21
523.315956
 31
0.0
  0
LINE
  5
BD77
100
AcDbEntity
  8
0
100
AcDbLine
 10
1293.516029
 20
522.232956
 30
0.0
 11
1292.433029
 21
523.315956
 31
0.0
  0
LINE
  5
BD78
100
AcDbEntity
  8
0
100
AcDbLine
 10
1277.516029
 20
518.609838
 30
0.0
 11
1277.516029
 21
522.232956
 31
0.0
  0
LINE
  5
BD79
100
AcDbEntity
  8
0
100
AcDbLine
 10
1293.516029
 20
522.232956
 30
0.0
 11
1293.516029
 21
518.609838
 31
0.0
  0
LINE
  5
BD7A
100
AcDbEntity
  8
0
100
AcDbLine
 10
1384.813229
 20
523.315956
 30
0.0
 11
1398.647229
 21
523.315956
 31
0.0
  0
LINE
  5
BD7B
100
AcDbEntity
  8
0
100
AcDbLine
 10
1337.313229
 20
523.315956
 30
0.0
 11
1351.147229
 21
523.315956
 31
0.0
  0
LINE
  5
BD7C
100
AcDbEntity
  8
0
100
AcDbLine
 10
1336.230229
 20
522.232956
 30
0.0
 11
1337.313229
 21
523.315956
 31
0.0
  0
LINE
  5
BD7D
100
AcDbEntity
  8
0
100
AcDbLine
 10
1352.230229
 20
522.232956
 30
0.0
 11
1351.147229
 21
523.315956
 31
0.0
  0
LINE
  5
BD7E
100
AcDbEntity
  8
0
100
AcDbLine
 10
1336.230229
 20
522.232956
 30
0.0
 11
1336.230229
 21
518.609838
 31
0.0
  0
LINE
  5
BD7F
100
AcDbEntity
  8
0
100
AcDbLine
 10
1352.230229
 20
518.609838
 30
0.0
 11
1352.230229
 21
522.232956
 31
0.0
  0
LINE
  5
BD80
100
AcDbEntity
  8
0
100
AcDbLine
 10
1383.730229
 20
522.232956
 30
0.0
 11
1384.813229
 21
523.315956
 31
0.0
  0
LINE
  5
BD81
100
AcDbEntity
  8
0
100
AcDbLine
 10
1383.730229
 20
522.232956
 30
0.0
 11
1383.730229
 21
518.609838
 31
0.0
  0
LINE
  5
BD82
100
AcDbEntity
  8
0
100
AcDbLine
 10
1401.873629
 20
522.232956
 30
0.0
 11
1402.956629
 21
523.315956
 31
0.0
  0
LINE
  5
BD83
100
AcDbEntity
  8
0
100
AcDbLine
 10
1417.873629
 20
522.232956
 30
0.0
 11
1416.790629
 21
523.315956
 31
0.0
  0
LINE
  5
BD84
100
AcDbEntity
  8
0
100
AcDbLine
 10
1402.956629
 20
523.315956
 30
0.0
 11
1416.790629
 21
523.315956
 31
0.0
  0
LINE
  5
BD85
100
AcDbEntity
  8
0
100
AcDbLine
 10
1399.730229
 20
522.232956
 30
0.0
 11
1398.647229
 21
523.315956
 31
0.0
  0
LINE
  5
BD86
100
AcDbEntity
  8
0
100
AcDbLine
 10
1401.873629
 20
522.232956
 30
0.0
 11
1401.873629
 21
518.609838
 31
0.0
  0
LINE
  5
BD87
100
AcDbEntity
  8
0
100
AcDbLine
 10
1417.873629
 20
518.609838
 30
0.0
 11
1417.873629
 21
522.232956
 31
0.0
  0
LINE
  5
BD88
100
AcDbEntity
  8
0
100
AcDbLine
 10
1399.730229
 20
518.609838
 30
0.0
 11
1399.730229
 21
522.232956
 31
0.0
  0
LINE
  5
BD89
100
AcDbEntity
  8
0
100
AcDbLine
 10
1424.373129
 20
455.109838
 30
0.0
 11
1205.373129
 21
455.109838
 31
0.0
  0
LINE
  5
BD8A
100
AcDbEntity
  8
0
100
AcDbLine
 10
1207.872629
 20
442.109838
 30
0.0
 11
1231.872629
 21
442.109838
 31
0.0
  0
ARC
  5
BD8B
100
AcDbEntity
  8
0
100
AcDbCircle
 10
1213.872629
 20
456.854421
 30
0.0
 40
14.744583
100
AcDbArc
 50
245.987929
 51
294.012071
  0
LINE
  5
BD8C
100
AcDbEntity
  8
0
100
AcDbLine
 10
1226.789629
 20
438.315956
 30
0.0
 11
1212.955629
 21
438.315956
 31
0.0
  0
LINE
  5
BD8D
100
AcDbEntity
  8
0
100
AcDbLine
 10
1207.872629
 20
442.109838
 30
0.0
 11
1207.872629
 21
455.109838
 31
0.0
  0
LINE
  5
BD8E
100
AcDbEntity
  8
0
100
AcDbLine
 10
1211.872629
 20
439.398956
 30
0.0
 11
1211.872629
 21
442.109838
 31
0.0
  0
LINE
  5
BD8F
100
AcDbEntity
  8
0
100
AcDbLine
 10
1212.955629
 20
438.315956
 30
0.0
 11
1211.872629
 21
439.398956
 31
0.0
  0
ARC
  5
BD90
100
AcDbEntity
  8
0
100
AcDbCircle
 10
1205.373129
 20
458.109838
 30
0.0
 40
3.0
100
AcDbArc
 50
180.0
 51
270.0
  0
ARC
  5
BD91
100
AcDbEntity
  8
0
100
AcDbCircle
 10
1263.159926
 20
440.109838
 30
0.0
 40
15.0
100
AcDbArc
 50
46.337673
 51
90.0
  0
ARC
  5
BD92
100
AcDbEntity
  8
0
100
AcDbCircle
 10
1244.016029
 20
456.854421
 30
0.0
 40
14.744583
100
AcDbArc
 50
245.987929
 51
294.012071
  0
LINE
  5
BD93
100
AcDbEntity
  8
0
100
AcDbLine
 10
1226.016029
 20
442.109838
 30
0.0
 11
1250.016029
 21
442.109838
 31
0.0
  0
LINE
  5
BD94
100
AcDbEntity
  8
0
100
AcDbLine
 10
1244.933029
 20
438.315956
 30
0.0
 11
1231.099029
 21
438.315956
 31
0.0
  0
ARC
  5
BD95
100
AcDbEntity
  8
0
100
AcDbCircle
 10
1225.872629
 20
456.854421
 30
0.0
 40
14.744583
100
AcDbArc
 50
245.987929
 51
270.557245
  0
LINE
  5
BD96
100
AcDbEntity
  8
0
100
AcDbLine
 10
1238.016029
 20
443.385838
 30
0.0
 11
1238.016029
 21
455.109838
 31
0.0
  0
LINE
  5
BD97
100
AcDbEntity
  8
0
100
AcDbLine
 10
1226.016029
 20
442.109838
 30
0.0
 11
1226.016029
 21
455.109838
 31
0.0
  0
ARC
  5
BD98
100
AcDbEntity
  8
0
100
AcDbCircle
 10
1232.016029
 20
456.854421
 30
0.0
 40
14.744583
100
AcDbArc
 50
245.987929
 51
294.012071
  0
LINE
  5
BD99
100
AcDbEntity
  8
0
100
AcDbLine
 10
1219.872629
 20
443.385838
 30
0.0
 11
1219.872629
 21
455.109838
 31
0.0
  0
LINE
  5
BD9A
100
AcDbEntity
  8
0
100
AcDbLine
 10
1230.016029
 20
439.398956
 30
0.0
 11
1230.016029
 21
442.109838
 31
0.0
  0
LINE
  5
BD9B
100
AcDbEntity
  8
0
100
AcDbLine
 10
1231.099029
 20
438.315956
 30
0.0
 11
1230.016029
 21
439.398956
 31
0.0
  0
LINE
  5
BD9C
100
AcDbEntity
  8
0
100
AcDbLine
 10
1227.872629
 20
442.109838
 30
0.0
 11
1227.872629
 21
439.398956
 31
0.0
  0
LINE
  5
BD9D
100
AcDbEntity
  8
0
100
AcDbLine
 10
1227.872629
 20
439.398956
 30
0.0
 11
1226.789629
 21
438.315956
 31
0.0
  0
LINE
  5
BD9E
100
AcDbEntity
  8
0
100
AcDbLine
 10
1250.016029
 20
442.109838
 30
0.0
 11
1250.016029
 21
455.109838
 31
0.0
  0
LINE
  5
BD9F
100
AcDbEntity
  8
0
100
AcDbLine
 10
1246.016029
 20
442.109838
 30
0.0
 11
1246.016029
 21
439.398956
 31
0.0
  0
LINE
  5
BDA0
100
AcDbEntity
  8
0
100
AcDbLine
 10
1246.016029
 20
439.398956
 30
0.0
 11
1244.933029
 21
438.315956
 31
0.0
  0
LINE
  5
BDA1
100
AcDbEntity
  8
0
100
AcDbLine
 10
1285.516029
 20
443.385838
 30
0.0
 11
1285.516029
 21
455.109838
 31
0.0
  0
LINE
  5
BDA2
100
AcDbEntity
  8
0
100
AcDbLine
 10
1297.516029
 20
442.109838
 30
0.0
 11
1297.516029
 21
455.109838
 31
0.0
  0
ARC
  5
BDA3
100
AcDbEntity
  8
0
100
AcDbCircle
 10
1291.516029
 20
456.854421
 30
0.0
 40
14.744583
100
AcDbArc
 50
245.987929
 51
294.012071
  0
LINE
  5
BDA4
100
AcDbEntity
  8
0
100
AcDbLine
 10
1273.516029
 20
442.109838
 30
0.0
 11
1273.516029
 21
455.109838
 31
0.0
  0
LINE
  5
BDA5
100
AcDbEntity
  8
0
100
AcDbLine
 10
1273.516029
 20
442.109838
 30
0.0
 11
1297.516029
 21
442.109838
 31
0.0
  0
ARC
  5
BDA6
100
AcDbEntity
  8
0
100
AcDbCircle
 10
1279.516029
 20
456.854421
 30
0.0
 40
14.744583
100
AcDbArc
 50
245.987929
 51
294.012071
  0
LINE
  5
BDA7
100
AcDbEntity
  8
0
100
AcDbLine
 10
1292.433029
 20
438.315956
 30
0.0
 11
1278.599029
 21
438.315956
 31
0.0
  0
LINE
  5
BDA8
100
AcDbEntity
  8
0
100
AcDbLine
 10
1277.516029
 20
439.398956
 30
0.0
 11
1277.516029
 21
442.109838
 31
0.0
  0
LINE
  5
BDA9
100
AcDbEntity
  8
0
100
AcDbLine
 10
1278.599029
 20
438.315956
 30
0.0
 11
1277.516029
 21
439.398956
 31
0.0
  0
LINE
  5
BDAA
100
AcDbEntity
  8
0
100
AcDbLine
 10
1293.516029
 20
442.109838
 30
0.0
 11
1293.516029
 21
439.398956
 31
0.0
  0
LINE
  5
BDAC
100
AcDbEntity
  8
0
100
AcDbLine
 10
1293.516029
 20
439.398956
 30
0.0
 11
1292.433029
 21
438.315956
 31
0.0
  0
LINE
  5
BDAD
100
AcDbEntity
  8
0
100
AcDbLine
 10
1379.730229
 20
442.109838
 30
0.0
 11
1403.730229
 21
442.109838
 31
0.0
  0
ARC
  5
BDAE
100
AcDbEntity
  8
0
100
AcDbCircle
 10
1385.730229
 20
456.854421
 30
0.0
 40
14.744583
100
AcDbArc
 50
245.987929
 51
294.012071
  0
LINE
  5
BDAF
100
AcDbEntity
  8
0
100
AcDbLine
 10
1384.813229
 20
438.315956
 30
0.0
 11
1398.647229
 21
438.315956
 31
0.0
  0
ARC
  5
BDB0
100
AcDbEntity
  8
0
100
AcDbCircle
 10
1366.586333
 20
440.109838
 30
0.0
 40
15.0
100
AcDbArc
 50
90.0
 51
133.662327
  0
LINE
  5
BDB1
100
AcDbEntity
  8
0
100
AcDbLine
 10
1344.230229
 20
443.385838
 30
0.0
 11
1344.230229
 21
455.109838
 31
0.0
  0
LINE
  5
BDB2
100
AcDbEntity
  8
0
100
AcDbLine
 10
1356.230229
 20
442.109838
 30
0.0
 11
1356.230229
 21
455.109838
 31
0.0
  0
ARC
  5
BDB3
100
AcDbEntity
  8
0
100
AcDbCircle
 10
1350.230229
 20
456.854421
 30
0.0
 40
14.744583
100
AcDbArc
 50
245.987929
 51
294.012071
  0
LINE
  5
BDB4
100
AcDbEntity
  8
0
100
AcDbLine
 10
1332.230229
 20
442.109838
 30
0.0
 11
1332.230229
 21
455.109838
 31
0.0
  0
LINE
  5
BDB5
100
AcDbEntity
  8
0
100
AcDbLine
 10
1332.230229
 20
442.109838
 30
0.0
 11
1356.230229
 21
442.109838
 31
0.0
  0
ARC
  5
BDB6
100
AcDbEntity
  8
0
100
AcDbCircle
 10
1338.230229
 20
456.854421
 30
0.0
 40
14.744583
100
AcDbArc
 50
245.987929
 51
294.012071
  0
LINE
  5
BDB7
100
AcDbEntity
  8
0
100
AcDbLine
 10
1337.313229
 20
438.315956
 30
0.0
 11
1351.147229
 21
438.315956
 31
0.0
  0
LINE
  5
BDB8
100
AcDbEntity
  8
0
100
AcDbLine
 10
1336.230229
 20
439.398956
 30
0.0
 11
1337.313229
 21
438.315956
 31
0.0
  0
LINE
  5
BDB9
100
AcDbEntity
  8
0
100
AcDbLine
 10
1336.230229
 20
442.109838
 30
0.0
 11
1336.230229
 21
439.398956
 31
0.0
  0
LINE
  5
BDBB
100
AcDbEntity
  8
0
100
AcDbLine
 10
1351.147229
 20
438.315956
 30
0.0
 11
1352.230229
 21
439.398956
 31
0.0
  0
LINE
  5
BDBC
100
AcDbEntity
  8
0
100
AcDbLine
 10
1352.230229
 20
439.398956
 30
0.0
 11
1352.230229
 21
442.109838
 31
0.0
  0
LINE
  5
BDBD
100
AcDbEntity
  8
0
100
AcDbLine
 10
1379.730229
 20
442.109838
 30
0.0
 11
1379.730229
 21
455.109838
 31
0.0
  0
LINE
  5
BDBE
100
AcDbEntity
  8
0
100
AcDbLine
 10
1383.730229
 20
439.398956
 30
0.0
 11
1384.813229
 21
438.315956
 31
0.0
  0
LINE
  5
BDBF
100
AcDbEntity
  8
0
100
AcDbLine
 10
1383.730229
 20
442.109838
 30
0.0
 11
1383.730229
 21
439.398956
 31
0.0
  0
ARC
  5
BDC0
100
AcDbEntity
  8
0
100
AcDbCircle
 10
1415.873629
 20
456.854421
 30
0.0
 40
14.744583
100
AcDbArc
 50
245.987929
 51
294.012071
  0
LINE
  5
BDC1
100
AcDbEntity
  8
0
100
AcDbLine
 10
1397.873629
 20
442.109838
 30
0.0
 11
1421.873629
 21
442.109838
 31
0.0
  0
ARC
  5
BDC2
100
AcDbEntity
  8
0
100
AcDbCircle
 10
1403.873629
 20
456.854421
 30
0.0
 40
14.744583
100
AcDbArc
 50
269.442755
 51
294.012071
  0
LINE
  5
BDC3
100
AcDbEntity
  8
0
100
AcDbLine
 10
1409.873629
 20
443.385838
 30
0.0
 11
1409.873629
 21
455.109838
 31
0.0
  0
LINE
  5
BDC4
100
AcDbEntity
  8
0
100
AcDbLine
 10
1391.730229
 20
443.385838
 30
0.0
 11
1391.730229
 21
455.109838
 31
0.0
  0
LINE
  5
BDC5
100
AcDbEntity
  8
0
100
AcDbLine
 10
1403.730229
 20
442.109838
 30
0.0
 11
1403.730229
 21
455.109838
 31
0.0
  0
ARC
  5
BDC6
100
AcDbEntity
  8
0
100
AcDbCircle
 10
1397.730229
 20
456.854421
 30
0.0
 40
14.744583
100
AcDbArc
 50
245.987929
 51
294.012071
  0
LINE
  5
BDC7
100
AcDbEntity
  8
0
100
AcDbLine
 10
1401.873629
 20
439.398956
 30
0.0
 11
1402.956629
 21
438.315956
 31
0.0
  0
LINE
  5
BDC8
100
AcDbEntity
  8
0
100
AcDbLine
 10
1416.790629
 20
438.315956
 30
0.0
 11
1417.873629
 21
439.398956
 31
0.0
  0
LINE
  5
BDC9
100
AcDbEntity
  8
0
100
AcDbLine
 10
1417.873629
 20
439.398956
 30
0.0
 11
1417.873629
 21
442.109838
 31
0.0
  0
LINE
  5
BDCA
100
AcDbEntity
  8
0
100
AcDbLine
 10
1402.956629
 20
438.315956
 30
0.0
 11
1416.790629
 21
438.315956
 31
0.0
  0
LINE
  5
BDCB
100
AcDbEntity
  8
0
100
AcDbLine
 10
1401.873629
 20
442.109838
 30
0.0
 11
1401.873629
 21
439.398956
 31
0.0
  0
LINE
  5
BDCC
100
AcDbEntity
  8
0
100
AcDbLine
 10
1399.730229
 20
439.398956
 30
0.0
 11
1399.730229
 21
442.109838
 31
0.0
  0
LINE
  5
BDCD
100
AcDbEntity
  8
0
100
AcDbLine
 10
1398.647229
 20
438.315956
 30
0.0
 11
1399.730229
 21
439.398956
 31
0.0
  0
LINE
  5
BDCE
100
AcDbEntity
  8
0
100
AcDbLine
 10
1421.873629
 20
442.109838
 30
0.0
 11
1421.873629
 21
455.109838
 31
0.0
  0
ARC
  5
BDCF
100
AcDbEntity
  8
0
100
AcDbCircle
 10
1424.373129
 20
458.109838
 30
0.0
 40
3.0
100
AcDbArc
 50
270.0
 51
0.0
  0
LINE
  5
BDD0
100
AcDbEntity
  8
0
100
AcDbLine
 10
1399.873129
 20
613.109838
 30
0.0
 11
1229.873129
 21
613.109838
 31
0.0
  0
LINE
  5
BDD1
100
AcDbEntity
  8
0
100
AcDbLine
 10
1269.123129
 20
600.109838
 30
0.0
 11
1293.123129
 21
600.109838
 31
0.0
  0
ARC
  5
BDD2
100
AcDbEntity
  8
0
100
AcDbCircle
 10
1275.123129
 20
614.854421
 30
0.0
 40
14.744583
100
AcDbArc
 50
245.987929
 51
294.012071
  0
LINE
  5
BDD3
100
AcDbEntity
  8
0
100
AcDbLine
 10
1264.411877
 20
609.741606
 30
0.0
 11
1266.272374
 21
598.109838
 31
0.0
  0
LINE
  5
BDD4
100
AcDbEntity
  8
0
100
AcDbLine
 10
1255.373129
 20
600.109838
 30
0.0
 11
1255.373129
 21
597.398956
 31
0.0
  0
LINE
  5
BDD5
100
AcDbEntity
  8
0
100
AcDbLine
 10
1239.373129
 20
597.398956
 30
0.0
 11
1239.373129
 21
600.109838
 31
0.0
  0
LINE
  5
BDD6
100
AcDbEntity
  8
0
100
AcDbLine
 10
1254.290129
 20
596.315956
 30
0.0
 11
1240.456129
 21
596.315956
 31
0.0
  0
LINE
  5
BDD7
100
AcDbEntity
  8
0
100
AcDbLine
 10
1240.456129
 20
596.315956
 30
0.0
 11
1239.373129
 21
597.398956
 31
0.0
  0
LINE
  5
BDD8
100
AcDbEntity
  8
0
100
AcDbLine
 10
1266.272374
 20
598.109838
 30
0.0
 11
1266.157591
 21
594.82288
 31
0.0
  0
LINE
  5
BDDA
100
AcDbEntity
  8
0
100
AcDbLine
 10
1255.373129
 20
597.398956
 30
0.0
 11
1254.290129
 21
596.315956
 31
0.0
  0
LINE
  5
BDDB
100
AcDbEntity
  8
0
100
AcDbLine
 10
1235.373129
 20
600.109838
 30
0.0
 11
1259.373129
 21
600.109838
 31
0.0
  0
ARC
  5
BDDC
100
AcDbEntity
  8
0
100
AcDbCircle
 10
1241.373129
 20
614.854421
 30
0.0
 40
14.744583
100
AcDbArc
 50
245.987929
 51
294.012071
  0
LINE
  5
BDDD
100
AcDbEntity
  8
0
100
AcDbLine
 10
1235.373129
 20
600.109838
 30
0.0
 11
1235.373129
 21
613.109838
 31
0.0
  0
LINE
  5
BDDE
100
AcDbEntity
  8
0
100
AcDbLine
 10
1269.123129
 20
600.109838
 30
0.0
 11
1269.123129
 21
613.109838
 31
0.0
  0
LINE
  5
BDDF
100
AcDbEntity
  8
0
100
AcDbLine
 10
1247.373129
 20
601.385838
 30
0.0
 11
1247.373129
 21
613.109838
 31
0.0
  0
LINE
  5
BDE0
100
AcDbEntity
  8
0
100
AcDbLine
 10
1259.373129
 20
600.109838
 30
0.0
 11
1259.373129
 21
613.109838
 31
0.0
  0
ARC
  5
BDE1
100
AcDbEntity
  8
0
100
AcDbCircle
 10
1253.373129
 20
614.854421
 30
0.0
 40
14.744583
100
AcDbArc
 50
245.987929
 51
294.012071
  0
ARC
  5
BDE2
100
AcDbEntity
  8
0
100
AcDbCircle
 10
1260.462083
 20
609.109838
 30
0.0
 40
4.0
100
AcDbArc
 50
9.087463
 51
90.0
  0
LINE
  5
BDE3
100
AcDbEntity
  8
0
100
AcDbLine
 10
1289.123129
 20
600.109838
 30
0.0
 11
1289.123129
 21
597.398956
 31
0.0
  0
LINE
  5
BDE4
100
AcDbEntity
  8
0
100
AcDbLine
 10
1273.123129
 20
597.398956
 30
0.0
 11
1273.123129
 21
600.109838
 31
0.0
  0
LINE
  5
BDE5
100
AcDbEntity
  8
0
100
AcDbLine
 10
1289.123129
 20
597.398956
 30
0.0
 11
1288.040129
 21
596.315956
 31
0.0
  0
LINE
  5
BDE6
100
AcDbEntity
  8
0
100
AcDbLine
 10
1274.206129
 20
596.315956
 30
0.0
 11
1273.123129
 21
597.398956
 31
0.0
  0
LINE
  5
BDE7
100
AcDbEntity
  8
0
100
AcDbLine
 10
1288.040129
 20
596.315956
 30
0.0
 11
1274.206129
 21
596.315956
 31
0.0
  0
LINE
  5
BDE8
100
AcDbEntity
  8
0
100
AcDbLine
 10
1281.123129
 20
601.385838
 30
0.0
 11
1281.123129
 21
613.109838
 31
0.0
  0
LINE
  5
BDE9
100
AcDbEntity
  8
0
100
AcDbLine
 10
1293.123129
 20
600.109838
 30
0.0
 11
1293.123129
 21
613.109838
 31
0.0
  0
ARC
  5
BDEA
100
AcDbEntity
  8
0
100
AcDbCircle
 10
1287.123129
 20
614.854421
 30
0.0
 40
14.744583
100
AcDbArc
 50
245.987929
 51
294.012071
  0
ARC
  5
BDEB
100
AcDbEntity
  8
0
100
AcDbCircle
 10
1388.373129
 20
614.854421
 30
0.0
 40
14.744583
100
AcDbArc
 50
245.987929
 51
294.012071
  0
LINE
  5
BDEC
100
AcDbEntity
  8
0
100
AcDbLine
 10
1370.373129
 20
600.109838
 30
0.0
 11
1394.373129
 21
600.109838
 31
0.0
  0
LINE
  5
BDED
100
AcDbEntity
  8
0
100
AcDbLine
 10
1375.456129
 20
596.315956
 30
0.0
 11
1389.290129
 21
596.315956
 31
0.0
  0
LINE
  5
BDEE
100
AcDbEntity
  8
0
100
AcDbLine
 10
1374.373129
 20
600.109838
 30
0.0
 11
1374.373129
 21
597.398956
 31
0.0
  0
LINE
  5
BDEF
100
AcDbEntity
  8
0
100
AcDbLine
 10
1340.623129
 20
600.109838
 30
0.0
 11
1340.623129
 21
597.398956
 31
0.0
  0
LINE
  5
BDF0
100
AcDbEntity
  8
0
100
AcDbLine
 10
1365.334382
 20
609.741606
 30
0.0
 11
1363.473885
 21
598.109838
 31
0.0
  0
LINE
  5
BDF1
100
AcDbEntity
  8
0
100
AcDbLine
 10
1356.623129
 20
597.398956
 30
0.0
 11
1356.623129
 21
600.109838
 31
0.0
  0
LINE
  5
BDF2
100
AcDbEntity
  8
0
100
AcDbLine
 10
1341.706129
 20
596.315956
 30
0.0
 11
1355.540129
 21
596.315956
 31
0.0
  0
LINE
  5
BDF3
100
AcDbEntity
  8
0
100
AcDbLine
 10
1340.623129
 20
597.398956
 30
0.0
 11
1341.706129
 21
596.315956
 31
0.0
  0
LINE
  5
BDF4
100
AcDbEntity
  8
0
100
AcDbLine
 10
1355.540129
 20
596.315956
 30
0.0
 11
1356.623129
 21
597.398956
 31
0.0
  0
LINE
  5
BDF5
100
AcDbEntity
  8
0
100
AcDbLine
 10
1374.373129
 20
597.398956
 30
0.0
 11
1375.456129
 21
596.315956
 31
0.0
  0
LINE
  5
BDF7
100
AcDbEntity
  8
0
100
AcDbLine
 10
1363.473885
 20
598.109838
 30
0.0
 11
1363.588668
 21
594.82288
 31
0.0
  0
ARC
  5
BDF8
100
AcDbEntity
  8
0
100
AcDbCircle
 10
1354.623129
 20
614.854421
 30
0.0
 40
14.744583
100
AcDbArc
 50
245.987929
 51
294.012071
  0
LINE
  5
BDF9
100
AcDbEntity
  8
0
100
AcDbLine
 10
1336.623129
 20
600.109838
 30
0.0
 11
1360.623129
 21
600.109838
 31
0.0
  0
LINE
  5
BDFA
100
AcDbEntity
  8
0
100
AcDbLine
 10
1348.623129
 20
601.385838
 30
0.0
 11
1348.623129
 21
613.109838
 31
0.0
  0
LINE
  5
BDFB
100
AcDbEntity
  8
0
100
AcDbLine
 10
1336.623129
 20
600.109838
 30
0.0
 11
1336.623129
 21
613.109838
 31
0.0
  0
ARC
  5
BDFC
100
AcDbEntity
  8
0
100
AcDbCircle
 10
1342.623129
 20
614.854421
 30
0.0
 40
14.744583
100
AcDbArc
 50
245.987929
 51
294.012071
  0
LINE
  5
BDFD
100
AcDbEntity
  8
0
100
AcDbLine
 10
1382.373129
 20
601.385838
 30
0.0
 11
1382.373129
 21
613.109838
 31
0.0
  0
LINE
  5
BDFE
100
AcDbEntity
  8
0
100
AcDbLine
 10
1370.373129
 20
600.109838
 30
0.0
 11
1370.373129
 21
613.109838
 31
0.0
  0
ARC
  5
BDFF
100
AcDbEntity
  8
0
100
AcDbCircle
 10
1376.373129
 20
614.854421
 30
0.0
 40
14.744583
100
AcDbArc
 50
245.987929
 51
294.012071
  0
LINE
  5
BE00
100
AcDbEntity
  8
0
100
AcDbLine
 10
1360.623129
 20
600.109838
 30
0.0
 11
1360.623129
 21
613.109838
 31
0.0
  0
ARC
  5
BE01
100
AcDbEntity
  8
0
100
AcDbCircle
 10
1369.284175
 20
609.109838
 30
0.0
 40
4.0
100
AcDbArc
 50
90.0
 51
170.912537
  0
LINE
  5
BE02
100
AcDbEntity
  8
0
100
AcDbLine
 10
1390.373129
 20
597.398956
 30
0.0
 11
1390.373129
 21
600.109838
 31
0.0
  0
LINE
  5
BE03
100
AcDbEntity
  8
0
100
AcDbLine
 10
1389.290129
 20
596.315956
 30
0.0
 11
1390.373129
 21
597.398956
 31
0.0
  0
LINE
  5
BE04
100
AcDbEntity
  8
0
100
AcDbLine
 10
1394.373129
 20
600.109838
 30
0.0
 11
1394.373129
 21
613.109838
 31
0.0
  0
ARC
  5
BE05
100
AcDbEntity
  8
0
100
AcDbCircle
 10
1732.022986
 20
614.854421
 30
0.0
 40
14.744583
100
AcDbArc
 50
245.987929
 51
294.012071
  0
LINE
  5
BE06
100
AcDbEntity
  8
0
100
AcDbLine
 10
1714.022986
 20
600.109838
 30
0.0
 11
1738.022986
 21
600.109838
 31
0.0
  0
LINE
  5
BE07
100
AcDbEntity
  8
0
100
AcDbLine
 10
1732.939986
 20
596.315956
 30
0.0
 11
1719.105986
 21
596.315956
 31
0.0
  0
LINE
  5
BE08
100
AcDbEntity
  8
0
100
AcDbLine
 10
1878.522986
 20
613.109838
 30
0.0
 11
1708.522986
 21
613.109838
 31
0.0
  0
LINE
  5
BE09
100
AcDbEntity
  8
0
100
AcDbLine
 10
1718.022986
 20
597.398956
 30
0.0
 11
1718.022986
 21
600.109838
 31
0.0
  0
LINE
  5
BE0A
100
AcDbEntity
  8
0
100
AcDbLine
 10
1719.105986
 20
596.315956
 30
0.0
 11
1718.022986
 21
597.398956
 31
0.0
  0
LINE
  5
BE0B
100
AcDbEntity
  8
0
100
AcDbLine
 10
1726.022986
 20
601.385838
 30
0.0
 11
1726.022986
 21
613.109838
 31
0.0
  0
LINE
  5
BE0C
100
AcDbEntity
  8
0
100
AcDbLine
 10
1714.022986
 20
600.109838
 30
0.0
 11
1714.022986
 21
613.109838
 31
0.0
  0
ARC
  5
BE0D
100
AcDbEntity
  8
0
100
AcDbCircle
 10
1720.022986
 20
614.854421
 30
0.0
 40
14.744583
100
AcDbArc
 50
245.987929
 51
294.012071
  0
ARC
  5
BE0E
100
AcDbEntity
  8
0
100
AcDbCircle
 10
1847.934032
 20
609.109838
 30
0.0
 40
4.0
100
AcDbArc
 50
90.0
 51
170.912537
  0
LINE
  5
BE0F
100
AcDbEntity
  8
0
100
AcDbLine
 10
1751.772986
 20
597.398956
 30
0.0
 11
1751.772986
 21
600.109838
 31
0.0
  0
LINE
  5
BE10
100
AcDbEntity
  8
0
100
AcDbLine
 10
1767.772986
 20
600.109838
 30
0.0
 11
1767.772986
 21
597.398956
 31
0.0
  0
LINE
  5
BE11
100
AcDbEntity
  8
0
100
AcDbLine
 10
1734.022986
 20
600.109838
 30
0.0
 11
1734.022986
 21
597.398956
 31
0.0
  0
LINE
  5
BE12
100
AcDbEntity
  8
0
100
AcDbLine
 10
1743.061733
 20
609.741606
 30
0.0
 11
1744.92223
 21
598.109838
 31
0.0
  0
LINE
  5
BE13
100
AcDbEntity
  8
0
100
AcDbLine
 10
1766.689986
 20
596.315956
 30
0.0
 11
1752.855986
 21
596.315956
 31
0.0
  0
LINE
  5
BE14
100
AcDbEntity
  8
0
100
AcDbLine
 10
1752.855986
 20
596.315956
 30
0.0
 11
1751.772986
 21
597.398956
 31
0.0
  0
LINE
  5
BE15
100
AcDbEntity
  8
0
100
AcDbLine
 10
1734.022986
 20
597.398956
 30
0.0
 11
1732.939986
 21
596.315956
 31
0.0
  0
LINE
  5
BE16
100
AcDbEntity
  8
0
100
AcDbLine
 10
1744.92223
 20
598.109838
 30
0.0
 11
1744.807447
 21
594.82288
 31
0.0
  0
LINE
  5
BE17
100
AcDbEntity
  8
0
100
AcDbLine
 10
1767.772986
 20
597.398956
 30
0.0
 11
1766.689986
 21
596.315956
 31
0.0
  0
ARC
  5
BE18
100
AcDbEntity
  8
0
100
AcDbCircle
 10
1765.772986
 20
614.854421
 30
0.0
 40
14.744583
100
AcDbArc
 50
245.987929
 51
294.012071
  0
LINE
  5
BE19
100
AcDbEntity
  8
0
100
AcDbLine
 10
1747.772986
 20
600.109838
 30
0.0
 11
1771.772986
 21
600.109838
 31
0.0
  0
LINE
  5
BE1A
100
AcDbEntity
  8
0
100
AcDbLine
 10
1759.772986
 20
601.385838
 30
0.0
 11
1759.772986
 21
613.109838
 31
0.0
  0
ARC
  5
BE1B
100
AcDbEntity
  8
0
100
AcDbCircle
 10
1739.11194
 20
609.109838
 30
0.0
 40
4.0
100
AcDbArc
 50
9.087463
 51
90.0
  0
LINE
  5
BE1C
100
AcDbEntity
  8
0
100
AcDbLine
 10
1738.022986
 20
600.109838
 30
0.0
 11
1738.022986
 21
613.109838
 31
0.0
  0
LINE
  5
BE1D
100
AcDbEntity
  8
0
100
AcDbLine
 10
1747.772986
 20
600.109838
 30
0.0
 11
1747.772986
 21
613.109838
 31
0.0
  0
ARC
  5
BE1E
100
AcDbEntity
  8
0
100
AcDbCircle
 10
1753.772986
 20
614.854421
 30
0.0
 40
14.744583
100
AcDbArc
 50
245.987929
 51
294.012071
  0
LINE
  5
BE1F
100
AcDbEntity
  8
0
100
AcDbLine
 10
1771.772986
 20
600.109838
 30
0.0
 11
1771.772986
 21
613.109838
 31
0.0
  0
LINE
  5
BE20
100
AcDbEntity
  8
0
100
AcDbLine
 10
1835.272986
 20
597.398956
 30
0.0
 11
1835.272986
 21
600.109838
 31
0.0
  0
LINE
  5
BE21
100
AcDbEntity
  8
0
100
AcDbLine
 10
1843.984238
 20
609.741606
 30
0.0
 11
1842.123741
 21
598.109838
 31
0.0
  0
LINE
  5
BE22
100
AcDbEntity
  8
0
100
AcDbLine
 10
1819.272986
 20
600.109838
 30
0.0
 11
1819.272986
 21
597.398956
 31
0.0
  0
LINE
  5
BE23
100
AcDbEntity
  8
0
100
AcDbLine
 10
1842.123741
 20
598.109838
 30
0.0
 11
1842.238524
 21
594.82288
 31
0.0
  0
LINE
  5
BE24
100
AcDbEntity
  8
0
100
AcDbLine
 10
1834.189986
 20
596.315956
 30
0.0
 11
1835.272986
 21
597.398956
 31
0.0
  0
LINE
  5
BE25
100
AcDbEntity
  8
0
100
AcDbLine
 10
1819.272986
 20
597.398956
 30
0.0
 11
1820.355986
 21
596.315956
 31
0.0
  0
LINE
  5
BE26
100
AcDbEntity
  8
0
100
AcDbLine
 10
1820.355986
 20
596.315956
 30
0.0
 11
1834.189986
 21
596.315956
 31
0.0
  0
ARC
  5
BE27
100
AcDbEntity
  8
0
100
AcDbCircle
 10
1821.272986
 20
614.854421
 30
0.0
 40
14.744583
100
AcDbArc
 50
245.987929
 51
294.012071
  0
LINE
  5
BE28
100
AcDbEntity
  8
0
100
AcDbLine
 10
1815.272986
 20
600.109838
 30
0.0
 11
1839.272986
 21
600.109838
 31
0.0
  0
LINE
  5
BE29
100
AcDbEntity
  8
0
100
AcDbLine
 10
1815.272986
 20
600.109838
 30
0.0
 11
1815.272986
 21
613.109838
 31
0.0
  0
LINE
  5
BE2A
100
AcDbEntity
  8
0
100
AcDbLine
 10
1839.272986
 20
600.109838
 30
0.0
 11
1839.272986
 21
613.109838
 31
0.0
  0
LINE
  5
BE2B
100
AcDbEntity
  8
0
100
AcDbLine
 10
1827.272986
 20
601.385838
 30
0.0
 11
1827.272986
 21
613.109838
 31
0.0
  0
ARC
  5
BE2C
100
AcDbEntity
  8
0
100
AcDbCircle
 10
1833.272986
 20
614.854421
 30
0.0
 40
14.744583
100
AcDbArc
 50
245.987929
 51
294.012071
  0
LINE
  5
BE2D
100
AcDbEntity
  8
0
100
AcDbLine
 10
1869.022986
 20
597.398956
 30
0.0
 11
1869.022986
 21
600.109838
 31
0.0
  0
LINE
  5
BE2E
100
AcDbEntity
  8
0
100
AcDbLine
 10
1853.022986
 20
600.109838
 30
0.0
 11
1853.022986
 21
597.398956
 31
0.0
  0
LINE
  5
BE2F
100
AcDbEntity
  8
0
100
AcDbLine
 10
1867.939986
 20
596.315956
 30
0.0
 11
1869.022986
 21
597.398956
 31
0.0
  0
LINE
  5
BE30
100
AcDbEntity
  8
0
100
AcDbLine
 10
1853.022986
 20
597.398956
 30
0.0
 11
1854.105986
 21
596.315956
 31
0.0
  0
LINE
  5
BE31
100
AcDbEntity
  8
0
100
AcDbLine
 10
1854.105986
 20
596.315956
 30
0.0
 11
1867.939986
 21
596.315956
 31
0.0
  0
LINE
  5
BE32
100
AcDbEntity
  8
0
100
AcDbLine
 10
1873.022986
 20
600.109838
 30
0.0
 11
1873.022986
 21
613.109838
 31
0.0
  0
ARC
  5
BE33
100
AcDbEntity
  8
0
100
AcDbCircle
 10
1855.022986
 20
614.854421
 30
0.0
 40
14.744583
100
AcDbArc
 50
245.987929
 51
294.012071
  0
LINE
  5
BE34
100
AcDbEntity
  8
0
100
AcDbLine
 10
1849.022986
 20
600.109838
 30
0.0
 11
1849.022986
 21
613.109838
 31
0.0
  0
LINE
  5
BE35
100
AcDbEntity
  8
0
100
AcDbLine
 10
1861.022986
 20
601.385838
 30
0.0
 11
1861.022986
 21
613.109838
 31
0.0
  0
LINE
  5
BE36
100
AcDbEntity
  8
0
100
AcDbLine
 10
1849.022986
 20
600.109838
 30
0.0
 11
1873.022986
 21
600.109838
 31
0.0
  0
ARC
  5
BE37
100
AcDbEntity
  8
0
100
AcDbCircle
 10
1867.022986
 20
614.854421
 30
0.0
 40
14.744583
100
AcDbArc
 50
245.987929
 51
294.012071
  0
LINE
  5
BE38
100
AcDbEntity
  8
0
100
AcDbLine
 10
1903.022986
 20
455.109838
 30
0.0
 11
1684.022986
 21
455.109838
 31
0.0
  0
ARC
  5
BE39
100
AcDbEntity
  8
0
100
AcDbCircle
 10
1704.522486
 20
456.854421
 30
0.0
 40
14.744583
100
AcDbArc
 50
245.987929
 51
270.557245
  0
LINE
  5
BE3A
100
AcDbEntity
  8
0
100
AcDbLine
 10
1705.439486
 20
438.315956
 30
0.0
 11
1691.605486
 21
438.315956
 31
0.0
  0
LINE
  5
BE3B
100
AcDbEntity
  8
0
100
AcDbLine
 10
1686.522486
 20
442.109838
 30
0.0
 11
1710.522486
 21
442.109838
 31
0.0
  0
LINE
  5
BE3C
100
AcDbEntity
  8
0
100
AcDbLine
 10
1698.522486
 20
443.385838
 30
0.0
 11
1698.522486
 21
455.109838
 31
0.0
  0
ARC
  5
BE3D
100
AcDbEntity
  8
0
100
AcDbCircle
 10
1684.022986
 20
458.109838
 30
0.0
 40
3.0
100
AcDbArc
 50
180.0
 51
270.0
  0
LINE
  5
BE3E
100
AcDbEntity
  8
0
100
AcDbLine
 10
1691.605486
 20
438.315956
 30
0.0
 11
1690.522486
 21
439.398956
 31
0.0
  0
LINE
  5
BE3F
100
AcDbEntity
  8
0
100
AcDbLine
 10
1690.522486
 20
439.398956
 30
0.0
 11
1690.522486
 21
442.109838
 31
0.0
  0
LINE
  5
BE40
100
AcDbEntity
  8
0
100
AcDbLine
 10
1686.522486
 20
442.109838
 30
0.0
 11
1686.522486
 21
455.109838
 31
0.0
  0
ARC
  5
BE41
100
AcDbEntity
  8
0
100
AcDbCircle
 10
1692.522486
 20
456.854421
 30
0.0
 40
14.744583
100
AcDbArc
 50
245.987929
 51
294.012071
  0
LINE
  5
BE42
100
AcDbEntity
  8
0
100
AcDbLine
 10
1724.665886
 20
439.398956
 30
0.0
 11
1723.582886
 21
438.315956
 31
0.0
  0
LINE
  5
BE43
100
AcDbEntity
  8
0
100
AcDbLine
 10
1724.665886
 20
442.109838
 30
0.0
 11
1724.665886
 21
439.398956
 31
0.0
  0
LINE
  5
BE44
100
AcDbEntity
  8
0
100
AcDbLine
 10
1728.665886
 20
442.109838
 30
0.0
 11
1728.665886
 21
455.109838
 31
0.0
  0
LINE
  5
BE45
100
AcDbEntity
  8
0
100
AcDbLine
 10
1706.522486
 20
439.398956
 30
0.0
 11
1705.439486
 21
438.315956
 31
0.0
  0
LINE
  5
BE46
100
AcDbEntity
  8
0
100
AcDbLine
 10
1706.522486
 20
442.109838
 30
0.0
 11
1706.522486
 21
439.398956
 31
0.0
  0
LINE
  5
BE47
100
AcDbEntity
  8
0
100
AcDbLine
 10
1709.748886
 20
438.315956
 30
0.0
 11
1708.665886
 21
439.398956
 31
0.0
  0
LINE
  5
BE48
100
AcDbEntity
  8
0
100
AcDbLine
 10
1708.665886
 20
439.398956
 30
0.0
 11
1708.665886
 21
442.109838
 31
0.0
  0
ARC
  5
BE49
100
AcDbEntity
  8
0
100
AcDbCircle
 10
1710.665886
 20
456.854421
 30
0.0
 40
14.744583
100
AcDbArc
 50
245.987929
 51
294.012071
  0
LINE
  5
BE4A
100
AcDbEntity
  8
0
100
AcDbLine
 10
1704.665886
 20
442.109838
 30
0.0
 11
1704.665886
 21
455.109838
 31
0.0
  0
LINE
  5
BE4B
100
AcDbEntity
  8
0
100
AcDbLine
 10
1716.665886
 20
443.385838
 30
0.0
 11
1716.665886
 21
455.109838
 31
0.0
  0
LINE
  5
BE4C
100
AcDbEntity
  8
0
100
AcDbLine
 10
1723.582886
 20
438.315956
 30
0.0
 11
1709.748886
 21
438.315956
 31
0.0
  0
LINE
  5
BE4D
100
AcDbEntity
  8
0
100
AcDbLine
 10
1704.665886
 20
442.109838
 30
0.0
 11
1728.665886
 21
442.109838
 31
0.0
  0
ARC
  5
BE4E
100
AcDbEntity
  8
0
100
AcDbCircle
 10
1722.665886
 20
456.854421
 30
0.0
 40
14.744583
100
AcDbArc
 50
245.987929
 51
294.012071
  0
LINE
  5
BE4F
100
AcDbEntity
  8
0
100
AcDbLine
 10
1771.082886
 20
438.315956
 30
0.0
 11
1757.248886
 21
438.315956
 31
0.0
  0
ARC
  5
BE50
100
AcDbEntity
  8
0
100
AcDbCircle
 10
1758.165886
 20
456.854421
 30
0.0
 40
14.744583
100
AcDbArc
 50
245.987929
 51
294.012071
  0
LINE
  5
BE51
100
AcDbEntity
  8
0
100
AcDbLine
 10
1752.165886
 20
442.109838
 30
0.0
 11
1776.165886
 21
442.109838
 31
0.0
  0
LINE
  5
BE52
100
AcDbEntity
  8
0
100
AcDbLine
 10
1757.248886
 20
438.315956
 30
0.0
 11
1756.165886
 21
439.398956
 31
0.0
  0
LINE
  5
BE53
100
AcDbEntity
  8
0
100
AcDbLine
 10
1756.165886
 20
439.398956
 30
0.0
 11
1756.165886
 21
442.109838
 31
0.0
  0
LINE
  5
BE54
100
AcDbEntity
  8
0
100
AcDbLine
 10
1752.165886
 20
442.109838
 30
0.0
 11
1752.165886
 21
455.109838
 31
0.0
  0
ARC
  5
BE55
100
AcDbEntity
  8
0
100
AcDbCircle
 10
1741.809782
 20
440.109838
 30
0.0
 40
15.0
100
AcDbArc
 50
46.337673
 51
90.0
  0
LINE
  5
BE56
100
AcDbEntity
  8
0
100
AcDbLine
 10
1772.165886
 20
439.398956
 30
0.0
 11
1771.082886
 21
438.315956
 31
0.0
  0
LINE
  5
BE57
100
AcDbEntity
  8
0
100
AcDbLine
 10
1772.165886
 20
442.109838
 30
0.0
 11
1772.165886
 21
439.398956
 31
0.0
  0
ARC
  5
BE58
100
AcDbEntity
  8
0
100
AcDbCircle
 10
1770.165886
 20
456.854421
 30
0.0
 40
14.744583
100
AcDbArc
 50
245.987929
 51
294.012071
  0
LINE
  5
BE59
100
AcDbEntity
  8
0
100
AcDbLine
 10
1776.165886
 20
442.109838
 30
0.0
 11
1776.165886
 21
455.109838
 31
0.0
  0
LINE
  5
BE5A
100
AcDbEntity
  8
0
100
AcDbLine
 10
1764.165886
 20
443.385838
 30
0.0
 11
1764.165886
 21
455.109838
 31
0.0
  0
LINE
  5
BE5B
100
AcDbEntity
  8
0
100
AcDbLine
 10
1815.963086
 20
438.315956
 30
0.0
 11
1829.797086
 21
438.315956
 31
0.0
  0
ARC
  5
BE5C
100
AcDbEntity
  8
0
100
AcDbCircle
 10
1816.880086
 20
456.854421
 30
0.0
 40
14.744583
100
AcDbArc
 50
245.987929
 51
294.012071
  0
LINE
  5
BE5D
100
AcDbEntity
  8
0
100
AcDbLine
 10
1810.880086
 20
442.109838
 30
0.0
 11
1834.880086
 21
442.109838
 31
0.0
  0
LINE
  5
BE5E
100
AcDbEntity
  8
0
100
AcDbLine
 10
1814.880086
 20
442.109838
 30
0.0
 11
1814.880086
 21
439.398956
 31
0.0
  0
LINE
  5
BE5F
100
AcDbEntity
  8
0
100
AcDbLine
 10
1814.880086
 20
439.398956
 30
0.0
 11
1815.963086
 21
438.315956
 31
0.0
  0
LINE
  5
BE60
100
AcDbEntity
  8
0
100
AcDbLine
 10
1810.880086
 20
442.109838
 30
0.0
 11
1810.880086
 21
455.109838
 31
0.0
  0
LINE
  5
BE61
100
AcDbEntity
  8
0
100
AcDbLine
 10
1830.880086
 20
439.398956
 30
0.0
 11
1830.880086
 21
442.109838
 31
0.0
  0
LINE
  5
BE62
100
AcDbEntity
  8
0
100
AcDbLine
 10
1829.797086
 20
438.315956
 30
0.0
 11
1830.880086
 21
439.398956
 31
0.0
  0
ARC
  5
BE63
100
AcDbEntity
  8
0
100
AcDbCircle
 10
1828.880086
 20
456.854421
 30
0.0
 40
14.744583
100
AcDbArc
 50
245.987929
 51
294.012071
  0
LINE
  5
BE64
100
AcDbEntity
  8
0
100
AcDbLine
 10
1834.880086
 20
442.109838
 30
0.0
 11
1834.880086
 21
455.109838
 31
0.0
  0
LINE
  5
BE65
100
AcDbEntity
  8
0
100
AcDbLine
 10
1822.880086
 20
443.385838
 30
0.0
 11
1822.880086
 21
455.109838
 31
0.0
  0
ARC
  5
BE66
100
AcDbEntity
  8
0
100
AcDbCircle
 10
1845.236189
 20
440.109838
 30
0.0
 40
15.0
100
AcDbArc
 50
90.0
 51
133.662327
  0
ARC
  5
BE67
100
AcDbEntity
  8
0
100
AcDbCircle
 10
1903.022986
 20
458.109838
 30
0.0
 40
3.0
100
AcDbArc
 50
270.0
 51
0.0
  0
ARC
  5
BE68
100
AcDbEntity
  8
0
100
AcDbCircle
 10
1903.022986
 20
458.109838
 30
0.0
 40
3.0
100
AcDbArc
 50
270.0
 51
0.0
  0
ARC
  5
BE69
100
AcDbEntity
  8
0
100
AcDbCircle
 10
1876.380086
 20
456.854421
 30
0.0
 40
14.744583
100
AcDbArc
 50
245.987929
 51
294.012071
  0
LINE
  5
BE6A
100
AcDbEntity
  8
0
100
AcDbLine
 10
1876.523486
 20
442.109838
 30
0.0
 11
1900.523486
 21
442.109838
 31
0.0
  0
LINE
  5
BE6B
100
AcDbEntity
  8
0
100
AcDbLine
 10
1863.463086
 20
438.315956
 30
0.0
 11
1877.297086
 21
438.315956
 31
0.0
  0
LINE
  5
BE6C
100
AcDbEntity
  8
0
100
AcDbLine
 10
1858.380086
 20
442.109838
 30
0.0
 11
1882.380086
 21
442.109838
 31
0.0
  0
LINE
  5
BE6D
100
AcDbEntity
  8
0
100
AcDbLine
 10
1870.380086
 20
443.385838
 30
0.0
 11
1870.380086
 21
455.109838
 31
0.0
  0
LINE
  5
BE6E
100
AcDbEntity
  8
0
100
AcDbLine
 10
1862.380086
 20
442.109838
 30
0.0
 11
1862.380086
 21
439.398956
 31
0.0
  0
LINE
  5
BE6F
100
AcDbEntity
  8
0
100
AcDbLine
 10
1862.380086
 20
439.398956
 30
0.0
 11
1863.463086
 21
438.315956
 31
0.0
  0
LINE
  5
BE70
100
AcDbEntity
  8
0
100
AcDbLine
 10
1858.380086
 20
442.109838
 30
0.0
 11
1858.380086
 21
455.109838
 31
0.0
  0
ARC
  5
BE71
100
AcDbEntity
  8
0
100
AcDbCircle
 10
1864.380086
 20
456.854421
 30
0.0
 40
14.744583
100
AcDbArc
 50
245.987929
 51
294.012071
  0
LINE
  5
BE72
100
AcDbEntity
  8
0
100
AcDbLine
 10
1900.523486
 20
442.109838
 30
0.0
 11
1900.523486
 21
455.109838
 31
0.0
  0
LINE
  5
BE73
100
AcDbEntity
  8
0
100
AcDbLine
 10
1877.297086
 20
438.315956
 30
0.0
 11
1878.380086
 21
439.398956
 31
0.0
  0
LINE
  5
BE74
100
AcDbEntity
  8
0
100
AcDbLine
 10
1878.380086
 20
439.398956
 30
0.0
 11
1878.380086
 21
442.109838
 31
0.0
  0
LINE
  5
BE75
100
AcDbEntity
  8
0
100
AcDbLine
 10
1880.523486
 20
442.109838
 30
0.0
 11
1880.523486
 21
439.398956
 31
0.0
  0
LINE
  5
BE76
100
AcDbEntity
  8
0
100
AcDbLine
 10
1881.606486
 20
438.315956
 30
0.0
 11
1895.440486
 21
438.315956
 31
0.0
  0
LINE
  5
BE77
100
AcDbEntity
  8
0
100
AcDbLine
 10
1896.523486
 20
439.398956
 30
0.0
 11
1896.523486
 21
442.109838
 31
0.0
  0
LINE
  5
BE78
100
AcDbEntity
  8
0
100
AcDbLine
 10
1895.440486
 20
438.315956
 30
0.0
 11
1896.523486
 21
439.398956
 31
0.0
  0
LINE
  5
BE79
100
AcDbEntity
  8
0
100
AcDbLine
 10
1880.523486
 20
439.398956
 30
0.0
 11
1881.606486
 21
438.315956
 31
0.0
  0
LINE
  5
BE7A
100
AcDbEntity
  8
0
100
AcDbLine
 10
1882.380086
 20
442.109838
 30
0.0
 11
1882.380086
 21
455.109838
 31
0.0
  0
LINE
  5
BE7B
100
AcDbEntity
  8
0
100
AcDbLine
 10
1888.523486
 20
443.385838
 30
0.0
 11
1888.523486
 21
455.109838
 31
0.0
  0
ARC
  5
BE7C
100
AcDbEntity
  8
0
100
AcDbCircle
 10
1882.523486
 20
456.854421
 30
0.0
 40
14.744583
100
AcDbArc
 50
269.442755
 51
294.012071
  0
ARC
  5
BE7D
100
AcDbEntity
  8
0
100
AcDbCircle
 10
1894.523486
 20
456.854421
 30
0.0
 40
14.744583
100
AcDbArc
 50
245.987929
 51
294.012071
  0
ARC
  5
BE7E
100
AcDbEntity
  8
0
100
AcDbCircle
 10
2506.166034
 20
614.854421
 30
0.0
 40
14.744583
100
AcDbArc
 50
245.987929
 51
294.012071
  0
LINE
  5
BE7F
100
AcDbEntity
  8
0
100
AcDbLine
 10
2488.166034
 20
600.109838
 30
0.0
 11
2512.166034
 21
600.109838
 31
0.0
  0
LINE
  5
BE80
100
AcDbEntity
  8
0
100
AcDbLine
 10
2507.083034
 20
596.315956
 30
0.0
 11
2493.249034
 21
596.315956
 31
0.0
  0
LINE
  5
BE81
100
AcDbEntity
  8
0
100
AcDbLine
 10
2652.666034
 20
613.109838
 30
0.0
 11
2482.666034
 21
613.109838
 31
0.0
  0
LINE
  5
BE82
100
AcDbEntity
  8
0
100
AcDbLine
 10
2492.166034
 20
597.398956
 30
0.0
 11
2492.166034
 21
600.109838
 31
0.0
  0
LINE
  5
BE83
100
AcDbEntity
  8
0
100
AcDbLine
 10
2493.249034
 20
596.315956
 30
0.0
 11
2492.166034
 21
597.398956
 31
0.0
  0
LINE
  5
BE84
100
AcDbEntity
  8
0
100
AcDbLine
 10
2500.166034
 20
601.385838
 30
0.0
 11
2500.166034
 21
613.109838
 31
0.0
  0
LINE
  5
BE85
100
AcDbEntity
  8
0
100
AcDbLine
 10
2488.166034
 20
600.109838
 30
0.0
 11
2488.166034
 21
613.109838
 31
0.0
  0
ARC
  5
BE86
100
AcDbEntity
  8
0
100
AcDbCircle
 10
2494.166034
 20
614.854421
 30
0.0
 40
14.744583
100
AcDbArc
 50
245.987929
 51
294.012071
  0
ARC
  5
BE87
100
AcDbEntity
  8
0
100
AcDbCircle
 10
2622.07708
 20
609.109838
 30
0.0
 40
4.0
100
AcDbArc
 50
90.0
 51
170.912537
  0
LINE
  5
BE88
100
AcDbEntity
  8
0
100
AcDbLine
 10
2525.916034
 20
597.398956
 30
0.0
 11
2525.916034
 21
600.109838
 31
0.0
  0
LINE
  5
BE89
100
AcDbEntity
  8
0
100
AcDbLine
 10
2541.916034
 20
600.109838
 30
0.0
 11
2541.916034
 21
597.398956
 31
0.0
  0
LINE
  5
BE8A
100
AcDbEntity
  8
0
100
AcDbLine
 10
2508.166034
 20
600.109838
 30
0.0
 11
2508.166034
 21
597.398956
 31
0.0
  0
LINE
  5
BE8B
100
AcDbEntity
  8
0
100
AcDbLine
 10
2517.204781
 20
609.741606
 30
0.0
 11
2519.065278
 21
598.109838
 31
0.0
  0
LINE
  5
BE8C
100
AcDbEntity
  8
0
100
AcDbLine
 10
2540.833034
 20
596.315956
 30
0.0
 11
2526.999034
 21
596.315956
 31
0.0
  0
LINE
  5
BE8D
100
AcDbEntity
  8
0
100
AcDbLine
 10
2526.999034
 20
596.315956
 30
0.0
 11
2525.916034
 21
597.398956
 31
0.0
  0
LINE
  5
BE8E
100
AcDbEntity
  8
0
100
AcDbLine
 10
2508.166034
 20
597.398956
 30
0.0
 11
2507.083034
 21
596.315956
 31
0.0
  0
LINE
  5
BE8F
100
AcDbEntity
  8
0
100
AcDbLine
 10
2519.065278
 20
598.109838
 30
0.0
 11
2518.950495
 21
594.82288
 31
0.0
  0
LINE
  5
BE90
100
AcDbEntity
  8
0
100
AcDbLine
 10
2541.916034
 20
597.398956
 30
0.0
 11
2540.833034
 21
596.315956
 31
0.0
  0
ARC
  5
BE91
100
AcDbEntity
  8
0
100
AcDbCircle
 10
2539.916034
 20
614.854421
 30
0.0
 40
14.744583
100
AcDbArc
 50
245.987929
 51
294.012071
  0
LINE
  5
BE92
100
AcDbEntity
  8
0
100
AcDbLine
 10
2521.916034
 20
600.109838
 30
0.0
 11
2545.916034
 21
600.109838
 31
0.0
  0
LINE
  5
BE93
100
AcDbEntity
  8
0
100
AcDbLine
 10
2533.916034
 20
601.385838
 30
0.0
 11
2533.916034
 21
613.109838
 31
0.0
  0
ARC
  5
BE94
100
AcDbEntity
  8
0
100
AcDbCircle
 10
2513.254988
 20
609.109838
 30
0.0
 40
4.0
100
AcDbArc
 50
9.087463
 51
90.0
  0
LINE
  5
BE95
100
AcDbEntity
  8
0
100
AcDbLine
 10
2512.166034
 20
600.109838
 30
0.0
 11
2512.166034
 21
613.109838
 31
0.0
  0
LINE
  5
BE96
100
AcDbEntity
  8
0
100
AcDbLine
 10
2521.916034
 20
600.109838
 30
0.0
 11
2521.916034
 21
613.109838
 31
0.0
  0
ARC
  5
BE97
100
AcDbEntity
  8
0
100
AcDbCircle
 10
2527.916034
 20
614.854421
 30
0.0
 40
14.744583
100
AcDbArc
 50
245.987929
 51
294.012071
  0
LINE
  5
BE98
100
AcDbEntity
  8
0
100
AcDbLine
 10
2545.916034
 20
600.109838
 30
0.0
 11
2545.916034
 21
613.109838
 31
0.0
  0
LINE
  5
BE99
100
AcDbEntity
  8
0
100
AcDbLine
 10
2609.416034
 20
597.398956
 30
0.0
 11
2609.416034
 21
600.109838
 31
0.0
  0
LINE
  5
BE9A
100
AcDbEntity
  8
0
100
AcDbLine
 10
2618.127286
 20
609.741606
 30
0.0
 11
2616.266789
 21
598.109838
 31
0.0
  0
LINE
  5
BE9B
100
AcDbEntity
  8
0
100
AcDbLine
 10
2593.416034
 20
600.109838
 30
0.0
 11
2593.416034
 21
597.398956
 31
0.0
  0
LINE
  5
BE9C
100
AcDbEntity
  8
0
100
AcDbLine
 10
2616.266789
 20
598.109838
 30
0.0
 11
2616.381572
 21
594.82288
 31
0.0
  0
LINE
  5
BE9D
100
AcDbEntity
  8
0
100
AcDbLine
 10
2608.333034
 20
596.315956
 30
0.0
 11
2609.416034
 21
597.398956
 31
0.0
  0
LINE
  5
BE9E
100
AcDbEntity
  8
0
100
AcDbLine
 10
2593.416034
 20
597.398956
 30
0.0
 11
2594.499034
 21
596.315956
 31
0.0
  0
LINE
  5
BE9F
100
AcDbEntity
  8
0
100
AcDbLine
 10
2594.499034
 20
596.315956
 30
0.0
 11
2608.333034
 21
596.315956
 31
0.0
  0
ARC
  5
BEA0
100
AcDbEntity
  8
0
100
AcDbCircle
 10
2595.416034
 20
614.854421
 30
0.0
 40
14.744583
100
AcDbArc
 50
245.987929
 51
294.012071
  0
LINE
  5
BEA1
100
AcDbEntity
  8
0
100
AcDbLine
 10
2589.416034
 20
600.109838
 30
0.0
 11
2613.416034
 21
600.109838
 31
0.0
  0
LINE
  5
BEA2
100
AcDbEntity
  8
0
100
AcDbLine
 10
2589.416034
 20
600.109838
 30
0.0
 11
2589.416034
 21
613.109838
 31
0.0
  0
LINE
  5
BEA3
100
AcDbEntity
  8
0
100
AcDbLine
 10
2613.416034
 20
600.109838
 30
0.0
 11
2613.416034
 21
613.109838
 31
0.0
  0
LINE
  5
BEA4
100
AcDbEntity
  8
0
100
AcDbLine
 10
2601.416034
 20
601.385838
 30
0.0
 11
2601.416034
 21
613.109838
 31
0.0
  0
ARC
  5
BEA5
100
AcDbEntity
  8
0
100
AcDbCircle
 10
2607.416034
 20
614.854421
 30
0.0
 40
14.744583
100
AcDbArc
 50
245.987929
 51
294.012071
  0
LINE
  5
BEA6
100
AcDbEntity
  8
0
100
AcDbLine
 10
2643.166034
 20
597.398956
 30
0.0
 11
2643.166034
 21
600.109838
 31
0.0
  0
LINE
  5
BEA7
100
AcDbEntity
  8
0
100
AcDbLine
 10
2627.166034
 20
600.109838
 30
0.0
 11
2627.166034
 21
597.398956
 31
0.0
  0
LINE
  5
BEA8
100
AcDbEntity
  8
0
100
AcDbLine
 10
2642.083034
 20
596.315956
 30
0.0
 11
2643.166034
 21
597.398956
 31
0.0
  0
LINE
  5
BEA9
100
AcDbEntity
  8
0
100
AcDbLine
 10
2627.166034
 20
597.398956
 30
0.0
 11
2628.249034
 21
596.315956
 31
0.0
  0
LINE
  5
BEAA
100
AcDbEntity
  8
0
100
AcDbLine
 10
2628.249034
 20
596.315956
 30
0.0
 11
2642.083034
 21
596.315956
 31
0.0
  0
LINE
  5
BEAB
100
AcDbEntity
  8
0
100
AcDbLine
 10
2647.166034
 20
600.109838
 30
0.0
 11
2647.166034
 21
613.109838
 31
0.0
  0
ARC
  5
BEAC
100
AcDbEntity
  8
0
100
AcDbCircle
 10
2629.166034
 20
614.854421
 30
0.0
 40
14.744583
100
AcDbArc
 50
245.987929
 51
294.012071
  0
LINE
  5
BEAD
100
AcDbEntity
  8
0
100
AcDbLine
 10
2623.166034
 20
600.109838
 30
0.0
 11
2623.166034
 21
613.109838
 31
0.0
  0
LINE
  5
BEAE
100
AcDbEntity
  8
0
100
AcDbLine
 10
2635.166034
 20
601.385838
 30
0.0
 11
2635.166034
 21
613.109838
 31
0.0
  0
LINE
  5
BEAF
100
AcDbEntity
  8
0
100
AcDbLine
 10
2623.166034
 20
600.109838
 30
0.0
 11
2647.166034
 21
600.109838
 31
0.0
  0
ARC
  5
BEB0
100
AcDbEntity
  8
0
100
AcDbCircle
 10
2641.166034
 20
614.854421
 30
0.0
 40
14.744583
100
AcDbArc
 50
245.987929
 51
294.012071
  0
LINE
  5
BEB1
100
AcDbEntity
  8
0
100
AcDbLine
 10
2677.166034
 20
455.109838
 30
0.0
 11
2458.166034
 21
455.109838
 31
0.0
  0
ARC
  5
BEB2
100
AcDbEntity
  8
0
100
AcDbCircle
 10
2478.665534
 20
456.854421
 30
0.0
 40
14.744583
100
AcDbArc
 50
245.987929
 51
270.557245
  0
LINE
  5
BEB3
100
AcDbEntity
  8
0
100
AcDbLine
 10
2479.582534
 20
438.315956
 30
0.0
 11
2465.748534
 21
438.315956
 31
0.0
  0
LINE
  5
BEB4
100
AcDbEntity
  8
0
100
AcDbLine
 10
2460.665534
 20
442.109838
 30
0.0
 11
2484.665534
 21
442.109838
 31
0.0
  0
LINE
  5
BEB5
100
AcDbEntity
  8
0
100
AcDbLine
 10
2472.665534
 20
443.385838
 30
0.0
 11
2472.665534
 21
455.109838
 31
0.0
  0
ARC
  5
BEB6
100
AcDbEntity
  8
0
100
AcDbCircle
 10
2458.166034
 20
458.109838
 30
0.0
 40
3.0
100
AcDbArc
 50
180.0
 51
270.0
  0
LINE
  5
BEB7
100
AcDbEntity
  8
0
100
AcDbLine
 10
2465.748534
 20
438.315956
 30
0.0
 11
2464.665534
 21
439.398956
 31
0.0
  0
LINE
  5
BEB8
100
AcDbEntity
  8
0
100
AcDbLine
 10
2464.665534
 20
439.398956
 30
0.0
 11
2464.665534
 21
442.109838
 31
0.0
  0
LINE
  5
BEB9
100
AcDbEntity
  8
0
100
AcDbLine
 10
2460.665534
 20
442.109838
 30
0.0
 11
2460.665534
 21
455.109838
 31
0.0
  0
ARC
  5
BEBA
100
AcDbEntity
  8
0
100
AcDbCircle
 10
2466.665534
 20
456.854421
 30
0.0
 40
14.744583
100
AcDbArc
 50
245.987929
 51
294.012071
  0
LINE
  5
BEBB
100
AcDbEntity
  8
0
100
AcDbLine
 10
2498.808934
 20
439.398956
 30
0.0
 11
2497.725934
 21
438.315956
 31
0.0
  0
LINE
  5
BEBC
100
AcDbEntity
  8
0
100
AcDbLine
 10
2498.808934
 20
442.109838
 30
0.0
 11
2498.808934
 21
439.398956
 31
0.0
  0
LINE
  5
BEBD
100
AcDbEntity
  8
0
100
AcDbLine
 10
2502.808934
 20
442.109838
 30
0.0
 11
2502.808934
 21
455.109838
 31
0.0
  0
LINE
  5
BEBE
100
AcDbEntity
  8
0
100
AcDbLine
 10
2480.665534
 20
439.398956
 30
0.0
 11
2479.582534
 21
438.315956
 31
0.0
  0
LINE
  5
BEBF
100
AcDbEntity
  8
0
100
AcDbLine
 10
2480.665534
 20
442.109838
 30
0.0
 11
2480.665534
 21
439.398956
 31
0.0
  0
LINE
  5
BEC0
100
AcDbEntity
  8
0
100
AcDbLine
 10
2483.891934
 20
438.315956
 30
0.0
 11
2482.808934
 21
439.398956
 31
0.0
  0
LINE
  5
BEC1
100
AcDbEntity
  8
0
100
AcDbLine
 10
2482.808934
 20
439.398956
 30
0.0
 11
2482.808934
 21
442.109838
 31
0.0
  0
ARC
  5
BEC2
100
AcDbEntity
  8
0
100
AcDbCircle
 10
2484.808934
 20
456.854421
 30
0.0
 40
14.744583
100
AcDbArc
 50
245.987929
 51
294.012071
  0
LINE
  5
BEC3
100
AcDbEntity
  8
0
100
AcDbLine
 10
2478.808934
 20
442.109838
 30
0.0
 11
2478.808934
 21
455.109838
 31
0.0
  0
LINE
  5
BEC4
100
AcDbEntity
  8
0
100
AcDbLine
 10
2490.808934
 20
443.385838
 30
0.0
 11
2490.808934
 21
455.109838
 31
0.0
  0
LINE
  5
BEC5
100
AcDbEntity
  8
0
100
AcDbLine
 10
2497.725934
 20
438.315956
 30
0.0
 11
2483.891934
 21
438.315956
 31
0.0
  0
LINE
  5
BEC6
100
AcDbEntity
  8
0
100
AcDbLine
 10
2478.808934
 20
442.109838
 30
0.0
 11
2502.808934
 21
442.109838
 31
0.0
  0
ARC
  5
BEC7
100
AcDbEntity
  8
0
100
AcDbCircle
 10
2496.808934
 20
456.854421
 30
0.0
 40
14.744583
100
AcDbArc
 50
245.987929
 51
294.012071
  0
LINE
  5
BEC8
100
AcDbEntity
  8
0
100
AcDbLine
 10
2545.225934
 20
438.315956
 30
0.0
 11
2531.391934
 21
438.315956
 31
0.0
  0
ARC
  5
BEC9
100
AcDbEntity
  8
0
100
AcDbCircle
 10
2532.308934
 20
456.854421
 30
0.0
 40
14.744583
100
AcDbArc
 50
245.987929
 51
294.012071
  0
LINE
  5
BECA
100
AcDbEntity
  8
0
100
AcDbLine
 10
2526.308934
 20
442.109838
 30
0.0
 11
2550.308934
 21
442.109838
 31
0.0
  0
LINE
  5
BECB
100
AcDbEntity
  8
0
100
AcDbLine
 10
2531.391934
 20
438.315956
 30
0.0
 11
2530.308934
 21
439.398956
 31
0.0
  0
LINE
  5
BECC
100
AcDbEntity
  8
0
100
AcDbLine
 10
2530.308934
 20
439.398956
 30
0.0
 11
2530.308934
 21
442.109838
 31
0.0
  0
LINE
  5
BECD
100
AcDbEntity
  8
0
100
AcDbLine
 10
2526.308934
 20
442.109838
 30
0.0
 11
2526.308934
 21
455.109838
 31
0.0
  0
ARC
  5
BECE
100
AcDbEntity
  8
0
100
AcDbCircle
 10
2515.95283
 20
440.109838
 30
0.0
 40
15.0
100
AcDbArc
 50
46.337673
 51
90.0
  0
LINE
  5
BECF
100
AcDbEntity
  8
0
100
AcDbLine
 10
2546.308934
 20
439.398956
 30
0.0
 11
2545.225934
 21
438.315956
 31
0.0
  0
LINE
  5
BED0
100
AcDbEntity
  8
0
100
AcDbLine
 10
2546.308934
 20
442.109838
 30
0.0
 11
2546.308934
 21
439.398956
 31
0.0
  0
ARC
  5
BED1
100
AcDbEntity
  8
0
100
AcDbCircle
 10
2544.308934
 20
456.854421
 30
0.0
 40
14.744583
100
AcDbArc
 50
245.987929
 51
294.012071
  0
LINE
  5
BED2
100
AcDbEntity
  8
0
100
AcDbLine
 10
2550.308934
 20
442.109838
 30
0.0
 11
2550.308934
 21
455.109838
 31
0.0
  0
LINE
  5
BED3
100
AcDbEntity
  8
0
100
AcDbLine
 10
2538.308934
 20
443.385838
 30
0.0
 11
2538.308934
 21
455.109838
 31
0.0
  0
LINE
  5
BED4
100
AcDbEntity
  8
0
100
AcDbLine
 10
2590.106134
 20
438.315956
 30
0.0
 11
2603.940134
 21
438.315956
 31
0.0
  0
ARC
  5
BED5
100
AcDbEntity
  8
0
100
AcDbCircle
 10
2591.023134
 20
456.854421
 30
0.0
 40
14.744583
100
AcDbArc
 50
245.987929
 51
294.012071
  0
LINE
  5
BED6
100
AcDbEntity
  8
0
100
AcDbLine
 10
2585.023134
 20
442.109838
 30
0.0
 11
2609.023134
 21
442.109838
 31
0.0
  0
LINE
  5
BED7
100
AcDbEntity
  8
0
100
AcDbLine
 10
2589.023134
 20
442.109838
 30
0.0
 11
2589.023134
 21
439.398956
 31
0.0
  0
LINE
  5
BED8
100
AcDbEntity
  8
0
100
AcDbLine
 10
2589.023134
 20
439.398956
 30
0.0
 11
2590.106134
 21
438.315956
 31
0.0
  0
LINE
  5
BED9
100
AcDbEntity
  8
0
100
AcDbLine
 10
2585.023134
 20
442.109838
 30
0.0
 11
2585.023134
 21
455.109838
 31
0.0
  0
LINE
  5
BEDA
100
AcDbEntity
  8
0
100
AcDbLine
 10
2605.023134
 20
439.398956
 30
0.0
 11
2605.023134
 21
442.109838
 31
0.0
  0
LINE
  5
BEDB
100
AcDbEntity
  8
0
100
AcDbLine
 10
2603.940134
 20
438.315956
 30
0.0
 11
2605.023134
 21
439.398956
 31
0.0
  0
ARC
  5
BEDC
100
AcDbEntity
  8
0
100
AcDbCircle
 10
2603.023134
 20
456.854421
 30
0.0
 40
14.744583
100
AcDbArc
 50
245.987929
 51
294.012071
  0
LINE
  5
BEDD
100
AcDbEntity
  8
0
100
AcDbLine
 10
2609.023134
 20
442.109838
 30
0.0
 11
2609.023134
 21
455.109838
 31
0.0
  0
LINE
  5
BEDE
100
AcDbEntity
  8
0
100
AcDbLine
 10
2597.023134
 20
443.385838
 30
0.0
 11
2597.023134
 21
455.109838
 31
0.0
  0
ARC
  5
BEDF
100
AcDbEntity
  8
0
100
AcDbCircle
 10
2619.379237
 20
440.109838
 30
0.0
 40
15.0
100
AcDbArc
 50
90.0
 51
133.662327
  0
ARC
  5
BEE0
100
AcDbEntity
  8
0
100
AcDbCircle
 10
2677.166034
 20
458.109838
 30
0.0
 40
3.0
100
AcDbArc
 50
270.0
 51
0.0
  0
ARC
  5
BEE1
100
AcDbEntity
  8
0
100
AcDbCircle
 10
2677.166034
 20
458.109838
 30
0.0
 40
3.0
100
AcDbArc
 50
270.0
 51
0.0
  0
ARC
  5
BEE2
100
AcDbEntity
  8
0
100
AcDbCircle
 10
2650.523134
 20
456.854421
 30
0.0
 40
14.744583
100
AcDbArc
 50
245.987929
 51
294.012071
  0
LINE
  5
BEE3
100
AcDbEntity
  8
0
100
AcDbLine
 10
2650.666534
 20
442.109838
 30
0.0
 11
2674.666534
 21
442.109838
 31
0.0
  0
LINE
  5
BEE4
100
AcDbEntity
  8
0
100
AcDbLine
 10
2637.606134
 20
438.315956
 30
0.0
 11
2651.440134
 21
438.315956
 31
0.0
  0
LINE
  5
BEE5
100
AcDbEntity
  8
0
100
AcDbLine
 10
2632.523134
 20
442.109838
 30
0.0
 11
2656.523134
 21
442.109838
 31
0.0
  0
LINE
  5
BEE6
100
AcDbEntity
  8
0
100
AcDbLine
 10
2644.523134
 20
443.385838
 30
0.0
 11
2644.523134
 21
455.109838
 31
0.0
  0
LINE
  5
BEE7
100
AcDbEntity
  8
0
100
AcDbLine
 10
2636.523134
 20
442.109838
 30
0.0
 11
2636.523134
 21
439.398956
 31
0.0
  0
LINE
  5
BEE8
100
AcDbEntity
  8
0
100
AcDbLine
 10
2636.523134
 20
439.398956
 30
0.0
 11
2637.606134
 21
438.315956
 31
0.0
  0
LINE
  5
BEE9
100
AcDbEntity
  8
0
100
AcDbLine
 10
2632.523134
 20
442.109838
 30
0.0
 11
2632.523134
 21
455.109838
 31
0.0
  0
ARC
  5
BEEA
100
AcDbEntity
  8
0
100
AcDbCircle
 10
2638.523134
 20
456.854421
 30
0.0
 40
14.744583
100
AcDbArc
 50
245.987929
 51
294.012071
  0
LINE
  5
BEEB
100
AcDbEntity
  8
0
100
AcDbLine
 10
2674.666534
 20
442.109838
 30
0.0
 11
2674.666534
 21
455.109838
 31
0.0
  0
LINE
  5
BEEC
100
AcDbEntity
  8
0
100
AcDbLine
 10
2651.440134
 20
438.315956
 30
0.0
 11
2652.523134
 21
439.398956
 31
0.0
  0
LINE
  5
BEED
100
AcDbEntity
  8
0
100
AcDbLine
 10
2652.523134
 20
439.398956
 30
0.0
 11
2652.523134
 21
442.109838
 31
0.0
  0
LINE
  5
BEEE
100
AcDbEntity
  8
0
100
AcDbLine
 10
2654.666534
 20
442.109838
 30
0.0
 11
2654.666534
 21
439.398956
 31
0.0
  0
LINE
  5
BEEF
100
AcDbEntity
  8
0
100
AcDbLine
 10
2655.749534
 20
438.315956
 30
0.0
 11
2669.583534
 21
438.315956
 31
0.0
  0
LINE
  5
BEF0
100
AcDbEntity
  8
0
100
AcDbLine
 10
2670.666534
 20
439.398956
 30
0.0
 11
2670.666534
 21
442.109838
 31
0.0
  0
LINE
  5
BEF1
100
AcDbEntity
  8
0
100
AcDbLine
 10
2669.583534
 20
438.315956
 30
0.0
 11
2670.666534
 21
439.398956
 31
0.0
  0
LINE
  5
BEF2
100
AcDbEntity
  8
0
100
AcDbLine
 10
2654.666534
 20
439.398956
 30
0.0
 11
2655.749534
 21
438.315956
 31
0.0
  0
LINE
  5
BEF3
100
AcDbEntity
  8
0
100
AcDbLine
 10
2656.523134
 20
442.109838
 30
0.0
 11
2656.523134
 21
455.109838
 31
0.0
  0
LINE
  5
BEF4
100
AcDbEntity
  8
0
100
AcDbLine
 10
2662.666534
 20
443.385838
 30
0.0
 11
2662.666534
 21
455.109838
 31
0.0
  0
ARC
  5
BEF5
100
AcDbEntity
  8
0
100
AcDbCircle
 10
2656.666534
 20
456.854421
 30
0.0
 40
14.744583
100
AcDbArc
 50
269.442755
 51
294.012071
  0
ARC
  5
BEF6
100
AcDbEntity
  8
0
100
AcDbCircle
 10
2668.666534
 20
456.854421
 30
0.0
 40
14.744583
100
AcDbArc
 50
245.987929
 51
294.012071
  0
LINE
  5
BEF7
100
AcDbEntity
  8
0
100
AcDbLine
 10
1744.92223
 20
598.109838
 30
0.0
 11
1744.807447
 21
594.82288
 31
0.0
  0
ARC
  5
BEF8
100
AcDbEntity
  8
0
100
AcDbCircle
 10
1724.819631
 20
595.52087
 30
0.0
 40
20.0
100
AcDbArc
 50
335.0
 51
358.0
  0
LINE
  5
BEF9
100
AcDbEntity
  8
0
100
AcDbLine
 10
1842.123741
 20
598.109838
 30
0.0
 11
1842.238524
 21
594.82288
 31
0.0
  0
ARC
  5
BEFA
100
AcDbEntity
  8
0
100
AcDbCircle
 10
1862.226341
 20
595.52087
 30
0.0
 40
20.0
100
AcDbArc
 50
182.0
 51
205.0
  0
ARC
  5
BEFB
100
AcDbEntity
  8
0
100
AcDbCircle
 10
2498.962678
 20
595.52087
 30
0.0
 40
20.0
100
AcDbArc
 50
335.0
 51
358.0
  0
LINE
  5
BEFC
100
AcDbEntity
  8
0
100
AcDbLine
 10
2519.065278
 20
598.109838
 30
0.0
 11
2518.950495
 21
594.82288
 31
0.0
  0
LINE
  5
BEFD
100
AcDbEntity
  8
0
100
AcDbLine
 10
2519.065278
 20
598.109838
 30
0.0
 11
2518.950495
 21
594.82288
 31
0.0
  0
LINE
  5
BEFE
100
AcDbEntity
  8
0
100
AcDbLine
 10
2616.266789
 20
598.109838
 30
0.0
 11
2616.381572
 21
594.82288
 31
0.0
  0
LINE
  5
BEFF
100
AcDbEntity
  8
0
100
AcDbLine
 10
2616.266789
 20
598.109838
 30
0.0
 11
2616.381572
 21
594.82288
 31
0.0
  0
ARC
  5
BF00
100
AcDbEntity
  8
0
100
AcDbCircle
 10
2636.369389
 20
595.52087
 30
0.0
 40
20.0
100
AcDbArc
 50
182.0
 51
205.0
  0
ARC
  5
BF01
100
AcDbEntity
  8
0
100
AcDbCircle
 10
1774.022986
 20
437.109838
 30
0.0
 40
3.0
100
AcDbArc
 50
180.0
 51
270.0
  0
LINE
  5
BF02
100
AcDbEntity
  8
0
100
AcDbLine
 10
1771.022986
 20
437.109838
 30
0.0
 11
1771.022986
 21
438.315956
 31
0.0
  0
LINE
  5
BF03
100
AcDbEntity
  8
0
100
AcDbLine
 10
1774.022986
 20
434.109838
 30
0.0
 11
1813.022986
 21
434.109838
 31
0.0
  0
ARC
  5
BF04
100
AcDbEntity
  8
0
100
AcDbCircle
 10
1813.022986
 20
437.109838
 30
0.0
 40
3.0
100
AcDbArc
 50
270.0
 51
0.0
  0
LINE
  5
BF05
100
AcDbEntity
  8
0
100
AcDbLine
 10
1816.022986
 20
437.109838
 30
0.0
 11
1816.022986
 21
438.315956
 31
0.0
  0
LINE
  5
BF30
100
AcDbEntity
  8
0
100
AcDbLine
 10
558.087181
 20
442.109838
 30
0.0
 11
523.372981
 21
442.109838
 31
0.0
  0
LINE
  5
BF36
100
AcDbEntity
  8
0
100
AcDbLine
 10
1810.880086
 20
442.109838
 30
0.0
 11
1776.165886
 21
442.109838
 31
0.0
  0
VIEWPORT
  5
41
100
AcDbEntity
 67
     1
  8
0
100
AcDbViewport
 10
117.358407
 20
73.5
 30
0.0
 40
234.716814
 41
147.0
 68
    -1
 69
     1
1001
ACAD
1000
MVIEW
1002
{
1070
    16
1010
0.0
1020
0.0
1030
0.0
1010
0.0
1020
0.0
1030
1.0
1040
0.0
1040
147.0
1040
117.358407
1040
73.5
1040
50.0
1040
0.0
1040
0.0
1070
     0
1070
   100
1070
     1
1070
     1
1070
     0
1070
     0
1070
     0
1070
     0
1040
0.0
1040
0.0
1040
0.0
1040
1.0
1040
1.0
1040
0.0
1040
0.0
1070
     0
1002
{
1002
}
1002
}
  0
ENDSEC
  0
SECTION
  2
OBJECTS
  0
DICTIONARY
  5
C
100
AcDbDictionary
  3
ACAD_GROUP
350
D
  3
ACAD_MLINESTYLE
350
E
  0
DICTIONARY
  5
D
102
{ACAD_REACTORS
330
C
102
}
100
AcDbDictionary
  0
DICTIONARY
  5
E
102
{ACAD_REACTORS
330
C
102
}
100
AcDbDictionary
  3
STANDARD
350
1B
  0
MLINESTYLE
  5
1B
102
{ACAD_REACTORS
330
E
102
}
100
AcDbMlineStyle
  2
STANDARD
 70
     0
  3

 62
     0
 51
90.0
 52
90.0
 71
     2
 49
0.5
 62
   256
  6
BYLAYER
 49
-0.5
 62
   256
  6
BYLAYER
  0
ENDSEC
  0
EOF
