  0
SECTION
  2
HEADER
  9
$ACADVER
  1
AC1012
  9
$DWGCODEPAGE
  3
dos932
  9
$INSBASE
 10
0.0
 20
0.0
 30
0.0
  9
$EXTMIN
 10
132.0
 20
60.0
 30
0.0
  9
$EXTMAX
 10
3432.0
 20
2292.0
 30
0.0
  9
$LIMMIN
 10
0.0
 20
0.0
  9
$LIMMAX
 10
3564.0
 20
2520.0
  9
$ORTHOMODE
 70
     1
  9
$REGENMODE
 70
     1
  9
$FILLMODE
 70
     1
  9
$QTEXTMODE
 70
     0
  9
$MIRRTEXT
 70
     1
  9
$DRAGMODE
 70
     2
  9
$LTSCALE
 40
48.0
  9
$OSMODE
 70
    35
  9
$ATTMODE
 70
     1
  9
$TEXTSIZE
 40
48.0
  9
$TRACEWID
 40
0.05
  9
$TEXTSTYLE
  7
STANDARD
  9
$CLAYER
  8
0
  9
$CELTYPE
  6
BYLAYER
  9
$CECOLOR
 62
   256
  9
$CELTSCALE
 40
1.0
  9
$DELOBJ
 70
     1
  9
$DISPSILH
 70
     0
  9
$DIMSCALE
 40
12.0
  9
$DIMASZ
 40
2.8
  9
$DIMEXO
 40
1.0
  9
$DIMDLI
 40
5.0
  9
$DIMRND
 40
0.1
  9
$DIMDLE
 40
0.0
  9
$DIMEXE
 40
1.0
  9
$DIMTP
 40
0.0
  9
$DIMTM
 40
0.0
  9
$DIMTXT
 40
2.5
  9
$DIMCEN
 40
0.0
  9
$DIMTSZ
 40
0.0
  9
$DIMTOL
 70
     0
  9
$DIMLIM
 70
     0
  9
$DIMTIH
 70
     0
  9
$DIMTOH
 70
     0
  9
$DIMSE1
 70
     0
  9
$DIMSE2
 70
     0
  9
$DIMTAD
 70
     3
  9
$DIMZIN
 70
     8
  9
$DIMBLK
  1

  9
$DIMASO
 70
     1
  9
$DIMSHO
 70
     1
  9
$DIMPOST
  1
 
  9
$DIMAPOST
  1

  9
$DIMALT
 70
     0
  9
$DIMALTD
 70
     2
  9
$DIMALTF
 40
1.0
  9
$DIMLFAC
 40
1.0
  9
$DIMTOFL
 70
     1
  9
$DIMTVP
 40
0.0
  9
$DIMTIX
 70
     0
  9
$DIMSOXD
 70
     0
  9
$DIMSAH
 70
     1
  9
$DIMBLK1
  1
_OPEN
  9
$DIMBLK2
  1
_OPEN
  9
$DIMSTYLE
  2
DIM1
  9
$DIMCLRD
 70
     2
  9
$DIMCLRE
 70
     2
  9
$DIMCLRT
 70
     2
  9
$DIMTFAC
 40
0.7
  9
$DIMGAP
 40
0.85
  9
$DIMJUST
 70
     0
  9
$DIMSD1
 70
     0
  9
$DIMSD2
 70
     0
  9
$DIMTOLJ
 70
     1
  9
$DIMTZIN
 70
     0
  9
$DIMALTZ
 70
     0
  9
$DIMALTTZ
 70
     0
  9
$DIMFIT
 70
     0
  9
$DIMUPT
 70
     0
  9
$DIMUNIT
 70
     2
  9
$DIMDEC
 70
     4
  9
$DIMTDEC
 70
     4
  9
$DIMALTU
 70
     2
  9
$DIMALTTD
 70
     2
  9
$DIMTXSTY
  7
STANDARD
  9
$DIMAUNIT
 70
     0
  9
$LUNITS
 70
     2
  9
$LUPREC
 70
     4
  9
$SKETCHINC
 40
0.1
  9
$FILLETRAD
 40
4.0
  9
$AUNITS
 70
     0
  9
$AUPREC
 70
     0
  9
$MENU
  1
C:\ACADR13\WIN\SUPPORT\ACAD.mnc
  9
$ELEVATION
 40
0.0
  9
$PELEVATION
 40
0.0
  9
$THICKNESS
 40
0.0
  9
$LIMCHECK
 70
     0
  9
$BLIPMODE
 70
     1
  9
$CHAMFERA
 40
0.0
  9
$CHAMFERB
 40
0.0
  9
$CHAMFERC
 40
0.0
  9
$CHAMFERD
 40
0.0
  9
$SKPOLY
 70
     0
  9
$TDCREATE
 40
2451564.492637881
  9
$TDUPDATE
 40
2451981.563345440
  9
$TDINDWG
 40
0.5783424421
  9
$TDUSRTIMER
 40
0.5783424421
  9
$USRTIMER
 70
     1
  9
$ANGBASE
 50
0.0
  9
$ANGDIR
 70
     0
  9
$PDMODE
 70
     0
  9
$PDSIZE
 40
0.0
  9
$PLINEWID
 40
0.0
  9
$COORDS
 70
     1
  9
$SPLFRAME
 70
     0
  9
$SPLINETYPE
 70
     6
  9
$SPLINESEGS
 70
     8
  9
$ATTDIA
 70
     0
  9
$ATTREQ
 70
     1
  9
$HANDLING
 70
     1
  9
$HANDSEED
  5
13971
  9
$SURFTAB1
 70
     6
  9
$SURFTAB2
 70
     6
  9
$SURFTYPE
 70
     6
  9
$SURFU
 70
     6
  9
$SURFV
 70
     6
  9
$UCSNAME
  2

  9
$UCSORG
 10
0.0
 20
0.0
 30
0.0
  9
$UCSXDIR
 10
1.0
 20
0.0
 30
0.0
  9
$UCSYDIR
 10
0.0
 20
1.0
 30
0.0
  9
$PUCSNAME
  2

  9
$PUCSORG
 10
0.0
 20
0.0
 30
0.0
  9
$PUCSXDIR
 10
1.0
 20
0.0
 30
0.0
  9
$PUCSYDIR
 10
0.0
 20
1.0
 30
0.0
  9
$USERI1
 70
     0
  9
$USERI2
 70
     0
  9
$USERI3
 70
     0
  9
$USERI4
 70
     0
  9
$USERI5
 70
     0
  9
$USERR1
 40
0.0
  9
$USERR2
 40
0.0
  9
$USERR3
 40
0.0
  9
$USERR4
 40
0.0
  9
$USERR5
 40
0.0
  9
$WORLDVIEW
 70
     1
  9
$SHADEDGE
 70
     3
  9
$SHADEDIF
 70
    70
  9
$TILEMODE
 70
     1
  9
$MAXACTVP
 70
    16
  9
$PINSBASE
 10
0.0
 20
0.0
 30
0.0
  9
$PLIMCHECK
 70
     0
  9
$PEXTMIN
 10
1.000000E+20
 20
1.000000E+20
 30
1.000000E+20
  9
$PEXTMAX
 10
-1.000000E+20
 20
-1.000000E+20
 30
-1.000000E+20
  9
$PLIMMIN
 10
0.0
 20
0.0
  9
$PLIMMAX
 10
20.0
 20
147.0
  9
$UNITMODE
 70
     0
  9
$VISRETAIN
 70
     0
  9
$PLINEGEN
 70
     0
  9
$PSLTSCALE
 70
     1
  9
$TREEDEPTH
 70
  3020
  9
$PICKSTYLE
 70
     1
  9
$CMLSTYLE
  2
STANDARD
  9
$CMLJUST
 70
     0
  9
$CMLSCALE
 40
1.0
  9
$SAVEIMAGES
 70
     1
  0
ENDSEC
  0
SECTION
  2
CLASSES
  0
CLASS
  1
LWPOLYLINE
  2
AcDbPolyline
  3
"AutoCAD"
 90
    32768
280
     0
281
     1
  0
ENDSEC
  0
SECTION
  2
TABLES
  0
TABLE
  2
VPORT
  5
8
100
AcDbSymbolTable
 70
     2
  0
VPORT
  5
13970
100
AcDbSymbolTableRecord
100
AcDbViewportTableRecord
  2
*ACTIVE
 70
     0
 10
0.0
 20
0.0
 11
1.0
 21
1.0
 12
2373.591549
 22
1347.052428
 13
0.0
 23
0.0
 14
1.0
 24
1.0
 15
0.0
 25
0.0
 16
0.0
 26
0.0
 36
1.0
 17
0.0
 27
0.0
 37
0.0
 40
2694.104856
 41
1.762063
 42
50.0
 43
0.0
 44
0.0
 50
0.0
 51
0.0
 71
     0
 72
   100
 73
     1
 74
     1
 75
     0
 76
     0
 77
     0
 78
     0
  0
ENDTAB
  0
TABLE
  2
LTYPE
  5
5
100
AcDbSymbolTable
 70
     1
  0
LTYPE
  5
12
100
AcDbSymbolTableRecord
100
AcDbLinetypeTableRecord
  2
BYBLOCK
 70
     0
  3

 72
    65
 73
     0
 40
0.0
  0
LTYPE
  5
13
100
AcDbSymbolTableRecord
100
AcDbLinetypeTableRecord
  2
BYLAYER
 70
     0
  3

 72
    65
 73
     0
 40
0.0
  0
LTYPE
  5
14
100
AcDbSymbolTableRecord
100
AcDbLinetypeTableRecord
  2
CONTINUOUS
 70
     0
  3
Solid line
 72
    65
 73
     0
 40
0.0
  0
ENDTAB
  0
TABLE
  2
LAYER
  5
2
100
AcDbSymbolTable
 70
     1
  0
LAYER
  5
F
100
AcDbSymbolTableRecord
100
AcDbLayerTableRecord
  2
0
 70
     0
 62
     7
  6
CONTINUOUS
  0
ENDTAB
  0
TABLE
  2
STYLE
  5
3
100
AcDbSymbolTable
 70
     2
  0
STYLE
  5
10
100
AcDbSymbolTableRecord
100
AcDbTextStyleTableRecord
  2
STANDARD
 70
     0
 40
0.0
 41
0.8
 50
0.0
 71
     0
 42
48.0
  3
simplex
  4
extfont
  0
STYLE
  5
237C
100
AcDbSymbolTableRecord
100
AcDbTextStyleTableRecord
  2
PTSH
 70
     0
 40
0.0
 41
0.9
 50
0.0
 71
     0
 42
4.0
  3
SIMPLEX
  4
EXTFONT
  0
ENDTAB
  0
TABLE
  2
VIEW
  5
6
100
AcDbSymbolTable
 70
     0
  0
ENDTAB
  0
TABLE
  2
UCS
  5
7
100
AcDbSymbolTable
 70
     0
  0
ENDTAB
  0
TABLE
  2
APPID
  5
9
100
AcDbSymbolTable
 70
     1
  0
APPID
  5
11
100
AcDbSymbolTableRecord
100
AcDbRegAppTableRecord
  2
ACAD
 70
     0
  0
ENDTAB
  0
TABLE
  2
DIMSTYLE
  5
A
100
AcDbSymbolTable
 70
     1
  0
DIMSTYLE
105
2237
100
AcDbSymbolTableRecord
100
AcDbDimStyleTableRecord
  2
DIM1
 70
     0
  3
 
  4

  5

  6
_OPEN
  7
_OPEN
 40
12.0
 41
2.8
 42
1.0
 43
5.0
 44
1.0
 45
0.1
 46
0.0
 47
0.0
 48
0.0
140
2.5
141
0.0
142
0.0
143
1.0
144
1.0
145
0.0
146
0.7
147
0.85
 71
     0
 72
     0
 73
     0
 74
     0
 75
     0
 76
     0
 77
     3
 78
     8
170
     0
171
     2
172
     1
173
     1
174
     0
175
     0
176
     2
177
     2
178
     2
270
     2
271
     4
272
     4
273
     2
274
     2
340
10
275
     0
280
     0
281
     0
282
     0
283
     1
284
     0
285
     0
286
     0
287
     0
288
     0
  0
ENDTAB
  0
TABLE
  2
BLOCK_RECORD
  5
1
100
AcDbSymbolTable
 70
     2
  0
BLOCK_RECORD
  5
18
100
AcDbSymbolTableRecord
100
AcDbBlockTableRecord
  2
*MODEL_SPACE
  0
BLOCK_RECORD
  5
15
100
AcDbSymbolTableRecord
100
AcDbBlockTableRecord
  2
*PAPER_SPACE
  0
BLOCK_RECORD
  5
2448
100
AcDbSymbolTableRecord
100
AcDbBlockTableRecord
  2
_OPEN
  0
BLOCK_RECORD
  5
9259
100
AcDbSymbolTableRecord
100
AcDbBlockTableRecord
  2
YA
  0
ENDTAB
  0
ENDSEC
  0
SECTION
  2
BLOCKS
  0
BLOCK
  5
3C
100
AcDbEntity
  8
0
100
AcDbBlockBegin
  2
*MODEL_SPACE
 70
     0
 10
0.0
 20
0.0
 30
0.0
  3
*MODEL_SPACE
  1

  0
ENDBLK
  5
3D
100
AcDbEntity
  8
0
100
AcDbBlockEnd
  0
BLOCK
  5
3A
100
AcDbEntity
 67
     1
  8
0
100
AcDbBlockBegin
  2
*PAPER_SPACE
 70
     0
 10
0.0
 20
0.0
 30
0.0
  3
*PAPER_SPACE
  1

  0
ENDBLK
  5
3B
100
AcDbEntity
 67
     1
  8
0
100
AcDbBlockEnd
  0
BLOCK
  5
2449
100
AcDbEntity
  8
0
 48
4.0
100
AcDbBlockBegin
  2
_OPEN
 70
     0
 10
0.0
 20
0.0
 30
0.0
  3
_OPEN
  1
H1111.DWG
  0
LINE
  5
244A
100
AcDbEntity
  8
0
  6
BYBLOCK
 62
     0
 48
4.0
100
AcDbLine
 10
-1.0
 20
0.166667
 30
0.0
 11
0.0
 21
0.0
 31
0.0
  0
LINE
  5
244B
100
AcDbEntity
  8
0
  6
BYBLOCK
 62
     0
 48
4.0
100
AcDbLine
 10
0.0
 20
0.0
 30
0.0
 11
-1.0
 21
-0.166667
 31
0.0
  0
LINE
  5
244C
100
AcDbEntity
  8
0
  6
BYBLOCK
 62
     0
 48
4.0
100
AcDbLine
 10
0.0
 20
0.0
 30
0.0
 11
-1.0
 21
0.0
 31
0.0
  0
ENDBLK
  5
244D
100
AcDbEntity
  8
0
 48
4.0
100
AcDbBlockEnd
  0
BLOCK
  5
9261
100
AcDbEntity
  8
0
100
AcDbBlockBegin
  2
YA
 70
     0
 10
0.0
 20
0.0
 30
0.0
  3
YA
  1

  0
LINE
  5
925A
100
AcDbEntity
  8
0
100
AcDbLine
 10
-16.8065
 20
2.801
 30
0.0
 11
-8.4035
 21
2.801
 31
0.0
  0
LINE
  5
925B
100
AcDbEntity
  8
0
100
AcDbLine
 10
-8.4035
 20
2.801
 30
0.0
 11
-7.0025
 21
1.4005
 31
0.0
  0
LINE
  5
925C
100
AcDbEntity
  8
0
100
AcDbLine
 10
-7.0025
 20
1.4005
 30
0.0
 11
-2.862
 21
1.4005
 31
0.0
  0
LINE
  5
925D
100
AcDbEntity
  8
0
100
AcDbLine
 10
-2.862
 20
1.4005
 30
0.0
 11
-2.862
 21
2.801
 31
0.0
  0
LINE
  5
925E
100
AcDbEntity
  8
0
100
AcDbLine
 10
-2.862
 20
2.801
 30
0.0
 11
0.0
 21
0.0
 31
0.0
  0
LINE
  5
925F
100
AcDbEntity
  8
0
100
AcDbLine
 10
0.0
 20
0.0
 30
0.0
 11
-14.0055
 21
0.0
 31
0.0
  0
LINE
  5
9260
100
AcDbEntity
  8
0
100
AcDbLine
 10
-14.0055
 20
0.0
 30
0.0
 11
-16.8065
 21
2.801
 31
0.0
  0
ENDBLK
  5
9262
100
AcDbEntity
  8
0
100
AcDbBlockEnd
  0
ENDSEC
  0
SECTION
  2
ENTITIES
  0
MTEXT
  5
ADA
100
AcDbEntity
  8
0
100
AcDbMText
 10
4561.671357
 20
598.155734
 30
0.0
 40
2.4
 41
566.717578
 71
     1
 72
     1
  1

  0
MTEXT
  5
ADB
100
AcDbEntity
  8
0
100
AcDbMText
 10
4668.599198
 20
694.209525
 30
0.0
 40
2.4
 41
545.33201
 71
     1
 72
     1
  1

  0
MTEXT
  5
ADC
100
AcDbEntity
  8
0
100
AcDbMText
 10
4604.442494
 20
-575.834957
 30
0.0
 40
2.4
 41
620.181499
 71
     1
 72
     1
  1

  0
TEXT
  5
2529
100
AcDbEntity
  8
0
  6
CONTINUOUS
100
AcDbText
 10
3054.171429
 20
84.0
 30
0.0
 40
36.0
  1
DC3AL,SL-F2
 41
0.9
  7
PTSH
 72
     2
 11
3372.0
 21
102.0
 31
0.0
100
AcDbText
 73
     2
  0
POLYLINE
  5
2563
100
AcDbEntity
  8
0
100
AcDb2dPolyline
 66
     1
 10
0.0
 20
0.0
 30
0.0
 70
     1
  0
VERTEX
  5
1396B
100
AcDbEntity
  8
0
100
AcDbVertex
100
AcDb2dVertex
 10
132.0
 20
60.0
 30
0.0
  0
VERTEX
  5
1396C
100
AcDbEntity
  8
0
100
AcDbVertex
100
AcDb2dVertex
 10
3432.0
 20
60.0
 30
0.0
  0
VERTEX
  5
1396D
100
AcDbEntity
  8
0
100
AcDbVertex
100
AcDb2dVertex
 10
3432.0
 20
2292.0
 30
0.0
  0
VERTEX
  5
1396E
100
AcDbEntity
  8
0
100
AcDbVertex
100
AcDb2dVertex
 10
132.0
 20
2292.0
 30
0.0
  0
SEQEND
  5
1396F
100
AcDbEntity
  8
0
  0
TEXT
  5
2FCF
100
AcDbEntity
  8
0
100
AcDbText
 10
1186.2
 20
219.0
 30
0.0
 40
42.0
  1
TLV  DC3A-L,DC3S-L,DC3-L (JIS20K)
 72
     1
 11
1782.0
 21
240.0
 31
0.0
100
AcDbText
 73
     2
  0
TEXT
  5
E66D
100
AcDbEntity
  8
0
100
AcDbText
 10
231.734315
 20
1348.850141
 30
0.0
 40
42.0
  1
平面
100
AcDbText
  0
TEXT
  5
E75D
100
AcDbEntity
  8
0
100
AcDbText
 10
1092.859395
 20
510.968717
 30
0.0
 40
30.0
  1
40A
 41
0.8
 72
     1
 11
1124.859395
 21
525.968717
 31
0.0
100
AcDbText
 73
     2
  0
TEXT
  5
E857
100
AcDbEntity
  8
0
100
AcDbText
 10
231.734315
 20
955.538404
 30
0.0
 40
42.0
  1
正面
100
AcDbText
  0
INSERT
  5
EB7D
100
AcDbEntity
  8
0
100
AcDbBlockReference
  2
YA
 10
2367.61577
 20
955.538404
 30
0.0
 41
3.427225
 42
3.427225
 43
3.427225
  0
INSERT
  5
EBAF
100
AcDbEntity
  8
0
100
AcDbBlockReference
  2
YA
 10
2367.61577
 20
1348.850141
 30
0.0
 41
3.427225
 42
3.427225
 43
3.427225
  0
TEXT
  5
EE19
100
AcDbEntity
  8
0
100
AcDbText
 10
231.734315
 20
1979.780361
 30
0.0
 40
42.0
  1
背面
100
AcDbText
  0
INSERT
  5
EE71
100
AcDbEntity
  8
0
100
AcDbBlockReference
  2
YA
 10
1309.414179
 20
1979.780361
 30
0.0
 41
-3.427225
 42
3.427225
 43
3.427225
  0
INSERT
  5
EF99
100
AcDbEntity
  8
0
100
AcDbBlockReference
  2
YA
 10
2804.707486
 20
1979.780361
 30
0.0
 41
-3.427225
 42
3.427225
 43
3.427225
  0
INSERT
  5
10095
100
AcDbEntity
  8
0
100
AcDbBlockReference
  2
YA
 10
927.822463
 20
955.538404
 30
0.0
 41
3.427225
 42
3.427225
 43
3.427225
  0
INSERT
  5
10096
100
AcDbEntity
  8
0
100
AcDbBlockReference
  2
YA
 10
927.822463
 20
1348.850141
 30
0.0
 41
3.427225
 42
3.427225
 43
3.427225
  0
TEXT
  5
1096A
100
AcDbEntity
  8
0
100
AcDbText
 10
2552.652702
 20
510.968717
 30
0.0
 40
30.0
  1
50A
 41
0.8
 72
     1
 11
2584.652702
 21
525.968717
 31
0.0
100
AcDbText
 73
     2
  0
ARC
  5
121BD
100
AcDbEntity
  8
0
100
AcDbCircle
 10
1088.118321
 20
1945.780361
 30
0.0
 40
3.0
100
AcDbArc
 50
90.0
 51
180.0
  0
LINE
  5
121BE
100
AcDbEntity
  8
0
100
AcDbLine
 10
1085.118321
 20
1909.780361
 30
0.0
 11
1085.118321
 21
1945.780361
 31
0.0
  0
ARC
  5
121BF
100
AcDbEntity
  8
0
100
AcDbCircle
 10
1088.118321
 20
1909.780361
 30
0.0
 40
3.0
100
AcDbArc
 50
180.0
 51
270.0
  0
LINE
  5
121C0
100
AcDbEntity
  8
0
100
AcDbLine
 10
1088.118321
 20
1906.780361
 30
0.0
 11
1147.118321
 21
1906.780361
 31
0.0
  0
ARC
  5
121C1
100
AcDbEntity
  8
0
100
AcDbCircle
 10
1147.118321
 20
1909.780361
 30
0.0
 40
3.0
100
AcDbArc
 50
270.0
 51
0.0
  0
LINE
  5
121C2
100
AcDbEntity
  8
0
100
AcDbLine
 10
1150.118321
 20
1909.780361
 30
0.0
 11
1150.118321
 21
1945.780361
 31
0.0
  0
LINE
  5
121C3
100
AcDbEntity
  8
0
100
AcDbLine
 10
1088.118321
 20
1948.780361
 30
0.0
 11
1147.118321
 21
1948.780361
 31
0.0
  0
ARC
  5
121C4
100
AcDbEntity
  8
0
100
AcDbCircle
 10
1147.118321
 20
1945.780361
 30
0.0
 40
3.0
100
AcDbArc
 50
360.0
 51
90.0
  0
ARC
  5
121DA
100
AcDbEntity
  8
0
100
AcDbCircle
 10
1094.618321
 20
1285.92161
 30
0.0
 40
4.0
100
AcDbArc
 50
0.0
 51
69.922946
  0
ARC
  5
121DB
100
AcDbEntity
  8
0
100
AcDbCircle
 10
1140.618321
 20
1285.92161
 30
0.0
 40
4.0
100
AcDbArc
 50
110.077054
 51
180.0
  0
ARC
  5
121DC
100
AcDbEntity
  8
0
100
AcDbCircle
 10
1117.618321
 20
1348.850141
 30
0.0
 40
63.0
100
AcDbArc
 50
204.374458
 51
335.625542
  0
ARC
  5
121E7
100
AcDbEntity
  8
0
100
AcDbCircle
 10
1117.618321
 20
1348.850141
 30
0.0
 40
92.5
100
AcDbArc
 50
196.324738
 51
343.675262
  0
LINE
  5
121E9
100
AcDbEntity
  8
0
100
AcDbLine
 10
1098.618321
 20
1278.850141
 30
0.0
 11
1136.618321
 21
1278.850141
 31
0.0
  0
LINE
  5
121EA
100
AcDbEntity
  8
0
100
AcDbLine
 10
1098.618321
 20
1278.850141
 30
0.0
 11
1098.618321
 21
1285.92161
 31
0.0
  0
LINE
  5
121EF
100
AcDbEntity
  8
0
100
AcDbLine
 10
1136.618321
 20
1278.850141
 30
0.0
 11
1136.618321
 21
1285.92161
 31
0.0
  0
CIRCLE
  5
121F5
100
AcDbEntity
  8
0
100
AcDbCircle
 10
1117.618321
 20
1271.350141
 30
0.0
 40
5.0
  0
ARC
  5
121F6
100
AcDbEntity
  8
0
100
AcDbCircle
 10
1117.618321
 20
1348.850141
 30
0.0
 40
92.5
100
AcDbArc
 50
16.324738
 51
163.675262
  0
ARC
  5
121F7
100
AcDbEntity
  8
0
100
AcDbCircle
 10
1117.618321
 20
1348.850141
 30
0.0
 40
39.5
100
AcDbArc
 50
188.736977
 51
287.717766
  0
ARC
  5
121F8
100
AcDbEntity
  8
0
100
AcDbCircle
 10
1117.618321
 20
1348.850141
 30
0.0
 40
63.0
100
AcDbArc
 50
79.777821
 51
100.222179
  0
LINE
  5
121F9
100
AcDbEntity
  8
0
100
AcDbLine
 10
1147.118321
 20
1410.850141
 30
0.0
 11
1088.118321
 21
1410.850141
 31
0.0
  0
ARC
  5
121FA
100
AcDbEntity
  8
0
100
AcDbCircle
 10
1117.618321
 20
1348.850141
 30
0.0
 40
60.0
100
AcDbArc
 50
205.679289
 51
334.320711
  0
LINE
  5
121FB
100
AcDbEntity
  8
0
100
AcDbLine
 10
1141.618321
 20
1342.850141
 30
0.0
 11
1012.118321
 21
1342.850141
 31
0.0
  0
LINE
  5
121FC
100
AcDbEntity
  8
0
100
AcDbLine
 10
1141.618321
 20
1354.850141
 30
0.0
 11
1012.118321
 21
1354.850141
 31
0.0
  0
ARC
  5
121FD
100
AcDbEntity
  8
0
100
AcDbCircle
 10
1117.618321
 20
1348.850141
 30
0.0
 40
60.0
100
AcDbArc
 50
25.679289
 51
154.320711
  0
ARC
  5
121FE
100
AcDbEntity
  8
0
100
AcDbCircle
 10
1117.618321
 20
1348.850141
 30
0.0
 40
39.5
100
AcDbArc
 50
72.282234
 51
171.263023
  0
LINE
  5
12201
100
AcDbEntity
  8
0
100
AcDbLine
 10
1008.118321
 20
1354.213581
 30
0.0
 11
1008.118321
 21
1343.4867
 31
0.0
  0
LINE
  5
12202
100
AcDbEntity
  8
0
100
AcDbLine
 10
1093.618321
 20
1342.850141
 30
0.0
 11
1093.618321
 21
1354.850141
 31
0.0
  0
ARC
  5
12203
100
AcDbEntity
  8
0
100
AcDbCircle
 10
1012.118321
 20
1338.850141
 30
0.0
 40
4.0
100
AcDbArc
 50
90.0
 51
180.0
  0
ARC
  5
12204
100
AcDbEntity
  8
0
100
AcDbCircle
 10
1012.118321
 20
1358.850141
 30
0.0
 40
4.0
100
AcDbArc
 50
180.0
 51
270.0
  0
ARC
  5
12205
100
AcDbEntity
  8
0
100
AcDbCircle
 10
1068.611181
 20
1319.850141
 30
0.0
 40
3.0
100
AcDbArc
 50
0.0
 51
90.0
  0
LINE
  5
12206
100
AcDbEntity
  8
0
100
AcDbLine
 10
1013.118321
 20
1322.850141
 30
0.0
 11
1068.611181
 21
1322.850141
 31
0.0
  0
LINE
  5
12208
100
AcDbEntity
  8
0
100
AcDbLine
 10
998.118321
 20
1319.850141
 30
0.0
 11
1013.118321
 21
1322.850141
 31
0.0
  0
LINE
  5
1220A
100
AcDbEntity
  8
0
100
AcDbLine
 10
998.118321
 20
1319.850141
 30
0.0
 11
1013.118321
 21
1322.850141
 31
0.0
  0
CIRCLE
  5
1220B
100
AcDbEntity
  8
0
100
AcDbCircle
 10
1050.501352
 20
1310.100141
 30
0.0
 40
5.0
  0
ARC
  5
1220D
100
AcDbEntity
  8
0
100
AcDbCircle
 10
1088.118321
 20
1407.850141
 30
0.0
 40
3.0
100
AcDbArc
 50
90.0
 51
180.0
  0
ARC
  5
1220E
100
AcDbEntity
  8
0
100
AcDbCircle
 10
1117.618321
 20
1348.850141
 30
0.0
 40
63.0
100
AcDbArc
 50
121.055826
 51
155.625542
  0
LINE
  5
1220F
100
AcDbEntity
  8
0
100
AcDbLine
 10
1085.118321
 20
1399.285743
 30
0.0
 11
1085.118321
 21
1407.850141
 31
0.0
  0
ARC
  5
12210
100
AcDbEntity
  8
0
100
AcDbCircle
 10
1068.611181
 20
1377.850141
 30
0.0
 40
3.0
100
AcDbArc
 50
270.0
 51
0.0
  0
LINE
  5
12212
100
AcDbEntity
  8
0
100
AcDbLine
 10
998.118321
 20
1377.850141
 30
0.0
 11
1013.118321
 21
1374.850141
 31
0.0
  0
LINE
  5
12215
100
AcDbEntity
  8
0
100
AcDbLine
 10
1013.118321
 20
1374.850141
 30
0.0
 11
1068.611181
 21
1374.850141
 31
0.0
  0
LINE
  5
12219
100
AcDbEntity
  8
0
100
AcDbLine
 10
998.118321
 20
1377.850141
 30
0.0
 11
1013.118321
 21
1374.850141
 31
0.0
  0
CIRCLE
  5
1221A
100
AcDbEntity
  8
0
100
AcDbCircle
 10
1050.501352
 20
1387.600141
 30
0.0
 40
5.0
  0
LINE
  5
1221E
100
AcDbEntity
  8
0
100
AcDbLine
 10
1141.618321
 20
1342.850141
 30
0.0
 11
1141.618321
 21
1354.850141
 31
0.0
  0
LINE
  5
1221F
100
AcDbEntity
  8
0
100
AcDbLine
 10
1222.118321
 20
1322.850141
 30
0.0
 11
1166.030667
 21
1322.850141
 31
0.0
  0
LINE
  5
12220
100
AcDbEntity
  8
0
100
AcDbLine
 10
1237.118321
 20
1319.850141
 30
0.0
 11
1222.118321
 21
1322.850141
 31
0.0
  0
LINE
  5
12221
100
AcDbEntity
  8
0
100
AcDbLine
 10
1237.118321
 20
1319.850141
 30
0.0
 11
1222.118321
 21
1322.850141
 31
0.0
  0
LINE
  5
12224
100
AcDbEntity
  8
0
100
AcDbLine
 10
1166.030667
 20
1322.850141
 30
0.0
 11
1129.639295
 21
1311.223738
 31
0.0
  0
CIRCLE
  5
12225
100
AcDbEntity
  8
0
100
AcDbCircle
 10
1184.73529
 20
1310.100141
 30
0.0
 40
5.0
  0
ARC
  5
12227
100
AcDbEntity
  8
0
100
AcDbCircle
 10
1147.118321
 20
1407.850141
 30
0.0
 40
3.0
100
AcDbArc
 50
0.0
 51
90.0
  0
LINE
  5
12228
100
AcDbEntity
  8
0
100
AcDbLine
 10
1150.118321
 20
1399.285743
 30
0.0
 11
1150.118321
 21
1407.850141
 31
0.0
  0
ARC
  5
12229
100
AcDbEntity
  8
0
100
AcDbCircle
 10
1117.618321
 20
1348.850141
 30
0.0
 40
63.0
100
AcDbArc
 50
24.374458
 51
58.944174
  0
LINE
  5
1222A
100
AcDbEntity
  8
0
100
AcDbLine
 10
1237.118321
 20
1377.850141
 30
0.0
 11
1222.118321
 21
1374.850141
 31
0.0
  0
LINE
  5
1222B
100
AcDbEntity
  8
0
100
AcDbLine
 10
1237.118321
 20
1377.850141
 30
0.0
 11
1222.118321
 21
1374.850141
 31
0.0
  0
LINE
  5
1222C
100
AcDbEntity
  8
0
100
AcDbLine
 10
1222.118321
 20
1374.850141
 30
0.0
 11
1166.030667
 21
1374.850141
 31
0.0
  0
LINE
  5
1222D
100
AcDbEntity
  8
0
100
AcDbLine
 10
1222.118321
 20
1374.850141
 30
0.0
 11
1166.030667
 21
1374.850141
 31
0.0
  0
LINE
  5
12234
100
AcDbEntity
  8
0
100
AcDbLine
 10
1166.030667
 20
1374.850141
 30
0.0
 11
1129.639295
 21
1386.476544
 31
0.0
  0
CIRCLE
  5
12235
100
AcDbEntity
  8
0
100
AcDbCircle
 10
1117.618321
 20
1426.350141
 30
0.0
 40
5.0
  0
CIRCLE
  5
12237
100
AcDbEntity
  8
0
100
AcDbCircle
 10
1184.73529
 20
1387.600141
 30
0.0
 40
5.0
  0
LINE
  5
12239
100
AcDbEntity
  8
0
100
AcDbLine
 10
1202.618321
 20
750.538404
 30
0.0
 11
1202.618321
 21
720.538404
 31
0.0
  0
LINE
  5
1223A
100
AcDbEntity
  8
0
100
AcDbLine
 10
1032.618321
 20
750.538404
 30
0.0
 11
1032.618321
 21
720.538404
 31
0.0
  0
LINE
  5
1223B
100
AcDbEntity
  8
0
100
AcDbLine
 10
1098.391824
 20
706.538404
 30
0.0
 11
1136.844818
 21
706.538404
 31
0.0
  0
LINE
  5
1223C
100
AcDbEntity
  8
0
100
AcDbLine
 10
1092.618321
 20
696.538404
 30
0.0
 11
1130.118321
 21
696.538404
 31
0.0
  0
LINE
  5
1223D
100
AcDbEntity
  8
0
100
AcDbLine
 10
1034.618321
 20
718.538404
 30
0.0
 11
1200.618321
 21
718.538404
 31
0.0
  0
ARC
  5
12240
100
AcDbEntity
  8
0
100
AcDbCircle
 10
1048.769518
 20
716.369728
 30
0.0
 40
4.630982
100
AcDbArc
 50
238.000676
 51
301.999324
  0
LINE
  5
12241
100
AcDbEntity
  8
0
100
AcDbLine
 10
1051.223518
 20
712.442404
 30
0.0
 11
1051.223518
 21
718.538404
 31
0.0
  0
LINE
  5
12242
100
AcDbEntity
  8
0
100
AcDbLine
 10
1046.315518
 20
712.442404
 30
0.0
 11
1046.315518
 21
718.538404
 31
0.0
  0
LINE
  5
1224F
100
AcDbEntity
  8
0
100
AcDbLine
 10
1061.037518
 20
712.442404
 30
0.0
 11
1061.037518
 21
718.538404
 31
0.0
  0
LINE
  5
12250
100
AcDbEntity
  8
0
100
AcDbLine
 10
1065.945518
 20
718.538404
 30
0.0
 11
1065.945518
 21
712.442404
 31
0.0
  0
ARC
  5
12254
100
AcDbEntity
  8
0
100
AcDbCircle
 10
1056.130518
 20
729.201396
 30
0.0
 40
17.462601
100
AcDbArc
 50
253.680072
 51
286.319928
  0
LINE
  5
12255
100
AcDbEntity
  8
0
100
AcDbLine
 10
1064.380518
 20
711.538404
 30
0.0
 11
1047.880518
 21
711.538404
 31
0.0
  0
ARC
  5
12256
100
AcDbEntity
  8
0
100
AcDbCircle
 10
1034.618321
 20
720.538404
 30
0.0
 40
2.0
100
AcDbArc
 50
180.0
 51
270.0
  0
ARC
  5
12257
100
AcDbEntity
  8
0
100
AcDbCircle
 10
1082.226016
 20
712.538404
 30
0.0
 40
6.0
100
AcDbArc
 50
30.0
 51
90.0
  0
LINE
  5
12258
100
AcDbEntity
  8
0
100
AcDbLine
 10
1092.618321
 20
708.373438
 30
0.0
 11
1092.618321
 21
696.538404
 31
0.0
  0
ARC
  5
12259
100
AcDbEntity
  8
0
100
AcDbCircle
 10
1098.391824
 20
716.538404
 30
0.0
 40
10.0
100
AcDbArc
 50
210.0
 51
270.0
  0
LINE
  5
1225A
100
AcDbEntity
  8
0
100
AcDbLine
 10
1092.618321
 20
708.373438
 30
0.0
 11
1092.618321
 21
696.538404
 31
0.0
  0
LINE
  5
1225B
100
AcDbEntity
  8
0
100
AcDbLine
 10
1087.422169
 20
715.538404
 30
0.0
 11
1089.73157
 21
711.538404
 31
0.0
  0
LINE
  5
1225C
100
AcDbEntity
  8
0
100
AcDbLine
 10
1179.118321
 20
677.538404
 30
0.0
 11
1179.118321
 21
711.538404
 31
0.0
  0
LINE
  5
1225D
100
AcDbEntity
  8
0
100
AcDbLine
 10
1187.356125
 20
711.538404
 30
0.0
 11
1170.856125
 21
711.538404
 31
0.0
  0
ARC
  5
1225E
100
AcDbEntity
  8
0
100
AcDbCircle
 10
1179.106125
 20
729.201396
 30
0.0
 40
17.462601
100
AcDbArc
 50
253.680072
 51
286.319928
  0
LINE
  5
12262
100
AcDbEntity
  8
0
100
AcDbLine
 10
1188.921125
 20
718.538404
 30
0.0
 11
1188.921125
 21
712.442404
 31
0.0
  0
LINE
  5
12263
100
AcDbEntity
  8
0
100
AcDbLine
 10
1184.013125
 20
712.442404
 30
0.0
 11
1184.013125
 21
718.538404
 31
0.0
  0
LINE
  5
12270
100
AcDbEntity
  8
0
100
AcDbLine
 10
1169.291125
 20
712.442404
 30
0.0
 11
1169.291125
 21
718.538404
 31
0.0
  0
LINE
  5
12271
100
AcDbEntity
  8
0
100
AcDbLine
 10
1174.199125
 20
712.442404
 30
0.0
 11
1174.199125
 21
718.538404
 31
0.0
  0
ARC
  5
12272
100
AcDbEntity
  8
0
100
AcDbCircle
 10
1171.745125
 20
716.369728
 30
0.0
 40
4.630982
100
AcDbArc
 50
238.000676
 51
301.999324
  0
LINE
  5
12273
100
AcDbEntity
  8
0
100
AcDbLine
 10
1170.856125
 20
711.538404
 30
0.0
 11
1169.291125
 21
712.442404
 31
0.0
  0
LINE
  5
12275
100
AcDbEntity
  8
0
100
AcDbLine
 10
1125.868321
 20
711.538404
 30
0.0
 11
1109.368321
 21
711.538404
 31
0.0
  0
ARC
  5
12276
100
AcDbEntity
  8
0
100
AcDbCircle
 10
1117.618321
 20
729.201396
 30
0.0
 40
17.462601
100
AcDbArc
 50
253.680072
 51
286.319928
  0
LINE
  5
1227A
100
AcDbEntity
  8
0
100
AcDbLine
 10
1127.433321
 20
718.538404
 30
0.0
 11
1127.433321
 21
712.442404
 31
0.0
  0
LINE
  5
1227B
100
AcDbEntity
  8
0
100
AcDbLine
 10
1122.525321
 20
712.442404
 30
0.0
 11
1122.525321
 21
718.538404
 31
0.0
  0
LINE
  5
12288
100
AcDbEntity
  8
0
100
AcDbLine
 10
1107.803321
 20
712.442404
 30
0.0
 11
1107.803321
 21
718.538404
 31
0.0
  0
LINE
  5
12289
100
AcDbEntity
  8
0
100
AcDbLine
 10
1112.711321
 20
712.442404
 30
0.0
 11
1112.711321
 21
718.538404
 31
0.0
  0
ARC
  5
1228A
100
AcDbEntity
  8
0
100
AcDbCircle
 10
1110.257321
 20
716.369728
 30
0.0
 40
4.630982
100
AcDbArc
 50
238.000676
 51
301.999324
  0
LINE
  5
1228B
100
AcDbEntity
  8
0
100
AcDbLine
 10
1109.368321
 20
711.538404
 30
0.0
 11
1107.803321
 21
712.442404
 31
0.0
  0
ARC
  5
1228D
100
AcDbEntity
  8
0
100
AcDbCircle
 10
1153.010626
 20
712.538404
 30
0.0
 40
6.0
100
AcDbArc
 50
90.0
 51
150.0
  0
LINE
  5
1228E
100
AcDbEntity
  8
0
100
AcDbLine
 10
1147.814474
 20
715.538404
 30
0.0
 11
1145.505073
 21
711.538404
 31
0.0
  0
ARC
  5
1228F
100
AcDbEntity
  8
0
100
AcDbCircle
 10
1136.844818
 20
716.538404
 30
0.0
 40
10.0
100
AcDbArc
 50
270.0
 51
330.0
  0
ARC
  5
12290
100
AcDbEntity
  8
0
100
AcDbCircle
 10
1130.118321
 20
692.538404
 30
0.0
 40
4.0
100
AcDbArc
 50
0.0
 51
90.0
  0
ARC
  5
12291
100
AcDbEntity
  8
0
100
AcDbCircle
 10
1200.618321
 20
720.538404
 30
0.0
 40
2.0
100
AcDbArc
 50
270.0
 51
0.0
  0
ARC
  5
12292
100
AcDbEntity
  8
0
100
AcDbCircle
 10
1132.368321
 20
704.788404
 30
0.0
 40
1.75
100
AcDbArc
 50
0.0
 51
180.0
  0
LINE
  5
12293
100
AcDbEntity
  8
0
100
AcDbLine
 10
1130.618321
 20
704.788404
 30
0.0
 11
1130.618321
 21
696.538404
 31
0.0
  0
LINE
  5
12294
100
AcDbEntity
  8
0
100
AcDbLine
 10
1134.118321
 20
677.538404
 30
0.0
 11
1135.118321
 21
676.538404
 31
0.0
  0
LINE
  5
12295
100
AcDbEntity
  8
0
100
AcDbLine
 10
1179.118321
 20
677.538404
 30
0.0
 11
1178.118321
 21
676.538404
 31
0.0
  0
LINE
  5
12296
100
AcDbEntity
  8
0
100
AcDbLine
 10
1135.118321
 20
676.538404
 30
0.0
 11
1178.118321
 21
676.538404
 31
0.0
  0
LINE
  5
12297
100
AcDbEntity
  8
0
100
AcDbLine
 10
1134.118321
 20
704.788404
 30
0.0
 11
1134.118321
 21
677.538404
 31
0.0
  0
LINE
  5
12299
100
AcDbEntity
  8
0
100
AcDbLine
 10
980.118321
 20
955.538404
 30
0.0
 11
980.118321
 21
885.538404
 31
0.0
  0
LINE
  5
1229C
100
AcDbEntity
  8
0
100
AcDbLine
 10
1177.618321
 20
931.279764
 30
0.0
 11
1177.618321
 21
879.538404
 31
0.0
  0
LINE
  5
1229D
100
AcDbEntity
  8
0
100
AcDbLine
 10
1057.618321
 20
909.538404
 30
0.0
 11
1057.618321
 21
879.538404
 31
0.0
  0
LINE
  5
1229F
100
AcDbEntity
  8
0
100
AcDbLine
 10
998.118321
 20
1025.538404
 30
0.0
 11
998.118321
 21
885.538404
 31
0.0
  0
LINE
  5
122A0
100
AcDbEntity
  8
0
100
AcDbLine
 10
1032.618321
 20
735.538404
 30
0.0
 11
1202.618321
 21
735.538404
 31
0.0
  0
LINE
  5
122A1
100
AcDbEntity
  8
0
100
AcDbLine
 10
1034.618321
 20
752.538404
 30
0.0
 11
1200.618321
 21
752.538404
 31
0.0
  0
LINE
  5
122A2
100
AcDbEntity
  8
0
100
AcDbLine
 10
1027.118321
 20
830.538404
 30
0.0
 11
1208.118321
 21
830.538404
 31
0.0
  0
LINE
  5
122A3
100
AcDbEntity
  8
0
100
AcDbLine
 10
1025.118321
 20
847.538404
 30
0.0
 11
1210.118321
 21
847.538404
 31
0.0
  0
LINE
  5
122A4
100
AcDbEntity
  8
0
100
AcDbLine
 10
1027.118321
 20
864.538404
 30
0.0
 11
1208.118321
 21
864.538404
 31
0.0
  0
LINE
  5
122A5
100
AcDbEntity
  8
0
100
AcDbLine
 10
1025.118321
 20
847.538404
 30
0.0
 11
1210.118321
 21
847.538404
 31
0.0
  0
LINE
  5
122A6
100
AcDbEntity
  8
0
100
AcDbLine
 10
1059.618321
 20
815.538404
 30
0.0
 11
1059.618321
 21
767.538404
 31
0.0
  0
LINE
  5
122A7
100
AcDbEntity
  8
0
100
AcDbLine
 10
1051.942518
 20
756.538404
 30
0.0
 11
1060.318518
 21
756.538404
 31
0.0
  0
LINE
  5
122A9
100
AcDbEntity
  8
0
100
AcDbLine
 10
1061.130518
 20
755.726404
 30
0.0
 11
1061.130518
 21
752.538404
 31
0.0
  0
LINE
  5
122AA
100
AcDbEntity
  8
0
100
AcDbLine
 10
1060.318518
 20
756.538404
 30
0.0
 11
1061.130518
 21
755.726404
 31
0.0
  0
LINE
  5
122AB
100
AcDbEntity
  8
0
100
AcDbLine
 10
1051.130518
 20
752.538404
 30
0.0
 11
1051.130518
 21
755.726404
 31
0.0
  0
LINE
  5
122AC
100
AcDbEntity
  8
0
100
AcDbLine
 10
1051.130518
 20
755.726404
 30
0.0
 11
1051.942518
 21
756.538404
 31
0.0
  0
ARC
  5
122AD
100
AcDbEntity
  8
0
100
AcDbCircle
 10
1034.618321
 20
750.538404
 30
0.0
 40
2.0
100
AcDbArc
 50
90.0
 51
180.0
  0
LINE
  5
122AE
100
AcDbEntity
  8
0
100
AcDbLine
 10
1057.418321
 20
756.538404
 30
0.0
 11
1059.618321
 21
767.538404
 31
0.0
  0
LINE
  5
122AF
100
AcDbEntity
  8
0
100
AcDbLine
 10
1046.313352
 20
868.538404
 30
0.0
 11
1054.689352
 21
868.538404
 31
0.0
  0
LINE
  5
122B1
100
AcDbEntity
  8
0
100
AcDbLine
 10
1055.501352
 20
867.726404
 30
0.0
 11
1055.501352
 21
864.538404
 31
0.0
  0
LINE
  5
122B2
100
AcDbEntity
  8
0
100
AcDbLine
 10
1054.689352
 20
868.538404
 30
0.0
 11
1055.501352
 21
867.726404
 31
0.0
  0
LINE
  5
122B3
100
AcDbEntity
  8
0
100
AcDbLine
 10
1045.501352
 20
864.538404
 30
0.0
 11
1045.501352
 21
867.726404
 31
0.0
  0
LINE
  5
122B4
100
AcDbEntity
  8
0
100
AcDbLine
 10
1045.501352
 20
867.726404
 30
0.0
 11
1046.313352
 21
868.538404
 31
0.0
  0
LINE
  5
122B6
100
AcDbEntity
  8
0
100
AcDbLine
 10
1042.251352
 20
823.538404
 30
0.0
 11
1040.686352
 21
824.442404
 31
0.0
  0
ARC
  5
122B7
100
AcDbEntity
  8
0
100
AcDbCircle
 10
1043.140352
 20
828.369728
 30
0.0
 40
4.630982
100
AcDbArc
 50
238.000676
 51
301.999324
  0
LINE
  5
122B8
100
AcDbEntity
  8
0
100
AcDbLine
 10
1045.594352
 20
824.442404
 30
0.0
 11
1045.594352
 21
830.538404
 31
0.0
  0
LINE
  5
122B9
100
AcDbEntity
  8
0
100
AcDbLine
 10
1040.686352
 20
824.442404
 30
0.0
 11
1040.686352
 21
830.538404
 31
0.0
  0
LINE
  5
122C6
100
AcDbEntity
  8
0
100
AcDbLine
 10
1055.408352
 20
824.442404
 30
0.0
 11
1055.408352
 21
830.538404
 31
0.0
  0
LINE
  5
122C7
100
AcDbEntity
  8
0
100
AcDbLine
 10
1060.316352
 20
830.538404
 30
0.0
 11
1060.316352
 21
824.442404
 31
0.0
  0
ARC
  5
122CB
100
AcDbEntity
  8
0
100
AcDbCircle
 10
1050.501352
 20
841.201396
 30
0.0
 40
17.462601
100
AcDbArc
 50
253.680072
 51
286.319928
  0
LINE
  5
122CC
100
AcDbEntity
  8
0
100
AcDbLine
 10
1058.751352
 20
823.538404
 30
0.0
 11
1042.251352
 21
823.538404
 31
0.0
  0
ARC
  5
122CD
100
AcDbEntity
  8
0
100
AcDbCircle
 10
1027.118321
 20
862.538404
 30
0.0
 40
2.0
100
AcDbArc
 50
90.0
 51
180.0
  0
ARC
  5
122CE
100
AcDbEntity
  8
0
100
AcDbCircle
 10
1027.118321
 20
832.538404
 30
0.0
 40
2.0
100
AcDbArc
 50
180.0
 51
270.0
  0
LINE
  5
122CF
100
AcDbEntity
  8
0
100
AcDbLine
 10
1058.018321
 20
823.538404
 30
0.0
 11
1059.618321
 21
815.538404
 31
0.0
  0
LINE
  5
122D1
100
AcDbEntity
  8
0
100
AcDbLine
 10
1055.296826
 20
867.93093
 30
0.0
 11
1057.618321
 21
879.538404
 31
0.0
  0
LINE
  5
122D2
100
AcDbEntity
  8
0
100
AcDbLine
 10
1025.118321
 20
862.538404
 30
0.0
 11
1025.118321
 21
832.538325
 31
0.0
  0
LINE
  5
122D4
100
AcDbEntity
  8
0
100
AcDbLine
 10
1175.618321
 20
815.538404
 30
0.0
 11
1175.618321
 21
767.538404
 31
0.0
  0
LINE
  5
122D5
100
AcDbEntity
  8
0
100
AcDbLine
 10
1174.106125
 20
755.726404
 30
0.0
 11
1174.918125
 21
756.538404
 31
0.0
  0
LINE
  5
122D6
100
AcDbEntity
  8
0
100
AcDbLine
 10
1174.106125
 20
752.538404
 30
0.0
 11
1174.106125
 21
755.726404
 31
0.0
  0
LINE
  5
122D7
100
AcDbEntity
  8
0
100
AcDbLine
 10
1183.294125
 20
756.538404
 30
0.0
 11
1184.106125
 21
755.726404
 31
0.0
  0
LINE
  5
122D8
100
AcDbEntity
  8
0
100
AcDbLine
 10
1184.106125
 20
755.726404
 30
0.0
 11
1184.106125
 21
752.538404
 31
0.0
  0
LINE
  5
122DA
100
AcDbEntity
  8
0
100
AcDbLine
 10
1174.918125
 20
756.538404
 30
0.0
 11
1183.294125
 21
756.538404
 31
0.0
  0
LINE
  5
122DB
100
AcDbEntity
  8
0
100
AcDbLine
 10
1112.618321
 20
755.726404
 30
0.0
 11
1113.430321
 21
756.538404
 31
0.0
  0
LINE
  5
122DC
100
AcDbEntity
  8
0
100
AcDbLine
 10
1112.618321
 20
752.538404
 30
0.0
 11
1112.618321
 21
755.726404
 31
0.0
  0
LINE
  5
122DD
100
AcDbEntity
  8
0
100
AcDbLine
 10
1121.806321
 20
756.538404
 30
0.0
 11
1122.618321
 21
755.726404
 31
0.0
  0
LINE
  5
122DE
100
AcDbEntity
  8
0
100
AcDbLine
 10
1122.618321
 20
755.726404
 30
0.0
 11
1122.618321
 21
752.538404
 31
0.0
  0
LINE
  5
122E0
100
AcDbEntity
  8
0
100
AcDbLine
 10
1113.430321
 20
756.538404
 30
0.0
 11
1121.806321
 21
756.538404
 31
0.0
  0
ARC
  5
122E1
100
AcDbEntity
  8
0
100
AcDbCircle
 10
1200.618321
 20
750.538404
 30
0.0
 40
2.0
100
AcDbArc
 50
0.0
 51
90.0
  0
LINE
  5
122E2
100
AcDbEntity
  8
0
100
AcDbLine
 10
1175.618321
 20
767.538404
 30
0.0
 11
1177.818321
 21
756.538404
 31
0.0
  0
LINE
  5
122E3
100
AcDbEntity
  8
0
100
AcDbLine
 10
1189.73529
 20
867.726404
 30
0.0
 11
1188.92329
 21
868.538404
 31
0.0
  0
LINE
  5
122E4
100
AcDbEntity
  8
0
100
AcDbLine
 10
1189.73529
 20
864.538404
 30
0.0
 11
1189.73529
 21
867.726404
 31
0.0
  0
LINE
  5
122E5
100
AcDbEntity
  8
0
100
AcDbLine
 10
1180.54729
 20
868.538404
 30
0.0
 11
1179.73529
 21
867.726404
 31
0.0
  0
LINE
  5
122E6
100
AcDbEntity
  8
0
100
AcDbLine
 10
1179.73529
 20
867.726404
 30
0.0
 11
1179.73529
 21
864.538404
 31
0.0
  0
LINE
  5
122E8
100
AcDbEntity
  8
0
100
AcDbLine
 10
1188.92329
 20
868.538404
 30
0.0
 11
1180.54729
 21
868.538404
 31
0.0
  0
LINE
  5
122E9
100
AcDbEntity
  8
0
100
AcDbLine
 10
1176.48529
 20
823.538404
 30
0.0
 11
1192.98529
 21
823.538404
 31
0.0
  0
ARC
  5
122EA
100
AcDbEntity
  8
0
100
AcDbCircle
 10
1184.73529
 20
841.201396
 30
0.0
 40
17.462601
100
AcDbArc
 50
253.680072
 51
286.319928
  0
LINE
  5
122EE
100
AcDbEntity
  8
0
100
AcDbLine
 10
1174.92029
 20
830.538404
 30
0.0
 11
1174.92029
 21
824.442404
 31
0.0
  0
LINE
  5
122EF
100
AcDbEntity
  8
0
100
AcDbLine
 10
1179.82829
 20
824.442404
 30
0.0
 11
1179.82829
 21
830.538404
 31
0.0
  0
LINE
  5
122FC
100
AcDbEntity
  8
0
100
AcDbLine
 10
1194.55029
 20
824.442404
 30
0.0
 11
1194.55029
 21
830.538404
 31
0.0
  0
LINE
  5
122FD
100
AcDbEntity
  8
0
100
AcDbLine
 10
1189.64229
 20
824.442404
 30
0.0
 11
1189.64229
 21
830.538404
 31
0.0
  0
ARC
  5
122FE
100
AcDbEntity
  8
0
100
AcDbCircle
 10
1192.09629
 20
828.369728
 30
0.0
 40
4.630982
100
AcDbArc
 50
238.000676
 51
301.999324
  0
LINE
  5
122FF
100
AcDbEntity
  8
0
100
AcDbLine
 10
1192.98529
 20
823.538404
 30
0.0
 11
1194.55029
 21
824.442404
 31
0.0
  0
LINE
  5
12301
100
AcDbEntity
  8
0
100
AcDbLine
 10
1112.618321
 20
867.726404
 30
0.0
 11
1113.430321
 21
868.538404
 31
0.0
  0
LINE
  5
12302
100
AcDbEntity
  8
0
100
AcDbLine
 10
1112.618321
 20
864.538404
 30
0.0
 11
1112.618321
 21
867.726404
 31
0.0
  0
LINE
  5
12303
100
AcDbEntity
  8
0
100
AcDbLine
 10
1121.806321
 20
868.538404
 30
0.0
 11
1122.618321
 21
867.726404
 31
0.0
  0
LINE
  5
12304
100
AcDbEntity
  8
0
100
AcDbLine
 10
1122.618321
 20
867.726404
 30
0.0
 11
1122.618321
 21
864.538404
 31
0.0
  0
LINE
  5
12306
100
AcDbEntity
  8
0
100
AcDbLine
 10
1113.430321
 20
868.538404
 30
0.0
 11
1121.806321
 21
868.538404
 31
0.0
  0
LINE
  5
12307
100
AcDbEntity
  8
0
100
AcDbLine
 10
1125.868321
 20
823.538404
 30
0.0
 11
1109.368321
 21
823.538404
 31
0.0
  0
ARC
  5
12308
100
AcDbEntity
  8
0
100
AcDbCircle
 10
1117.618321
 20
841.201396
 30
0.0
 40
17.462601
100
AcDbArc
 50
253.680072
 51
286.319928
  0
LINE
  5
1230C
100
AcDbEntity
  8
0
100
AcDbLine
 10
1127.433321
 20
830.538404
 30
0.0
 11
1127.433321
 21
824.442404
 31
0.0
  0
LINE
  5
1230D
100
AcDbEntity
  8
0
100
AcDbLine
 10
1122.525321
 20
824.442404
 30
0.0
 11
1122.525321
 21
830.538404
 31
0.0
  0
LINE
  5
1231A
100
AcDbEntity
  8
0
100
AcDbLine
 10
1107.803321
 20
824.442404
 30
0.0
 11
1107.803321
 21
830.538404
 31
0.0
  0
LINE
  5
1231B
100
AcDbEntity
  8
0
100
AcDbLine
 10
1112.711321
 20
824.442404
 30
0.0
 11
1112.711321
 21
830.538404
 31
0.0
  0
ARC
  5
1231C
100
AcDbEntity
  8
0
100
AcDbCircle
 10
1110.257321
 20
828.369728
 30
0.0
 40
4.630982
100
AcDbArc
 50
238.000676
 51
301.999324
  0
LINE
  5
1231D
100
AcDbEntity
  8
0
100
AcDbLine
 10
1109.368321
 20
823.538404
 30
0.0
 11
1107.803321
 21
824.442404
 31
0.0
  0
ARC
  5
1231F
100
AcDbEntity
  8
0
100
AcDbCircle
 10
1208.118321
 20
832.538404
 30
0.0
 40
2.0
100
AcDbArc
 50
270.0
 51
360.0
  0
ARC
  5
12320
100
AcDbEntity
  8
0
100
AcDbCircle
 10
1208.118321
 20
862.538404
 30
0.0
 40
2.0
100
AcDbArc
 50
0.0
 51
90.0
  0
LINE
  5
12321
100
AcDbEntity
  8
0
100
AcDbLine
 10
1175.618321
 20
815.538404
 30
0.0
 11
1177.218321
 21
823.538404
 31
0.0
  0
LINE
  5
12323
100
AcDbEntity
  8
0
100
AcDbLine
 10
1177.618321
 20
879.538404
 30
0.0
 11
1179.939816
 21
867.93093
 31
0.0
  0
LINE
  5
12324
100
AcDbEntity
  8
0
100
AcDbLine
 10
1210.118321
 20
862.538404
 30
0.0
 11
1210.118321
 21
832.538369
 31
0.0
  0
LINE
  5
12326
100
AcDbEntity
  8
0
100
AcDbLine
 10
1159.618321
 20
965.538404
 30
0.0
 11
1075.618321
 21
965.538404
 31
0.0
  0
CIRCLE
  5
12327
100
AcDbEntity
  8
0
100
AcDbCircle
 10
1117.618321
 20
917.538404
 30
0.0
 40
19.0
  0
ARC
  5
12328
100
AcDbEntity
  8
0
100
AcDbCircle
 10
1117.618321
 20
1014.538404
 30
0.0
 40
24.0
100
AcDbArc
 50
358.209215
 51
177.123119
  0
ARC
  5
12329
100
AcDbEntity
  8
0
100
AcDbCircle
 10
1117.618321
 20
929.538404
 30
0.0
 40
76.0
100
AcDbArc
 50
90.0
 51
105.664267
  0
ARC
  5
1232A
100
AcDbEntity
  8
0
100
AcDbCircle
 10
1075.618321
 20
947.538404
 30
0.0
 40
18.0
100
AcDbArc
 50
90.0
 51
180.0
  0
LINE
  5
1232B
100
AcDbEntity
  8
0
100
AcDbLine
 10
980.118321
 20
1025.538404
 30
0.0
 11
980.118321
 21
955.538404
 31
0.0
  0
ARC
  5
1232C
100
AcDbEntity
  8
0
100
AcDbCircle
 10
1037.618321
 20
909.538404
 30
0.0
 40
20.0
100
AcDbArc
 50
0.0
 51
90.0
  0
LINE
  5
1232D
100
AcDbEntity
  8
0
100
AcDbLine
 10
1013.118321
 20
929.538404
 30
0.0
 11
1037.618321
 21
929.538404
 31
0.0
  0
LINE
  5
1232E
100
AcDbEntity
  8
0
100
AcDbLine
 10
998.118321
 20
926.538404
 30
0.0
 11
998.118321
 21
929.538404
 31
0.0
  0
LINE
  5
1232F
100
AcDbEntity
  8
0
100
AcDbLine
 10
998.118321
 20
926.538404
 30
0.0
 11
1013.118321
 21
929.538404
 31
0.0
  0
ARC
  5
12331
100
AcDbEntity
  8
0
100
AcDbCircle
 10
1085.658651
 20
1016.144482
 30
0.0
 40
8.0
100
AcDbArc
 50
288.0
 51
357.123119
  0
LINE
  5
12332
100
AcDbEntity
  8
0
100
AcDbLine
 10
1088.130787
 20
1008.53603
 30
0.0
 11
1008.118321
 21
982.538404
 31
0.0
  0
ARC
  5
12333
100
AcDbEntity
  8
0
100
AcDbCircle
 10
1070.119483
 20
977.400364
 30
0.0
 40
8.0
100
AcDbArc
 50
234.129469
 51
0.473633
  0
ARC
  5
12334
100
AcDbEntity
  8
0
100
AcDbCircle
 10
1032.618321
 20
925.538404
 30
0.0
 40
56.0
100
AcDbArc
 50
54.129469
 51
90.0
  0
ARC
  5
12335
100
AcDbEntity
  8
0
100
AcDbCircle
 10
1104.118321
 20
977.68142
 30
0.0
 40
26.0
100
AcDbArc
 50
105.664267
 51
180.473633
  0
LINE
  5
12336
100
AcDbEntity
  8
0
100
AcDbLine
 10
1013.118321
 20
981.538404
 30
0.0
 11
1032.618321
 21
981.538404
 31
0.0
  0
LINE
  5
12337
100
AcDbEntity
  8
0
100
AcDbLine
 10
998.118321
 20
984.538404
 30
0.0
 11
1013.118321
 21
981.538404
 31
0.0
  0
LINE
  5
12338
100
AcDbEntity
  8
0
100
AcDbLine
 10
998.118321
 20
984.538404
 30
0.0
 11
998.118321
 21
981.538404
 31
0.0
  0
ARC
  5
1233A
100
AcDbEntity
  8
0
100
AcDbCircle
 10
1159.618321
 20
947.538404
 30
0.0
 40
18.0
100
AcDbArc
 50
0.0
 51
90.0
  0
ARC
  5
1233C
100
AcDbEntity
  8
0
100
AcDbCircle
 10
1213.618321
 20
985.538404
 30
0.0
 40
56.0
100
AcDbArc
 50
241.061472
 51
270.0
  0
ARC
  5
1233D
100
AcDbEntity
  8
0
100
AcDbCircle
 10
1183.618321
 20
931.279764
 30
0.0
 40
6.0
100
AcDbArc
 50
61.061472
 51
180.0
  0
LINE
  5
1233F
100
AcDbEntity
  8
0
100
AcDbLine
 10
1237.118321
 20
926.538404
 30
0.0
 11
1222.118321
 21
929.538404
 31
0.0
  0
LINE
  5
12340
100
AcDbEntity
  8
0
100
AcDbLine
 10
1213.618321
 20
929.538404
 30
0.0
 11
1222.118321
 21
929.538404
 31
0.0
  0
ARC
  5
12342
100
AcDbEntity
  8
0
100
AcDbCircle
 10
1149.602692
 20
1013.538404
 30
0.0
 40
8.0
100
AcDbArc
 50
172.819244
 51
270.0
  0
CIRCLE
  5
12343
100
AcDbEntity
  8
0
100
AcDbCircle
 10
1117.618321
 20
1014.538404
 30
0.0
 40
9.0
  0
ARC
  5
12344
100
AcDbEntity
  8
0
100
AcDbCircle
 10
1208.618321
 20
985.538404
 30
0.0
 40
4.0
100
AcDbArc
 50
216.869898
 51
270.0
  0
ARC
  5
12345
100
AcDbEntity
  8
0
100
AcDbCircle
 10
1160.618321
 20
949.538404
 30
0.0
 40
56.0
100
AcDbArc
 50
36.869898
 51
90.0
  0
LINE
  5
12346
100
AcDbEntity
  8
0
100
AcDbLine
 10
1208.618321
 20
981.538404
 30
0.0
 11
1222.118321
 21
981.538404
 31
0.0
  0
LINE
  5
12348
100
AcDbEntity
  8
0
100
AcDbLine
 10
1237.118321
 20
984.538404
 30
0.0
 11
1222.118321
 21
981.538404
 31
0.0
  0
LINE
  5
12349
100
AcDbEntity
  8
0
100
AcDbLine
 10
1117.618321
 20
1005.538404
 30
0.0
 11
1160.618321
 21
1005.538404
 31
0.0
  0
ARC
  5
1234D
100
AcDbEntity
  8
0
100
AcDbCircle
 10
2714.788101
 20
993.012718
 30
0.0
 40
5.0
100
AcDbArc
 50
221.951213
 51
281.309932
  0
LINE
  5
1234E
100
AcDbEntity
  8
0
100
AcDbLine
 10
2723.892209
 20
989.73452
 30
0.0
 11
2715.768681
 21
988.109815
 31
0.0
  0
LINE
  5
1234F
100
AcDbEntity
  8
0
100
AcDbLine
 10
2447.931048
 20
989.73452
 30
0.0
 11
2458.911628
 21
987.538404
 31
0.0
  0
ARC
  5
12350
100
AcDbEntity
  8
0
100
AcDbCircle
 10
2569.911628
 20
979.159693
 30
0.0
 40
32.0
100
AcDbArc
 50
106.91239
 51
180.0
  0
ARC
  5
12351
100
AcDbEntity
  8
0
100
AcDbCircle
 10
2488.411628
 20
930.538404
 30
0.0
 40
57.0
100
AcDbArc
 50
50.295279
 51
90.0
  0
LINE
  5
12352
100
AcDbEntity
  8
0
100
AcDbLine
 10
2549.50658
 20
1014.152994
 30
0.0
 11
2453.911628
 21
988.538404
 31
0.0
  0
LINE
  5
12354
100
AcDbEntity
  8
0
100
AcDbLine
 10
2443.911628
 20
1033.038404
 30
0.0
 11
2443.911628
 21
878.038404
 31
0.0
  0
LINE
  5
12357
100
AcDbEntity
  8
0
100
AcDbLine
 10
2425.911628
 20
1033.038404
 30
0.0
 11
2425.911628
 21
955.538404
 31
0.0
  0
LINE
  5
12360
100
AcDbEntity
  8
0
100
AcDbLine
 10
2651.411628
 20
660.538404
 30
0.0
 11
2651.411628
 21
625.538404
 31
0.0
  0
LINE
  5
12372
100
AcDbEntity
  8
0
100
AcDbLine
 10
2651.411628
 20
625.538404
 30
0.0
 11
2650.411628
 21
624.538404
 31
0.0
  0
ARC
  5
12373
100
AcDbEntity
  8
0
100
AcDbCircle
 10
2601.911628
 20
642.538404
 30
0.0
 40
4.0
100
AcDbArc
 50
90.0
 51
180.0
  0
ARC
  5
12374
100
AcDbEntity
  8
0
100
AcDbCircle
 10
2602.411628
 20
642.538404
 30
0.0
 40
4.0
100
AcDbArc
 50
0.0
 51
90.0
  0
LINE
  5
12375
100
AcDbEntity
  8
0
100
AcDbLine
 10
2601.911628
 20
646.538404
 30
0.0
 11
2602.411628
 21
646.538404
 31
0.0
  0
ARC
  5
12376
100
AcDbEntity
  8
0
100
AcDbCircle
 10
2565.053764
 20
656.538404
 30
0.0
 40
10.0
100
AcDbArc
 50
225.0
 51
270.0
  0
ARC
  5
12377
100
AcDbEntity
  8
0
100
AcDbCircle
 10
2606.769493
 20
656.538404
 30
0.0
 40
10.0
100
AcDbArc
 50
270.0
 51
315.0
  0
LINE
  5
12378
100
AcDbEntity
  8
0
100
AcDbLine
 10
2565.053764
 20
646.538404
 30
0.0
 11
2606.769493
 21
646.538404
 31
0.0
  0
LINE
  5
12379
100
AcDbEntity
  8
0
100
AcDbLine
 10
2606.411628
 20
642.538404
 30
0.0
 11
2606.411628
 21
625.538404
 31
0.0
  0
LINE
  5
1237A
100
AcDbEntity
  8
0
100
AcDbLine
 10
2607.411628
 20
624.538404
 30
0.0
 11
2606.411628
 21
625.538404
 31
0.0
  0
LINE
  5
1237B
100
AcDbEntity
  8
0
100
AcDbLine
 10
2597.911628
 20
642.538404
 30
0.0
 11
2597.911628
 21
638.538404
 31
0.0
  0
ARC
  5
1237C
100
AcDbEntity
  8
0
100
AcDbCircle
 10
2595.911628
 20
638.538404
 30
0.0
 40
2.0
100
AcDbArc
 50
270.0
 51
0.0
  0
LINE
  5
1237D
100
AcDbEntity
  8
0
100
AcDbLine
 10
2561.911628
 20
636.538404
 30
0.0
 11
2595.911628
 21
636.538404
 31
0.0
  0
LINE
  5
1237E
100
AcDbEntity
  8
0
100
AcDbLine
 10
2559.911628
 20
647.961782
 30
0.0
 11
2559.911628
 21
638.538404
 31
0.0
  0
ARC
  5
1237F
100
AcDbEntity
  8
0
100
AcDbCircle
 10
2561.911628
 20
638.538404
 30
0.0
 40
2.0
100
AcDbArc
 50
180.0
 51
270.0
  0
LINE
  5
12380
100
AcDbEntity
  8
0
100
AcDbLine
 10
2607.411628
 20
624.538404
 30
0.0
 11
2650.411628
 21
624.538404
 31
0.0
  0
LINE
  5
12381
100
AcDbEntity
  8
0
100
AcDbLine
 10
2552.911628
 20
654.538404
 30
0.0
 11
2557.982696
 21
649.467336
 31
0.0
  0
LINE
  5
12382
100
AcDbEntity
  8
0
100
AcDbLine
 10
2618.911628
 20
654.538404
 30
0.0
 11
2613.84056
 21
649.467336
 31
0.0
  0
ARC
  5
12383
100
AcDbEntity
  8
0
100
AcDbCircle
 10
2529.935657
 20
980.545954
 30
0.0
 40
8.0
100
AcDbArc
 50
230.295279
 51
358.013929
  0
LINE
  5
12384
100
AcDbEntity
  8
0
100
AcDbLine
 10
2535.911628
 20
969.538404
 30
0.0
 11
2635.911628
 21
969.538404
 31
0.0
  0
LINE
  5
12385
100
AcDbEntity
  8
0
100
AcDbLine
 10
2470.911628
 20
851.538404
 30
0.0
 11
2700.911628
 21
851.538404
 31
0.0
  0
LINE
  5
12386
100
AcDbEntity
  8
0
100
AcDbLine
 10
2470.911628
 20
830.538404
 30
0.0
 11
2700.911628
 21
830.538404
 31
0.0
  0
LINE
  5
12387
100
AcDbEntity
  8
0
100
AcDbLine
 10
2470.911628
 20
809.538404
 30
0.0
 11
2700.911628
 21
809.538404
 31
0.0
  0
LINE
  5
12388
100
AcDbEntity
  8
0
100
AcDbLine
 10
2479.911628
 20
706.538404
 30
0.0
 11
2691.911628
 21
706.538404
 31
0.0
  0
LINE
  5
12389
100
AcDbEntity
  8
0
100
AcDbLine
 10
2479.911628
 20
685.538404
 30
0.0
 11
2691.911628
 21
685.538404
 31
0.0
  0
LINE
  5
1238A
100
AcDbEntity
  8
0
100
AcDbLine
 10
2479.911628
 20
664.538404
 30
0.0
 11
2691.911628
 21
664.538404
 31
0.0
  0
LINE
  5
1238B
100
AcDbEntity
  8
0
100
AcDbLine
 10
2470.911628
 20
851.538404
 30
0.0
 11
2470.911628
 21
809.538404
 31
0.0
  0
LINE
  5
1238C
100
AcDbEntity
  8
0
100
AcDbLine
 10
2511.911628
 20
789.538404
 30
0.0
 11
2511.911628
 21
726.538404
 31
0.0
  0
LINE
  5
1238D
100
AcDbEntity
  8
0
100
AcDbLine
 10
2496.76247
 20
709.591404
 30
0.0
 11
2497.70947
 21
710.538404
 31
0.0
  0
LINE
  5
1238E
100
AcDbEntity
  8
0
100
AcDbLine
 10
2496.76247
 20
709.591404
 30
0.0
 11
2496.76247
 21
706.538404
 31
0.0
  0
LINE
  5
1238F
100
AcDbEntity
  8
0
100
AcDbLine
 10
2497.70947
 20
710.538404
 30
0.0
 11
2507.81547
 21
710.538404
 31
0.0
  0
LINE
  5
12390
100
AcDbEntity
  8
0
100
AcDbLine
 10
2497.27847
 20
655.548404
 30
0.0
 11
2497.27847
 21
664.538404
 31
0.0
  0
LINE
  5
12391
100
AcDbEntity
  8
0
100
AcDbLine
 10
2491.79247
 20
655.548404
 30
0.0
 11
2491.79247
 21
664.538404
 31
0.0
  0
LINE
  5
12392
100
AcDbEntity
  8
0
100
AcDbLine
 10
2493.54147
 20
654.538404
 30
0.0
 11
2491.79247
 21
655.548404
 31
0.0
  0
ARC
  5
12393
100
AcDbEntity
  8
0
100
AcDbCircle
 10
2494.53547
 20
659.938201
 30
0.0
 40
5.176327
100
AcDbArc
 50
238.000464
 51
301.999536
  0
LINE
  5
12394
100
AcDbEntity
  8
0
100
AcDbLine
 10
2508.76247
 20
709.591404
 30
0.0
 11
2508.76247
 21
706.538404
 31
0.0
  0
LINE
  5
12395
100
AcDbEntity
  8
0
100
AcDbLine
 10
2513.73247
 20
664.538404
 30
0.0
 11
2513.73247
 21
655.548404
 31
0.0
  0
LINE
  5
12396
100
AcDbEntity
  8
0
100
AcDbLine
 10
2513.73247
 20
655.548404
 30
0.0
 11
2511.98347
 21
654.538404
 31
0.0
  0
LINE
  5
12397
100
AcDbEntity
  8
0
100
AcDbLine
 10
2508.24647
 20
655.548404
 30
0.0
 11
2508.24647
 21
664.538404
 31
0.0
  0
ARC
  5
12398
100
AcDbEntity
  8
0
100
AcDbCircle
 10
2510.98947
 20
659.938201
 30
0.0
 40
5.176327
100
AcDbArc
 50
238.000464
 51
301.999536
  0
LINE
  5
12399
100
AcDbEntity
  8
0
100
AcDbLine
 10
2507.81547
 20
710.538404
 30
0.0
 11
2508.76247
 21
709.591404
 31
0.0
  0
ARC
  5
1239B
100
AcDbEntity
  8
0
100
AcDbCircle
 10
2502.76247
 20
674.27831
 30
0.0
 40
19.51624
100
AcDbArc
 50
253.680297
 51
286.319703
  0
LINE
  5
1239C
100
AcDbEntity
  8
0
100
AcDbLine
 10
2511.98347
 20
654.538404
 30
0.0
 11
2493.54147
 21
654.538404
 31
0.0
  0
LINE
  5
1239D
100
AcDbEntity
  8
0
100
AcDbLine
 10
2508.562269
 20
709.791606
 30
0.0
 11
2511.911628
 21
726.538404
 31
0.0
  0
LINE
  5
1239E
100
AcDbEntity
  8
0
100
AcDbLine
 10
2479.911628
 20
706.538404
 30
0.0
 11
2479.911628
 21
664.538404
 31
0.0
  0
LINE
  5
1239F
100
AcDbEntity
  8
0
100
AcDbLine
 10
2484.863374
 20
809.538404
 30
0.0
 11
2484.863374
 21
800.548404
 31
0.0
  0
LINE
  5
123A0
100
AcDbEntity
  8
0
100
AcDbLine
 10
2484.863374
 20
800.548404
 30
0.0
 11
2486.612374
 21
799.538404
 31
0.0
  0
ARC
  5
123A1
100
AcDbEntity
  8
0
100
AcDbCircle
 10
2495.833374
 20
819.27831
 30
0.0
 40
19.51624
100
AcDbArc
 50
253.680297
 51
286.319703
  0
LINE
  5
123A4
100
AcDbEntity
  8
0
100
AcDbLine
 10
2490.349374
 20
800.548404
 30
0.0
 11
2490.349374
 21
809.538404
 31
0.0
  0
LINE
  5
123A7
100
AcDbEntity
  8
0
100
AcDbLine
 10
2506.803374
 20
800.548404
 30
0.0
 11
2506.803374
 21
809.538404
 31
0.0
  0
LINE
  5
123A8
100
AcDbEntity
  8
0
100
AcDbLine
 10
2501.317374
 20
800.548404
 30
0.0
 11
2501.317374
 21
809.538404
 31
0.0
  0
LINE
  5
123A9
100
AcDbEntity
  8
0
100
AcDbLine
 10
2505.054374
 20
799.538404
 30
0.0
 11
2506.803374
 21
800.548404
 31
0.0
  0
ARC
  5
123AA
100
AcDbEntity
  8
0
100
AcDbCircle
 10
2504.060374
 20
804.938201
 30
0.0
 40
5.176327
100
AcDbArc
 50
238.000464
 51
301.999536
  0
LINE
  5
123AD
100
AcDbEntity
  8
0
100
AcDbLine
 10
2486.612374
 20
799.538404
 30
0.0
 11
2505.054374
 21
799.538404
 31
0.0
  0
ARC
  5
123AE
100
AcDbEntity
  8
0
100
AcDbCircle
 10
2487.606374
 20
804.938201
 30
0.0
 40
5.176327
100
AcDbArc
 50
238.000464
 51
301.999536
  0
LINE
  5
123AF
100
AcDbEntity
  8
0
100
AcDbLine
 10
2507.911628
 20
809.538404
 30
0.0
 11
2511.911628
 21
789.538404
 31
0.0
  0
LINE
  5
123B0
100
AcDbEntity
  8
0
100
AcDbLine
 10
2508.911628
 20
908.538404
 30
0.0
 11
2508.911628
 21
871.538404
 31
0.0
  0
LINE
  5
123B2
100
AcDbEntity
  8
0
100
AcDbLine
 10
2501.833374
 20
851.538404
 30
0.0
 11
2501.833374
 21
854.591404
 31
0.0
  0
LINE
  5
123B3
100
AcDbEntity
  8
0
100
AcDbLine
 10
2501.833374
 20
854.591404
 30
0.0
 11
2500.886374
 21
855.538404
 31
0.0
  0
LINE
  5
123B4
100
AcDbEntity
  8
0
100
AcDbLine
 10
2490.780374
 20
855.538404
 30
0.0
 11
2489.833374
 21
854.591404
 31
0.0
  0
LINE
  5
123B5
100
AcDbEntity
  8
0
100
AcDbLine
 10
2489.833374
 20
854.591404
 30
0.0
 11
2489.833374
 21
851.538404
 31
0.0
  0
LINE
  5
123B7
100
AcDbEntity
  8
0
100
AcDbLine
 10
2500.886374
 20
855.538404
 30
0.0
 11
2490.780374
 21
855.538404
 31
0.0
  0
ARC
  5
123B8
100
AcDbEntity
  8
0
100
AcDbCircle
 10
2500.812609
 20
856.538404
 30
0.0
 40
5.0
100
AcDbArc
 50
270.0
 51
348.690068
  0
LINE
  5
123B9
100
AcDbEntity
  8
0
100
AcDbLine
 10
2508.911628
 20
871.538404
 30
0.0
 11
2505.715512
 21
855.557824
 31
0.0
  0
ARC
  5
123BC
100
AcDbEntity
  8
0
100
AcDbCircle
 10
2493.911628
 20
908.538404
 30
0.0
 40
15.0
100
AcDbArc
 50
0.0
 51
90.0
  0
LINE
  5
123BD
100
AcDbEntity
  8
0
100
AcDbLine
 10
2458.911628
 20
923.538404
 30
0.0
 11
2493.911628
 21
923.538404
 31
0.0
  0
LINE
  5
123BE
100
AcDbEntity
  8
0
100
AcDbLine
 10
2458.911628
 20
987.538404
 30
0.0
 11
2488.411628
 21
987.538404
 31
0.0
  0
ARC
  5
123BF
100
AcDbEntity
  8
0
100
AcDbCircle
 10
2535.911628
 20
942.538404
 30
0.0
 40
27.0
100
AcDbArc
 50
90.0
 51
180.0
  0
ARC
  5
123C0
100
AcDbEntity
  8
0
100
AcDbCircle
 10
2448.911628
 20
916.439385
 30
0.0
 40
5.0
100
AcDbArc
 50
101.309932
 51
180.0
  0
LINE
  5
123C1
100
AcDbEntity
  8
0
100
AcDbLine
 10
2447.931048
 20
921.342288
 30
0.0
 11
2458.911628
 21
923.538404
 31
0.0
  0
LINE
  5
123C2
100
AcDbEntity
  8
0
100
AcDbLine
 10
2700.911628
 20
851.538404
 30
0.0
 11
2700.911628
 21
809.538404
 31
0.0
  0
LINE
  5
123C3
100
AcDbEntity
  8
0
100
AcDbLine
 10
2659.911628
 20
789.538404
 30
0.0
 11
2659.911628
 21
726.538404
 31
0.0
  0
LINE
  5
123C4
100
AcDbEntity
  8
0
100
AcDbLine
 10
2545.470119
 20
709.591404
 30
0.0
 11
2546.417119
 21
710.538404
 31
0.0
  0
LINE
  5
123C5
100
AcDbEntity
  8
0
100
AcDbLine
 10
2545.470119
 20
709.591404
 30
0.0
 11
2545.470119
 21
706.538404
 31
0.0
  0
LINE
  5
123C6
100
AcDbEntity
  8
0
100
AcDbLine
 10
2546.417119
 20
710.538404
 30
0.0
 11
2556.523119
 21
710.538404
 31
0.0
  0
LINE
  5
123C7
100
AcDbEntity
  8
0
100
AcDbLine
 10
2545.986119
 20
655.548404
 30
0.0
 11
2545.986119
 21
664.538404
 31
0.0
  0
LINE
  5
123C8
100
AcDbEntity
  8
0
100
AcDbLine
 10
2540.500119
 20
655.548404
 30
0.0
 11
2540.500119
 21
664.538404
 31
0.0
  0
LINE
  5
123C9
100
AcDbEntity
  8
0
100
AcDbLine
 10
2542.249119
 20
654.538404
 30
0.0
 11
2540.500119
 21
655.548404
 31
0.0
  0
ARC
  5
123CA
100
AcDbEntity
  8
0
100
AcDbCircle
 10
2543.243119
 20
659.938201
 30
0.0
 40
5.176327
100
AcDbArc
 50
238.000464
 51
301.999536
  0
LINE
  5
123CB
100
AcDbEntity
  8
0
100
AcDbLine
 10
2557.470119
 20
709.591404
 30
0.0
 11
2557.470119
 21
706.538404
 31
0.0
  0
LINE
  5
123CC
100
AcDbEntity
  8
0
100
AcDbLine
 10
2562.440119
 20
664.538404
 30
0.0
 11
2562.440119
 21
655.548404
 31
0.0
  0
LINE
  5
123CD
100
AcDbEntity
  8
0
100
AcDbLine
 10
2562.440119
 20
655.548404
 30
0.0
 11
2560.691119
 21
654.538404
 31
0.0
  0
LINE
  5
123CE
100
AcDbEntity
  8
0
100
AcDbLine
 10
2556.954119
 20
655.548404
 30
0.0
 11
2556.954119
 21
664.538404
 31
0.0
  0
ARC
  5
123CF
100
AcDbEntity
  8
0
100
AcDbCircle
 10
2559.697119
 20
659.938201
 30
0.0
 40
5.176327
100
AcDbArc
 50
238.000464
 51
301.999536
  0
LINE
  5
123D0
100
AcDbEntity
  8
0
100
AcDbLine
 10
2556.523119
 20
710.538404
 30
0.0
 11
2557.470119
 21
709.591404
 31
0.0
  0
ARC
  5
123D2
100
AcDbEntity
  8
0
100
AcDbCircle
 10
2551.470119
 20
674.27831
 30
0.0
 40
19.51624
100
AcDbArc
 50
253.680297
 51
286.319703
  0
LINE
  5
123D3
100
AcDbEntity
  8
0
100
AcDbLine
 10
2560.691119
 20
654.538404
 30
0.0
 11
2542.249119
 21
654.538404
 31
0.0
  0
LINE
  5
123D4
100
AcDbEntity
  8
0
100
AcDbLine
 10
2614.353137
 20
709.591404
 30
0.0
 11
2615.300137
 21
710.538404
 31
0.0
  0
LINE
  5
123D5
100
AcDbEntity
  8
0
100
AcDbLine
 10
2614.353137
 20
709.591404
 30
0.0
 11
2614.353137
 21
706.538404
 31
0.0
  0
LINE
  5
123D6
100
AcDbEntity
  8
0
100
AcDbLine
 10
2615.300137
 20
710.538404
 30
0.0
 11
2625.406137
 21
710.538404
 31
0.0
  0
LINE
  5
123D7
100
AcDbEntity
  8
0
100
AcDbLine
 10
2614.869137
 20
655.548404
 30
0.0
 11
2614.869137
 21
664.538404
 31
0.0
  0
LINE
  5
123D8
100
AcDbEntity
  8
0
100
AcDbLine
 10
2609.383137
 20
655.548404
 30
0.0
 11
2609.383137
 21
664.538404
 31
0.0
  0
LINE
  5
123D9
100
AcDbEntity
  8
0
100
AcDbLine
 10
2611.132137
 20
654.538404
 30
0.0
 11
2609.383137
 21
655.548404
 31
0.0
  0
ARC
  5
123DA
100
AcDbEntity
  8
0
100
AcDbCircle
 10
2612.126137
 20
659.938201
 30
0.0
 40
5.176327
100
AcDbArc
 50
238.000464
 51
301.999536
  0
LINE
  5
123DB
100
AcDbEntity
  8
0
100
AcDbLine
 10
2626.353137
 20
709.591404
 30
0.0
 11
2626.353137
 21
706.538404
 31
0.0
  0
LINE
  5
123DC
100
AcDbEntity
  8
0
100
AcDbLine
 10
2631.323137
 20
664.538404
 30
0.0
 11
2631.323137
 21
655.548404
 31
0.0
  0
LINE
  5
123DD
100
AcDbEntity
  8
0
100
AcDbLine
 10
2631.323137
 20
655.548404
 30
0.0
 11
2629.574137
 21
654.538404
 31
0.0
  0
LINE
  5
123DE
100
AcDbEntity
  8
0
100
AcDbLine
 10
2625.837137
 20
655.548404
 30
0.0
 11
2625.837137
 21
664.538404
 31
0.0
  0
ARC
  5
123DF
100
AcDbEntity
  8
0
100
AcDbCircle
 10
2628.580137
 20
659.938201
 30
0.0
 40
5.176327
100
AcDbArc
 50
238.000464
 51
301.999536
  0
LINE
  5
123E0
100
AcDbEntity
  8
0
100
AcDbLine
 10
2625.406137
 20
710.538404
 30
0.0
 11
2626.353137
 21
709.591404
 31
0.0
  0
ARC
  5
123E2
100
AcDbEntity
  8
0
100
AcDbCircle
 10
2620.353137
 20
674.27831
 30
0.0
 40
19.51624
100
AcDbArc
 50
253.680297
 51
286.319703
  0
LINE
  5
123E3
100
AcDbEntity
  8
0
100
AcDbLine
 10
2629.574137
 20
654.538404
 30
0.0
 11
2611.132137
 21
654.538404
 31
0.0
  0
LINE
  5
123E4
100
AcDbEntity
  8
0
100
AcDbLine
 10
2663.060786
 20
709.591404
 30
0.0
 11
2664.007786
 21
710.538404
 31
0.0
  0
LINE
  5
123E5
100
AcDbEntity
  8
0
100
AcDbLine
 10
2663.060786
 20
709.591404
 30
0.0
 11
2663.060786
 21
706.538404
 31
0.0
  0
LINE
  5
123E6
100
AcDbEntity
  8
0
100
AcDbLine
 10
2675.060786
 20
709.591404
 30
0.0
 11
2675.060786
 21
706.538404
 31
0.0
  0
LINE
  5
123E7
100
AcDbEntity
  8
0
100
AcDbLine
 10
2674.113786
 20
710.538404
 30
0.0
 11
2675.060786
 21
709.591404
 31
0.0
  0
LINE
  5
123E8
100
AcDbEntity
  8
0
100
AcDbLine
 10
2664.007786
 20
710.538404
 30
0.0
 11
2674.113786
 21
710.538404
 31
0.0
  0
LINE
  5
123EA
100
AcDbEntity
  8
0
100
AcDbLine
 10
2658.090786
 20
655.548404
 30
0.0
 11
2658.090786
 21
664.538404
 31
0.0
  0
LINE
  5
123EB
100
AcDbEntity
  8
0
100
AcDbLine
 10
2663.576786
 20
655.548404
 30
0.0
 11
2663.576786
 21
664.538404
 31
0.0
  0
LINE
  5
123EC
100
AcDbEntity
  8
0
100
AcDbLine
 10
2659.839786
 20
654.538404
 30
0.0
 11
2658.090786
 21
655.548404
 31
0.0
  0
ARC
  5
123ED
100
AcDbEntity
  8
0
100
AcDbCircle
 10
2660.833786
 20
659.938201
 30
0.0
 40
5.176327
100
AcDbArc
 50
238.000464
 51
301.999536
  0
LINE
  5
123EE
100
AcDbEntity
  8
0
100
AcDbLine
 10
2680.030786
 20
664.538404
 30
0.0
 11
2680.030786
 21
655.548404
 31
0.0
  0
LINE
  5
123EF
100
AcDbEntity
  8
0
100
AcDbLine
 10
2680.030786
 20
655.548404
 30
0.0
 11
2678.281786
 21
654.538404
 31
0.0
  0
LINE
  5
123F0
100
AcDbEntity
  8
0
100
AcDbLine
 10
2674.544786
 20
655.548404
 30
0.0
 11
2674.544786
 21
664.538404
 31
0.0
  0
ARC
  5
123F1
100
AcDbEntity
  8
0
100
AcDbCircle
 10
2677.287786
 20
659.938201
 30
0.0
 40
5.176327
100
AcDbArc
 50
238.000464
 51
301.999536
  0
ARC
  5
123F2
100
AcDbEntity
  8
0
100
AcDbCircle
 10
2669.060786
 20
674.27831
 30
0.0
 40
19.51624
100
AcDbArc
 50
253.680297
 51
286.319703
  0
LINE
  5
123F3
100
AcDbEntity
  8
0
100
AcDbLine
 10
2678.281786
 20
654.538404
 30
0.0
 11
2659.839786
 21
654.538404
 31
0.0
  0
LINE
  5
123F4
100
AcDbEntity
  8
0
100
AcDbLine
 10
2663.260988
 20
709.791606
 30
0.0
 11
2659.911628
 21
726.538404
 31
0.0
  0
ARC
  5
123F5
100
AcDbEntity
  8
0
100
AcDbCircle
 10
2655.411628
 20
660.538404
 30
0.0
 40
4.0
100
AcDbArc
 50
90.0
 51
180.0
  0
LINE
  5
123F6
100
AcDbEntity
  8
0
100
AcDbLine
 10
2691.911628
 20
706.538404
 30
0.0
 11
2691.911628
 21
664.538404
 31
0.0
  0
ARC
  5
123F7
100
AcDbEntity
  8
0
100
AcDbCircle
 10
2633.053764
 20
654.538404
 30
0.0
 40
10.0
100
AcDbArc
 50
90.0
 51
99.965937
  0
ARC
  5
123F8
100
AcDbEntity
  8
0
100
AcDbCircle
 10
2538.769493
 20
654.538404
 30
0.0
 40
10.0
100
AcDbArc
 50
80.034063
 51
90.0
  0
ARC
  5
123FA
100
AcDbEntity
  8
0
100
AcDbCircle
 10
2540.372994
 20
804.938201
 30
0.0
 40
5.176327
100
AcDbArc
 50
238.000464
 51
301.999536
  0
LINE
  5
123FB
100
AcDbEntity
  8
0
100
AcDbLine
 10
2539.378994
 20
799.538404
 30
0.0
 11
2557.820994
 21
799.538404
 31
0.0
  0
ARC
  5
123FE
100
AcDbEntity
  8
0
100
AcDbCircle
 10
2556.826994
 20
804.938201
 30
0.0
 40
5.176327
100
AcDbArc
 50
238.000464
 51
301.999536
  0
LINE
  5
123FF
100
AcDbEntity
  8
0
100
AcDbLine
 10
2557.820994
 20
799.538404
 30
0.0
 11
2559.569994
 21
800.548404
 31
0.0
  0
LINE
  5
12400
100
AcDbEntity
  8
0
100
AcDbLine
 10
2554.083994
 20
800.548404
 30
0.0
 11
2554.083994
 21
809.538404
 31
0.0
  0
LINE
  5
12401
100
AcDbEntity
  8
0
100
AcDbLine
 10
2559.569994
 20
800.548404
 30
0.0
 11
2559.569994
 21
809.538404
 31
0.0
  0
LINE
  5
12404
100
AcDbEntity
  8
0
100
AcDbLine
 10
2543.115994
 20
800.548404
 30
0.0
 11
2543.115994
 21
809.538404
 31
0.0
  0
ARC
  5
12407
100
AcDbEntity
  8
0
100
AcDbCircle
 10
2548.599994
 20
819.27831
 30
0.0
 40
19.51624
100
AcDbArc
 50
253.680297
 51
286.319703
  0
LINE
  5
12408
100
AcDbEntity
  8
0
100
AcDbLine
 10
2537.629994
 20
800.548404
 30
0.0
 11
2539.378994
 21
799.538404
 31
0.0
  0
LINE
  5
12409
100
AcDbEntity
  8
0
100
AcDbLine
 10
2537.629994
 20
809.538404
 30
0.0
 11
2537.629994
 21
800.548404
 31
0.0
  0
LINE
  5
1240A
100
AcDbEntity
  8
0
100
AcDbLine
 10
2634.193263
 20
809.538404
 30
0.0
 11
2634.193263
 21
800.548404
 31
0.0
  0
LINE
  5
1240B
100
AcDbEntity
  8
0
100
AcDbLine
 10
2634.193263
 20
800.548404
 30
0.0
 11
2632.444263
 21
799.538404
 31
0.0
  0
ARC
  5
1240C
100
AcDbEntity
  8
0
100
AcDbCircle
 10
2623.223263
 20
819.27831
 30
0.0
 40
19.51624
100
AcDbArc
 50
253.680297
 51
286.319703
  0
LINE
  5
1240F
100
AcDbEntity
  8
0
100
AcDbLine
 10
2628.707263
 20
800.548404
 30
0.0
 11
2628.707263
 21
809.538404
 31
0.0
  0
LINE
  5
12412
100
AcDbEntity
  8
0
100
AcDbLine
 10
2612.253263
 20
800.548404
 30
0.0
 11
2612.253263
 21
809.538404
 31
0.0
  0
LINE
  5
12413
100
AcDbEntity
  8
0
100
AcDbLine
 10
2617.739263
 20
800.548404
 30
0.0
 11
2617.739263
 21
809.538404
 31
0.0
  0
LINE
  5
12414
100
AcDbEntity
  8
0
100
AcDbLine
 10
2614.002263
 20
799.538404
 30
0.0
 11
2612.253263
 21
800.548404
 31
0.0
  0
ARC
  5
12415
100
AcDbEntity
  8
0
100
AcDbCircle
 10
2614.996263
 20
804.938201
 30
0.0
 40
5.176327
100
AcDbArc
 50
238.000464
 51
301.999536
  0
LINE
  5
12418
100
AcDbEntity
  8
0
100
AcDbLine
 10
2632.444263
 20
799.538404
 30
0.0
 11
2614.002263
 21
799.538404
 31
0.0
  0
ARC
  5
12419
100
AcDbEntity
  8
0
100
AcDbCircle
 10
2631.450263
 20
804.938201
 30
0.0
 40
5.176327
100
AcDbArc
 50
238.000464
 51
301.999536
  0
ARC
  5
1241B
100
AcDbEntity
  8
0
100
AcDbCircle
 10
2667.762883
 20
804.938201
 30
0.0
 40
5.176327
100
AcDbArc
 50
238.000464
 51
301.999536
  0
LINE
  5
1241C
100
AcDbEntity
  8
0
100
AcDbLine
 10
2666.768883
 20
799.538404
 30
0.0
 11
2665.019883
 21
800.548404
 31
0.0
  0
LINE
  5
1241D
100
AcDbEntity
  8
0
100
AcDbLine
 10
2670.505883
 20
800.548404
 30
0.0
 11
2670.505883
 21
809.538404
 31
0.0
  0
LINE
  5
1241E
100
AcDbEntity
  8
0
100
AcDbLine
 10
2665.019883
 20
800.548404
 30
0.0
 11
2665.019883
 21
809.538404
 31
0.0
  0
ARC
  5
1241F
100
AcDbEntity
  8
0
100
AcDbCircle
 10
2684.216883
 20
804.938201
 30
0.0
 40
5.176327
100
AcDbArc
 50
238.000464
 51
301.999536
  0
LINE
  5
12422
100
AcDbEntity
  8
0
100
AcDbLine
 10
2681.473883
 20
800.548404
 30
0.0
 11
2681.473883
 21
809.538404
 31
0.0
  0
LINE
  5
12423
100
AcDbEntity
  8
0
100
AcDbLine
 10
2686.959883
 20
800.548404
 30
0.0
 11
2685.210883
 21
799.538404
 31
0.0
  0
LINE
  5
12424
100
AcDbEntity
  8
0
100
AcDbLine
 10
2686.959883
 20
809.538404
 30
0.0
 11
2686.959883
 21
800.548404
 31
0.0
  0
LINE
  5
12425
100
AcDbEntity
  8
0
100
AcDbLine
 10
2685.210883
 20
799.538404
 30
0.0
 11
2666.768883
 21
799.538404
 31
0.0
  0
ARC
  5
12428
100
AcDbEntity
  8
0
100
AcDbCircle
 10
2675.989883
 20
819.27831
 30
0.0
 40
19.51624
100
AcDbArc
 50
253.680297
 51
286.319703
  0
LINE
  5
12429
100
AcDbEntity
  8
0
100
AcDbLine
 10
2663.911628
 20
809.538404
 30
0.0
 11
2659.911628
 21
789.538404
 31
0.0
  0
LINE
  5
1242B
100
AcDbEntity
  8
0
100
AcDbLine
 10
2662.911628
 20
926.219581
 30
0.0
 11
2662.911628
 21
871.538404
 31
0.0
  0
CIRCLE
  5
1242C
100
AcDbEntity
  8
0
100
AcDbCircle
 10
2585.911628
 20
907.538404
 30
0.0
 40
19.0
  0
LINE
  5
1242D
100
AcDbEntity
  8
0
100
AcDbLine
 10
2553.652994
 20
855.538404
 30
0.0
 11
2543.546994
 21
855.538404
 31
0.0
  0
LINE
  5
1242F
100
AcDbEntity
  8
0
100
AcDbLine
 10
2542.599994
 20
854.591404
 30
0.0
 11
2542.599994
 21
851.538404
 31
0.0
  0
LINE
  5
12430
100
AcDbEntity
  8
0
100
AcDbLine
 10
2543.546994
 20
855.538404
 30
0.0
 11
2542.599994
 21
854.591404
 31
0.0
  0
LINE
  5
12431
100
AcDbEntity
  8
0
100
AcDbLine
 10
2554.599994
 20
854.591404
 30
0.0
 11
2553.652994
 21
855.538404
 31
0.0
  0
LINE
  5
12432
100
AcDbEntity
  8
0
100
AcDbLine
 10
2554.599994
 20
851.538404
 30
0.0
 11
2554.599994
 21
854.591404
 31
0.0
  0
LINE
  5
12433
100
AcDbEntity
  8
0
100
AcDbLine
 10
2617.223263
 20
851.538404
 30
0.0
 11
2617.223263
 21
854.591404
 31
0.0
  0
LINE
  5
12434
100
AcDbEntity
  8
0
100
AcDbLine
 10
2617.223263
 20
854.591404
 30
0.0
 11
2618.170263
 21
855.538404
 31
0.0
  0
LINE
  5
12435
100
AcDbEntity
  8
0
100
AcDbLine
 10
2628.276263
 20
855.538404
 30
0.0
 11
2629.223263
 21
854.591404
 31
0.0
  0
LINE
  5
12436
100
AcDbEntity
  8
0
100
AcDbLine
 10
2629.223263
 20
854.591404
 30
0.0
 11
2629.223263
 21
851.538404
 31
0.0
  0
LINE
  5
12438
100
AcDbEntity
  8
0
100
AcDbLine
 10
2618.170263
 20
855.538404
 30
0.0
 11
2628.276263
 21
855.538404
 31
0.0
  0
LINE
  5
12439
100
AcDbEntity
  8
0
100
AcDbLine
 10
2669.989883
 20
854.591404
 30
0.0
 11
2670.936883
 21
855.538404
 31
0.0
  0
LINE
  5
1243A
100
AcDbEntity
  8
0
100
AcDbLine
 10
2669.989883
 20
854.591404
 30
0.0
 11
2669.989883
 21
851.538404
 31
0.0
  0
LINE
  5
1243B
100
AcDbEntity
  8
0
100
AcDbLine
 10
2681.989883
 20
854.591404
 30
0.0
 11
2681.989883
 21
851.538404
 31
0.0
  0
LINE
  5
1243C
100
AcDbEntity
  8
0
100
AcDbLine
 10
2681.042883
 20
855.538404
 30
0.0
 11
2681.989883
 21
854.591404
 31
0.0
  0
LINE
  5
1243D
100
AcDbEntity
  8
0
100
AcDbLine
 10
2670.936883
 20
855.538404
 30
0.0
 11
2681.042883
 21
855.538404
 31
0.0
  0
ARC
  5
1243F
100
AcDbEntity
  8
0
100
AcDbCircle
 10
2671.010648
 20
856.538404
 30
0.0
 40
5.0
100
AcDbArc
 50
191.309932
 51
270.0
  0
LINE
  5
12440
100
AcDbEntity
  8
0
100
AcDbLine
 10
2662.911628
 20
871.538404
 30
0.0
 11
2666.107744
 21
855.557824
 31
0.0
  0
LINE
  5
12443
100
AcDbEntity
  8
0
100
AcDbLine
 10
2723.892209
 20
921.342288
 30
0.0
 11
2670.088325
 21
932.103065
 31
0.0
  0
ARC
  5
12444
100
AcDbEntity
  8
0
100
AcDbCircle
 10
2668.911628
 20
926.219581
 30
0.0
 40
6.0
100
AcDbArc
 50
78.690068
 51
180.0
  0
ARC
  5
12445
100
AcDbEntity
  8
0
100
AcDbCircle
 10
2635.911628
 20
942.538404
 30
0.0
 40
27.0
100
AcDbArc
 50
0.0
 51
90.0
  0
ARC
  5
12446
100
AcDbEntity
  8
0
100
AcDbCircle
 10
2722.911628
 20
916.439385
 30
0.0
 40
5.0
100
AcDbArc
 50
0.0
 51
78.690068
  0
ARC
  5
12449
100
AcDbEntity
  8
0
100
AcDbCircle
 10
2448.911628
 20
994.637424
 30
0.0
 40
5.0
100
AcDbArc
 50
180.0
 51
258.690068
  0
ARC
  5
1244A
100
AcDbEntity
  8
0
100
AcDbCircle
 10
2657.522099
 20
941.538404
 30
0.0
 40
72.0
100
AcDbArc
 50
41.951213
 51
90.0
  0
ARC
  5
1244B
100
AcDbEntity
  8
0
100
AcDbCircle
 10
2585.911628
 20
926.538404
 30
0.0
 40
87.0
100
AcDbArc
 50
90.0
 51
106.91239
  0
CIRCLE
  5
1244C
100
AcDbEntity
  8
0
100
AcDbCircle
 10
2585.911628
 20
1024.538404
 30
0.0
 40
11.0
  0
ARC
  5
1244D
100
AcDbEntity
  8
0
100
AcDbCircle
 10
2546.918389
 20
1023.812253
 30
0.0
 40
10.0
100
AcDbArc
 50
285.0
 51
1.066868
  0
ARC
  5
1244E
100
AcDbEntity
  8
0
100
AcDbCircle
 10
2624.898806
 20
1023.538404
 30
0.0
 40
10.0
100
AcDbArc
 50
178.530716
 51
270.0
  0
ARC
  5
1244F
100
AcDbEntity
  8
0
100
AcDbCircle
 10
2585.911628
 20
1024.538404
 30
0.0
 40
29.0
100
AcDbArc
 50
358.530716
 51
181.066868
  0
LINE
  5
12450
100
AcDbEntity
  8
0
100
AcDbLine
 10
2585.911628
 20
1013.538404
 30
0.0
 11
2657.522099
 21
1013.538404
 31
0.0
  0
ARC
  5
12452
100
AcDbEntity
  8
0
100
AcDbCircle
 10
2722.911628
 20
994.637424
 30
0.0
 40
5.0
100
AcDbArc
 50
281.309932
 51
0.0
  0
ARC
  5
12454
100
AcDbEntity
  8
0
100
AcDbCircle
 10
2585.911628
 20
1348.850141
 30
0.0
 40
48.0
100
AcDbArc
 50
78.0
 51
172.819244
  0
ARC
  5
1245B
100
AcDbEntity
  8
0
100
AcDbCircle
 10
2585.911628
 20
1348.850141
 30
0.0
 40
48.0
100
AcDbArc
 50
187.180756
 51
282.0
  0
ARC
  5
1245C
100
AcDbEntity
  8
0
100
AcDbCircle
 10
2585.911628
 20
1348.850141
 30
0.0
 40
77.0
100
AcDbArc
 50
204.556125
 51
333.436865
  0
ARC
  5
1245D
100
AcDbEntity
  8
0
100
AcDbCircle
 10
2585.911628
 20
1348.850141
 30
0.0
 40
81.0
100
AcDbArc
 50
203.269824
 51
256.433847
  0
LINE
  5
1245F
100
AcDbEntity
  8
0
100
AcDbLine
 10
2457.421338
 20
1354.850141
 30
0.0
 11
2614.911628
 21
1354.850141
 31
0.0
  0
LINE
  5
12460
100
AcDbEntity
  8
0
100
AcDbLine
 10
2457.421338
 20
1342.850141
 30
0.0
 11
2614.911628
 21
1342.850141
 31
0.0
  0
ARC
  5
12461
100
AcDbEntity
  8
0
100
AcDbCircle
 10
2585.911628
 20
1348.850141
 30
0.0
 40
115.0
100
AcDbArc
 50
196.156435
 51
344.361604
  0
LINE
  5
12465
100
AcDbEntity
  8
0
100
AcDbLine
 10
2453.421338
 20
1353.885651
 30
0.0
 11
2453.421338
 21
1343.81463
 31
0.0
  0
ARC
  5
12466
100
AcDbEntity
  8
0
100
AcDbCircle
 10
2472.152024
 20
1349.232964
 30
0.0
 40
55.818228
100
AcDbArc
 50
5.775644
 51
28.107039
  0
ARC
  5
12467
100
AcDbEntity
  8
0
100
AcDbCircle
 10
2457.421338
 20
1338.850141
 30
0.0
 40
4.0
100
AcDbArc
 50
90.0
 51
180.0
  0
ARC
  5
12468
100
AcDbEntity
  8
0
100
AcDbCircle
 10
2457.421338
 20
1358.850141
 30
0.0
 40
4.0
100
AcDbArc
 50
180.0
 51
270.0
  0
ARC
  5
12469
100
AcDbEntity
  8
0
100
AcDbCircle
 10
2472.152024
 20
1349.232964
 30
0.0
 40
55.818228
100
AcDbArc
 50
331.107041
 51
353.433855
  0
ARC
  5
1246A
100
AcDbEntity
  8
0
100
AcDbCircle
 10
2517.616596
 20
1311.850141
 30
0.0
 40
5.0
100
AcDbArc
 50
0.0
 51
90.0
  0
LINE
  5
1246B
100
AcDbEntity
  8
0
100
AcDbLine
 10
2458.911628
 20
1316.850141
 30
0.0
 11
2517.616596
 21
1316.850141
 31
0.0
  0
LINE
  5
1246D
100
AcDbEntity
  8
0
100
AcDbLine
 10
2447.931048
 20
1314.654024
 30
0.0
 11
2458.911628
 21
1316.850141
 31
0.0
  0
ARC
  5
1246E
100
AcDbEntity
  8
0
100
AcDbCircle
 10
2495.833374
 20
1311.538506
 30
0.0
 40
5.99999
100
AcDbArc
 50
117.714751
 51
62.285249
  0
ARC
  5
12470
100
AcDbEntity
  8
0
100
AcDbCircle
 10
2585.911628
 20
1348.850141
 30
0.0
 40
81.0
100
AcDbArc
 50
283.566153
 51
335.658797
  0
ARC
  5
12472
100
AcDbEntity
  8
0
100
AcDbCircle
 10
2568.911628
 20
1265.850141
 30
0.0
 40
2.0
100
AcDbArc
 50
180.0
 51
270.0
  0
ARC
  5
12473
100
AcDbEntity
  8
0
100
AcDbCircle
 10
2602.911628
 20
1265.850141
 30
0.0
 40
2.0
100
AcDbArc
 50
270.0
 51
0.0
  0
LINE
  5
12474
100
AcDbEntity
  8
0
100
AcDbLine
 10
2568.911628
 20
1263.850141
 30
0.0
 11
2602.911628
 21
1263.850141
 31
0.0
  0
LINE
  5
12475
100
AcDbEntity
  8
0
100
AcDbLine
 10
2604.911628
 20
1274.231108
 30
0.0
 11
2604.911628
 21
1265.850141
 31
0.0
  0
LINE
  5
12476
100
AcDbEntity
  8
0
100
AcDbLine
 10
2566.911628
 20
1274.231108
 30
0.0
 11
2566.911628
 21
1265.850141
 31
0.0
  0
CIRCLE
  5
12477
100
AcDbEntity
  8
0
100
AcDbCircle
 10
2548.599994
 20
1258.771886
 30
0.0
 40
5.99999
  0
CIRCLE
  5
1247A
100
AcDbEntity
  8
0
100
AcDbCircle
 10
2623.223263
 20
1258.771886
 30
0.0
 40
5.99999
  0
LINE
  5
1247D
100
AcDbEntity
  8
0
100
AcDbLine
 10
2670.935343
 20
1317.850141
 30
0.0
 11
2712.911628
 21
1317.850141
 31
0.0
  0
LINE
  5
1247E
100
AcDbEntity
  8
0
100
AcDbLine
 10
2670.935343
 20
1317.850141
 30
0.0
 11
2595.891389
 21
1301.899056
 31
0.0
  0
LINE
  5
1247F
100
AcDbEntity
  8
0
100
AcDbLine
 10
2561.911628
 20
1342.850141
 30
0.0
 11
2561.911628
 21
1354.850141
 31
0.0
  0
LINE
  5
12480
100
AcDbEntity
  8
0
100
AcDbLine
 10
2614.911628
 20
1342.850141
 30
0.0
 11
2614.911628
 21
1354.850141
 31
0.0
  0
CIRCLE
  5
12481
100
AcDbEntity
  8
0
100
AcDbCircle
 10
2675.989883
 20
1311.538506
 30
0.0
 40
5.99999
  0
LINE
  5
12483
100
AcDbEntity
  8
0
100
AcDbLine
 10
2723.892209
 20
1314.654024
 30
0.0
 11
2712.911628
 21
1317.850141
 31
0.0
  0
ARC
  5
12484
100
AcDbEntity
  8
0
100
AcDbCircle
 10
2722.911628
 20
1309.751121
 30
0.0
 40
5.0
100
AcDbArc
 50
360.0
 51
78.690068
  0
ARC
  5
12485
100
AcDbEntity
  8
0
100
AcDbCircle
 10
2722.911628
 20
1309.751121
 30
0.0
 40
5.0
100
AcDbArc
 50
360.0
 51
78.690068
  0
ARC
  5
12486
100
AcDbEntity
  8
0
100
AcDbCircle
 10
2585.911628
 20
1348.850141
 30
0.0
 40
81.0
100
AcDbArc
 50
113.65538
 51
156.730176
  0
ARC
  5
12487
100
AcDbEntity
  8
0
100
AcDbCircle
 10
2585.911628
 20
1348.850141
 30
0.0
 40
77.0
100
AcDbArc
 50
26.563135
 51
155.443875
  0
ARC
  5
12488
100
AcDbEntity
  8
0
100
AcDbCircle
 10
2585.911628
 20
1348.850141
 30
0.0
 40
115.0
100
AcDbArc
 50
15.638396
 51
163.843565
  0
ARC
  5
12489
100
AcDbEntity
  8
0
100
AcDbCircle
 10
2517.616596
 20
1385.850141
 30
0.0
 40
5.0
100
AcDbArc
 50
270.0
 51
0.0
  0
LINE
  5
1248C
100
AcDbEntity
  8
0
100
AcDbLine
 10
2458.911628
 20
1380.850141
 30
0.0
 11
2517.616596
 21
1380.850141
 31
0.0
  0
LINE
  5
1248D
100
AcDbEntity
  8
0
100
AcDbLine
 10
2447.931048
 20
1383.046257
 30
0.0
 11
2458.911628
 21
1380.850141
 31
0.0
  0
ARC
  5
1248F
100
AcDbEntity
  8
0
100
AcDbCircle
 10
2495.833374
 20
1386.161775
 30
0.0
 40
5.99999
100
AcDbArc
 50
297.714751
 51
242.285249
  0
LINE
  5
12491
100
AcDbEntity
  8
0
100
AcDbLine
 10
2670.935343
 20
1379.850141
 30
0.0
 11
2712.911628
 21
1379.850141
 31
0.0
  0
ARC
  5
12492
100
AcDbEntity
  8
0
100
AcDbCircle
 10
2585.911628
 20
1348.850141
 30
0.0
 40
81.0
100
AcDbArc
 50
77.24126
 51
102.75874
  0
ARC
  5
12493
100
AcDbEntity
  8
0
100
AcDbCircle
 10
2585.911628
 20
1348.850141
 30
0.0
 40
81.0
100
AcDbArc
 50
24.341203
 51
66.34462
  0
LINE
  5
12494
100
AcDbEntity
  8
0
100
AcDbLine
 10
2670.935343
 20
1379.850141
 30
0.0
 11
2595.891389
 21
1395.801225
 31
0.0
  0
ARC
  5
12495
100
AcDbEntity
  8
0
100
AcDbCircle
 10
2555.411628
 20
1425.850141
 30
0.0
 40
2.0
100
AcDbArc
 50
90.0
 51
180.0
  0
ARC
  5
12496
100
AcDbEntity
  8
0
100
AcDbCircle
 10
2616.411628
 20
1425.850141
 30
0.0
 40
2.0
100
AcDbArc
 50
0.0
 51
90.0
  0
LINE
  5
12497
100
AcDbEntity
  8
0
100
AcDbLine
 10
2618.411628
 20
1418.655226
 30
0.0
 11
2618.411628
 21
1425.850141
 31
0.0
  0
LINE
  5
12498
100
AcDbEntity
  8
0
100
AcDbLine
 10
2553.411628
 20
1418.655226
 30
0.0
 11
2553.411628
 21
1425.850141
 31
0.0
  0
LINE
  5
12499
100
AcDbEntity
  8
0
100
AcDbLine
 10
2616.411628
 20
1427.850141
 30
0.0
 11
2555.411628
 21
1427.850141
 31
0.0
  0
CIRCLE
  5
1249A
100
AcDbEntity
  8
0
100
AcDbCircle
 10
2548.599994
 20
1438.928395
 30
0.0
 40
5.99999
  0
CIRCLE
  5
1249C
100
AcDbEntity
  8
0
100
AcDbCircle
 10
2623.223263
 20
1438.928395
 30
0.0
 40
5.99999
  0
CIRCLE
  5
1249E
100
AcDbEntity
  8
0
100
AcDbCircle
 10
2675.989883
 20
1386.161775
 30
0.0
 40
5.99999
  0
LINE
  5
124A0
100
AcDbEntity
  8
0
100
AcDbLine
 10
2723.892209
 20
1383.046257
 30
0.0
 11
2712.911628
 21
1379.850141
 31
0.0
  0
ARC
  5
124A3
100
AcDbEntity
  8
0
100
AcDbCircle
 10
2722.911628
 20
1387.94916
 30
0.0
 40
5.0
100
AcDbArc
 50
281.309932
 51
0.0
  0
ARC
  5
1259B
100
AcDbEntity
  8
0
100
AcDbCircle
 10
2615.411628
 20
1938.780361
 30
0.0
 40
3.0
100
AcDbArc
 50
0.0
 51
90.0
  0
ARC
  5
1259C
100
AcDbEntity
  8
0
100
AcDbCircle
 10
2615.411628
 20
1902.780361
 30
0.0
 40
3.0
100
AcDbArc
 50
270.0
 51
0.0
  0
ARC
  5
1259D
100
AcDbEntity
  8
0
100
AcDbCircle
 10
2556.411628
 20
1902.780361
 30
0.0
 40
3.0
100
AcDbArc
 50
180.0
 51
270.0
  0
ARC
  5
1259E
100
AcDbEntity
  8
0
100
AcDbCircle
 10
2556.411628
 20
1938.780361
 30
0.0
 40
3.0
100
AcDbArc
 50
90.0
 51
180.0
  0
LINE
  5
1259F
100
AcDbEntity
  8
0
100
AcDbLine
 10
2618.411628
 20
1938.780361
 30
0.0
 11
2618.411628
 21
1902.780361
 31
0.0
  0
LINE
  5
125A0
100
AcDbEntity
  8
0
100
AcDbLine
 10
2553.411628
 20
1938.780361
 30
0.0
 11
2553.411628
 21
1902.780361
 31
0.0
  0
LINE
  5
125A1
100
AcDbEntity
  8
0
100
AcDbLine
 10
2556.411628
 20
1899.780361
 30
0.0
 11
2615.411628
 21
1899.780361
 31
0.0
  0
LINE
  5
125A2
100
AcDbEntity
  8
0
100
AcDbLine
 10
2556.411628
 20
1941.780361
 30
0.0
 11
2615.411628
 21
1941.780361
 31
0.0
  0
LINE
  5
125B6
100
AcDbEntity
  8
0
100
AcDbLine
 10
980.118321
 20
1025.538404
 30
0.0
 11
998.118321
 21
1025.538404
 31
0.0
  0
LINE
  5
125B7
100
AcDbEntity
  8
0
100
AcDbLine
 10
980.118321
 20
885.538404
 30
0.0
 11
998.118321
 21
885.538404
 31
0.0
  0
LINE
  5
125B8
100
AcDbEntity
  8
0
100
AcDbLine
 10
1237.118321
 20
1025.538404
 30
0.0
 11
1237.118321
 21
885.538404
 31
0.0
  0
LINE
  5
125B9
100
AcDbEntity
  8
0
100
AcDbLine
 10
1255.118321
 20
1025.538404
 30
0.0
 11
1255.118321
 21
955.538404
 31
0.0
  0
LINE
  5
125BA
100
AcDbEntity
  8
0
100
AcDbLine
 10
1255.118321
 20
955.538404
 30
0.0
 11
1255.118321
 21
885.538404
 31
0.0
  0
LINE
  5
125BB
100
AcDbEntity
  8
0
100
AcDbLine
 10
1255.118321
 20
885.538404
 30
0.0
 11
1237.118321
 21
885.538404
 31
0.0
  0
LINE
  5
125BC
100
AcDbEntity
  8
0
100
AcDbLine
 10
1237.118321
 20
926.538404
 30
0.0
 11
1237.118321
 21
929.538404
 31
0.0
  0
LINE
  5
125BD
100
AcDbEntity
  8
0
100
AcDbLine
 10
1237.118321
 20
984.538404
 30
0.0
 11
1237.118321
 21
981.538404
 31
0.0
  0
LINE
  5
125BE
100
AcDbEntity
  8
0
100
AcDbLine
 10
1255.118321
 20
1025.538404
 30
0.0
 11
1237.118321
 21
1025.538404
 31
0.0
  0
CIRCLE
  5
125D9
100
AcDbEntity
  8
0
100
AcDbCircle
 10
637.663113
 20
918.415298
 30
0.0
 40
9.5
  0
CIRCLE
  5
125DE
100
AcDbEntity
  8
0
100
AcDbCircle
 10
637.663113
 20
992.66151
 30
0.0
 40
9.5
  0
LINE
  5
125E0
100
AcDbEntity
  8
0
100
AcDbLine
 10
668.786219
 20
1038.538404
 30
0.0
 11
668.786219
 21
1025.280787
 31
0.0
  0
LINE
  5
125E1
100
AcDbEntity
  8
0
100
AcDbLine
 10
680.786219
 20
1038.538404
 30
0.0
 11
680.786219
 21
1025.280787
 31
0.0
  0
CIRCLE
  5
125E3
100
AcDbEntity
  8
0
100
AcDbCircle
 10
711.909326
 20
918.415298
 30
0.0
 40
9.5
  0
CIRCLE
  5
125EA
100
AcDbEntity
  8
0
100
AcDbCircle
 10
711.909326
 20
992.66151
 30
0.0
 40
9.5
  0
LINE
  5
125EB
100
AcDbEntity
  8
0
100
AcDbLine
 10
680.786219
 20
1038.538404
 30
0.0
 11
668.786219
 21
1038.538404
 31
0.0
  0
LINE
  5
125EF
100
AcDbEntity
  8
0
100
AcDbLine
 10
582.286219
 20
847.538404
 30
0.0
 11
767.286219
 21
847.538404
 31
0.0
  0
LINE
  5
125F0
100
AcDbEntity
  8
0
100
AcDbLine
 10
584.286219
 20
864.538404
 30
0.0
 11
765.286219
 21
864.538404
 31
0.0
  0
LINE
  5
125F1
100
AcDbEntity
  8
0
100
AcDbLine
 10
582.286219
 20
847.538404
 30
0.0
 11
767.286219
 21
847.538404
 31
0.0
  0
LINE
  5
125F2
100
AcDbEntity
  8
0
100
AcDbLine
 10
584.286219
 20
830.538404
 30
0.0
 11
765.286219
 21
830.538404
 31
0.0
  0
LINE
  5
125F3
100
AcDbEntity
  8
0
100
AcDbLine
 10
582.286219
 20
862.538404
 30
0.0
 11
582.286219
 21
832.538325
 31
0.0
  0
ARC
  5
125F4
100
AcDbEntity
  8
0
100
AcDbCircle
 10
584.286219
 20
832.538404
 30
0.0
 40
2.0
100
AcDbArc
 50
180.0
 51
270.0
  0
ARC
  5
125F5
100
AcDbEntity
  8
0
100
AcDbCircle
 10
584.286219
 20
862.538404
 30
0.0
 40
2.0
100
AcDbArc
 50
90.0
 51
180.0
  0
LINE
  5
125F6
100
AcDbEntity
  8
0
100
AcDbLine
 10
767.286219
 20
862.538404
 30
0.0
 11
767.286219
 21
832.538369
 31
0.0
  0
ARC
  5
125F7
100
AcDbEntity
  8
0
100
AcDbCircle
 10
765.286219
 20
862.538404
 30
0.0
 40
2.0
100
AcDbArc
 50
0.0
 51
90.0
  0
ARC
  5
125F8
100
AcDbEntity
  8
0
100
AcDbCircle
 10
765.286219
 20
832.538404
 30
0.0
 40
2.0
100
AcDbArc
 50
270.0
 51
360.0
  0
LINE
  5
125F9
100
AcDbEntity
  8
0
100
AcDbLine
 10
732.786219
 20
815.538404
 30
0.0
 11
732.786219
 21
767.538404
 31
0.0
  0
LINE
  5
125FA
100
AcDbEntity
  8
0
100
AcDbLine
 10
616.786219
 20
815.538404
 30
0.0
 11
616.786219
 21
767.538404
 31
0.0
  0
LINE
  5
125FB
100
AcDbEntity
  8
0
100
AcDbLine
 10
614.429327
 20
827.322869
 30
0.0
 11
616.786219
 21
815.538404
 31
0.0
  0
LINE
  5
125FD
100
AcDbEntity
  8
0
100
AcDbLine
 10
614.429327
 20
755.75394
 30
0.0
 11
616.786219
 21
767.538404
 31
0.0
  0
LINE
  5
125FF
100
AcDbEntity
  8
0
100
AcDbLine
 10
591.786219
 20
752.538404
 30
0.0
 11
757.786219
 21
752.538404
 31
0.0
  0
LINE
  5
12600
100
AcDbEntity
  8
0
100
AcDbLine
 10
589.786219
 20
735.538404
 30
0.0
 11
759.786219
 21
735.538404
 31
0.0
  0
LINE
  5
12601
100
AcDbEntity
  8
0
100
AcDbLine
 10
591.786219
 20
718.538404
 30
0.0
 11
757.786219
 21
718.538404
 31
0.0
  0
LINE
  5
12602
100
AcDbEntity
  8
0
100
AcDbLine
 10
589.786219
 20
750.538404
 30
0.0
 11
589.786219
 21
720.538404
 31
0.0
  0
ARC
  5
12603
100
AcDbEntity
  8
0
100
AcDbCircle
 10
591.786219
 20
720.538404
 30
0.0
 40
2.0
100
AcDbArc
 50
180.0
 51
270.0
  0
ARC
  5
12604
100
AcDbEntity
  8
0
100
AcDbCircle
 10
591.786219
 20
750.538404
 30
0.0
 40
2.0
100
AcDbArc
 50
90.0
 51
180.0
  0
LINE
  5
12605
100
AcDbEntity
  8
0
100
AcDbLine
 10
759.786219
 20
750.538404
 30
0.0
 11
759.786219
 21
720.538404
 31
0.0
  0
ARC
  5
12606
100
AcDbEntity
  8
0
100
AcDbCircle
 10
757.786219
 20
720.538404
 30
0.0
 40
2.0
100
AcDbArc
 50
270.0
 51
0.0
  0
ARC
  5
12607
100
AcDbEntity
  8
0
100
AcDbCircle
 10
757.786219
 20
750.538404
 30
0.0
 40
2.0
100
AcDbArc
 50
0.0
 51
90.0
  0
LINE
  5
1260C
100
AcDbEntity
  8
0
100
AcDbLine
 10
1125.868321
 20
823.538404
 30
0.0
 11
1127.433321
 21
824.442404
 31
0.0
  0
ARC
  5
1260D
100
AcDbEntity
  8
0
100
AcDbCircle
 10
1124.979321
 20
828.369728
 30
0.0
 40
4.630982
100
AcDbArc
 50
238.000676
 51
301.999324
  0
LINE
  5
1260E
100
AcDbEntity
  8
0
100
AcDbLine
 10
1176.48529
 20
823.538404
 30
0.0
 11
1174.92029
 21
824.442404
 31
0.0
  0
ARC
  5
1260F
100
AcDbEntity
  8
0
100
AcDbCircle
 10
1177.37429
 20
828.369728
 30
0.0
 40
4.630982
100
AcDbArc
 50
238.000676
 51
301.999324
  0
ARC
  5
12610
100
AcDbEntity
  8
0
100
AcDbCircle
 10
1057.862352
 20
828.369728
 30
0.0
 40
4.630982
100
AcDbArc
 50
238.000676
 51
301.999324
  0
LINE
  5
12611
100
AcDbEntity
  8
0
100
AcDbLine
 10
1058.751352
 20
823.538404
 30
0.0
 11
1060.316352
 21
824.442404
 31
0.0
  0
ARC
  5
12612
100
AcDbEntity
  8
0
100
AcDbCircle
 10
1063.491518
 20
716.369728
 30
0.0
 40
4.630982
100
AcDbArc
 50
238.000676
 51
301.999324
  0
LINE
  5
12613
100
AcDbEntity
  8
0
100
AcDbLine
 10
1064.380518
 20
711.538404
 30
0.0
 11
1065.945518
 21
712.442404
 31
0.0
  0
LINE
  5
12614
100
AcDbEntity
  8
0
100
AcDbLine
 10
1125.868321
 20
711.538404
 30
0.0
 11
1127.433321
 21
712.442404
 31
0.0
  0
ARC
  5
12615
100
AcDbEntity
  8
0
100
AcDbCircle
 10
1124.979321
 20
716.369728
 30
0.0
 40
4.630982
100
AcDbArc
 50
238.000676
 51
301.999324
  0
LINE
  5
12616
100
AcDbEntity
  8
0
100
AcDbLine
 10
1187.356125
 20
711.538404
 30
0.0
 11
1188.921125
 21
712.442404
 31
0.0
  0
ARC
  5
12617
100
AcDbEntity
  8
0
100
AcDbCircle
 10
1186.467125
 20
716.369728
 30
0.0
 40
4.630982
100
AcDbArc
 50
238.000676
 51
301.999324
  0
LINE
  5
12625
100
AcDbEntity
  8
0
100
AcDbLine
 10
644.536219
 20
823.538404
 30
0.0
 11
644.536219
 21
830.538404
 31
0.0
  0
ARC
  5
12626
100
AcDbEntity
  8
0
100
AcDbCircle
 10
631.786219
 20
833.980725
 30
0.0
 40
10.442321
100
AcDbArc
 50
245.983629
 51
294.016371
  0
LINE
  5
12627
100
AcDbEntity
  8
0
100
AcDbLine
 10
627.536219
 20
823.538404
 30
0.0
 11
627.536219
 21
830.538404
 31
0.0
  0
LINE
  5
12628
100
AcDbEntity
  8
0
100
AcDbLine
 10
636.036219
 20
824.442404
 30
0.0
 11
636.036219
 21
830.538404
 31
0.0
  0
ARC
  5
12629
100
AcDbEntity
  8
0
100
AcDbCircle
 10
640.286219
 20
833.980725
 30
0.0
 40
10.442321
100
AcDbArc
 50
245.983629
 51
294.016371
  0
LINE
  5
1262A
100
AcDbEntity
  8
0
100
AcDbLine
 10
644.536219
 20
823.538404
 30
0.0
 11
627.536219
 21
823.538404
 31
0.0
  0
LINE
  5
1262E
100
AcDbEntity
  8
0
100
AcDbLine
 10
641.036219
 20
867.726404
 30
0.0
 11
641.036219
 21
864.538404
 31
0.0
  0
LINE
  5
1262F
100
AcDbEntity
  8
0
100
AcDbLine
 10
631.036219
 20
864.538404
 30
0.0
 11
631.036219
 21
867.726404
 31
0.0
  0
LINE
  5
12630
100
AcDbEntity
  8
0
100
AcDbLine
 10
631.848219
 20
868.538404
 30
0.0
 11
640.224219
 21
868.538404
 31
0.0
  0
LINE
  5
12631
100
AcDbEntity
  8
0
100
AcDbLine
 10
640.224219
 20
868.538404
 30
0.0
 11
641.036219
 21
867.726404
 31
0.0
  0
LINE
  5
12632
100
AcDbEntity
  8
0
100
AcDbLine
 10
631.036219
 20
867.726404
 30
0.0
 11
631.848219
 21
868.538404
 31
0.0
  0
LINE
  5
12638
100
AcDbEntity
  8
0
100
AcDbLine
 10
592.286219
 20
864.538404
 30
0.0
 11
592.286219
 21
867.726404
 31
0.0
  0
LINE
  5
12639
100
AcDbEntity
  8
0
100
AcDbLine
 10
602.286219
 20
867.726404
 30
0.0
 11
602.286219
 21
864.538404
 31
0.0
  0
ARC
  5
1263A
100
AcDbEntity
  8
0
100
AcDbCircle
 10
601.536219
 20
833.980725
 30
0.0
 40
10.442321
100
AcDbArc
 50
245.983629
 51
294.016371
  0
LINE
  5
1263B
100
AcDbEntity
  8
0
100
AcDbLine
 10
605.786219
 20
823.538404
 30
0.0
 11
588.786219
 21
823.538404
 31
0.0
  0
ARC
  5
12641
100
AcDbEntity
  8
0
100
AcDbCircle
 10
593.036219
 20
833.980725
 30
0.0
 40
10.442321
100
AcDbArc
 50
245.983629
 51
294.016371
  0
LINE
  5
12642
100
AcDbEntity
  8
0
100
AcDbLine
 10
588.786219
 20
823.538404
 30
0.0
 11
588.786219
 21
830.538404
 31
0.0
  0
LINE
  5
12643
100
AcDbEntity
  8
0
100
AcDbLine
 10
597.286219
 20
824.442404
 30
0.0
 11
597.286219
 21
830.538404
 31
0.0
  0
LINE
  5
12644
100
AcDbEntity
  8
0
100
AcDbLine
 10
605.786219
 20
823.538404
 30
0.0
 11
605.786219
 21
830.538404
 31
0.0
  0
LINE
  5
12645
100
AcDbEntity
  8
0
100
AcDbLine
 10
592.286219
 20
867.726404
 30
0.0
 11
593.098219
 21
868.538404
 31
0.0
  0
LINE
  5
12646
100
AcDbEntity
  8
0
100
AcDbLine
 10
601.474219
 20
868.538404
 30
0.0
 11
602.286219
 21
867.726404
 31
0.0
  0
LINE
  5
12647
100
AcDbEntity
  8
0
100
AcDbLine
 10
593.098219
 20
868.538404
 30
0.0
 11
601.474219
 21
868.538404
 31
0.0
  0
LINE
  5
1264F
100
AcDbEntity
  8
0
100
AcDbLine
 10
635.098219
 20
756.538404
 30
0.0
 11
643.474219
 21
756.538404
 31
0.0
  0
LINE
  5
12650
100
AcDbEntity
  8
0
100
AcDbLine
 10
644.286219
 20
755.726404
 30
0.0
 11
644.286219
 21
752.538404
 31
0.0
  0
LINE
  5
12651
100
AcDbEntity
  8
0
100
AcDbLine
 10
643.474219
 20
756.538404
 30
0.0
 11
644.286219
 21
755.726404
 31
0.0
  0
LINE
  5
12652
100
AcDbEntity
  8
0
100
AcDbLine
 10
634.286219
 20
752.538404
 30
0.0
 11
634.286219
 21
755.726404
 31
0.0
  0
LINE
  5
12653
100
AcDbEntity
  8
0
100
AcDbLine
 10
634.286219
 20
755.726404
 30
0.0
 11
635.098219
 21
756.538404
 31
0.0
  0
LINE
  5
12674
100
AcDbEntity
  8
0
100
AcDbLine
 10
607.974219
 20
756.538404
 30
0.0
 11
608.786219
 21
755.726404
 31
0.0
  0
LINE
  5
12675
100
AcDbEntity
  8
0
100
AcDbLine
 10
598.786219
 20
755.726404
 30
0.0
 11
599.598219
 21
756.538404
 31
0.0
  0
LINE
  5
12676
100
AcDbEntity
  8
0
100
AcDbLine
 10
598.786219
 20
752.538404
 30
0.0
 11
598.786219
 21
755.726404
 31
0.0
  0
LINE
  5
12677
100
AcDbEntity
  8
0
100
AcDbLine
 10
599.598219
 20
756.538404
 30
0.0
 11
607.974219
 21
756.538404
 31
0.0
  0
LINE
  5
12678
100
AcDbEntity
  8
0
100
AcDbLine
 10
608.786219
 20
755.726404
 30
0.0
 11
608.786219
 21
752.538404
 31
0.0
  0
LINE
  5
12679
100
AcDbEntity
  8
0
100
AcDbLine
 10
747.286219
 20
867.726404
 30
0.0
 11
747.286219
 21
864.538404
 31
0.0
  0
LINE
  5
1267A
100
AcDbEntity
  8
0
100
AcDbLine
 10
757.286219
 20
864.538404
 30
0.0
 11
757.286219
 21
867.726404
 31
0.0
  0
LINE
  5
1267B
100
AcDbEntity
  8
0
100
AcDbLine
 10
743.786219
 20
823.538404
 30
0.0
 11
743.786219
 21
830.538404
 31
0.0
  0
LINE
  5
1267C
100
AcDbEntity
  8
0
100
AcDbLine
 10
752.286219
 20
824.442404
 30
0.0
 11
752.286219
 21
830.538404
 31
0.0
  0
LINE
  5
1267D
100
AcDbEntity
  8
0
100
AcDbLine
 10
760.786219
 20
823.538404
 30
0.0
 11
760.786219
 21
830.538404
 31
0.0
  0
ARC
  5
1267E
100
AcDbEntity
  8
0
100
AcDbCircle
 10
756.536219
 20
833.980725
 30
0.0
 40
10.442321
100
AcDbArc
 50
245.983629
 51
294.016371
  0
LINE
  5
12684
100
AcDbEntity
  8
0
100
AcDbLine
 10
743.786219
 20
823.538404
 30
0.0
 11
760.786219
 21
823.538404
 31
0.0
  0
ARC
  5
12685
100
AcDbEntity
  8
0
100
AcDbCircle
 10
748.036219
 20
833.980725
 30
0.0
 40
10.442321
100
AcDbArc
 50
245.983629
 51
294.016371
  0
LINE
  5
12686
100
AcDbEntity
  8
0
100
AcDbLine
 10
756.474219
 20
868.538404
 30
0.0
 11
748.098219
 21
868.538404
 31
0.0
  0
LINE
  5
12687
100
AcDbEntity
  8
0
100
AcDbLine
 10
748.098219
 20
868.538404
 30
0.0
 11
747.286219
 21
867.726404
 31
0.0
  0
LINE
  5
12688
100
AcDbEntity
  8
0
100
AcDbLine
 10
757.286219
 20
867.726404
 30
0.0
 11
756.474219
 21
868.538404
 31
0.0
  0
LINE
  5
12694
100
AcDbEntity
  8
0
100
AcDbLine
 10
740.786219
 20
755.726404
 30
0.0
 11
740.786219
 21
752.538404
 31
0.0
  0
LINE
  5
12695
100
AcDbEntity
  8
0
100
AcDbLine
 10
749.974219
 20
756.538404
 30
0.0
 11
741.598219
 21
756.538404
 31
0.0
  0
LINE
  5
12696
100
AcDbEntity
  8
0
100
AcDbLine
 10
750.786219
 20
752.538404
 30
0.0
 11
750.786219
 21
755.726404
 31
0.0
  0
LINE
  5
12697
100
AcDbEntity
  8
0
100
AcDbLine
 10
750.786219
 20
755.726404
 30
0.0
 11
749.974219
 21
756.538404
 31
0.0
  0
LINE
  5
12698
100
AcDbEntity
  8
0
100
AcDbLine
 10
741.598219
 20
756.538404
 30
0.0
 11
740.786219
 21
755.726404
 31
0.0
  0
LINE
  5
126A4
100
AcDbEntity
  8
0
100
AcDbLine
 10
706.098219
 20
756.538404
 30
0.0
 11
705.286219
 21
755.726404
 31
0.0
  0
LINE
  5
126A5
100
AcDbEntity
  8
0
100
AcDbLine
 10
715.286219
 20
755.726404
 30
0.0
 11
714.474219
 21
756.538404
 31
0.0
  0
LINE
  5
126A6
100
AcDbEntity
  8
0
100
AcDbLine
 10
715.286219
 20
752.538404
 30
0.0
 11
715.286219
 21
755.726404
 31
0.0
  0
LINE
  5
126A7
100
AcDbEntity
  8
0
100
AcDbLine
 10
714.474219
 20
756.538404
 30
0.0
 11
706.098219
 21
756.538404
 31
0.0
  0
LINE
  5
126A8
100
AcDbEntity
  8
0
100
AcDbLine
 10
705.286219
 20
755.726404
 30
0.0
 11
705.286219
 21
752.538404
 31
0.0
  0
LINE
  5
126A9
100
AcDbEntity
  8
0
100
AcDbLine
 10
718.536219
 20
864.538404
 30
0.0
 11
718.536219
 21
867.726404
 31
0.0
  0
LINE
  5
126AA
100
AcDbEntity
  8
0
100
AcDbLine
 10
708.536219
 20
867.726404
 30
0.0
 11
708.536219
 21
864.538404
 31
0.0
  0
ARC
  5
126AB
100
AcDbEntity
  8
0
100
AcDbCircle
 10
709.286219
 20
833.980725
 30
0.0
 40
10.442321
100
AcDbArc
 50
245.983629
 51
294.016371
  0
LINE
  5
126AC
100
AcDbEntity
  8
0
100
AcDbLine
 10
705.036219
 20
823.538404
 30
0.0
 11
722.036219
 21
823.538404
 31
0.0
  0
ARC
  5
126B2
100
AcDbEntity
  8
0
100
AcDbCircle
 10
717.786219
 20
833.980725
 30
0.0
 40
10.442321
100
AcDbArc
 50
245.983629
 51
294.016371
  0
LINE
  5
126B3
100
AcDbEntity
  8
0
100
AcDbLine
 10
722.036219
 20
823.538404
 30
0.0
 11
722.036219
 21
830.538404
 31
0.0
  0
LINE
  5
126B4
100
AcDbEntity
  8
0
100
AcDbLine
 10
713.536219
 20
824.442404
 30
0.0
 11
713.536219
 21
830.538404
 31
0.0
  0
LINE
  5
126B5
100
AcDbEntity
  8
0
100
AcDbLine
 10
705.036219
 20
823.538404
 30
0.0
 11
705.036219
 21
830.538404
 31
0.0
  0
LINE
  5
126B6
100
AcDbEntity
  8
0
100
AcDbLine
 10
718.536219
 20
867.726404
 30
0.0
 11
717.724219
 21
868.538404
 31
0.0
  0
LINE
  5
126B7
100
AcDbEntity
  8
0
100
AcDbLine
 10
709.348219
 20
868.538404
 30
0.0
 11
708.536219
 21
867.726404
 31
0.0
  0
LINE
  5
126B8
100
AcDbEntity
  8
0
100
AcDbLine
 10
717.724219
 20
868.538404
 30
0.0
 11
709.348219
 21
868.538404
 31
0.0
  0
LINE
  5
126C3
100
AcDbEntity
  8
0
100
AcDbLine
 10
612.786219
 20
923.042251
 30
0.0
 11
612.786219
 21
882.538404
 31
0.0
  0
LINE
  5
126C5
100
AcDbEntity
  8
0
100
AcDbLine
 10
744.786219
 20
936.538404
 30
0.0
 11
742.158321
 21
936.538404
 31
0.0
  0
LINE
  5
126C6
100
AcDbEntity
  8
0
100
AcDbLine
 10
744.786219
 20
898.538404
 30
0.0
 11
737.786219
 21
898.538404
 31
0.0
  0
LINE
  5
126C7
100
AcDbEntity
  8
0
100
AcDbLine
 10
744.786219
 20
898.538404
 30
0.0
 11
744.786219
 21
936.538404
 31
0.0
  0
LINE
  5
126CC
100
AcDbEntity
  8
0
100
AcDbLine
 10
618.581238
 20
882.538404
 30
0.0
 11
612.786219
 21
882.538404
 31
0.0
  0
LINE
  5
126D4
100
AcDbEntity
  8
0
100
AcDbLine
 10
612.429327
 20
867.75394
 30
0.0
 11
614.786219
 21
879.538404
 31
0.0
  0
LINE
  5
126D5
100
AcDbEntity
  8
0
100
AcDbLine
 10
614.786219
 20
882.709977
 30
0.0
 11
614.786219
 21
879.538404
 31
0.0
  0
LINE
  5
126D6
100
AcDbEntity
  8
0
100
AcDbLine
 10
734.786219
 20
895.538404
 30
0.0
 11
734.786219
 21
879.538404
 31
0.0
  0
LINE
  5
126D7
100
AcDbEntity
  8
0
100
AcDbLine
 10
734.786219
 20
879.538404
 30
0.0
 11
737.107714
 21
867.93093
 31
0.0
  0
ARC
  5
126DC
100
AcDbEntity
  8
0
100
AcDbCircle
 10
608.507004
 20
868.538404
 30
0.0
 40
4.0
100
AcDbArc
 50
270.0
 51
348.690068
  0
ARC
  5
126DD
100
AcDbEntity
  8
0
100
AcDbCircle
 10
741.065435
 20
868.538404
 30
0.0
 40
4.0
100
AcDbArc
 50
191.309932
 51
270.0
  0
ARC
  5
126E0
100
AcDbEntity
  8
0
100
AcDbCircle
 10
562.218488
 20
903.538404
 30
0.0
 40
62.442478
100
AcDbArc
 50
345.126286
 51
2.95954
  0
ARC
  5
126E6
100
AcDbEntity
  8
0
100
AcDbCircle
 10
618.581238
 20
879.538404
 30
0.0
 40
3.0
100
AcDbArc
 50
0.0
 51
90.0
  0
CIRCLE
  5
126E8
100
AcDbEntity
  8
0
100
AcDbCircle
 10
674.786219
 20
955.538404
 30
0.0
 40
70.0
  0
ARC
  5
126EC
100
AcDbEntity
  8
0
100
AcDbCircle
 10
785.77977
 20
917.538404
 30
0.0
 40
54.081337
100
AcDbArc
 50
182.823018
 51
197.639496
  0
ARC
  5
126EE
100
AcDbEntity
  8
0
100
AcDbCircle
 10
737.786219
 20
895.538404
 30
0.0
 40
3.0
100
AcDbArc
 50
90.0
 51
180.0
  0
ARC
  5
126EF
100
AcDbEntity
  8
0
100
AcDbCircle
 10
610.507004
 20
756.538404
 30
0.0
 40
4.0
100
AcDbArc
 50
270.0
 51
348.690068
  0
ARC
  5
126F0
100
AcDbEntity
  8
0
100
AcDbCircle
 10
739.065435
 20
756.538404
 30
0.0
 40
4.0
100
AcDbArc
 50
191.309932
 51
270.0
  0
LINE
  5
126F1
100
AcDbEntity
  8
0
100
AcDbLine
 10
735.143112
 20
755.75394
 30
0.0
 11
732.786219
 21
767.538404
 31
0.0
  0
ARC
  5
126F2
100
AcDbEntity
  8
0
100
AcDbCircle
 10
610.507004
 20
826.538404
 30
0.0
 40
4.0
100
AcDbArc
 50
11.309932
 51
90.0
  0
LINE
  5
126F3
100
AcDbEntity
  8
0
100
AcDbLine
 10
735.143112
 20
827.322869
 30
0.0
 11
732.786219
 21
815.538404
 31
0.0
  0
ARC
  5
126F4
100
AcDbEntity
  8
0
100
AcDbCircle
 10
739.065435
 20
826.538404
 30
0.0
 40
4.0
100
AcDbArc
 50
90.0
 51
168.690068
  0
LINE
  5
12716
100
AcDbEntity
  8
0
100
AcDbLine
 10
652.286219
 20
707.089374
 30
0.0
 11
652.286219
 21
677.538404
 31
0.0
  0
LINE
  5
12717
100
AcDbEntity
  8
0
100
AcDbLine
 10
697.286219
 20
677.538404
 30
0.0
 11
697.286219
 21
707.089374
 31
0.0
  0
LINE
  5
12718
100
AcDbEntity
  8
0
100
AcDbLine
 10
693.786219
 20
706.538404
 30
0.0
 11
693.786219
 21
696.538404
 31
0.0
  0
LINE
  5
1271B
100
AcDbEntity
  8
0
100
AcDbLine
 10
655.786219
 20
706.538404
 30
0.0
 11
655.786219
 21
696.538404
 31
0.0
  0
LINE
  5
1271C
100
AcDbEntity
  8
0
100
AcDbLine
 10
655.786219
 20
696.538404
 30
0.0
 11
693.786219
 21
696.538404
 31
0.0
  0
LINE
  5
1271D
100
AcDbEntity
  8
0
100
AcDbLine
 10
653.286219
 20
676.538404
 30
0.0
 11
696.286219
 21
676.538404
 31
0.0
  0
LINE
  5
1271E
100
AcDbEntity
  8
0
100
AcDbLine
 10
652.286219
 20
677.538404
 30
0.0
 11
653.286219
 21
676.538404
 31
0.0
  0
LINE
  5
1271F
100
AcDbEntity
  8
0
100
AcDbLine
 10
697.286219
 20
677.538404
 30
0.0
 11
696.286219
 21
676.538404
 31
0.0
  0
LINE
  5
12720
100
AcDbEntity
  8
0
100
AcDbLine
 10
655.559722
 20
706.538404
 30
0.0
 11
694.012717
 21
706.538404
 31
0.0
  0
ARC
  5
1272A
100
AcDbEntity
  8
0
100
AcDbCircle
 10
1436.171207
 20
868.538404
 30
0.0
 40
4.0
100
AcDbArc
 50
270.0
 51
348.690068
  0
ARC
  5
1272B
100
AcDbEntity
  8
0
100
AcDbCircle
 10
1568.729638
 20
868.538404
 30
0.0
 40
4.0
100
AcDbArc
 50
191.309932
 51
270.0
  0
LINE
  5
1272C
100
AcDbEntity
  8
0
100
AcDbLine
 10
1468.700423
 20
867.726404
 30
0.0
 11
1468.700423
 21
864.538404
 31
0.0
  0
LINE
  5
1272D
100
AcDbEntity
  8
0
100
AcDbLine
 10
1458.700423
 20
864.538404
 30
0.0
 11
1458.700423
 21
867.726404
 31
0.0
  0
LINE
  5
1272E
100
AcDbEntity
  8
0
100
AcDbLine
 10
1419.950423
 20
864.538404
 30
0.0
 11
1419.950423
 21
867.726404
 31
0.0
  0
LINE
  5
1272F
100
AcDbEntity
  8
0
100
AcDbLine
 10
1429.950423
 20
867.726404
 30
0.0
 11
1429.950423
 21
864.538404
 31
0.0
  0
LINE
  5
12730
100
AcDbEntity
  8
0
100
AcDbLine
 10
1574.950423
 20
867.726404
 30
0.0
 11
1574.950423
 21
864.538404
 31
0.0
  0
LINE
  5
12731
100
AcDbEntity
  8
0
100
AcDbLine
 10
1584.950423
 20
864.538404
 30
0.0
 11
1584.950423
 21
867.726404
 31
0.0
  0
LINE
  5
12732
100
AcDbEntity
  8
0
100
AcDbLine
 10
1546.200423
 20
864.538404
 30
0.0
 11
1546.200423
 21
867.726404
 31
0.0
  0
LINE
  5
12733
100
AcDbEntity
  8
0
100
AcDbLine
 10
1536.200423
 20
867.726404
 30
0.0
 11
1536.200423
 21
864.538404
 31
0.0
  0
LINE
  5
12734
100
AcDbEntity
  8
0
100
AcDbLine
 10
1587.450423
 20
735.538404
 30
0.0
 11
1417.450423
 21
735.538404
 31
0.0
  0
LINE
  5
12735
100
AcDbEntity
  8
0
100
AcDbLine
 10
1592.950423
 20
830.538404
 30
0.0
 11
1411.950423
 21
830.538404
 31
0.0
  0
LINE
  5
12736
100
AcDbEntity
  8
0
100
AcDbLine
 10
1585.450423
 20
752.538404
 30
0.0
 11
1419.450423
 21
752.538404
 31
0.0
  0
LINE
  5
12737
100
AcDbEntity
  8
0
100
AcDbLine
 10
1592.950423
 20
864.538404
 30
0.0
 11
1411.950423
 21
864.538404
 31
0.0
  0
LINE
  5
12738
100
AcDbEntity
  8
0
100
AcDbLine
 10
1472.200423
 20
823.538404
 30
0.0
 11
1455.200423
 21
823.538404
 31
0.0
  0
ARC
  5
12739
100
AcDbEntity
  8
0
100
AcDbCircle
 10
1467.950423
 20
833.980725
 30
0.0
 40
10.442321
100
AcDbArc
 50
245.983629
 51
294.016371
  0
LINE
  5
1273A
100
AcDbEntity
  8
0
100
AcDbLine
 10
1462.762423
 20
756.538404
 30
0.0
 11
1471.138423
 21
756.538404
 31
0.0
  0
ARC
  5
1273C
100
AcDbEntity
  8
0
100
AcDbCircle
 10
1471.200423
 20
721.980725
 30
0.0
 40
10.442321
100
AcDbArc
 50
245.983629
 51
294.016371
  0
LINE
  5
1273D
100
AcDbEntity
  8
0
100
AcDbLine
 10
1475.450423
 20
711.538404
 30
0.0
 11
1458.450423
 21
711.538404
 31
0.0
  0
LINE
  5
1273E
100
AcDbEntity
  8
0
100
AcDbLine
 10
1585.450423
 20
718.538404
 30
0.0
 11
1419.450423
 21
718.538404
 31
0.0
  0
LINE
  5
1273F
100
AcDbEntity
  8
0
100
AcDbLine
 10
1594.950423
 20
847.538404
 30
0.0
 11
1409.950423
 21
847.538404
 31
0.0
  0
LINE
  5
12740
100
AcDbEntity
  8
0
100
AcDbLine
 10
1594.950423
 20
847.538404
 30
0.0
 11
1409.950423
 21
847.538404
 31
0.0
  0
LINE
  5
12741
100
AcDbEntity
  8
0
100
AcDbLine
 10
1524.950423
 20
718.538404
 30
0.0
 11
1524.950423
 21
677.538404
 31
0.0
  0
LINE
  5
12742
100
AcDbEntity
  8
0
100
AcDbLine
 10
1479.950423
 20
677.538404
 30
0.0
 11
1479.950423
 21
718.538404
 31
0.0
  0
LINE
  5
12743
100
AcDbEntity
  8
0
100
AcDbLine
 10
1479.950423
 20
677.538404
 30
0.0
 11
1480.950423
 21
676.538404
 31
0.0
  0
LINE
  5
12745
100
AcDbEntity
  8
0
100
AcDbLine
 10
1524.950423
 20
677.538404
 30
0.0
 11
1523.950423
 21
676.538404
 31
0.0
  0
LINE
  5
12746
100
AcDbEntity
  8
0
100
AcDbLine
 10
1523.950423
 20
676.538404
 30
0.0
 11
1480.950423
 21
676.538404
 31
0.0
  0
LINE
  5
12747
100
AcDbEntity
  8
0
100
AcDbLine
 10
1560.450423
 20
815.538404
 30
0.0
 11
1560.450423
 21
767.538404
 31
0.0
  0
LINE
  5
12748
100
AcDbEntity
  8
0
100
AcDbLine
 10
1587.450423
 20
750.538404
 30
0.0
 11
1587.450423
 21
720.538404
 31
0.0
  0
LINE
  5
12749
100
AcDbEntity
  8
0
100
AcDbLine
 10
1529.450423
 20
711.538404
 30
0.0
 11
1546.450423
 21
711.538404
 31
0.0
  0
ARC
  5
1274A
100
AcDbEntity
  8
0
100
AcDbCircle
 10
1533.700423
 20
721.980725
 30
0.0
 40
10.442321
100
AcDbArc
 50
245.983629
 51
294.016371
  0
LINE
  5
1274D
100
AcDbEntity
  8
0
100
AcDbLine
 10
1564.950423
 20
711.538404
 30
0.0
 11
1564.950423
 21
718.538404
 31
0.0
  0
ARC
  5
12751
100
AcDbEntity
  8
0
100
AcDbCircle
 10
1577.700423
 20
721.980725
 30
0.0
 40
10.442321
100
AcDbArc
 50
245.983629
 51
294.016371
  0
LINE
  5
12752
100
AcDbEntity
  8
0
100
AcDbLine
 10
1581.950423
 20
711.538404
 30
0.0
 11
1581.950423
 21
718.538404
 31
0.0
  0
LINE
  5
12753
100
AcDbEntity
  8
0
100
AcDbLine
 10
1573.450423
 20
712.442404
 30
0.0
 11
1573.450423
 21
718.538404
 31
0.0
  0
ARC
  5
12755
100
AcDbEntity
  8
0
100
AcDbCircle
 10
1569.200423
 20
721.980725
 30
0.0
 40
10.442321
100
AcDbArc
 50
245.983629
 51
294.016371
  0
LINE
  5
12756
100
AcDbEntity
  8
0
100
AcDbLine
 10
1564.950423
 20
711.538404
 30
0.0
 11
1581.950423
 21
711.538404
 31
0.0
  0
LINE
  5
12757
100
AcDbEntity
  8
0
100
AcDbLine
 10
1537.950423
 20
712.442404
 30
0.0
 11
1537.950423
 21
718.538404
 31
0.0
  0
LINE
  5
12758
100
AcDbEntity
  8
0
100
AcDbLine
 10
1546.450423
 20
711.538404
 30
0.0
 11
1546.450423
 21
718.538404
 31
0.0
  0
ARC
  5
12759
100
AcDbEntity
  8
0
100
AcDbCircle
 10
1542.200423
 20
721.980725
 30
0.0
 40
10.442321
100
AcDbArc
 50
245.983629
 51
294.016371
  0
ARC
  5
1275D
100
AcDbEntity
  8
0
100
AcDbCircle
 10
1585.450423
 20
720.538404
 30
0.0
 40
2.0
100
AcDbArc
 50
270.0
 51
0.0
  0
ARC
  5
12760
100
AcDbEntity
  8
0
100
AcDbCircle
 10
1521.67692
 20
716.538404
 30
0.0
 40
10.0
100
AcDbArc
 50
289.108026
 51
330.0
  0
ARC
  5
12761
100
AcDbEntity
  8
0
100
AcDbCircle
 10
1483.223926
 20
716.538404
 30
0.0
 40
10.0
100
AcDbArc
 50
210.0
 51
250.891974
  0
LINE
  5
12765
100
AcDbEntity
  8
0
100
AcDbLine
 10
1475.450423
 20
711.538404
 30
0.0
 11
1475.450423
 21
718.538404
 31
0.0
  0
LINE
  5
12767
100
AcDbEntity
  8
0
100
AcDbLine
 10
1529.450423
 20
711.538404
 30
0.0
 11
1529.450423
 21
718.538404
 31
0.0
  0
LINE
  5
12769
100
AcDbEntity
  8
0
100
AcDbLine
 10
1533.762423
 20
756.538404
 30
0.0
 11
1532.950423
 21
755.726404
 31
0.0
  0
ARC
  5
1276A
100
AcDbEntity
  8
0
100
AcDbCircle
 10
1566.729638
 20
756.538404
 30
0.0
 40
4.0
100
AcDbArc
 50
191.309932
 51
270.0
  0
LINE
  5
1276B
100
AcDbEntity
  8
0
100
AcDbLine
 10
1562.807316
 20
755.75394
 30
0.0
 11
1560.450423
 21
767.538404
 31
0.0
  0
LINE
  5
1276C
100
AcDbEntity
  8
0
100
AcDbLine
 10
1568.450423
 20
755.726404
 30
0.0
 11
1568.450423
 21
752.538404
 31
0.0
  0
LINE
  5
1276D
100
AcDbEntity
  8
0
100
AcDbLine
 10
1577.638423
 20
756.538404
 30
0.0
 11
1569.262423
 21
756.538404
 31
0.0
  0
LINE
  5
1276E
100
AcDbEntity
  8
0
100
AcDbLine
 10
1578.450423
 20
752.538404
 30
0.0
 11
1578.450423
 21
755.726404
 31
0.0
  0
LINE
  5
1276F
100
AcDbEntity
  8
0
100
AcDbLine
 10
1578.450423
 20
755.726404
 30
0.0
 11
1577.638423
 21
756.538404
 31
0.0
  0
LINE
  5
12770
100
AcDbEntity
  8
0
100
AcDbLine
 10
1569.262423
 20
756.538404
 30
0.0
 11
1568.450423
 21
755.726404
 31
0.0
  0
LINE
  5
12771
100
AcDbEntity
  8
0
100
AcDbLine
 10
1542.950423
 20
755.726404
 30
0.0
 11
1542.138423
 21
756.538404
 31
0.0
  0
LINE
  5
12772
100
AcDbEntity
  8
0
100
AcDbLine
 10
1542.950423
 20
752.538404
 30
0.0
 11
1542.950423
 21
755.726404
 31
0.0
  0
LINE
  5
12773
100
AcDbEntity
  8
0
100
AcDbLine
 10
1542.138423
 20
756.538404
 30
0.0
 11
1533.762423
 21
756.538404
 31
0.0
  0
ARC
  5
12774
100
AcDbEntity
  8
0
100
AcDbCircle
 10
1585.450423
 20
750.538404
 30
0.0
 40
2.0
100
AcDbArc
 50
0.0
 51
90.0
  0
LINE
  5
12775
100
AcDbEntity
  8
0
100
AcDbLine
 10
1471.950423
 20
755.726404
 30
0.0
 11
1471.950423
 21
752.538404
 31
0.0
  0
LINE
  5
12776
100
AcDbEntity
  8
0
100
AcDbLine
 10
1471.138423
 20
756.538404
 30
0.0
 11
1471.950423
 21
755.726404
 31
0.0
  0
LINE
  5
12777
100
AcDbEntity
  8
0
100
AcDbLine
 10
1532.950423
 20
755.726404
 30
0.0
 11
1532.950423
 21
752.538404
 31
0.0
  0
LINE
  5
12778
100
AcDbEntity
  8
0
100
AcDbLine
 10
1562.807316
 20
827.322869
 30
0.0
 11
1560.450423
 21
815.538404
 31
0.0
  0
ARC
  5
12779
100
AcDbEntity
  8
0
100
AcDbCircle
 10
1536.950423
 20
833.980725
 30
0.0
 40
10.442321
100
AcDbArc
 50
245.983629
 51
294.016371
  0
LINE
  5
1277A
100
AcDbEntity
  8
0
100
AcDbLine
 10
1532.700423
 20
823.538404
 30
0.0
 11
1549.700423
 21
823.538404
 31
0.0
  0
ARC
  5
1277B
100
AcDbEntity
  8
0
100
AcDbCircle
 10
1566.729638
 20
826.538404
 30
0.0
 40
4.0
100
AcDbArc
 50
90.0
 51
168.690068
  0
LINE
  5
1277C
100
AcDbEntity
  8
0
100
AcDbLine
 10
1571.450423
 20
823.538404
 30
0.0
 11
1571.450423
 21
830.538404
 31
0.0
  0
LINE
  5
1277D
100
AcDbEntity
  8
0
100
AcDbLine
 10
1579.950423
 20
824.442404
 30
0.0
 11
1579.950423
 21
830.538404
 31
0.0
  0
LINE
  5
1277E
100
AcDbEntity
  8
0
100
AcDbLine
 10
1588.450423
 20
823.538404
 30
0.0
 11
1588.450423
 21
830.538404
 31
0.0
  0
ARC
  5
1277F
100
AcDbEntity
  8
0
100
AcDbCircle
 10
1584.200423
 20
833.980725
 30
0.0
 40
10.442321
100
AcDbArc
 50
245.983629
 51
294.016371
  0
LINE
  5
12785
100
AcDbEntity
  8
0
100
AcDbLine
 10
1571.450423
 20
823.538404
 30
0.0
 11
1588.450423
 21
823.538404
 31
0.0
  0
ARC
  5
12786
100
AcDbEntity
  8
0
100
AcDbCircle
 10
1575.700423
 20
833.980725
 30
0.0
 40
10.442321
100
AcDbArc
 50
245.983629
 51
294.016371
  0
ARC
  5
1278C
100
AcDbEntity
  8
0
100
AcDbCircle
 10
1545.450423
 20
833.980725
 30
0.0
 40
10.442321
100
AcDbArc
 50
245.983629
 51
294.016371
  0
LINE
  5
1278D
100
AcDbEntity
  8
0
100
AcDbLine
 10
1549.700423
 20
823.538404
 30
0.0
 11
1549.700423
 21
830.538404
 31
0.0
  0
LINE
  5
1278E
100
AcDbEntity
  8
0
100
AcDbLine
 10
1541.200423
 20
824.442404
 30
0.0
 11
1541.200423
 21
830.538404
 31
0.0
  0
ARC
  5
1278F
100
AcDbEntity
  8
0
100
AcDbCircle
 10
1592.950423
 20
862.538404
 30
0.0
 40
2.0
100
AcDbArc
 50
0.0
 51
90.0
  0
ARC
  5
12790
100
AcDbEntity
  8
0
100
AcDbCircle
 10
1592.950423
 20
832.538404
 30
0.0
 40
2.0
100
AcDbArc
 50
270.0
 51
0.0
  0
LINE
  5
12791
100
AcDbEntity
  8
0
100
AcDbLine
 10
1594.950423
 20
862.538404
 30
0.0
 11
1594.950423
 21
832.538325
 31
0.0
  0
LINE
  5
12792
100
AcDbEntity
  8
0
100
AcDbLine
 10
1472.200423
 20
823.538404
 30
0.0
 11
1472.200423
 21
830.538404
 31
0.0
  0
LINE
  5
12793
100
AcDbEntity
  8
0
100
AcDbLine
 10
1532.700423
 20
823.538404
 30
0.0
 11
1532.700423
 21
830.538404
 31
0.0
  0
LINE
  5
12794
100
AcDbEntity
  8
0
100
AcDbLine
 10
1444.450423
 20
815.538404
 30
0.0
 11
1444.450423
 21
767.538404
 31
0.0
  0
LINE
  5
12795
100
AcDbEntity
  8
0
100
AcDbLine
 10
1417.450423
 20
750.538404
 30
0.0
 11
1417.450423
 21
720.538404
 31
0.0
  0
ARC
  5
12798
100
AcDbEntity
  8
0
100
AcDbCircle
 10
1462.700423
 20
721.980725
 30
0.0
 40
10.442321
100
AcDbArc
 50
245.983629
 51
294.016371
  0
LINE
  5
12799
100
AcDbEntity
  8
0
100
AcDbLine
 10
1458.450423
 20
711.538404
 30
0.0
 11
1458.450423
 21
718.538404
 31
0.0
  0
LINE
  5
1279A
100
AcDbEntity
  8
0
100
AcDbLine
 10
1466.950423
 20
712.442404
 30
0.0
 11
1466.950423
 21
718.538404
 31
0.0
  0
LINE
  5
1279B
100
AcDbEntity
  8
0
100
AcDbLine
 10
1439.950423
 20
711.538404
 30
0.0
 11
1422.950423
 21
711.538404
 31
0.0
  0
ARC
  5
1279C
100
AcDbEntity
  8
0
100
AcDbCircle
 10
1435.700423
 20
721.980725
 30
0.0
 40
10.442321
100
AcDbArc
 50
245.983629
 51
294.016371
  0
LINE
  5
1279E
100
AcDbEntity
  8
0
100
AcDbLine
 10
1431.450423
 20
712.442404
 30
0.0
 11
1431.450423
 21
718.538404
 31
0.0
  0
LINE
  5
1279F
100
AcDbEntity
  8
0
100
AcDbLine
 10
1422.950423
 20
711.538404
 30
0.0
 11
1422.950423
 21
718.538404
 31
0.0
  0
ARC
  5
127A0
100
AcDbEntity
  8
0
100
AcDbCircle
 10
1427.200423
 20
721.980725
 30
0.0
 40
10.442321
100
AcDbArc
 50
245.983629
 51
294.016371
  0
LINE
  5
127A4
100
AcDbEntity
  8
0
100
AcDbLine
 10
1439.950423
 20
711.538404
 30
0.0
 11
1439.950423
 21
718.538404
 31
0.0
  0
ARC
  5
127A6
100
AcDbEntity
  8
0
100
AcDbCircle
 10
1419.450423
 20
720.538404
 30
0.0
 40
2.0
100
AcDbArc
 50
180.0
 51
270.0
  0
LINE
  5
127A7
100
AcDbEntity
  8
0
100
AcDbLine
 10
1442.09353
 20
755.75394
 30
0.0
 11
1444.450423
 21
767.538404
 31
0.0
  0
ARC
  5
127A8
100
AcDbEntity
  8
0
100
AcDbCircle
 10
1438.171207
 20
756.538404
 30
0.0
 40
4.0
100
AcDbArc
 50
270.0
 51
348.690068
  0
LINE
  5
127A9
100
AcDbEntity
  8
0
100
AcDbLine
 10
1461.950423
 20
752.538404
 30
0.0
 11
1461.950423
 21
755.726404
 31
0.0
  0
LINE
  5
127AA
100
AcDbEntity
  8
0
100
AcDbLine
 10
1461.950423
 20
755.726404
 30
0.0
 11
1462.762423
 21
756.538404
 31
0.0
  0
LINE
  5
127AB
100
AcDbEntity
  8
0
100
AcDbLine
 10
1435.638423
 20
756.538404
 30
0.0
 11
1436.450423
 21
755.726404
 31
0.0
  0
LINE
  5
127AC
100
AcDbEntity
  8
0
100
AcDbLine
 10
1426.450423
 20
755.726404
 30
0.0
 11
1427.262423
 21
756.538404
 31
0.0
  0
LINE
  5
127AD
100
AcDbEntity
  8
0
100
AcDbLine
 10
1426.450423
 20
752.538404
 30
0.0
 11
1426.450423
 21
755.726404
 31
0.0
  0
LINE
  5
127AE
100
AcDbEntity
  8
0
100
AcDbLine
 10
1427.262423
 20
756.538404
 30
0.0
 11
1435.638423
 21
756.538404
 31
0.0
  0
LINE
  5
127AF
100
AcDbEntity
  8
0
100
AcDbLine
 10
1436.450423
 20
755.726404
 30
0.0
 11
1436.450423
 21
752.538404
 31
0.0
  0
ARC
  5
127B0
100
AcDbEntity
  8
0
100
AcDbCircle
 10
1419.450423
 20
750.538404
 30
0.0
 40
2.0
100
AcDbArc
 50
90.0
 51
180.0
  0
LINE
  5
127B1
100
AcDbEntity
  8
0
100
AcDbLine
 10
1442.09353
 20
827.322869
 30
0.0
 11
1444.450423
 21
815.538404
 31
0.0
  0
ARC
  5
127B2
100
AcDbEntity
  8
0
100
AcDbCircle
 10
1438.171207
 20
826.538404
 30
0.0
 40
4.0
100
AcDbArc
 50
11.309932
 51
90.0
  0
LINE
  5
127B3
100
AcDbEntity
  8
0
100
AcDbLine
 10
1463.700423
 20
824.442404
 30
0.0
 11
1463.700423
 21
830.538404
 31
0.0
  0
LINE
  5
127B4
100
AcDbEntity
  8
0
100
AcDbLine
 10
1455.200423
 20
823.538404
 30
0.0
 11
1455.200423
 21
830.538404
 31
0.0
  0
ARC
  5
127B5
100
AcDbEntity
  8
0
100
AcDbCircle
 10
1459.450423
 20
833.980725
 30
0.0
 40
10.442321
100
AcDbArc
 50
245.983629
 51
294.016371
  0
ARC
  5
127BB
100
AcDbEntity
  8
0
100
AcDbCircle
 10
1429.200423
 20
833.980725
 30
0.0
 40
10.442321
100
AcDbArc
 50
245.983629
 51
294.016371
  0
LINE
  5
127BC
100
AcDbEntity
  8
0
100
AcDbLine
 10
1433.450423
 20
823.538404
 30
0.0
 11
1416.450423
 21
823.538404
 31
0.0
  0
ARC
  5
127C2
100
AcDbEntity
  8
0
100
AcDbCircle
 10
1420.700423
 20
833.980725
 30
0.0
 40
10.442321
100
AcDbArc
 50
245.983629
 51
294.016371
  0
LINE
  5
127C3
100
AcDbEntity
  8
0
100
AcDbLine
 10
1416.450423
 20
823.538404
 30
0.0
 11
1416.450423
 21
830.538404
 31
0.0
  0
LINE
  5
127C4
100
AcDbEntity
  8
0
100
AcDbLine
 10
1424.950423
 20
824.442404
 30
0.0
 11
1424.950423
 21
830.538404
 31
0.0
  0
LINE
  5
127C5
100
AcDbEntity
  8
0
100
AcDbLine
 10
1433.450423
 20
823.538404
 30
0.0
 11
1433.450423
 21
830.538404
 31
0.0
  0
ARC
  5
127C6
100
AcDbEntity
  8
0
100
AcDbCircle
 10
1411.950423
 20
832.538404
 30
0.0
 40
2.0
100
AcDbArc
 50
180.0
 51
270.0
  0
ARC
  5
127C7
100
AcDbEntity
  8
0
100
AcDbCircle
 10
1411.950423
 20
862.538404
 30
0.0
 40
2.0
100
AcDbArc
 50
90.0
 51
180.0
  0
LINE
  5
127C8
100
AcDbEntity
  8
0
100
AcDbLine
 10
1409.950423
 20
862.538404
 30
0.0
 11
1409.950423
 21
832.538369
 31
0.0
  0
CIRCLE
  5
127C9
100
AcDbEntity
  8
0
100
AcDbCircle
 10
1465.327317
 20
992.66151
 30
0.0
 40
9.5
  0
CIRCLE
  5
127CA
100
AcDbEntity
  8
0
100
AcDbCircle
 10
1465.327317
 20
918.415298
 30
0.0
 40
9.5
  0
LINE
  5
127CC
100
AcDbEntity
  8
0
100
AcDbLine
 10
1564.450423
 20
923.042251
 30
0.0
 11
1564.450423
 21
882.538404
 31
0.0
  0
CIRCLE
  5
127CD
100
AcDbEntity
  8
0
100
AcDbCircle
 10
1539.573529
 20
918.415298
 30
0.0
 40
9.5
  0
ARC
  5
127CE
100
AcDbEntity
  8
0
100
AcDbCircle
 10
1615.018155
 20
903.538404
 30
0.0
 40
62.442478
100
AcDbArc
 50
177.04046
 51
194.873714
  0
LINE
  5
127CF
100
AcDbEntity
  8
0
100
AcDbLine
 10
1558.655405
 20
882.538404
 30
0.0
 11
1564.450423
 21
882.538404
 31
0.0
  0
ARC
  5
127D0
100
AcDbEntity
  8
0
100
AcDbCircle
 10
1558.655405
 20
879.538404
 30
0.0
 40
3.0
100
AcDbArc
 50
90.0
 51
180.0
  0
LINE
  5
127D1
100
AcDbEntity
  8
0
100
AcDbLine
 10
1562.450423
 20
882.709977
 30
0.0
 11
1562.450423
 21
879.538404
 31
0.0
  0
LINE
  5
127D2
100
AcDbEntity
  8
0
100
AcDbLine
 10
1564.807316
 20
867.75394
 30
0.0
 11
1562.450423
 21
879.538404
 31
0.0
  0
LINE
  5
127D3
100
AcDbEntity
  8
0
100
AcDbLine
 10
1584.138423
 20
868.538404
 30
0.0
 11
1575.762423
 21
868.538404
 31
0.0
  0
LINE
  5
127D4
100
AcDbEntity
  8
0
100
AcDbLine
 10
1575.762423
 20
868.538404
 30
0.0
 11
1574.950423
 21
867.726404
 31
0.0
  0
LINE
  5
127D5
100
AcDbEntity
  8
0
100
AcDbLine
 10
1584.950423
 20
867.726404
 30
0.0
 11
1584.138423
 21
868.538404
 31
0.0
  0
LINE
  5
127D6
100
AcDbEntity
  8
0
100
AcDbLine
 10
1546.200423
 20
867.726404
 30
0.0
 11
1545.388423
 21
868.538404
 31
0.0
  0
LINE
  5
127D7
100
AcDbEntity
  8
0
100
AcDbLine
 10
1537.012423
 20
868.538404
 30
0.0
 11
1536.200423
 21
867.726404
 31
0.0
  0
LINE
  5
127D8
100
AcDbEntity
  8
0
100
AcDbLine
 10
1545.388423
 20
868.538404
 30
0.0
 11
1537.012423
 21
868.538404
 31
0.0
  0
CIRCLE
  5
127D9
100
AcDbEntity
  8
0
100
AcDbCircle
 10
1539.573529
 20
992.66151
 30
0.0
 40
9.5
  0
LINE
  5
127DA
100
AcDbEntity
  8
0
100
AcDbLine
 10
1432.450423
 20
898.538404
 30
0.0
 11
1432.450423
 21
936.538404
 31
0.0
  0
ARC
  5
127DB
100
AcDbEntity
  8
0
100
AcDbCircle
 10
1391.456873
 20
917.538404
 30
0.0
 40
54.081337
100
AcDbArc
 50
342.360504
 51
357.176982
  0
ARC
  5
127DC
100
AcDbEntity
  8
0
100
AcDbCircle
 10
1439.450423
 20
895.538404
 30
0.0
 40
3.0
100
AcDbArc
 50
0.0
 51
90.0
  0
LINE
  5
127DD
100
AcDbEntity
  8
0
100
AcDbLine
 10
1442.450423
 20
895.538404
 30
0.0
 11
1442.450423
 21
879.538404
 31
0.0
  0
LINE
  5
127DE
100
AcDbEntity
  8
0
100
AcDbLine
 10
1432.450423
 20
898.538404
 30
0.0
 11
1439.450423
 21
898.538404
 31
0.0
  0
LINE
  5
127DF
100
AcDbEntity
  8
0
100
AcDbLine
 10
1442.450423
 20
879.538404
 30
0.0
 11
1440.128928
 21
867.93093
 31
0.0
  0
LINE
  5
127E0
100
AcDbEntity
  8
0
100
AcDbLine
 10
1459.512423
 20
868.538404
 30
0.0
 11
1467.888423
 21
868.538404
 31
0.0
  0
LINE
  5
127E1
100
AcDbEntity
  8
0
100
AcDbLine
 10
1467.888423
 20
868.538404
 30
0.0
 11
1468.700423
 21
867.726404
 31
0.0
  0
LINE
  5
127E2
100
AcDbEntity
  8
0
100
AcDbLine
 10
1458.700423
 20
867.726404
 30
0.0
 11
1459.512423
 21
868.538404
 31
0.0
  0
LINE
  5
127E3
100
AcDbEntity
  8
0
100
AcDbLine
 10
1419.950423
 20
867.726404
 30
0.0
 11
1420.762423
 21
868.538404
 31
0.0
  0
LINE
  5
127E4
100
AcDbEntity
  8
0
100
AcDbLine
 10
1429.138423
 20
868.538404
 30
0.0
 11
1429.950423
 21
867.726404
 31
0.0
  0
LINE
  5
127E5
100
AcDbEntity
  8
0
100
AcDbLine
 10
1420.762423
 20
868.538404
 30
0.0
 11
1429.138423
 21
868.538404
 31
0.0
  0
LINE
  5
127E6
100
AcDbEntity
  8
0
100
AcDbLine
 10
1432.450423
 20
936.538404
 30
0.0
 11
1435.078322
 21
936.538404
 31
0.0
  0
CIRCLE
  5
127E7
100
AcDbEntity
  8
0
100
AcDbCircle
 10
1502.450423
 20
955.538404
 30
0.0
 40
70.0
  0
LINE
  5
127E8
100
AcDbEntity
  8
0
100
AcDbLine
 10
1496.450423
 20
1038.538404
 30
0.0
 11
1496.450423
 21
1025.280787
 31
0.0
  0
LINE
  5
127E9
100
AcDbEntity
  8
0
100
AcDbLine
 10
1496.450423
 20
1038.538404
 30
0.0
 11
1508.450423
 21
1038.538404
 31
0.0
  0
LINE
  5
127EA
100
AcDbEntity
  8
0
100
AcDbLine
 10
1508.450423
 20
1038.538404
 30
0.0
 11
1508.450423
 21
1025.280787
 31
0.0
  0
LINE
  5
127EC
100
AcDbEntity
  8
0
100
AcDbLine
 10
980.118321
 20
1418.850141
 30
0.0
 11
980.118321
 21
1348.850141
 31
0.0
  0
LINE
  5
127ED
100
AcDbEntity
  8
0
100
AcDbLine
 10
998.118321
 20
1418.850141
 30
0.0
 11
998.118321
 21
1278.850141
 31
0.0
  0
LINE
  5
127EE
100
AcDbEntity
  8
0
100
AcDbLine
 10
980.118321
 20
1348.850141
 30
0.0
 11
980.118321
 21
1278.850141
 31
0.0
  0
LINE
  5
127EF
100
AcDbEntity
  8
0
100
AcDbLine
 10
980.118321
 20
1278.850141
 30
0.0
 11
998.118321
 21
1278.850141
 31
0.0
  0
LINE
  5
127F0
100
AcDbEntity
  8
0
100
AcDbLine
 10
998.118321
 20
1319.850141
 30
0.0
 11
998.118321
 21
1322.850141
 31
0.0
  0
LINE
  5
127F1
100
AcDbEntity
  8
0
100
AcDbLine
 10
998.118321
 20
1377.850141
 30
0.0
 11
998.118321
 21
1374.850141
 31
0.0
  0
LINE
  5
127F2
100
AcDbEntity
  8
0
100
AcDbLine
 10
980.118321
 20
1418.850141
 30
0.0
 11
998.118321
 21
1418.850141
 31
0.0
  0
LINE
  5
127F3
100
AcDbEntity
  8
0
100
AcDbLine
 10
1255.118321
 20
1418.850141
 30
0.0
 11
1255.118321
 21
1348.850141
 31
0.0
  0
LINE
  5
127F4
100
AcDbEntity
  8
0
100
AcDbLine
 10
1237.118321
 20
1418.850141
 30
0.0
 11
1237.118321
 21
1278.850141
 31
0.0
  0
LINE
  5
127F5
100
AcDbEntity
  8
0
100
AcDbLine
 10
1255.118321
 20
1348.850141
 30
0.0
 11
1255.118321
 21
1278.850141
 31
0.0
  0
LINE
  5
127F6
100
AcDbEntity
  8
0
100
AcDbLine
 10
1255.118321
 20
1278.850141
 30
0.0
 11
1237.118321
 21
1278.850141
 31
0.0
  0
LINE
  5
127F7
100
AcDbEntity
  8
0
100
AcDbLine
 10
1237.118321
 20
1319.850141
 30
0.0
 11
1237.118321
 21
1322.850141
 31
0.0
  0
LINE
  5
127F8
100
AcDbEntity
  8
0
100
AcDbLine
 10
1237.118321
 20
1377.850141
 30
0.0
 11
1237.118321
 21
1374.850141
 31
0.0
  0
LINE
  5
127F9
100
AcDbEntity
  8
0
100
AcDbLine
 10
1255.118321
 20
1418.850141
 30
0.0
 11
1237.118321
 21
1418.850141
 31
0.0
  0
LINE
  5
12896
100
AcDbEntity
  8
0
100
AcDbLine
 10
980.118321
 20
2049.780361
 30
0.0
 11
980.118321
 21
1979.780361
 31
0.0
  0
LINE
  5
1289A
100
AcDbEntity
  8
0
100
AcDbLine
 10
980.118321
 20
1979.780361
 30
0.0
 11
980.118321
 21
1909.780361
 31
0.0
  0
LINE
  5
1289C
100
AcDbEntity
  8
0
100
AcDbLine
 10
980.118321
 20
1909.780361
 30
0.0
 11
998.118321
 21
1909.780361
 31
0.0
  0
LINE
  5
128B7
100
AcDbEntity
  8
0
100
AcDbLine
 10
980.118321
 20
2049.780361
 30
0.0
 11
998.118321
 21
2049.780361
 31
0.0
  0
LINE
  5
128C0
100
AcDbEntity
  8
0
100
AcDbLine
 10
1255.118321
 20
2049.780361
 30
0.0
 11
1255.118321
 21
1979.780361
 31
0.0
  0
LINE
  5
128C2
100
AcDbEntity
  8
0
100
AcDbLine
 10
1255.118321
 20
1979.780361
 30
0.0
 11
1255.118321
 21
1909.780361
 31
0.0
  0
LINE
  5
128C3
100
AcDbEntity
  8
0
100
AcDbLine
 10
1255.118321
 20
1909.780361
 30
0.0
 11
1237.118321
 21
1909.780361
 31
0.0
  0
LINE
  5
128C9
100
AcDbEntity
  8
0
100
AcDbLine
 10
1255.118321
 20
2049.780361
 30
0.0
 11
1237.118321
 21
2049.780361
 31
0.0
  0
CIRCLE
  5
128CA
100
AcDbEntity
  8
0
100
AcDbCircle
 10
2107.551273
 20
955.538404
 30
0.0
 40
77.5
  0
CIRCLE
  5
128CB
100
AcDbEntity
  8
0
100
AcDbCircle
 10
2084.590267
 20
900.105632
 30
0.0
 40
9.5
  0
CIRCLE
  5
128D5
100
AcDbEntity
  8
0
100
AcDbCircle
 10
2052.118501
 20
932.577398
 30
0.0
 40
9.5
  0
CIRCLE
  5
128D7
100
AcDbEntity
  8
0
100
AcDbCircle
 10
2130.512279
 20
900.105632
 30
0.0
 40
9.5
  0
CIRCLE
  5
128DC
100
AcDbEntity
  8
0
100
AcDbCircle
 10
2162.984045
 20
932.577398
 30
0.0
 40
9.5
  0
CIRCLE
  5
128DD
100
AcDbEntity
  8
0
100
AcDbCircle
 10
2084.590267
 20
1010.971176
 30
0.0
 40
9.5
  0
CIRCLE
  5
128DE
100
AcDbEntity
  8
0
100
AcDbCircle
 10
2052.118501
 20
978.49941
 30
0.0
 40
9.5
  0
CIRCLE
  5
128DF
100
AcDbEntity
  8
0
100
AcDbCircle
 10
2130.512279
 20
1010.971176
 30
0.0
 40
9.5
  0
CIRCLE
  5
128E0
100
AcDbEntity
  8
0
100
AcDbCircle
 10
2162.984045
 20
978.49941
 30
0.0
 40
9.5
  0
LINE
  5
128E1
100
AcDbEntity
  8
0
100
AcDbLine
 10
2425.911628
 20
878.038404
 30
0.0
 11
2425.911628
 21
955.538404
 31
0.0
  0
LINE
  5
128E2
100
AcDbEntity
  8
0
100
AcDbLine
 10
2425.911628
 20
1033.038404
 30
0.0
 11
2443.911628
 21
1033.038404
 31
0.0
  0
LINE
  5
128E3
100
AcDbEntity
  8
0
100
AcDbLine
 10
2425.911628
 20
878.038404
 30
0.0
 11
2443.911628
 21
878.038404
 31
0.0
  0
LINE
  5
128E4
100
AcDbEntity
  8
0
100
AcDbLine
 10
2727.911628
 20
1033.038404
 30
0.0
 11
2727.911628
 21
878.038404
 31
0.0
  0
LINE
  5
128E5
100
AcDbEntity
  8
0
100
AcDbLine
 10
2745.911628
 20
1033.038404
 30
0.0
 11
2745.911628
 21
955.538404
 31
0.0
  0
LINE
  5
128E6
100
AcDbEntity
  8
0
100
AcDbLine
 10
2745.911628
 20
878.038404
 30
0.0
 11
2745.911628
 21
955.538404
 31
0.0
  0
LINE
  5
128E7
100
AcDbEntity
  8
0
100
AcDbLine
 10
2745.911628
 20
878.038404
 30
0.0
 11
2727.911628
 21
878.038404
 31
0.0
  0
LINE
  5
128E8
100
AcDbEntity
  8
0
100
AcDbLine
 10
2745.911628
 20
1033.038404
 30
0.0
 11
2727.911628
 21
1033.038404
 31
0.0
  0
LINE
  5
128E9
100
AcDbEntity
  8
0
100
AcDbLine
 10
1992.551273
 20
830.538404
 30
0.0
 11
2222.551273
 21
830.538404
 31
0.0
  0
LINE
  5
128EA
100
AcDbEntity
  8
0
100
AcDbLine
 10
1992.551273
 20
809.538404
 30
0.0
 11
2222.551273
 21
809.538404
 31
0.0
  0
LINE
  5
128EB
100
AcDbEntity
  8
0
100
AcDbLine
 10
1992.551273
 20
851.538404
 30
0.0
 11
2222.551273
 21
851.538404
 31
0.0
  0
LINE
  5
128EC
100
AcDbEntity
  8
0
100
AcDbLine
 10
1992.551273
 20
851.538404
 30
0.0
 11
1992.551273
 21
809.538404
 31
0.0
  0
LINE
  5
128ED
100
AcDbEntity
  8
0
100
AcDbLine
 10
2222.551273
 20
851.538404
 30
0.0
 11
2222.551273
 21
809.538404
 31
0.0
  0
LINE
  5
128EE
100
AcDbEntity
  8
0
100
AcDbLine
 10
2181.551273
 20
789.538404
 30
0.0
 11
2181.551273
 21
726.538404
 31
0.0
  0
LINE
  5
128EF
100
AcDbEntity
  8
0
100
AcDbLine
 10
2033.551273
 20
789.538404
 30
0.0
 11
2033.551273
 21
726.538404
 31
0.0
  0
LINE
  5
128F0
100
AcDbEntity
  8
0
100
AcDbLine
 10
2029.551273
 20
809.538404
 30
0.0
 11
2033.551273
 21
789.538404
 31
0.0
  0
LINE
  5
128F1
100
AcDbEntity
  8
0
100
AcDbLine
 10
2185.551273
 20
809.538404
 30
0.0
 11
2181.551273
 21
789.538404
 31
0.0
  0
LINE
  5
128F2
100
AcDbEntity
  8
0
100
AcDbLine
 10
2184.900633
 20
709.791606
 30
0.0
 11
2181.551273
 21
726.538404
 31
0.0
  0
LINE
  5
128F3
100
AcDbEntity
  8
0
100
AcDbLine
 10
2030.201914
 20
709.791606
 30
0.0
 11
2033.551273
 21
726.538404
 31
0.0
  0
LINE
  5
128F4
100
AcDbEntity
  8
0
100
AcDbLine
 10
2001.551273
 20
706.538404
 30
0.0
 11
2001.551273
 21
664.538404
 31
0.0
  0
LINE
  5
128F5
100
AcDbEntity
  8
0
100
AcDbLine
 10
2001.551273
 20
664.538404
 30
0.0
 11
2213.551273
 21
664.538404
 31
0.0
  0
LINE
  5
128F6
100
AcDbEntity
  8
0
100
AcDbLine
 10
2001.551273
 20
685.538404
 30
0.0
 11
2213.551273
 21
685.538404
 31
0.0
  0
LINE
  5
128F7
100
AcDbEntity
  8
0
100
AcDbLine
 10
2001.551273
 20
706.538404
 30
0.0
 11
2213.551273
 21
706.538404
 31
0.0
  0
LINE
  5
128F8
100
AcDbEntity
  8
0
100
AcDbLine
 10
2213.551273
 20
706.538404
 30
0.0
 11
2213.551273
 21
664.538404
 31
0.0
  0
LINE
  5
12904
100
AcDbEntity
  8
0
100
AcDbLine
 10
2076.239639
 20
851.538404
 30
0.0
 11
2076.239639
 21
854.591404
 31
0.0
  0
LINE
  5
12905
100
AcDbEntity
  8
0
100
AcDbLine
 10
2076.239639
 20
854.591404
 30
0.0
 11
2075.292639
 21
855.538404
 31
0.0
  0
LINE
  5
12906
100
AcDbEntity
  8
0
100
AcDbLine
 10
2065.186639
 20
855.538404
 30
0.0
 11
2064.239639
 21
854.591404
 31
0.0
  0
LINE
  5
12907
100
AcDbEntity
  8
0
100
AcDbLine
 10
2064.239639
 20
854.591404
 30
0.0
 11
2064.239639
 21
851.538404
 31
0.0
  0
LINE
  5
12908
100
AcDbEntity
  8
0
100
AcDbLine
 10
2075.292639
 20
855.538404
 30
0.0
 11
2065.186639
 21
855.538404
 31
0.0
  0
LINE
  5
12919
100
AcDbEntity
  8
0
100
AcDbLine
 10
2082.609764
 20
656.538404
 30
0.0
 11
2063.609764
 21
656.538404
 31
0.0
  0
LINE
  5
12928
100
AcDbEntity
  8
0
100
AcDbLine
 10
2078.162764
 20
710.538404
 30
0.0
 11
2079.109764
 21
709.591404
 31
0.0
  0
LINE
  5
12929
100
AcDbEntity
  8
0
100
AcDbLine
 10
2079.109764
 20
709.591404
 30
0.0
 11
2079.109764
 21
706.538404
 31
0.0
  0
LINE
  5
1292A
100
AcDbEntity
  8
0
100
AcDbLine
 10
2068.056764
 20
710.538404
 30
0.0
 11
2078.162764
 21
710.538404
 31
0.0
  0
LINE
  5
1292B
100
AcDbEntity
  8
0
100
AcDbLine
 10
2067.109764
 20
709.591404
 30
0.0
 11
2067.109764
 21
706.538404
 31
0.0
  0
LINE
  5
1292C
100
AcDbEntity
  8
0
100
AcDbLine
 10
2067.109764
 20
709.591404
 30
0.0
 11
2068.056764
 21
710.538404
 31
0.0
  0
LINE
  5
1292D
100
AcDbEntity
  8
0
100
AcDbLine
 10
2073.109764
 20
664.538404
 30
0.0
 11
2073.109764
 21
657.548404
 31
0.0
  0
LINE
  5
1293C
100
AcDbEntity
  8
0
100
AcDbLine
 10
2063.609764
 20
664.538404
 30
0.0
 11
2063.609764
 21
656.538404
 31
0.0
  0
ARC
  5
1293E
100
AcDbEntity
  8
0
100
AcDbCircle
 10
2068.359764
 20
668.212959
 30
0.0
 40
11.674554
100
AcDbArc
 50
245.991775
 51
294.008225
  0
ARC
  5
1293F
100
AcDbEntity
  8
0
100
AcDbCircle
 10
2077.859764
 20
668.212959
 30
0.0
 40
11.674554
100
AcDbArc
 50
245.991775
 51
294.008225
  0
LINE
  5
12940
100
AcDbEntity
  8
0
100
AcDbLine
 10
2082.609764
 20
664.538404
 30
0.0
 11
2082.609764
 21
656.538404
 31
0.0
  0
LINE
  5
12942
100
AcDbEntity
  8
0
100
AcDbLine
 10
2022.526019
 20
855.538404
 30
0.0
 11
2012.420019
 21
855.538404
 31
0.0
  0
LINE
  5
12943
100
AcDbEntity
  8
0
100
AcDbLine
 10
2011.473019
 20
854.591404
 30
0.0
 11
2011.473019
 21
851.538404
 31
0.0
  0
LINE
  5
12944
100
AcDbEntity
  8
0
100
AcDbLine
 10
2012.420019
 20
855.538404
 30
0.0
 11
2011.473019
 21
854.591404
 31
0.0
  0
LINE
  5
12945
100
AcDbEntity
  8
0
100
AcDbLine
 10
2023.473019
 20
854.591404
 30
0.0
 11
2022.526019
 21
855.538404
 31
0.0
  0
LINE
  5
12946
100
AcDbEntity
  8
0
100
AcDbLine
 10
2023.473019
 20
851.538404
 30
0.0
 11
2023.473019
 21
854.591404
 31
0.0
  0
LINE
  5
12947
100
AcDbEntity
  8
0
100
AcDbLine
 10
2029.455115
 20
710.538404
 30
0.0
 11
2030.402115
 21
709.591404
 31
0.0
  0
LINE
  5
12948
100
AcDbEntity
  8
0
100
AcDbLine
 10
2030.402115
 20
709.591404
 30
0.0
 11
2030.402115
 21
706.538404
 31
0.0
  0
LINE
  5
12949
100
AcDbEntity
  8
0
100
AcDbLine
 10
2019.349115
 20
710.538404
 30
0.0
 11
2029.455115
 21
710.538404
 31
0.0
  0
LINE
  5
1294A
100
AcDbEntity
  8
0
100
AcDbLine
 10
2018.402115
 20
709.591404
 30
0.0
 11
2018.402115
 21
706.538404
 31
0.0
  0
LINE
  5
1294B
100
AcDbEntity
  8
0
100
AcDbLine
 10
2018.402115
 20
709.591404
 30
0.0
 11
2019.349115
 21
710.538404
 31
0.0
  0
LINE
  5
1294C
100
AcDbEntity
  8
0
100
AcDbLine
 10
2024.402115
 20
664.538404
 30
0.0
 11
2024.402115
 21
657.548404
 31
0.0
  0
LINE
  5
1294D
100
AcDbEntity
  8
0
100
AcDbLine
 10
2033.902115
 20
664.538404
 30
0.0
 11
2033.902115
 21
656.538404
 31
0.0
  0
LINE
  5
1294E
100
AcDbEntity
  8
0
100
AcDbLine
 10
2033.902115
 20
656.538404
 30
0.0
 11
2014.902115
 21
656.538404
 31
0.0
  0
ARC
  5
1294F
100
AcDbEntity
  8
0
100
AcDbCircle
 10
2029.152115
 20
668.212959
 30
0.0
 40
11.674554
100
AcDbArc
 50
245.991775
 51
294.008225
  0
LINE
  5
12950
100
AcDbEntity
  8
0
100
AcDbLine
 10
2014.902115
 20
664.538404
 30
0.0
 11
2014.902115
 21
656.538404
 31
0.0
  0
ARC
  5
12951
100
AcDbEntity
  8
0
100
AcDbCircle
 10
2019.652115
 20
668.212959
 30
0.0
 40
11.674554
100
AcDbArc
 50
245.991775
 51
294.008225
  0
LINE
  5
12966
100
AcDbEntity
  8
0
100
AcDbLine
 10
2070.239639
 20
809.538404
 30
0.0
 11
2070.239639
 21
802.548404
 31
0.0
  0
LINE
  5
12967
100
AcDbEntity
  8
0
100
AcDbLine
 10
2079.739639
 20
809.538404
 30
0.0
 11
2079.739639
 21
801.538404
 31
0.0
  0
LINE
  5
12968
100
AcDbEntity
  8
0
100
AcDbLine
 10
2079.739639
 20
801.538404
 30
0.0
 11
2060.739639
 21
801.538404
 31
0.0
  0
ARC
  5
12969
100
AcDbEntity
  8
0
100
AcDbCircle
 10
2074.989639
 20
813.212959
 30
0.0
 40
11.674554
100
AcDbArc
 50
245.991775
 51
294.008225
  0
LINE
  5
1296A
100
AcDbEntity
  8
0
100
AcDbLine
 10
2060.739639
 20
809.538404
 30
0.0
 11
2060.739639
 21
801.538404
 31
0.0
  0
ARC
  5
1296B
100
AcDbEntity
  8
0
100
AcDbCircle
 10
2065.489639
 20
813.212959
 30
0.0
 40
11.674554
100
AcDbArc
 50
245.991775
 51
294.008225
  0
ARC
  5
1296C
100
AcDbEntity
  8
0
100
AcDbCircle
 10
2012.723019
 20
813.212959
 30
0.0
 40
11.674554
100
AcDbArc
 50
245.991775
 51
294.008225
  0
LINE
  5
1296D
100
AcDbEntity
  8
0
100
AcDbLine
 10
2007.973019
 20
809.538404
 30
0.0
 11
2007.973019
 21
801.538404
 31
0.0
  0
ARC
  5
1296E
100
AcDbEntity
  8
0
100
AcDbCircle
 10
2022.223019
 20
813.212959
 30
0.0
 40
11.674554
100
AcDbArc
 50
245.991775
 51
294.008225
  0
LINE
  5
1296F
100
AcDbEntity
  8
0
100
AcDbLine
 10
2026.973019
 20
801.538404
 30
0.0
 11
2007.973019
 21
801.538404
 31
0.0
  0
LINE
  5
12970
100
AcDbEntity
  8
0
100
AcDbLine
 10
2026.973019
 20
809.538404
 30
0.0
 11
2026.973019
 21
801.538404
 31
0.0
  0
LINE
  5
12971
100
AcDbEntity
  8
0
100
AcDbLine
 10
2017.473019
 20
809.538404
 30
0.0
 11
2017.473019
 21
802.548404
 31
0.0
  0
LINE
  5
12972
100
AcDbEntity
  8
0
100
AcDbLine
 10
2197.629528
 20
809.538404
 30
0.0
 11
2197.629528
 21
802.548404
 31
0.0
  0
LINE
  5
12973
100
AcDbEntity
  8
0
100
AcDbLine
 10
2188.129528
 20
809.538404
 30
0.0
 11
2188.129528
 21
801.538404
 31
0.0
  0
LINE
  5
12974
100
AcDbEntity
  8
0
100
AcDbLine
 10
2188.129528
 20
801.538404
 30
0.0
 11
2207.129528
 21
801.538404
 31
0.0
  0
ARC
  5
12975
100
AcDbEntity
  8
0
100
AcDbCircle
 10
2192.879528
 20
813.212959
 30
0.0
 40
11.674554
100
AcDbArc
 50
245.991775
 51
294.008225
  0
LINE
  5
12976
100
AcDbEntity
  8
0
100
AcDbLine
 10
2207.129528
 20
809.538404
 30
0.0
 11
2207.129528
 21
801.538404
 31
0.0
  0
ARC
  5
12977
100
AcDbEntity
  8
0
100
AcDbCircle
 10
2202.379528
 20
813.212959
 30
0.0
 40
11.674554
100
AcDbArc
 50
245.991775
 51
294.008225
  0
LINE
  5
1297D
100
AcDbEntity
  8
0
100
AcDbLine
 10
2191.629528
 20
851.538404
 30
0.0
 11
2191.629528
 21
854.591404
 31
0.0
  0
LINE
  5
1297E
100
AcDbEntity
  8
0
100
AcDbLine
 10
2191.629528
 20
854.591404
 30
0.0
 11
2192.576528
 21
855.538404
 31
0.0
  0
LINE
  5
1297F
100
AcDbEntity
  8
0
100
AcDbLine
 10
2202.682528
 20
855.538404
 30
0.0
 11
2203.629528
 21
854.591404
 31
0.0
  0
LINE
  5
12980
100
AcDbEntity
  8
0
100
AcDbLine
 10
2203.629528
 20
854.591404
 30
0.0
 11
2203.629528
 21
851.538404
 31
0.0
  0
LINE
  5
12981
100
AcDbEntity
  8
0
100
AcDbLine
 10
2192.576528
 20
855.538404
 30
0.0
 11
2202.682528
 21
855.538404
 31
0.0
  0
ARC
  5
12982
100
AcDbEntity
  8
0
100
AcDbCircle
 10
2149.612908
 20
813.212959
 30
0.0
 40
11.674554
100
AcDbArc
 50
245.991775
 51
294.008225
  0
LINE
  5
12983
100
AcDbEntity
  8
0
100
AcDbLine
 10
2154.362908
 20
809.538404
 30
0.0
 11
2154.362908
 21
801.538404
 31
0.0
  0
ARC
  5
12984
100
AcDbEntity
  8
0
100
AcDbCircle
 10
2140.112908
 20
813.212959
 30
0.0
 40
11.674554
100
AcDbArc
 50
245.991775
 51
294.008225
  0
LINE
  5
12985
100
AcDbEntity
  8
0
100
AcDbLine
 10
2135.362908
 20
801.538404
 30
0.0
 11
2154.362908
 21
801.538404
 31
0.0
  0
LINE
  5
12986
100
AcDbEntity
  8
0
100
AcDbLine
 10
2135.362908
 20
809.538404
 30
0.0
 11
2135.362908
 21
801.538404
 31
0.0
  0
LINE
  5
12987
100
AcDbEntity
  8
0
100
AcDbLine
 10
2144.862908
 20
809.538404
 30
0.0
 11
2144.862908
 21
802.548404
 31
0.0
  0
LINE
  5
1298D
100
AcDbEntity
  8
0
100
AcDbLine
 10
2139.809908
 20
855.538404
 30
0.0
 11
2149.915908
 21
855.538404
 31
0.0
  0
LINE
  5
1298E
100
AcDbEntity
  8
0
100
AcDbLine
 10
2150.862908
 20
854.591404
 30
0.0
 11
2150.862908
 21
851.538404
 31
0.0
  0
LINE
  5
1298F
100
AcDbEntity
  8
0
100
AcDbLine
 10
2149.915908
 20
855.538404
 30
0.0
 11
2150.862908
 21
854.591404
 31
0.0
  0
LINE
  5
12990
100
AcDbEntity
  8
0
100
AcDbLine
 10
2138.862908
 20
854.591404
 30
0.0
 11
2139.809908
 21
855.538404
 31
0.0
  0
LINE
  5
12991
100
AcDbEntity
  8
0
100
AcDbLine
 10
2138.862908
 20
851.538404
 30
0.0
 11
2138.862908
 21
854.591404
 31
0.0
  0
LINE
  5
12992
100
AcDbEntity
  8
0
100
AcDbLine
 10
2141.992782
 20
664.538404
 30
0.0
 11
2141.992782
 21
657.548404
 31
0.0
  0
LINE
  5
12993
100
AcDbEntity
  8
0
100
AcDbLine
 10
2132.492782
 20
664.538404
 30
0.0
 11
2132.492782
 21
656.538404
 31
0.0
  0
LINE
  5
12994
100
AcDbEntity
  8
0
100
AcDbLine
 10
2132.492782
 20
656.538404
 30
0.0
 11
2151.492782
 21
656.538404
 31
0.0
  0
ARC
  5
12995
100
AcDbEntity
  8
0
100
AcDbCircle
 10
2137.242782
 20
668.212959
 30
0.0
 40
11.674554
100
AcDbArc
 50
245.991775
 51
294.008225
  0
LINE
  5
12996
100
AcDbEntity
  8
0
100
AcDbLine
 10
2151.492782
 20
664.538404
 30
0.0
 11
2151.492782
 21
656.538404
 31
0.0
  0
ARC
  5
12997
100
AcDbEntity
  8
0
100
AcDbCircle
 10
2146.742782
 20
668.212959
 30
0.0
 40
11.674554
100
AcDbArc
 50
245.991775
 51
294.008225
  0
LINE
  5
1299D
100
AcDbEntity
  8
0
100
AcDbLine
 10
2147.992782
 20
709.591404
 30
0.0
 11
2147.045782
 21
710.538404
 31
0.0
  0
LINE
  5
1299E
100
AcDbEntity
  8
0
100
AcDbLine
 10
2147.992782
 20
709.591404
 30
0.0
 11
2147.992782
 21
706.538404
 31
0.0
  0
LINE
  5
1299F
100
AcDbEntity
  8
0
100
AcDbLine
 10
2147.045782
 20
710.538404
 30
0.0
 11
2136.939782
 21
710.538404
 31
0.0
  0
LINE
  5
129A0
100
AcDbEntity
  8
0
100
AcDbLine
 10
2135.992782
 20
709.591404
 30
0.0
 11
2135.992782
 21
706.538404
 31
0.0
  0
LINE
  5
129A1
100
AcDbEntity
  8
0
100
AcDbLine
 10
2136.939782
 20
710.538404
 30
0.0
 11
2135.992782
 21
709.591404
 31
0.0
  0
ARC
  5
129A2
100
AcDbEntity
  8
0
100
AcDbCircle
 10
2185.950431
 20
668.212959
 30
0.0
 40
11.674554
100
AcDbArc
 50
245.991775
 51
294.008225
  0
LINE
  5
129A3
100
AcDbEntity
  8
0
100
AcDbLine
 10
2181.200431
 20
656.538404
 30
0.0
 11
2200.200431
 21
656.538404
 31
0.0
  0
ARC
  5
129A9
100
AcDbEntity
  8
0
100
AcDbCircle
 10
2195.450431
 20
668.212959
 30
0.0
 40
11.674554
100
AcDbArc
 50
245.991775
 51
294.008225
  0
LINE
  5
129AA
100
AcDbEntity
  8
0
100
AcDbLine
 10
2200.200431
 20
664.538404
 30
0.0
 11
2200.200431
 21
656.538404
 31
0.0
  0
LINE
  5
129AB
100
AcDbEntity
  8
0
100
AcDbLine
 10
2190.700431
 20
664.538404
 30
0.0
 11
2190.700431
 21
657.548404
 31
0.0
  0
LINE
  5
129AC
100
AcDbEntity
  8
0
100
AcDbLine
 10
2181.200431
 20
664.538404
 30
0.0
 11
2181.200431
 21
656.538404
 31
0.0
  0
LINE
  5
129AD
100
AcDbEntity
  8
0
100
AcDbLine
 10
2196.700431
 20
709.591404
 30
0.0
 11
2195.753431
 21
710.538404
 31
0.0
  0
LINE
  5
129AE
100
AcDbEntity
  8
0
100
AcDbLine
 10
2196.700431
 20
709.591404
 30
0.0
 11
2196.700431
 21
706.538404
 31
0.0
  0
LINE
  5
129AF
100
AcDbEntity
  8
0
100
AcDbLine
 10
2195.753431
 20
710.538404
 30
0.0
 11
2185.647431
 21
710.538404
 31
0.0
  0
LINE
  5
129B0
100
AcDbEntity
  8
0
100
AcDbLine
 10
2184.700431
 20
709.591404
 30
0.0
 11
2184.700431
 21
706.538404
 31
0.0
  0
LINE
  5
129B1
100
AcDbEntity
  8
0
100
AcDbLine
 10
2185.647431
 20
710.538404
 30
0.0
 11
2184.700431
 21
709.591404
 31
0.0
  0
LINE
  5
129B2
100
AcDbEntity
  8
0
100
AcDbLine
 10
2030.551273
 20
871.538404
 30
0.0
 11
2027.19438
 21
854.75394
 31
0.0
  0
LINE
  5
129B3
100
AcDbEntity
  8
0
100
AcDbLine
 10
2184.551273
 20
871.538404
 30
0.0
 11
2187.908166
 21
854.75394
 31
0.0
  0
LINE
  5
129B4
100
AcDbEntity
  8
0
100
AcDbLine
 10
2184.551273
 20
888.538404
 30
0.0
 11
2184.551273
 21
871.538404
 31
0.0
  0
LINE
  5
129B5
100
AcDbEntity
  8
0
100
AcDbLine
 10
2030.551273
 20
942.538404
 30
0.0
 11
2030.551273
 21
917.538404
 31
0.0
  0
LINE
  5
129B6
100
AcDbEntity
  8
0
100
AcDbLine
 10
2101.551273
 20
1053.538225
 30
0.0
 11
2101.551273
 21
1032.805797
 31
0.0
  0
LINE
  5
129B8
100
AcDbEntity
  8
0
100
AcDbLine
 10
2113.551273
 20
1053.538225
 30
0.0
 11
2113.551273
 21
1032.805797
 31
0.0
  0
LINE
  5
129B9
100
AcDbEntity
  8
0
100
AcDbLine
 10
2113.551273
 20
1053.538225
 30
0.0
 11
2101.551273
 21
1053.538225
 31
0.0
  0
LINE
  5
129BA
100
AcDbEntity
  8
0
100
AcDbLine
 10
2028.551273
 20
915.538404
 30
0.0
 11
2028.551273
 21
877.538404
 31
0.0
  0
LINE
  5
129BF
100
AcDbEntity
  8
0
100
AcDbLine
 10
2192.551273
 20
890.538404
 30
0.0
 11
2192.551273
 21
924.538404
 31
0.0
  0
ARC
  5
129C1
100
AcDbEntity
  8
0
100
AcDbCircle
 10
2190.551273
 20
890.538404
 30
0.0
 40
2.0
100
AcDbArc
 50
270.0
 51
0.0
  0
LINE
  5
129C2
100
AcDbEntity
  8
0
100
AcDbLine
 10
2185.171981
 20
926.538404
 30
0.0
 11
2190.551273
 21
926.538404
 31
0.0
  0
ARC
  5
129C3
100
AcDbEntity
  8
0
100
AcDbCircle
 10
2190.551273
 20
924.538404
 30
0.0
 40
2.0
100
AcDbArc
 50
0.0
 51
90.0
  0
LINE
  5
129C6
100
AcDbEntity
  8
0
100
AcDbLine
 10
2030.551273
 20
917.538404
 30
0.0
 11
2031.201748
 21
917.538404
 31
0.0
  0
ARC
  5
129C8
100
AcDbEntity
  8
0
100
AcDbCircle
 10
2030.551273
 20
877.538404
 30
0.0
 40
2.0
100
AcDbArc
 50
180.0
 51
270.0
  0
ARC
  5
129C9
100
AcDbEntity
  8
0
100
AcDbCircle
 10
2030.551273
 20
915.538404
 30
0.0
 40
2.0
100
AcDbArc
 50
90.0
 51
180.0
  0
ARC
  5
129CB
100
AcDbEntity
  8
0
100
AcDbCircle
 10
2057.551273
 20
942.538404
 30
0.0
 40
27.0
100
AcDbArc
 50
173.791776
 51
180.0
  0
LINE
  5
129CD
100
AcDbEntity
  8
0
100
AcDbLine
 10
2184.551273
 20
942.538404
 30
0.0
 11
2184.551273
 21
926.538404
 31
0.0
  0
ARC
  5
129D2
100
AcDbEntity
  8
0
100
AcDbCircle
 10
2031.201748
 20
920.538404
 30
0.0
 40
3.0
100
AcDbArc
 50
270.0
 51
0.0
  0
ARC
  5
129D3
100
AcDbEntity
  8
0
100
AcDbCircle
 10
2031.201748
 20
872.538404
 30
0.0
 40
3.0
100
AcDbArc
 50
0.0
 51
90.0
  0
LINE
  5
129D4
100
AcDbEntity
  8
0
100
AcDbLine
 10
2030.551273
 20
875.538404
 30
0.0
 11
2031.201748
 21
875.538404
 31
0.0
  0
ARC
  5
129D5
100
AcDbEntity
  8
0
100
AcDbCircle
 10
1981.423692
 20
896.538404
 30
0.0
 40
56.322481
100
AcDbArc
 50
342.428094
 51
17.571906
  0
LINE
  5
129D8
100
AcDbEntity
  8
0
100
AcDbLine
 10
2030.551273
 20
875.538404
 30
0.0
 11
2030.551273
 21
871.538404
 31
0.0
  0
LINE
  5
129DA
100
AcDbEntity
  8
0
100
AcDbLine
 10
2182.171981
 20
929.538404
 30
0.0
 11
2182.171981
 21
930.619096
 31
0.0
  0
ARC
  5
129DB
100
AcDbEntity
  8
0
100
AcDbCircle
 10
2185.171981
 20
929.538404
 30
0.0
 40
3.0
100
AcDbArc
 50
180.0
 51
270.0
  0
ARC
  5
129DC
100
AcDbEntity
  8
0
100
AcDbCircle
 10
2185.171981
 20
885.538404
 30
0.0
 40
3.0
100
AcDbArc
 50
90.0
 51
180.0
  0
LINE
  5
129DD
100
AcDbEntity
  8
0
100
AcDbLine
 10
2185.171981
 20
888.538404
 30
0.0
 11
2190.551273
 21
888.538404
 31
0.0
  0
ARC
  5
129DE
100
AcDbEntity
  8
0
100
AcDbCircle
 10
2407.03552
 20
907.538404
 30
0.0
 40
224.865246
100
AcDbArc
 50
176.047431
 51
183.952569
  0
ARC
  5
129E5
100
AcDbEntity
  8
0
100
AcDbCircle
 10
2057.551273
 20
942.538404
 30
0.0
 40
27.0
100
AcDbArc
 50
173.791776
 51
180.0
  0
ARC
  5
129E6
100
AcDbEntity
  8
0
100
AcDbCircle
 10
2157.551273
 20
942.538404
 30
0.0
 40
27.0
100
AcDbArc
 50
0.0
 51
6.208224
  0
ARC
  5
129E7
100
AcDbEntity
  8
0
100
AcDbCircle
 10
2023.272058
 20
855.538404
 30
0.0
 40
4.0
100
AcDbArc
 50
270.0
 51
348.690068
  0
ARC
  5
129E8
100
AcDbEntity
  8
0
100
AcDbCircle
 10
2191.830489
 20
855.538404
 30
0.0
 40
4.0
100
AcDbArc
 50
191.309932
 51
270.0
  0
ARC
  5
129F9
100
AcDbEntity
  8
0
100
AcDbCircle
 10
2086.693409
 20
656.538404
 30
0.0
 40
10.0
100
AcDbArc
 50
225.0
 51
270.0
  0
LINE
  5
129FA
100
AcDbEntity
  8
0
100
AcDbLine
 10
2086.693409
 20
646.538404
 30
0.0
 11
2128.409138
 21
646.538404
 31
0.0
  0
ARC
  5
129FD
100
AcDbEntity
  8
0
100
AcDbCircle
 10
2128.409138
 20
656.538404
 30
0.0
 40
10.0
100
AcDbArc
 50
270.0
 51
315.0
  0
ARC
  5
12A01
100
AcDbEntity
  8
0
100
AcDbCircle
 10
2090.551273
 20
638.538404
 30
0.0
 40
2.0
100
AcDbArc
 50
180.0
 51
270.0
  0
LINE
  5
12A02
100
AcDbEntity
  8
0
100
AcDbLine
 10
2088.551273
 20
646.538404
 30
0.0
 11
2088.551273
 21
638.538404
 31
0.0
  0
LINE
  5
12A03
100
AcDbEntity
  8
0
100
AcDbLine
 10
2090.551273
 20
636.538404
 30
0.0
 11
2124.551273
 21
636.538404
 31
0.0
  0
ARC
  5
12A04
100
AcDbEntity
  8
0
100
AcDbCircle
 10
2124.551273
 20
638.538404
 30
0.0
 40
2.0
100
AcDbArc
 50
270.0
 51
0.0
  0
LINE
  5
12A05
100
AcDbEntity
  8
0
100
AcDbLine
 10
2126.551273
 20
646.538404
 30
0.0
 11
2126.551273
 21
638.538404
 31
0.0
  0
LINE
  5
12A06
100
AcDbEntity
  8
0
100
AcDbLine
 10
2086.051273
 20
624.538404
 30
0.0
 11
2129.051273
 21
624.538404
 31
0.0
  0
LINE
  5
12A07
100
AcDbEntity
  8
0
100
AcDbLine
 10
2130.051273
 20
625.538404
 30
0.0
 11
2129.051273
 21
624.538404
 31
0.0
  0
LINE
  5
12A08
100
AcDbEntity
  8
0
100
AcDbLine
 10
2130.051273
 20
646.674156
 30
0.0
 11
2130.051273
 21
625.538404
 31
0.0
  0
LINE
  5
12A09
100
AcDbEntity
  8
0
100
AcDbLine
 10
2086.051273
 20
624.538404
 30
0.0
 11
2085.051273
 21
625.538404
 31
0.0
  0
LINE
  5
12A0A
100
AcDbEntity
  8
0
100
AcDbLine
 10
2085.051273
 20
646.674156
 30
0.0
 11
2085.051273
 21
625.538404
 31
0.0
  0
LINE
  5
12A0C
100
AcDbEntity
  8
0
100
AcDbLine
 10
3154.271983
 20
851.538404
 30
0.0
 11
2924.271983
 21
851.538404
 31
0.0
  0
LINE
  5
12A0E
100
AcDbEntity
  8
0
100
AcDbLine
 10
3154.271983
 20
830.538404
 30
0.0
 11
2924.271983
 21
830.538404
 31
0.0
  0
LINE
  5
12A0F
100
AcDbEntity
  8
0
100
AcDbLine
 10
2962.271983
 20
871.538404
 30
0.0
 11
2958.91509
 21
854.75394
 31
0.0
  0
LINE
  5
12A10
100
AcDbEntity
  8
0
100
AcDbLine
 10
3116.271983
 20
871.538404
 30
0.0
 11
3119.628876
 21
854.75394
 31
0.0
  0
LINE
  5
12A11
100
AcDbEntity
  8
0
100
AcDbLine
 10
2933.271983
 20
706.538404
 30
0.0
 11
2933.271983
 21
664.538404
 31
0.0
  0
LINE
  5
12A12
100
AcDbEntity
  8
0
100
AcDbLine
 10
3145.271983
 20
706.538404
 30
0.0
 11
3145.271983
 21
664.538404
 31
0.0
  0
LINE
  5
12A13
100
AcDbEntity
  8
0
100
AcDbLine
 10
3060.771983
 20
624.538404
 30
0.0
 11
3017.771983
 21
624.538404
 31
0.0
  0
LINE
  5
12A16
100
AcDbEntity
  8
0
100
AcDbLine
 10
3145.271983
 20
664.538404
 30
0.0
 11
2933.271983
 21
664.538404
 31
0.0
  0
LINE
  5
12A22
100
AcDbEntity
  8
0
100
AcDbLine
 10
3061.771983
 20
660.538404
 30
0.0
 11
3061.771983
 21
625.538404
 31
0.0
  0
LINE
  5
12A23
100
AcDbEntity
  8
0
100
AcDbLine
 10
3060.771983
 20
624.538404
 30
0.0
 11
3061.771983
 21
625.538404
 31
0.0
  0
LINE
  5
12A33
100
AcDbEntity
  8
0
100
AcDbLine
 10
3016.771983
 20
660.538404
 30
0.0
 11
3016.771983
 21
625.538404
 31
0.0
  0
LINE
  5
12A35
100
AcDbEntity
  8
0
100
AcDbLine
 10
3016.771983
 20
625.538404
 30
0.0
 11
3017.771983
 21
624.538404
 31
0.0
  0
LINE
  5
12A50
100
AcDbEntity
  8
0
100
AcDbLine
 10
3113.271983
 20
789.538404
 30
0.0
 11
3113.271983
 21
726.538404
 31
0.0
  0
LINE
  5
12A51
100
AcDbEntity
  8
0
100
AcDbLine
 10
2965.271983
 20
789.538404
 30
0.0
 11
2965.271983
 21
726.538404
 31
0.0
  0
LINE
  5
12A52
100
AcDbEntity
  8
0
100
AcDbLine
 10
3145.271983
 20
685.538404
 30
0.0
 11
2933.271983
 21
685.538404
 31
0.0
  0
LINE
  5
12A53
100
AcDbEntity
  8
0
100
AcDbLine
 10
3145.271983
 20
706.538404
 30
0.0
 11
2933.271983
 21
706.538404
 31
0.0
  0
LINE
  5
12A54
100
AcDbEntity
  8
0
100
AcDbLine
 10
3116.621343
 20
709.791606
 30
0.0
 11
3113.271983
 21
726.538404
 31
0.0
  0
LINE
  5
12A55
100
AcDbEntity
  8
0
100
AcDbLine
 10
3128.421141
 20
709.591404
 30
0.0
 11
3127.474141
 21
710.538404
 31
0.0
  0
LINE
  5
12A56
100
AcDbEntity
  8
0
100
AcDbLine
 10
3128.421141
 20
709.591404
 30
0.0
 11
3128.421141
 21
706.538404
 31
0.0
  0
LINE
  5
12A57
100
AcDbEntity
  8
0
100
AcDbLine
 10
3127.474141
 20
710.538404
 30
0.0
 11
3117.368141
 21
710.538404
 31
0.0
  0
LINE
  5
12A58
100
AcDbEntity
  8
0
100
AcDbLine
 10
3116.421141
 20
709.591404
 30
0.0
 11
3116.421141
 21
706.538404
 31
0.0
  0
LINE
  5
12A59
100
AcDbEntity
  8
0
100
AcDbLine
 10
3117.368141
 20
710.538404
 30
0.0
 11
3116.421141
 21
709.591404
 31
0.0
  0
LINE
  5
12A5A
100
AcDbEntity
  8
0
100
AcDbLine
 10
3079.713492
 20
709.591404
 30
0.0
 11
3078.766492
 21
710.538404
 31
0.0
  0
LINE
  5
12A5B
100
AcDbEntity
  8
0
100
AcDbLine
 10
3079.713492
 20
709.591404
 30
0.0
 11
3079.713492
 21
706.538404
 31
0.0
  0
LINE
  5
12A5C
100
AcDbEntity
  8
0
100
AcDbLine
 10
3078.766492
 20
710.538404
 30
0.0
 11
3068.660492
 21
710.538404
 31
0.0
  0
LINE
  5
12A5D
100
AcDbEntity
  8
0
100
AcDbLine
 10
3067.713492
 20
709.591404
 30
0.0
 11
3067.713492
 21
706.538404
 31
0.0
  0
LINE
  5
12A5E
100
AcDbEntity
  8
0
100
AcDbLine
 10
3068.660492
 20
710.538404
 30
0.0
 11
3067.713492
 21
709.591404
 31
0.0
  0
LINE
  5
12A5F
100
AcDbEntity
  8
0
100
AcDbLine
 10
2961.922624
 20
709.791606
 30
0.0
 11
2965.271983
 21
726.538404
 31
0.0
  0
LINE
  5
12A60
100
AcDbEntity
  8
0
100
AcDbLine
 10
3009.883474
 20
710.538404
 30
0.0
 11
3010.830474
 21
709.591404
 31
0.0
  0
LINE
  5
12A61
100
AcDbEntity
  8
0
100
AcDbLine
 10
3010.830474
 20
709.591404
 30
0.0
 11
3010.830474
 21
706.538404
 31
0.0
  0
LINE
  5
12A62
100
AcDbEntity
  8
0
100
AcDbLine
 10
2999.777474
 20
710.538404
 30
0.0
 11
3009.883474
 21
710.538404
 31
0.0
  0
LINE
  5
12A63
100
AcDbEntity
  8
0
100
AcDbLine
 10
2998.830474
 20
709.591404
 30
0.0
 11
2998.830474
 21
706.538404
 31
0.0
  0
LINE
  5
12A64
100
AcDbEntity
  8
0
100
AcDbLine
 10
2998.830474
 20
709.591404
 30
0.0
 11
2999.777474
 21
710.538404
 31
0.0
  0
LINE
  5
12A65
100
AcDbEntity
  8
0
100
AcDbLine
 10
2961.175825
 20
710.538404
 30
0.0
 11
2962.122825
 21
709.591404
 31
0.0
  0
LINE
  5
12A66
100
AcDbEntity
  8
0
100
AcDbLine
 10
2962.122825
 20
709.591404
 30
0.0
 11
2962.122825
 21
706.538404
 31
0.0
  0
LINE
  5
12A67
100
AcDbEntity
  8
0
100
AcDbLine
 10
2951.069825
 20
710.538404
 30
0.0
 11
2961.175825
 21
710.538404
 31
0.0
  0
LINE
  5
12A68
100
AcDbEntity
  8
0
100
AcDbLine
 10
2950.122825
 20
709.591404
 30
0.0
 11
2950.122825
 21
706.538404
 31
0.0
  0
LINE
  5
12A69
100
AcDbEntity
  8
0
100
AcDbLine
 10
2950.122825
 20
709.591404
 30
0.0
 11
2951.069825
 21
710.538404
 31
0.0
  0
LINE
  5
12A6A
100
AcDbEntity
  8
0
100
AcDbLine
 10
3154.271983
 20
851.538404
 30
0.0
 11
3154.271983
 21
809.538404
 31
0.0
  0
ARC
  5
12A82
100
AcDbEntity
  8
0
100
AcDbCircle
 10
3123.551199
 20
855.538404
 30
0.0
 40
4.0
100
AcDbArc
 50
191.309932
 51
270.0
  0
LINE
  5
12A83
100
AcDbEntity
  8
0
100
AcDbLine
 10
3123.350238
 20
851.538404
 30
0.0
 11
3123.350238
 21
854.591404
 31
0.0
  0
LINE
  5
12A84
100
AcDbEntity
  8
0
100
AcDbLine
 10
3123.350238
 20
854.591404
 30
0.0
 11
3124.297238
 21
855.538404
 31
0.0
  0
LINE
  5
12A85
100
AcDbEntity
  8
0
100
AcDbLine
 10
3134.403238
 20
855.538404
 30
0.0
 11
3135.350238
 21
854.591404
 31
0.0
  0
LINE
  5
12A86
100
AcDbEntity
  8
0
100
AcDbLine
 10
3135.350238
 20
854.591404
 30
0.0
 11
3135.350238
 21
851.538404
 31
0.0
  0
LINE
  5
12A87
100
AcDbEntity
  8
0
100
AcDbLine
 10
3124.297238
 20
855.538404
 30
0.0
 11
3134.403238
 21
855.538404
 31
0.0
  0
LINE
  5
12A88
100
AcDbEntity
  8
0
100
AcDbLine
 10
3071.530618
 20
855.538404
 30
0.0
 11
3081.636618
 21
855.538404
 31
0.0
  0
LINE
  5
12A89
100
AcDbEntity
  8
0
100
AcDbLine
 10
3082.583618
 20
854.591404
 30
0.0
 11
3082.583618
 21
851.538404
 31
0.0
  0
LINE
  5
12A8A
100
AcDbEntity
  8
0
100
AcDbLine
 10
3081.636618
 20
855.538404
 30
0.0
 11
3082.583618
 21
854.591404
 31
0.0
  0
LINE
  5
12A8B
100
AcDbEntity
  8
0
100
AcDbLine
 10
3070.583618
 20
854.591404
 30
0.0
 11
3071.530618
 21
855.538404
 31
0.0
  0
LINE
  5
12A8C
100
AcDbEntity
  8
0
100
AcDbLine
 10
3070.583618
 20
851.538404
 30
0.0
 11
3070.583618
 21
854.591404
 31
0.0
  0
LINE
  5
12AA4
100
AcDbEntity
  8
0
100
AcDbLine
 10
3007.960349
 20
851.538404
 30
0.0
 11
3007.960349
 21
854.591404
 31
0.0
  0
LINE
  5
12AA5
100
AcDbEntity
  8
0
100
AcDbLine
 10
3007.960349
 20
854.591404
 30
0.0
 11
3007.013349
 21
855.538404
 31
0.0
  0
LINE
  5
12AA6
100
AcDbEntity
  8
0
100
AcDbLine
 10
2996.907349
 20
855.538404
 30
0.0
 11
2995.960349
 21
854.591404
 31
0.0
  0
LINE
  5
12AA7
100
AcDbEntity
  8
0
100
AcDbLine
 10
2995.960349
 20
854.591404
 30
0.0
 11
2995.960349
 21
851.538404
 31
0.0
  0
LINE
  5
12AA8
100
AcDbEntity
  8
0
100
AcDbLine
 10
3007.013349
 20
855.538404
 30
0.0
 11
2996.907349
 21
855.538404
 31
0.0
  0
ARC
  5
12AA9
100
AcDbEntity
  8
0
100
AcDbCircle
 10
2954.992768
 20
855.538404
 30
0.0
 40
4.0
100
AcDbArc
 50
270.0
 51
348.690068
  0
LINE
  5
12AAA
100
AcDbEntity
  8
0
100
AcDbLine
 10
2954.246729
 20
855.538404
 30
0.0
 11
2944.140729
 21
855.538404
 31
0.0
  0
LINE
  5
12AAB
100
AcDbEntity
  8
0
100
AcDbLine
 10
2943.193729
 20
854.591404
 30
0.0
 11
2943.193729
 21
851.538404
 31
0.0
  0
LINE
  5
12AAC
100
AcDbEntity
  8
0
100
AcDbLine
 10
2944.140729
 20
855.538404
 30
0.0
 11
2943.193729
 21
854.591404
 31
0.0
  0
LINE
  5
12AAD
100
AcDbEntity
  8
0
100
AcDbLine
 10
2955.193729
 20
854.591404
 30
0.0
 11
2954.246729
 21
855.538404
 31
0.0
  0
LINE
  5
12AAE
100
AcDbEntity
  8
0
100
AcDbLine
 10
2955.193729
 20
851.538404
 30
0.0
 11
2955.193729
 21
854.591404
 31
0.0
  0
CIRCLE
  5
12AAF
100
AcDbEntity
  8
0
100
AcDbCircle
 10
3039.271983
 20
955.538404
 30
0.0
 40
77.5
  0
LINE
  5
12AB0
100
AcDbEntity
  8
0
100
AcDbLine
 10
3118.271983
 20
915.538404
 30
0.0
 11
3118.271983
 21
877.538404
 31
0.0
  0
ARC
  5
12AB1
100
AcDbEntity
  8
0
100
AcDbCircle
 10
3115.621508
 20
872.538404
 30
0.0
 40
3.0
100
AcDbArc
 50
90.0
 51
180.0
  0
LINE
  5
12AB2
100
AcDbEntity
  8
0
100
AcDbLine
 10
3116.271983
 20
875.538404
 30
0.0
 11
3116.271983
 21
871.538404
 31
0.0
  0
LINE
  5
12AB3
100
AcDbEntity
  8
0
100
AcDbLine
 10
3116.271983
 20
875.538404
 30
0.0
 11
3115.621508
 21
875.538404
 31
0.0
  0
ARC
  5
12AB4
100
AcDbEntity
  8
0
100
AcDbCircle
 10
3116.271983
 20
877.538404
 30
0.0
 40
2.0
100
AcDbArc
 50
270.0
 51
0.0
  0
ARC
  5
12AB5
100
AcDbEntity
  8
0
100
AcDbCircle
 10
3165.399564
 20
896.538404
 30
0.0
 40
56.322481
100
AcDbArc
 50
162.428094
 51
197.571906
  0
CIRCLE
  5
12AB6
100
AcDbEntity
  8
0
100
AcDbCircle
 10
3062.232989
 20
900.105632
 30
0.0
 40
9.5
  0
ARC
  5
12AB7
100
AcDbEntity
  8
0
100
AcDbCircle
 10
3115.621508
 20
920.538404
 30
0.0
 40
3.0
100
AcDbArc
 50
180.0
 51
270.0
  0
ARC
  5
12AB8
100
AcDbEntity
  8
0
100
AcDbCircle
 10
3089.271983
 20
942.538404
 30
0.0
 40
27.0
100
AcDbArc
 50
0.0
 51
6.208224
  0
LINE
  5
12AB9
100
AcDbEntity
  8
0
100
AcDbLine
 10
3116.271983
 20
942.538404
 30
0.0
 11
3116.271983
 21
917.538404
 31
0.0
  0
LINE
  5
12ABA
100
AcDbEntity
  8
0
100
AcDbLine
 10
3116.271983
 20
917.538404
 30
0.0
 11
3115.621508
 21
917.538404
 31
0.0
  0
ARC
  5
12ABB
100
AcDbEntity
  8
0
100
AcDbCircle
 10
3089.271983
 20
942.538404
 30
0.0
 40
27.0
100
AcDbArc
 50
0.0
 51
6.208224
  0
ARC
  5
12ABC
100
AcDbEntity
  8
0
100
AcDbCircle
 10
3116.271983
 20
915.538404
 30
0.0
 40
2.0
100
AcDbArc
 50
0.0
 51
90.0
  0
CIRCLE
  5
12ABD
100
AcDbEntity
  8
0
100
AcDbCircle
 10
3094.704755
 20
932.577398
 30
0.0
 40
9.5
  0
ARC
  5
12ABE
100
AcDbEntity
  8
0
100
AcDbCircle
 10
2739.787737
 20
907.538404
 30
0.0
 40
224.865246
100
AcDbArc
 50
356.047431
 51
3.952569
  0
LINE
  5
12ABF
100
AcDbEntity
  8
0
100
AcDbLine
 10
2954.271983
 20
890.538404
 30
0.0
 11
2954.271983
 21
924.538404
 31
0.0
  0
CIRCLE
  5
12AC0
100
AcDbEntity
  8
0
100
AcDbCircle
 10
3016.310977
 20
900.105632
 30
0.0
 40
9.5
  0
LINE
  5
12AC1
100
AcDbEntity
  8
0
100
AcDbLine
 10
2961.651276
 20
888.538404
 30
0.0
 11
2956.271983
 21
888.538404
 31
0.0
  0
ARC
  5
12AC2
100
AcDbEntity
  8
0
100
AcDbCircle
 10
2961.651276
 20
885.538404
 30
0.0
 40
3.0
100
AcDbArc
 50
0.0
 51
90.0
  0
LINE
  5
12AC3
100
AcDbEntity
  8
0
100
AcDbLine
 10
2962.271983
 20
888.538404
 30
0.0
 11
2962.271983
 21
871.538404
 31
0.0
  0
ARC
  5
12AC4
100
AcDbEntity
  8
0
100
AcDbCircle
 10
2956.271983
 20
890.538404
 30
0.0
 40
2.0
100
AcDbArc
 50
180.0
 51
270.0
  0
CIRCLE
  5
12AC5
100
AcDbEntity
  8
0
100
AcDbCircle
 10
2983.839211
 20
932.577398
 30
0.0
 40
9.5
  0
ARC
  5
12AC6
100
AcDbEntity
  8
0
100
AcDbCircle
 10
2989.271983
 20
942.538404
 30
0.0
 40
27.0
100
AcDbArc
 50
173.791776
 51
180.0
  0
LINE
  5
12AC7
100
AcDbEntity
  8
0
100
AcDbLine
 10
2962.271983
 20
942.538404
 30
0.0
 11
2962.271983
 21
926.538404
 31
0.0
  0
ARC
  5
12AC8
100
AcDbEntity
  8
0
100
AcDbCircle
 10
2961.651276
 20
929.538404
 30
0.0
 40
3.0
100
AcDbArc
 50
270.0
 51
0.0
  0
LINE
  5
12AC9
100
AcDbEntity
  8
0
100
AcDbLine
 10
2961.651276
 20
926.538404
 30
0.0
 11
2956.271983
 21
926.538404
 31
0.0
  0
LINE
  5
12ACA
100
AcDbEntity
  8
0
100
AcDbLine
 10
2964.651276
 20
929.538404
 30
0.0
 11
2964.651276
 21
930.619096
 31
0.0
  0
ARC
  5
12ACB
100
AcDbEntity
  8
0
100
AcDbCircle
 10
2956.271983
 20
924.538404
 30
0.0
 40
2.0
100
AcDbArc
 50
90.0
 51
180.0
  0
CIRCLE
  5
12ACC
100
AcDbEntity
  8
0
100
AcDbCircle
 10
3062.232989
 20
1010.971176
 30
0.0
 40
9.5
  0
CIRCLE
  5
12ACD
100
AcDbEntity
  8
0
100
AcDbCircle
 10
3094.704755
 20
978.49941
 30
0.0
 40
9.5
  0
CIRCLE
  5
12ACE
100
AcDbEntity
  8
0
100
AcDbCircle
 10
3016.310977
 20
1010.971176
 30
0.0
 40
9.5
  0
CIRCLE
  5
12ACF
100
AcDbEntity
  8
0
100
AcDbCircle
 10
2983.839211
 20
978.49941
 30
0.0
 40
9.5
  0
LINE
  5
12AD0
100
AcDbEntity
  8
0
100
AcDbLine
 10
3033.271983
 20
1053.538225
 30
0.0
 11
3033.271983
 21
1032.805797
 31
0.0
  0
LINE
  5
12AD1
100
AcDbEntity
  8
0
100
AcDbLine
 10
3045.271983
 20
1053.538225
 30
0.0
 11
3045.271983
 21
1032.805797
 31
0.0
  0
LINE
  5
12AD2
100
AcDbEntity
  8
0
100
AcDbLine
 10
3033.271983
 20
1053.538225
 30
0.0
 11
3045.271983
 21
1053.538225
 31
0.0
  0
LINE
  5
12AD3
100
AcDbEntity
  8
0
100
AcDbLine
 10
2924.271983
 20
851.538404
 30
0.0
 11
2924.271983
 21
809.538404
 31
0.0
  0
ARC
  5
12AD4
100
AcDbEntity
  8
0
100
AcDbCircle
 10
3065.771983
 20
660.538404
 30
0.0
 40
4.0
100
AcDbArc
 50
112.931029
 51
180.0
  0
LINE
  5
12AD6
100
AcDbEntity
  8
0
100
AcDbLine
 10
2443.911628
 20
1426.350141
 30
0.0
 11
2443.911628
 21
1271.350141
 31
0.0
  0
LINE
  5
12AD7
100
AcDbEntity
  8
0
100
AcDbLine
 10
2425.911628
 20
1426.350141
 30
0.0
 11
2425.911628
 21
1348.850141
 31
0.0
  0
LINE
  5
12AD8
100
AcDbEntity
  8
0
100
AcDbLine
 10
2425.911628
 20
1271.350141
 30
0.0
 11
2425.911628
 21
1348.850141
 31
0.0
  0
LINE
  5
12AD9
100
AcDbEntity
  8
0
100
AcDbLine
 10
2425.911628
 20
1271.350141
 30
0.0
 11
2443.911628
 21
1271.350141
 31
0.0
  0
LINE
  5
12ADA
100
AcDbEntity
  8
0
100
AcDbLine
 10
2425.911628
 20
1426.350141
 30
0.0
 11
2443.911628
 21
1426.350141
 31
0.0
  0
ARC
  5
12ADB
100
AcDbEntity
  8
0
100
AcDbCircle
 10
2722.911628
 20
1387.94916
 30
0.0
 40
5.0
100
AcDbArc
 50
281.309932
 51
0.0
  0
ARC
  5
12ADC
100
AcDbEntity
  8
0
100
AcDbCircle
 10
2722.911628
 20
1309.751121
 30
0.0
 40
5.0
100
AcDbArc
 50
0.0
 51
78.690068
  0
LINE
  5
12ADD
100
AcDbEntity
  8
0
100
AcDbLine
 10
2745.911628
 20
1426.350141
 30
0.0
 11
2745.911628
 21
1348.850141
 31
0.0
  0
LINE
  5
12ADE
100
AcDbEntity
  8
0
100
AcDbLine
 10
2727.911628
 20
1426.350141
 30
0.0
 11
2727.911628
 21
1271.350141
 31
0.0
  0
LINE
  5
12ADF
100
AcDbEntity
  8
0
100
AcDbLine
 10
2745.911628
 20
1271.350141
 30
0.0
 11
2745.911628
 21
1348.850141
 31
0.0
  0
LINE
  5
12AE0
100
AcDbEntity
  8
0
100
AcDbLine
 10
2745.911628
 20
1271.350141
 30
0.0
 11
2727.911628
 21
1271.350141
 31
0.0
  0
LINE
  5
12AE1
100
AcDbEntity
  8
0
100
AcDbLine
 10
2745.911628
 20
1426.350141
 30
0.0
 11
2727.911628
 21
1426.350141
 31
0.0
  0
ARC
  5
12AE2
100
AcDbEntity
  8
0
100
AcDbCircle
 10
2448.911628
 20
1387.94916
 30
0.0
 40
5.0
100
AcDbArc
 50
180.0
 51
258.690068
  0
ARC
  5
12AE3
100
AcDbEntity
  8
0
100
AcDbCircle
 10
2448.911628
 20
1387.94916
 30
0.0
 40
5.0
100
AcDbArc
 50
180.0
 51
258.690068
  0
ARC
  5
12AE4
100
AcDbEntity
  8
0
100
AcDbCircle
 10
2448.911628
 20
1309.751121
 30
0.0
 40
5.0
100
AcDbArc
 50
101.309932
 51
180.0
  0
ARC
  5
12AE5
100
AcDbEntity
  8
0
100
AcDbCircle
 10
2448.911628
 20
1309.751121
 30
0.0
 40
5.0
100
AcDbArc
 50
101.309932
 51
180.0
  0
ARC
  5
12AE6
100
AcDbEntity
  8
0
100
AcDbCircle
 10
2448.911628
 20
1309.751121
 30
0.0
 40
5.0
100
AcDbArc
 50
101.309932
 51
180.0
  0
LINE
  5
12AE7
100
AcDbEntity
  8
0
100
AcDbLine
 10
2425.911628
 20
2057.280361
 30
0.0
 11
2425.911628
 21
1979.780361
 31
0.0
  0
LINE
  5
12AE9
100
AcDbEntity
  8
0
100
AcDbLine
 10
2425.911628
 20
1902.280361
 30
0.0
 11
2425.911628
 21
1979.780361
 31
0.0
  0
LINE
  5
12AEA
100
AcDbEntity
  8
0
100
AcDbLine
 10
2425.911628
 20
1902.280361
 30
0.0
 11
2443.911628
 21
1902.280361
 31
0.0
  0
LINE
  5
12AEB
100
AcDbEntity
  8
0
100
AcDbLine
 10
2425.911628
 20
2057.280361
 30
0.0
 11
2443.911628
 21
2057.280361
 31
0.0
  0
LINE
  5
12AF2
100
AcDbEntity
  8
0
100
AcDbLine
 10
2745.911628
 20
2057.280361
 30
0.0
 11
2745.911628
 21
1979.780361
 31
0.0
  0
LINE
  5
12AF3
100
AcDbEntity
  8
0
100
AcDbLine
 10
2745.911628
 20
1902.280361
 30
0.0
 11
2745.911628
 21
1979.780361
 31
0.0
  0
LINE
  5
12AF4
100
AcDbEntity
  8
0
100
AcDbLine
 10
2745.911628
 20
1902.280361
 30
0.0
 11
2727.911628
 21
1902.280361
 31
0.0
  0
LINE
  5
12AF5
100
AcDbEntity
  8
0
100
AcDbLine
 10
2745.911628
 20
2057.280361
 30
0.0
 11
2727.911628
 21
2057.280361
 31
0.0
  0
LINE
  5
1334D
100
AcDbEntity
  8
0
100
AcDbLine
 10
1047.880518
 20
711.538404
 30
0.0
 11
1046.315518
 21
712.442404
 31
0.0
  0
ARC
  5
13552
100
AcDbEntity
  8
0
100
AcDbCircle
 10
655.559722
 20
716.538404
 30
0.0
 40
10.0
100
AcDbArc
 50
210.0
 51
270.0
  0
ARC
  5
13555
100
AcDbEntity
  8
0
100
AcDbCircle
 10
694.012717
 20
716.538404
 30
0.0
 40
10.0
100
AcDbArc
 50
270.0
 51
330.0
  0
ARC
  5
13606
100
AcDbEntity
  8
0
100
AcDbCircle
 10
608.036219
 20
721.980725
 30
0.0
 40
10.442321
100
AcDbArc
 50
245.983629
 51
294.016371
  0
LINE
  5
13607
100
AcDbEntity
  8
0
100
AcDbLine
 10
612.286219
 20
711.538404
 30
0.0
 11
595.286219
 21
711.538404
 31
0.0
  0
ARC
  5
13609
100
AcDbEntity
  8
0
100
AcDbCircle
 10
599.536219
 20
721.980725
 30
0.0
 40
10.442321
100
AcDbArc
 50
245.983629
 51
294.016371
  0
LINE
  5
1360A
100
AcDbEntity
  8
0
100
AcDbLine
 10
595.286219
 20
711.538404
 30
0.0
 11
595.286219
 21
718.538404
 31
0.0
  0
LINE
  5
1360B
100
AcDbEntity
  8
0
100
AcDbLine
 10
603.786219
 20
712.442404
 30
0.0
 11
603.786219
 21
718.538404
 31
0.0
  0
LINE
  5
1360C
100
AcDbEntity
  8
0
100
AcDbLine
 10
647.786219
 20
711.538404
 30
0.0
 11
630.786219
 21
711.538404
 31
0.0
  0
ARC
  5
1360D
100
AcDbEntity
  8
0
100
AcDbCircle
 10
643.536219
 20
721.980725
 30
0.0
 40
10.442321
100
AcDbArc
 50
245.983629
 51
294.016371
  0
LINE
  5
1360E
100
AcDbEntity
  8
0
100
AcDbLine
 10
612.286219
 20
711.538404
 30
0.0
 11
612.286219
 21
718.538404
 31
0.0
  0
LINE
  5
1360F
100
AcDbEntity
  8
0
100
AcDbLine
 10
639.286219
 20
712.442404
 30
0.0
 11
639.286219
 21
718.538404
 31
0.0
  0
LINE
  5
13610
100
AcDbEntity
  8
0
100
AcDbLine
 10
630.786219
 20
711.538404
 30
0.0
 11
630.786219
 21
718.538404
 31
0.0
  0
ARC
  5
13611
100
AcDbEntity
  8
0
100
AcDbCircle
 10
635.036219
 20
721.980725
 30
0.0
 40
10.442321
100
AcDbArc
 50
245.983629
 51
294.016371
  0
LINE
  5
13613
100
AcDbEntity
  8
0
100
AcDbLine
 10
647.786219
 20
711.538404
 30
0.0
 11
647.786219
 21
718.538404
 31
0.0
  0
LINE
  5
13614
100
AcDbEntity
  8
0
100
AcDbLine
 10
737.286219
 20
711.538404
 30
0.0
 11
754.286219
 21
711.538404
 31
0.0
  0
ARC
  5
13615
100
AcDbEntity
  8
0
100
AcDbCircle
 10
741.536219
 20
721.980725
 30
0.0
 40
10.442321
100
AcDbArc
 50
245.983629
 51
294.016371
  0
ARC
  5
13616
100
AcDbEntity
  8
0
100
AcDbCircle
 10
714.536219
 20
721.980725
 30
0.0
 40
10.442321
100
AcDbArc
 50
245.983629
 51
294.016371
  0
LINE
  5
13617
100
AcDbEntity
  8
0
100
AcDbLine
 10
701.786219
 20
711.538404
 30
0.0
 11
718.786219
 21
711.538404
 31
0.0
  0
LINE
  5
13619
100
AcDbEntity
  8
0
100
AcDbLine
 10
701.786219
 20
711.538404
 30
0.0
 11
701.786219
 21
718.538404
 31
0.0
  0
LINE
  5
1361A
100
AcDbEntity
  8
0
100
AcDbLine
 10
710.286219
 20
712.442404
 30
0.0
 11
710.286219
 21
718.538404
 31
0.0
  0
ARC
  5
1361B
100
AcDbEntity
  8
0
100
AcDbCircle
 10
706.036219
 20
721.980725
 30
0.0
 40
10.442321
100
AcDbArc
 50
245.983629
 51
294.016371
  0
LINE
  5
1361C
100
AcDbEntity
  8
0
100
AcDbLine
 10
718.786219
 20
711.538404
 30
0.0
 11
718.786219
 21
718.538404
 31
0.0
  0
LINE
  5
1361D
100
AcDbEntity
  8
0
100
AcDbLine
 10
737.286219
 20
711.538404
 30
0.0
 11
737.286219
 21
718.538404
 31
0.0
  0
LINE
  5
1361F
100
AcDbEntity
  8
0
100
AcDbLine
 10
745.786219
 20
712.442404
 30
0.0
 11
745.786219
 21
718.538404
 31
0.0
  0
LINE
  5
13620
100
AcDbEntity
  8
0
100
AcDbLine
 10
754.286219
 20
711.538404
 30
0.0
 11
754.286219
 21
718.538404
 31
0.0
  0
ARC
  5
13621
100
AcDbEntity
  8
0
100
AcDbCircle
 10
750.036219
 20
721.980725
 30
0.0
 40
10.442321
100
AcDbArc
 50
245.983629
 51
294.016371
  0
LINE
  5
13622
100
AcDbEntity
  8
0
100
AcDbLine
 10
998.118321
 20
2008.780361
 30
0.0
 11
1013.118321
 21
2005.780361
 31
0.0
  0
LINE
  5
13623
100
AcDbEntity
  8
0
100
AcDbLine
 10
998.118321
 20
1950.780361
 30
0.0
 11
1013.118321
 21
1953.780361
 31
0.0
  0
LINE
  5
13624
100
AcDbEntity
  8
0
100
AcDbLine
 10
1112.618321
 20
1891.968361
 30
0.0
 11
1112.618321
 21
1888.780361
 31
0.0
  0
LINE
  5
13625
100
AcDbEntity
  8
0
100
AcDbLine
 10
1122.618321
 20
1888.780361
 30
0.0
 11
1122.618321
 21
1891.968361
 31
0.0
  0
LINE
  5
13626
100
AcDbEntity
  8
0
100
AcDbLine
 10
1055.501352
 20
1891.968361
 30
0.0
 11
1055.501352
 21
1888.780361
 31
0.0
  0
LINE
  5
13627
100
AcDbEntity
  8
0
100
AcDbLine
 10
1045.501352
 20
1888.780361
 30
0.0
 11
1045.501352
 21
1891.968361
 31
0.0
  0
LINE
  5
13628
100
AcDbEntity
  8
0
100
AcDbLine
 10
1189.73529
 20
1888.780361
 30
0.0
 11
1189.73529
 21
1891.968361
 31
0.0
  0
LINE
  5
13629
100
AcDbEntity
  8
0
100
AcDbLine
 10
1179.73529
 20
1891.968361
 30
0.0
 11
1179.73529
 21
1888.780361
 31
0.0
  0
LINE
  5
1362A
100
AcDbEntity
  8
0
100
AcDbLine
 10
1200.618321
 20
1742.780361
 30
0.0
 11
1034.618321
 21
1742.780361
 31
0.0
  0
ARC
  5
1362B
100
AcDbEntity
  8
0
100
AcDbCircle
 10
1153.010626
 20
1736.780361
 30
0.0
 40
6.0
100
AcDbArc
 50
90.0
 51
150.0
  0
LINE
  5
1362C
100
AcDbEntity
  8
0
100
AcDbLine
 10
1200.618321
 20
1776.780361
 30
0.0
 11
1034.618321
 21
1776.780361
 31
0.0
  0
LINE
  5
1362D
100
AcDbEntity
  8
0
100
AcDbLine
 10
1202.618321
 20
1759.780361
 30
0.0
 11
1032.618321
 21
1759.780361
 31
0.0
  0
LINE
  5
1362E
100
AcDbEntity
  8
0
100
AcDbLine
 10
1210.118321
 20
1871.780361
 30
0.0
 11
1025.118321
 21
1871.780361
 31
0.0
  0
LINE
  5
1362F
100
AcDbEntity
  8
0
100
AcDbLine
 10
1208.118321
 20
1888.780361
 30
0.0
 11
1027.118321
 21
1888.780361
 31
0.0
  0
LINE
  5
13630
100
AcDbEntity
  8
0
100
AcDbLine
 10
1210.118321
 20
1871.780361
 30
0.0
 11
1025.118321
 21
1871.780361
 31
0.0
  0
LINE
  5
13631
100
AcDbEntity
  8
0
100
AcDbLine
 10
1208.118321
 20
1854.780361
 30
0.0
 11
1027.118321
 21
1854.780361
 31
0.0
  0
LINE
  5
13632
100
AcDbEntity
  8
0
100
AcDbLine
 10
1175.618321
 20
1839.780361
 30
0.0
 11
1175.618321
 21
1791.780361
 31
0.0
  0
ARC
  5
13633
100
AcDbEntity
  8
0
100
AcDbCircle
 10
1200.618321
 20
1744.780361
 30
0.0
 40
2.0
100
AcDbArc
 50
270.0
 51
0.0
  0
LINE
  5
13634
100
AcDbEntity
  8
0
100
AcDbLine
 10
1170.856125
 20
1735.780361
 30
0.0
 11
1187.356125
 21
1735.780361
 31
0.0
  0
ARC
  5
13635
100
AcDbEntity
  8
0
100
AcDbCircle
 10
1186.467125
 20
1740.611685
 30
0.0
 40
4.630982
100
AcDbArc
 50
238.000676
 51
301.999324
  0
LINE
  5
13636
100
AcDbEntity
  8
0
100
AcDbLine
 10
1188.921125
 20
1736.684361
 30
0.0
 11
1188.921125
 21
1742.780361
 31
0.0
  0
LINE
  5
13637
100
AcDbEntity
  8
0
100
AcDbLine
 10
1187.356125
 20
1735.780361
 30
0.0
 11
1188.921125
 21
1736.684361
 31
0.0
  0
LINE
  5
13638
100
AcDbEntity
  8
0
100
AcDbLine
 10
1170.856125
 20
1735.780361
 30
0.0
 11
1169.291125
 21
1736.684361
 31
0.0
  0
ARC
  5
13639
100
AcDbEntity
  8
0
100
AcDbCircle
 10
1171.745125
 20
1740.611685
 30
0.0
 40
4.630982
100
AcDbArc
 50
238.000676
 51
301.999324
  0
ARC
  5
1363A
100
AcDbEntity
  8
0
100
AcDbCircle
 10
1179.106125
 20
1753.443353
 30
0.0
 40
17.462601
100
AcDbArc
 50
253.680072
 51
286.319928
  0
LINE
  5
1363B
100
AcDbEntity
  8
0
100
AcDbLine
 10
1169.291125
 20
1742.780361
 30
0.0
 11
1169.291125
 21
1736.684361
 31
0.0
  0
LINE
  5
1363C
100
AcDbEntity
  8
0
100
AcDbLine
 10
1174.199125
 20
1736.684361
 30
0.0
 11
1174.199125
 21
1742.780361
 31
0.0
  0
LINE
  5
1363D
100
AcDbEntity
  8
0
100
AcDbLine
 10
1184.013125
 20
1736.684361
 30
0.0
 11
1184.013125
 21
1742.780361
 31
0.0
  0
ARC
  5
1363E
100
AcDbEntity
  8
0
100
AcDbCircle
 10
1200.618321
 20
1774.780361
 30
0.0
 40
2.0
100
AcDbArc
 50
0.0
 51
90.0
  0
LINE
  5
1363F
100
AcDbEntity
  8
0
100
AcDbLine
 10
1202.618321
 20
1774.780361
 30
0.0
 11
1202.618321
 21
1744.780361
 31
0.0
  0
LINE
  5
13640
100
AcDbEntity
  8
0
100
AcDbLine
 10
1183.294125
 20
1780.780361
 30
0.0
 11
1174.918125
 21
1780.780361
 31
0.0
  0
LINE
  5
13641
100
AcDbEntity
  8
0
100
AcDbLine
 10
1174.106125
 20
1779.968361
 30
0.0
 11
1174.106125
 21
1776.780361
 31
0.0
  0
LINE
  5
13642
100
AcDbEntity
  8
0
100
AcDbLine
 10
1174.918125
 20
1780.780361
 30
0.0
 11
1174.106125
 21
1779.968361
 31
0.0
  0
LINE
  5
13643
100
AcDbEntity
  8
0
100
AcDbLine
 10
1184.106125
 20
1776.780361
 30
0.0
 11
1184.106125
 21
1779.968361
 31
0.0
  0
LINE
  5
13644
100
AcDbEntity
  8
0
100
AcDbLine
 10
1184.106125
 20
1779.968361
 30
0.0
 11
1183.294125
 21
1780.780361
 31
0.0
  0
LINE
  5
13645
100
AcDbEntity
  8
0
100
AcDbLine
 10
1177.818321
 20
1780.780361
 30
0.0
 11
1175.618321
 21
1791.780361
 31
0.0
  0
LINE
  5
13646
100
AcDbEntity
  8
0
100
AcDbLine
 10
1177.218321
 20
1847.780361
 30
0.0
 11
1175.618321
 21
1839.780361
 31
0.0
  0
ARC
  5
13647
100
AcDbEntity
  8
0
100
AcDbCircle
 10
1184.73529
 20
1865.443353
 30
0.0
 40
17.462601
100
AcDbArc
 50
253.680072
 51
286.319928
  0
LINE
  5
13648
100
AcDbEntity
  8
0
100
AcDbLine
 10
1176.48529
 20
1847.780361
 30
0.0
 11
1192.98529
 21
1847.780361
 31
0.0
  0
LINE
  5
13649
100
AcDbEntity
  8
0
100
AcDbLine
 10
1192.98529
 20
1847.780361
 30
0.0
 11
1194.55029
 21
1848.684361
 31
0.0
  0
ARC
  5
1364A
100
AcDbEntity
  8
0
100
AcDbCircle
 10
1192.09629
 20
1852.611685
 30
0.0
 40
4.630982
100
AcDbArc
 50
238.000676
 51
301.999324
  0
LINE
  5
1364B
100
AcDbEntity
  8
0
100
AcDbLine
 10
1189.64229
 20
1848.684361
 30
0.0
 11
1189.64229
 21
1854.780361
 31
0.0
  0
LINE
  5
1364C
100
AcDbEntity
  8
0
100
AcDbLine
 10
1194.55029
 20
1848.684361
 30
0.0
 11
1194.55029
 21
1854.780361
 31
0.0
  0
LINE
  5
1364D
100
AcDbEntity
  8
0
100
AcDbLine
 10
1210.118321
 20
1886.780361
 30
0.0
 11
1210.118321
 21
1856.780282
 31
0.0
  0
ARC
  5
1364E
100
AcDbEntity
  8
0
100
AcDbCircle
 10
1208.118321
 20
1856.780361
 30
0.0
 40
2.0
100
AcDbArc
 50
270.0
 51
0.0
  0
ARC
  5
1364F
100
AcDbEntity
  8
0
100
AcDbCircle
 10
1208.118321
 20
1886.780361
 30
0.0
 40
2.0
100
AcDbArc
 50
0.0
 51
90.0
  0
LINE
  5
13650
100
AcDbEntity
  8
0
100
AcDbLine
 10
1179.82829
 20
1848.684361
 30
0.0
 11
1179.82829
 21
1854.780361
 31
0.0
  0
LINE
  5
13651
100
AcDbEntity
  8
0
100
AcDbLine
 10
1174.92029
 20
1854.780361
 30
0.0
 11
1174.92029
 21
1848.684361
 31
0.0
  0
ARC
  5
13652
100
AcDbEntity
  8
0
100
AcDbCircle
 10
1177.37429
 20
1852.611685
 30
0.0
 40
4.630982
100
AcDbArc
 50
238.000676
 51
301.999324
  0
LINE
  5
13653
100
AcDbEntity
  8
0
100
AcDbLine
 10
1176.48529
 20
1847.780361
 30
0.0
 11
1174.92029
 21
1848.684361
 31
0.0
  0
LINE
  5
13654
100
AcDbEntity
  8
0
100
AcDbLine
 10
1059.618321
 20
1839.780361
 30
0.0
 11
1059.618321
 21
1791.780361
 31
0.0
  0
LINE
  5
13655
100
AcDbEntity
  8
0
100
AcDbLine
 10
1100.118321
 20
1700.780361
 30
0.0
 11
1057.118321
 21
1700.780361
 31
0.0
  0
ARC
  5
13656
100
AcDbEntity
  8
0
100
AcDbCircle
 10
1082.226016
 20
1736.780361
 30
0.0
 40
6.0
100
AcDbArc
 50
30.0
 51
90.0
  0
ARC
  5
13657
100
AcDbEntity
  8
0
100
AcDbCircle
 10
1117.618321
 20
1753.443353
 30
0.0
 40
17.462601
100
AcDbArc
 50
253.680072
 51
286.319928
  0
LINE
  5
13658
100
AcDbEntity
  8
0
100
AcDbLine
 10
1109.368321
 20
1735.780361
 30
0.0
 11
1125.868321
 21
1735.780361
 31
0.0
  0
LINE
  5
13659
100
AcDbEntity
  8
0
100
AcDbLine
 10
1136.844818
 20
1730.780361
 30
0.0
 11
1098.391824
 21
1730.780361
 31
0.0
  0
LINE
  5
1365A
100
AcDbEntity
  8
0
100
AcDbLine
 10
1142.618321
 20
1720.780361
 30
0.0
 11
1105.118321
 21
1720.780361
 31
0.0
  0
LINE
  5
1365B
100
AcDbEntity
  8
0
100
AcDbLine
 10
1125.868321
 20
1735.780361
 30
0.0
 11
1127.433321
 21
1736.684361
 31
0.0
  0
ARC
  5
1365C
100
AcDbEntity
  8
0
100
AcDbCircle
 10
1124.979321
 20
1740.611685
 30
0.0
 40
4.630982
100
AcDbArc
 50
238.000676
 51
301.999324
  0
LINE
  5
1365D
100
AcDbEntity
  8
0
100
AcDbLine
 10
1122.525321
 20
1736.684361
 30
0.0
 11
1122.525321
 21
1742.780361
 31
0.0
  0
LINE
  5
1365E
100
AcDbEntity
  8
0
100
AcDbLine
 10
1127.433321
 20
1736.684361
 30
0.0
 11
1127.433321
 21
1742.780361
 31
0.0
  0
LINE
  5
1365F
100
AcDbEntity
  8
0
100
AcDbLine
 10
1142.618321
 20
1732.615396
 30
0.0
 11
1142.618321
 21
1720.780361
 31
0.0
  0
ARC
  5
13660
100
AcDbEntity
  8
0
100
AcDbCircle
 10
1136.844818
 20
1740.780361
 30
0.0
 40
10.0
100
AcDbArc
 50
270.0
 51
330.0
  0
LINE
  5
13661
100
AcDbEntity
  8
0
100
AcDbLine
 10
1142.618321
 20
1732.615396
 30
0.0
 11
1142.618321
 21
1720.780361
 31
0.0
  0
LINE
  5
13662
100
AcDbEntity
  8
0
100
AcDbLine
 10
1147.814474
 20
1739.780361
 30
0.0
 11
1145.505073
 21
1735.780361
 31
0.0
  0
ARC
  5
13663
100
AcDbEntity
  8
0
100
AcDbCircle
 10
1110.257321
 20
1740.611685
 30
0.0
 40
4.630982
100
AcDbArc
 50
238.000676
 51
301.999324
  0
LINE
  5
13664
100
AcDbEntity
  8
0
100
AcDbLine
 10
1109.368321
 20
1735.780361
 30
0.0
 11
1107.803321
 21
1736.684361
 31
0.0
  0
LINE
  5
13665
100
AcDbEntity
  8
0
100
AcDbLine
 10
1112.711321
 20
1736.684361
 30
0.0
 11
1112.711321
 21
1742.780361
 31
0.0
  0
LINE
  5
13666
100
AcDbEntity
  8
0
100
AcDbLine
 10
1107.803321
 20
1742.780361
 30
0.0
 11
1107.803321
 21
1736.684361
 31
0.0
  0
LINE
  5
13667
100
AcDbEntity
  8
0
100
AcDbLine
 10
1087.422169
 20
1739.780361
 30
0.0
 11
1089.73157
 21
1735.780361
 31
0.0
  0
ARC
  5
13668
100
AcDbEntity
  8
0
100
AcDbCircle
 10
1098.391824
 20
1740.780361
 30
0.0
 40
10.0
100
AcDbArc
 50
210.0
 51
270.0
  0
ARC
  5
13669
100
AcDbEntity
  8
0
100
AcDbCircle
 10
1105.118321
 20
1716.780361
 30
0.0
 40
4.0
100
AcDbArc
 50
90.0
 51
180.0
  0
ARC
  5
1366A
100
AcDbEntity
  8
0
100
AcDbCircle
 10
1102.868321
 20
1729.030361
 30
0.0
 40
1.75
100
AcDbArc
 50
0.0
 51
180.0
  0
LINE
  5
1366B
100
AcDbEntity
  8
0
100
AcDbLine
 10
1104.618321
 20
1729.030361
 30
0.0
 11
1104.618321
 21
1720.780361
 31
0.0
  0
LINE
  5
1366C
100
AcDbEntity
  8
0
100
AcDbLine
 10
1101.118321
 20
1701.780361
 30
0.0
 11
1100.118321
 21
1700.780361
 31
0.0
  0
LINE
  5
1366D
100
AcDbEntity
  8
0
100
AcDbLine
 10
1101.118321
 20
1729.030361
 30
0.0
 11
1101.118321
 21
1701.780361
 31
0.0
  0
LINE
  5
1366E
100
AcDbEntity
  8
0
100
AcDbLine
 10
1121.806321
 20
1780.780361
 30
0.0
 11
1113.430321
 21
1780.780361
 31
0.0
  0
LINE
  5
1366F
100
AcDbEntity
  8
0
100
AcDbLine
 10
1122.618321
 20
1779.968361
 30
0.0
 11
1121.806321
 21
1780.780361
 31
0.0
  0
LINE
  5
13670
100
AcDbEntity
  8
0
100
AcDbLine
 10
1122.618321
 20
1776.780361
 30
0.0
 11
1122.618321
 21
1779.968361
 31
0.0
  0
LINE
  5
13671
100
AcDbEntity
  8
0
100
AcDbLine
 10
1113.430321
 20
1780.780361
 30
0.0
 11
1112.618321
 21
1779.968361
 31
0.0
  0
LINE
  5
13672
100
AcDbEntity
  8
0
100
AcDbLine
 10
1112.618321
 20
1779.968361
 30
0.0
 11
1112.618321
 21
1776.780361
 31
0.0
  0
ARC
  5
13673
100
AcDbEntity
  8
0
100
AcDbCircle
 10
1034.618321
 20
1744.780361
 30
0.0
 40
2.0
100
AcDbArc
 50
180.0
 51
270.0
  0
ARC
  5
13674
100
AcDbEntity
  8
0
100
AcDbCircle
 10
1048.769518
 20
1740.611685
 30
0.0
 40
4.630982
100
AcDbArc
 50
238.000676
 51
301.999324
  0
LINE
  5
13675
100
AcDbEntity
  8
0
100
AcDbLine
 10
1047.880518
 20
1735.780361
 30
0.0
 11
1046.315518
 21
1736.684361
 31
0.0
  0
LINE
  5
13676
100
AcDbEntity
  8
0
100
AcDbLine
 10
1064.380518
 20
1735.780361
 30
0.0
 11
1065.945518
 21
1736.684361
 31
0.0
  0
ARC
  5
13677
100
AcDbEntity
  8
0
100
AcDbCircle
 10
1063.491518
 20
1740.611685
 30
0.0
 40
4.630982
100
AcDbArc
 50
238.000676
 51
301.999324
  0
LINE
  5
13678
100
AcDbEntity
  8
0
100
AcDbLine
 10
1061.037518
 20
1736.684361
 30
0.0
 11
1061.037518
 21
1742.780361
 31
0.0
  0
LINE
  5
13679
100
AcDbEntity
  8
0
100
AcDbLine
 10
1065.945518
 20
1736.684361
 30
0.0
 11
1065.945518
 21
1742.780361
 31
0.0
  0
LINE
  5
1367A
100
AcDbEntity
  8
0
100
AcDbLine
 10
1051.223518
 20
1736.684361
 30
0.0
 11
1051.223518
 21
1742.780361
 31
0.0
  0
LINE
  5
1367B
100
AcDbEntity
  8
0
100
AcDbLine
 10
1046.315518
 20
1742.780361
 30
0.0
 11
1046.315518
 21
1736.684361
 31
0.0
  0
ARC
  5
1367C
100
AcDbEntity
  8
0
100
AcDbCircle
 10
1056.130518
 20
1753.443353
 30
0.0
 40
17.462601
100
AcDbArc
 50
253.680072
 51
286.319928
  0
LINE
  5
1367D
100
AcDbEntity
  8
0
100
AcDbLine
 10
1047.880518
 20
1735.780361
 30
0.0
 11
1064.380518
 21
1735.780361
 31
0.0
  0
LINE
  5
1367E
100
AcDbEntity
  8
0
100
AcDbLine
 10
1056.118321
 20
1701.780361
 30
0.0
 11
1057.118321
 21
1700.780361
 31
0.0
  0
LINE
  5
1367F
100
AcDbEntity
  8
0
100
AcDbLine
 10
1056.118321
 20
1701.780361
 30
0.0
 11
1056.118321
 21
1735.780361
 31
0.0
  0
LINE
  5
13680
100
AcDbEntity
  8
0
100
AcDbLine
 10
1061.130518
 20
1779.968361
 30
0.0
 11
1060.318518
 21
1780.780361
 31
0.0
  0
LINE
  5
13681
100
AcDbEntity
  8
0
100
AcDbLine
 10
1061.130518
 20
1776.780361
 30
0.0
 11
1061.130518
 21
1779.968361
 31
0.0
  0
LINE
  5
13682
100
AcDbEntity
  8
0
100
AcDbLine
 10
1051.942518
 20
1780.780361
 30
0.0
 11
1051.130518
 21
1779.968361
 31
0.0
  0
LINE
  5
13683
100
AcDbEntity
  8
0
100
AcDbLine
 10
1051.130518
 20
1779.968361
 30
0.0
 11
1051.130518
 21
1776.780361
 31
0.0
  0
LINE
  5
13684
100
AcDbEntity
  8
0
100
AcDbLine
 10
1060.318518
 20
1780.780361
 30
0.0
 11
1051.942518
 21
1780.780361
 31
0.0
  0
LINE
  5
13685
100
AcDbEntity
  8
0
100
AcDbLine
 10
1059.618321
 20
1791.780361
 30
0.0
 11
1057.418321
 21
1780.780361
 31
0.0
  0
ARC
  5
13686
100
AcDbEntity
  8
0
100
AcDbCircle
 10
1034.618321
 20
1774.780361
 30
0.0
 40
2.0
100
AcDbArc
 50
90.0
 51
180.0
  0
LINE
  5
13687
100
AcDbEntity
  8
0
100
AcDbLine
 10
1032.618321
 20
1774.780361
 30
0.0
 11
1032.618321
 21
1744.780361
 31
0.0
  0
LINE
  5
13688
100
AcDbEntity
  8
0
100
AcDbLine
 10
1109.368321
 20
1847.780361
 30
0.0
 11
1125.868321
 21
1847.780361
 31
0.0
  0
ARC
  5
13689
100
AcDbEntity
  8
0
100
AcDbCircle
 10
1117.618321
 20
1865.443353
 30
0.0
 40
17.462601
100
AcDbArc
 50
253.680072
 51
286.319928
  0
LINE
  5
1368A
100
AcDbEntity
  8
0
100
AcDbLine
 10
1127.433321
 20
1848.684361
 30
0.0
 11
1127.433321
 21
1854.780361
 31
0.0
  0
LINE
  5
1368B
100
AcDbEntity
  8
0
100
AcDbLine
 10
1122.525321
 20
1848.684361
 30
0.0
 11
1122.525321
 21
1854.780361
 31
0.0
  0
ARC
  5
1368C
100
AcDbEntity
  8
0
100
AcDbCircle
 10
1124.979321
 20
1852.611685
 30
0.0
 40
4.630982
100
AcDbArc
 50
238.000676
 51
301.999324
  0
LINE
  5
1368D
100
AcDbEntity
  8
0
100
AcDbLine
 10
1125.868321
 20
1847.780361
 30
0.0
 11
1127.433321
 21
1848.684361
 31
0.0
  0
LINE
  5
1368E
100
AcDbEntity
  8
0
100
AcDbLine
 10
1107.803321
 20
1854.780361
 30
0.0
 11
1107.803321
 21
1848.684361
 31
0.0
  0
LINE
  5
1368F
100
AcDbEntity
  8
0
100
AcDbLine
 10
1112.711321
 20
1848.684361
 30
0.0
 11
1112.711321
 21
1854.780361
 31
0.0
  0
LINE
  5
13690
100
AcDbEntity
  8
0
100
AcDbLine
 10
1109.368321
 20
1847.780361
 30
0.0
 11
1107.803321
 21
1848.684361
 31
0.0
  0
ARC
  5
13691
100
AcDbEntity
  8
0
100
AcDbCircle
 10
1110.257321
 20
1852.611685
 30
0.0
 40
4.630982
100
AcDbArc
 50
238.000676
 51
301.999324
  0
LINE
  5
13692
100
AcDbEntity
  8
0
100
AcDbLine
 10
1059.618321
 20
1839.780361
 30
0.0
 11
1058.018321
 21
1847.780361
 31
0.0
  0
LINE
  5
13693
100
AcDbEntity
  8
0
100
AcDbLine
 10
1058.751352
 20
1847.780361
 30
0.0
 11
1042.251352
 21
1847.780361
 31
0.0
  0
ARC
  5
13694
100
AcDbEntity
  8
0
100
AcDbCircle
 10
1043.140352
 20
1852.611685
 30
0.0
 40
4.630982
100
AcDbArc
 50
238.000676
 51
301.999324
  0
ARC
  5
13695
100
AcDbEntity
  8
0
100
AcDbCircle
 10
1050.501352
 20
1865.443353
 30
0.0
 40
17.462601
100
AcDbArc
 50
253.680072
 51
286.319928
  0
LINE
  5
13696
100
AcDbEntity
  8
0
100
AcDbLine
 10
1060.316352
 20
1854.780361
 30
0.0
 11
1060.316352
 21
1848.684361
 31
0.0
  0
LINE
  5
13697
100
AcDbEntity
  8
0
100
AcDbLine
 10
1055.408352
 20
1848.684361
 30
0.0
 11
1055.408352
 21
1854.780361
 31
0.0
  0
LINE
  5
13698
100
AcDbEntity
  8
0
100
AcDbLine
 10
1045.594352
 20
1848.684361
 30
0.0
 11
1045.594352
 21
1854.780361
 31
0.0
  0
LINE
  5
13699
100
AcDbEntity
  8
0
100
AcDbLine
 10
1058.751352
 20
1847.780361
 30
0.0
 11
1060.316352
 21
1848.684361
 31
0.0
  0
ARC
  5
1369A
100
AcDbEntity
  8
0
100
AcDbCircle
 10
1057.862352
 20
1852.611685
 30
0.0
 40
4.630982
100
AcDbArc
 50
238.000676
 51
301.999324
  0
LINE
  5
1369B
100
AcDbEntity
  8
0
100
AcDbLine
 10
1040.686352
 20
1848.684361
 30
0.0
 11
1040.686352
 21
1854.780361
 31
0.0
  0
LINE
  5
1369C
100
AcDbEntity
  8
0
100
AcDbLine
 10
1042.251352
 20
1847.780361
 30
0.0
 11
1040.686352
 21
1848.684361
 31
0.0
  0
LINE
  5
1369D
100
AcDbEntity
  8
0
100
AcDbLine
 10
1025.118321
 20
1886.780361
 30
0.0
 11
1025.118321
 21
1856.780327
 31
0.0
  0
ARC
  5
1369E
100
AcDbEntity
  8
0
100
AcDbCircle
 10
1027.118321
 20
1886.780361
 30
0.0
 40
2.0
100
AcDbArc
 50
90.0
 51
180.0
  0
ARC
  5
1369F
100
AcDbEntity
  8
0
100
AcDbCircle
 10
1027.118321
 20
1856.780361
 30
0.0
 40
2.0
100
AcDbArc
 50
180.0
 51
270.0
  0
ARC
  5
136A0
100
AcDbEntity
  8
0
100
AcDbCircle
 10
1131.118321
 20
2001.923378
 30
0.0
 40
26.0
100
AcDbArc
 50
359.526367
 51
74.335733
  0
LINE
  5
136A1
100
AcDbEntity
  8
0
100
AcDbLine
 10
1147.105855
 20
2032.777988
 30
0.0
 11
1227.118321
 21
2006.780361
 31
0.0
  0
LINE
  5
136A2
100
AcDbEntity
  8
0
100
AcDbLine
 10
1075.618321
 20
1989.780361
 30
0.0
 11
1159.618321
 21
1989.780361
 31
0.0
  0
ARC
  5
136A3
100
AcDbEntity
  8
0
100
AcDbCircle
 10
1159.618321
 20
1971.780361
 30
0.0
 40
18.0
100
AcDbArc
 50
0.0
 51
90.0
  0
LINE
  5
136A4
100
AcDbEntity
  8
0
100
AcDbLine
 10
1237.118321
 20
2049.780361
 30
0.0
 11
1237.118321
 21
1909.780361
 31
0.0
  0
LINE
  5
136A5
100
AcDbEntity
  8
0
100
AcDbLine
 10
1222.118321
 20
1953.780361
 30
0.0
 11
1197.618321
 21
1953.780361
 31
0.0
  0
LINE
  5
136A6
100
AcDbEntity
  8
0
100
AcDbLine
 10
1237.118321
 20
1950.780361
 30
0.0
 11
1222.118321
 21
1953.780361
 31
0.0
  0
LINE
  5
136A7
100
AcDbEntity
  8
0
100
AcDbLine
 10
1237.118321
 20
1950.780361
 30
0.0
 11
1237.118321
 21
1953.780361
 31
0.0
  0
ARC
  5
136A8
100
AcDbEntity
  8
0
100
AcDbCircle
 10
1197.618321
 20
1933.780361
 30
0.0
 40
20.0
100
AcDbArc
 50
90.0
 51
180.0
  0
LINE
  5
136A9
100
AcDbEntity
  8
0
100
AcDbLine
 10
1188.92329
 20
1892.780361
 30
0.0
 11
1180.54729
 21
1892.780361
 31
0.0
  0
LINE
  5
136AA
100
AcDbEntity
  8
0
100
AcDbLine
 10
1189.73529
 20
1891.968361
 30
0.0
 11
1188.92329
 21
1892.780361
 31
0.0
  0
LINE
  5
136AB
100
AcDbEntity
  8
0
100
AcDbLine
 10
1179.939816
 20
1892.172887
 30
0.0
 11
1177.618321
 21
1903.780361
 31
0.0
  0
LINE
  5
136AC
100
AcDbEntity
  8
0
100
AcDbLine
 10
1180.54729
 20
1892.780361
 30
0.0
 11
1179.73529
 21
1891.968361
 31
0.0
  0
LINE
  5
136AD
100
AcDbEntity
  8
0
100
AcDbLine
 10
1177.618321
 20
1933.780361
 30
0.0
 11
1177.618321
 21
1903.780361
 31
0.0
  0
LINE
  5
136AE
100
AcDbEntity
  8
0
100
AcDbLine
 10
1222.118321
 20
2005.780361
 30
0.0
 11
1202.618321
 21
2005.780361
 31
0.0
  0
LINE
  5
136AF
100
AcDbEntity
  8
0
100
AcDbLine
 10
1237.118321
 20
2008.780361
 30
0.0
 11
1237.118321
 21
2005.780361
 31
0.0
  0
LINE
  5
136B0
100
AcDbEntity
  8
0
100
AcDbLine
 10
1237.118321
 20
2008.780361
 30
0.0
 11
1222.118321
 21
2005.780361
 31
0.0
  0
ARC
  5
136B1
100
AcDbEntity
  8
0
100
AcDbCircle
 10
1202.618321
 20
1949.780361
 30
0.0
 40
56.0
100
AcDbArc
 50
90.0
 51
125.870531
  0
ARC
  5
136B2
100
AcDbEntity
  8
0
100
AcDbCircle
 10
1165.11716
 20
2001.642321
 30
0.0
 40
8.0
100
AcDbArc
 50
179.526367
 51
305.870531
  0
ARC
  5
136B3
100
AcDbEntity
  8
0
100
AcDbCircle
 10
1075.618321
 20
1971.780361
 30
0.0
 40
18.0
100
AcDbArc
 50
90.0
 51
180.0
  0
LINE
  5
136B5
100
AcDbEntity
  8
0
100
AcDbLine
 10
1121.806321
 20
1892.780361
 30
0.0
 11
1113.430321
 21
1892.780361
 31
0.0
  0
LINE
  5
136B6
100
AcDbEntity
  8
0
100
AcDbLine
 10
1122.618321
 20
1891.968361
 30
0.0
 11
1121.806321
 21
1892.780361
 31
0.0
  0
LINE
  5
136B7
100
AcDbEntity
  8
0
100
AcDbLine
 10
1113.430321
 20
1892.780361
 30
0.0
 11
1112.618321
 21
1891.968361
 31
0.0
  0
LINE
  5
136B8
100
AcDbEntity
  8
0
100
AcDbLine
 10
1057.618321
 20
1955.521722
 30
0.0
 11
1057.618321
 21
1903.780361
 31
0.0
  0
LINE
  5
136B9
100
AcDbEntity
  8
0
100
AcDbLine
 10
1057.618321
 20
1903.780361
 30
0.0
 11
1055.296826
 21
1892.172887
 31
0.0
  0
LINE
  5
136BA
100
AcDbEntity
  8
0
100
AcDbLine
 10
1046.313352
 20
1892.780361
 30
0.0
 11
1054.689352
 21
1892.780361
 31
0.0
  0
LINE
  5
136BB
100
AcDbEntity
  8
0
100
AcDbLine
 10
1054.689352
 20
1892.780361
 30
0.0
 11
1055.501352
 21
1891.968361
 31
0.0
  0
LINE
  5
136BC
100
AcDbEntity
  8
0
100
AcDbLine
 10
1045.501352
 20
1891.968361
 30
0.0
 11
1046.313352
 21
1892.780361
 31
0.0
  0
ARC
  5
136BD
100
AcDbEntity
  8
0
100
AcDbCircle
 10
1021.618321
 20
2009.780361
 30
0.0
 40
56.0
100
AcDbArc
 50
270.0
 51
298.938528
  0
ARC
  5
136BE
100
AcDbEntity
  8
0
100
AcDbCircle
 10
1051.618321
 20
1955.521722
 30
0.0
 40
6.0
100
AcDbArc
 50
0.0
 51
118.938528
  0
LINE
  5
136BF
100
AcDbEntity
  8
0
100
AcDbLine
 10
1021.618321
 20
1953.780361
 30
0.0
 11
1013.118321
 21
1953.780361
 31
0.0
  0
LINE
  5
136C0
100
AcDbEntity
  8
0
100
AcDbLine
 10
1117.618321
 20
2029.780361
 30
0.0
 11
1074.618321
 21
2029.780361
 31
0.0
  0
CIRCLE
  5
136C1
100
AcDbEntity
  8
0
100
AcDbCircle
 10
1117.618321
 20
2038.780361
 30
0.0
 40
9.0
  0
ARC
  5
136C2
100
AcDbEntity
  8
0
100
AcDbCircle
 10
1085.63395
 20
2037.780361
 30
0.0
 40
8.0
100
AcDbArc
 50
270.0
 51
7.180756
  0
ARC
  5
136C3
100
AcDbEntity
  8
0
100
AcDbCircle
 10
1149.577991
 20
2040.38644
 30
0.0
 40
8.0
100
AcDbArc
 50
182.876881
 51
252.0
  0
ARC
  5
136C4
100
AcDbEntity
  8
0
100
AcDbCircle
 10
1117.618321
 20
2038.780361
 30
0.0
 40
24.0
100
AcDbArc
 50
2.876881
 51
181.790785
  0
ARC
  5
136C5
100
AcDbEntity
  8
0
100
AcDbCircle
 10
1117.618321
 20
1953.780361
 30
0.0
 40
76.0
100
AcDbArc
 50
74.335733
 51
90.0
  0
ARC
  5
136C6
100
AcDbEntity
  8
0
100
AcDbCircle
 10
1074.618321
 20
1973.780361
 30
0.0
 40
56.0
100
AcDbArc
 50
90.0
 51
143.130102
  0
LINE
  5
136C7
100
AcDbEntity
  8
0
100
AcDbLine
 10
1026.618321
 20
2005.780361
 30
0.0
 11
1013.118321
 21
2005.780361
 31
0.0
  0
ARC
  5
136C8
100
AcDbEntity
  8
0
100
AcDbCircle
 10
1026.618321
 20
2009.780361
 30
0.0
 40
4.0
100
AcDbArc
 50
270.0
 51
323.130102
  0
LINE
  5
136C9
100
AcDbEntity
  8
0
100
AcDbLine
 10
998.118321
 20
2049.780361
 30
0.0
 11
998.118321
 21
1909.780361
 31
0.0
  0
LINE
  5
136CA
100
AcDbEntity
  8
0
100
AcDbLine
 10
998.118321
 20
1950.780361
 30
0.0
 11
998.118321
 21
1953.780361
 31
0.0
  0
LINE
  5
136CB
100
AcDbEntity
  8
0
100
AcDbLine
 10
998.118321
 20
2008.780361
 30
0.0
 11
998.118321
 21
2005.780361
 31
0.0
  0
LINE
  5
13851
100
AcDbEntity
  8
0
100
AcDbLine
 10
2142.551273
 20
656.538404
 30
0.0
 11
2135.480205
 21
649.467336
 31
0.0
  0
LINE
  5
13852
100
AcDbEntity
  8
0
100
AcDbLine
 10
2072.551273
 20
656.538404
 30
0.0
 11
2079.622341
 21
649.467336
 31
0.0
  0
LINE
  5
13853
100
AcDbEntity
  8
0
100
AcDbLine
 10
2924.271983
 20
809.538404
 30
0.0
 11
3154.271983
 21
809.538404
 31
0.0
  0
ARC
  5
13854
100
AcDbEntity
  8
0
100
AcDbCircle
 10
2953.943729
 20
813.212959
 30
0.0
 40
11.674554
100
AcDbArc
 50
245.991775
 51
294.008225
  0
LINE
  5
13855
100
AcDbEntity
  8
0
100
AcDbLine
 10
2958.693729
 20
801.538404
 30
0.0
 11
2939.693729
 21
801.538404
 31
0.0
  0
ARC
  5
13856
100
AcDbEntity
  8
0
100
AcDbCircle
 10
2944.443729
 20
813.212959
 30
0.0
 40
11.674554
100
AcDbArc
 50
245.991775
 51
294.008225
  0
LINE
  5
13857
100
AcDbEntity
  8
0
100
AcDbLine
 10
2939.693729
 20
809.538404
 30
0.0
 11
2939.693729
 21
801.538404
 31
0.0
  0
LINE
  5
13858
100
AcDbEntity
  8
0
100
AcDbLine
 10
2949.193729
 20
809.538404
 30
0.0
 11
2949.193729
 21
802.548404
 31
0.0
  0
LINE
  5
13859
100
AcDbEntity
  8
0
100
AcDbLine
 10
2958.693729
 20
809.538404
 30
0.0
 11
2958.693729
 21
801.538404
 31
0.0
  0
LINE
  5
1385A
100
AcDbEntity
  8
0
100
AcDbLine
 10
2961.271983
 20
809.538404
 30
0.0
 11
2965.271983
 21
789.538404
 31
0.0
  0
LINE
  5
1385B
100
AcDbEntity
  8
0
100
AcDbLine
 10
3119.850238
 20
801.538404
 30
0.0
 11
3138.850238
 21
801.538404
 31
0.0
  0
ARC
  5
1385C
100
AcDbEntity
  8
0
100
AcDbCircle
 10
3134.100238
 20
813.212959
 30
0.0
 40
11.674554
100
AcDbArc
 50
245.991775
 51
294.008225
  0
LINE
  5
1385D
100
AcDbEntity
  8
0
100
AcDbLine
 10
3011.460349
 20
809.538404
 30
0.0
 11
3011.460349
 21
801.538404
 31
0.0
  0
LINE
  5
1385E
100
AcDbEntity
  8
0
100
AcDbLine
 10
3001.960349
 20
809.538404
 30
0.0
 11
3001.960349
 21
802.548404
 31
0.0
  0
LINE
  5
1385F
100
AcDbEntity
  8
0
100
AcDbLine
 10
3011.460349
 20
801.538404
 30
0.0
 11
2992.460349
 21
801.538404
 31
0.0
  0
ARC
  5
13860
100
AcDbEntity
  8
0
100
AcDbCircle
 10
3006.710349
 20
813.212959
 30
0.0
 40
11.674554
100
AcDbArc
 50
245.991775
 51
294.008225
  0
LINE
  5
13861
100
AcDbEntity
  8
0
100
AcDbLine
 10
2992.460349
 20
809.538404
 30
0.0
 11
2992.460349
 21
801.538404
 31
0.0
  0
ARC
  5
13862
100
AcDbEntity
  8
0
100
AcDbCircle
 10
2997.210349
 20
813.212959
 30
0.0
 40
11.674554
100
AcDbArc
 50
245.991775
 51
294.008225
  0
ARC
  5
13863
100
AcDbEntity
  8
0
100
AcDbCircle
 10
3081.333618
 20
813.212959
 30
0.0
 40
11.674554
100
AcDbArc
 50
245.991775
 51
294.008225
  0
LINE
  5
13864
100
AcDbEntity
  8
0
100
AcDbLine
 10
3086.083618
 20
809.538404
 30
0.0
 11
3086.083618
 21
801.538404
 31
0.0
  0
ARC
  5
13865
100
AcDbEntity
  8
0
100
AcDbCircle
 10
3071.833618
 20
813.212959
 30
0.0
 40
11.674554
100
AcDbArc
 50
245.991775
 51
294.008225
  0
LINE
  5
13866
100
AcDbEntity
  8
0
100
AcDbLine
 10
3067.083618
 20
801.538404
 30
0.0
 11
3086.083618
 21
801.538404
 31
0.0
  0
LINE
  5
13867
100
AcDbEntity
  8
0
100
AcDbLine
 10
3067.083618
 20
809.538404
 30
0.0
 11
3067.083618
 21
801.538404
 31
0.0
  0
LINE
  5
13868
100
AcDbEntity
  8
0
100
AcDbLine
 10
3076.583618
 20
809.538404
 30
0.0
 11
3076.583618
 21
802.548404
 31
0.0
  0
LINE
  5
13869
100
AcDbEntity
  8
0
100
AcDbLine
 10
3129.350238
 20
809.538404
 30
0.0
 11
3129.350238
 21
802.548404
 31
0.0
  0
LINE
  5
1386A
100
AcDbEntity
  8
0
100
AcDbLine
 10
3119.850238
 20
809.538404
 30
0.0
 11
3119.850238
 21
801.538404
 31
0.0
  0
ARC
  5
1386B
100
AcDbEntity
  8
0
100
AcDbCircle
 10
3124.600238
 20
813.212959
 30
0.0
 40
11.674554
100
AcDbArc
 50
245.991775
 51
294.008225
  0
LINE
  5
1386C
100
AcDbEntity
  8
0
100
AcDbLine
 10
3117.271983
 20
809.538404
 30
0.0
 11
3113.271983
 21
789.538404
 31
0.0
  0
LINE
  5
1386D
100
AcDbEntity
  8
0
100
AcDbLine
 10
3138.850238
 20
809.538404
 30
0.0
 11
3138.850238
 21
801.538404
 31
0.0
  0
LINE
  5
1386E
100
AcDbEntity
  8
0
100
AcDbLine
 10
2965.622825
 20
656.538404
 30
0.0
 11
2946.622825
 21
656.538404
 31
0.0
  0
ARC
  5
1386F
100
AcDbEntity
  8
0
100
AcDbCircle
 10
2960.872825
 20
668.212959
 30
0.0
 40
11.674554
100
AcDbArc
 50
245.991775
 51
294.008225
  0
LINE
  5
13870
100
AcDbEntity
  8
0
100
AcDbLine
 10
2956.122825
 20
664.538404
 30
0.0
 11
2956.122825
 21
657.548404
 31
0.0
  0
ARC
  5
13871
100
AcDbEntity
  8
0
100
AcDbCircle
 10
2951.372825
 20
668.212959
 30
0.0
 40
11.674554
100
AcDbArc
 50
245.991775
 51
294.008225
  0
LINE
  5
13872
100
AcDbEntity
  8
0
100
AcDbLine
 10
2946.622825
 20
664.538404
 30
0.0
 11
2946.622825
 21
656.538404
 31
0.0
  0
LINE
  5
13873
100
AcDbEntity
  8
0
100
AcDbLine
 10
2965.622825
 20
664.538404
 30
0.0
 11
2965.622825
 21
656.538404
 31
0.0
  0
LINE
  5
13874
100
AcDbEntity
  8
0
100
AcDbLine
 10
3004.271983
 20
656.538404
 30
0.0
 11
3011.343051
 21
649.467336
 31
0.0
  0
LINE
  5
13875
100
AcDbEntity
  8
0
100
AcDbLine
 10
3014.330474
 20
656.538404
 30
0.0
 11
2995.330474
 21
656.538404
 31
0.0
  0
LINE
  5
13876
100
AcDbEntity
  8
0
100
AcDbLine
 10
3004.830474
 20
664.538404
 30
0.0
 11
3004.830474
 21
657.548404
 31
0.0
  0
LINE
  5
13877
100
AcDbEntity
  8
0
100
AcDbLine
 10
2995.330474
 20
664.538404
 30
0.0
 11
2995.330474
 21
656.538404
 31
0.0
  0
ARC
  5
13878
100
AcDbEntity
  8
0
100
AcDbCircle
 10
3000.080474
 20
668.212959
 30
0.0
 40
11.674554
100
AcDbArc
 50
245.991775
 51
294.008225
  0
ARC
  5
13879
100
AcDbEntity
  8
0
100
AcDbCircle
 10
3009.580474
 20
668.212959
 30
0.0
 40
11.674554
100
AcDbArc
 50
245.991775
 51
294.008225
  0
LINE
  5
1387A
100
AcDbEntity
  8
0
100
AcDbLine
 10
3014.330474
 20
664.538404
 30
0.0
 11
3014.330474
 21
656.538404
 31
0.0
  0
ARC
  5
1387B
100
AcDbEntity
  8
0
100
AcDbCircle
 10
3018.414119
 20
656.538404
 30
0.0
 40
10.0
100
AcDbArc
 50
225.0
 51
260.548448
  0
ARC
  5
1387C
100
AcDbEntity
  8
0
100
AcDbCircle
 10
3012.771983
 20
660.538404
 30
0.0
 40
4.0
100
AcDbArc
 50
0.0
 51
67.068971
  0
ARC
  5
1387D
100
AcDbEntity
  8
0
100
AcDbCircle
 10
3117.671141
 20
668.212959
 30
0.0
 40
11.674554
100
AcDbArc
 50
245.991775
 51
294.008225
  0
LINE
  5
1387E
100
AcDbEntity
  8
0
100
AcDbLine
 10
3112.921141
 20
656.538404
 30
0.0
 11
3131.921141
 21
656.538404
 31
0.0
  0
LINE
  5
1387F
100
AcDbEntity
  8
0
100
AcDbLine
 10
3131.921141
 20
664.538404
 30
0.0
 11
3131.921141
 21
656.538404
 31
0.0
  0
ARC
  5
13880
100
AcDbEntity
  8
0
100
AcDbCircle
 10
3127.171141
 20
668.212959
 30
0.0
 40
11.674554
100
AcDbArc
 50
245.991775
 51
294.008225
  0
LINE
  5
13881
100
AcDbEntity
  8
0
100
AcDbLine
 10
3122.421141
 20
664.538404
 30
0.0
 11
3122.421141
 21
657.548404
 31
0.0
  0
ARC
  5
13882
100
AcDbEntity
  8
0
100
AcDbCircle
 10
3078.463492
 20
668.212959
 30
0.0
 40
11.674554
100
AcDbArc
 50
245.991775
 51
294.008225
  0
LINE
  5
13883
100
AcDbEntity
  8
0
100
AcDbLine
 10
3064.213492
 20
656.538404
 30
0.0
 11
3083.213492
 21
656.538404
 31
0.0
  0
LINE
  5
13884
100
AcDbEntity
  8
0
100
AcDbLine
 10
3083.213492
 20
664.538404
 30
0.0
 11
3083.213492
 21
656.538404
 31
0.0
  0
LINE
  5
13885
100
AcDbEntity
  8
0
100
AcDbLine
 10
3112.921141
 20
664.538404
 30
0.0
 11
3112.921141
 21
656.538404
 31
0.0
  0
ARC
  5
13886
100
AcDbEntity
  8
0
100
AcDbCircle
 10
3060.129848
 20
656.538404
 30
0.0
 40
10.0
100
AcDbArc
 50
279.451552
 51
315.0
  0
LINE
  5
13887
100
AcDbEntity
  8
0
100
AcDbLine
 10
3064.213492
 20
664.538404
 30
0.0
 11
3064.213492
 21
656.538404
 31
0.0
  0
ARC
  5
13888
100
AcDbEntity
  8
0
100
AcDbCircle
 10
3068.963492
 20
668.212959
 30
0.0
 40
11.674554
100
AcDbArc
 50
245.991775
 51
294.008225
  0
LINE
  5
13889
100
AcDbEntity
  8
0
100
AcDbLine
 10
3073.713492
 20
664.538404
 30
0.0
 11
3073.713492
 21
657.548404
 31
0.0
  0
LINE
  5
1388A
100
AcDbEntity
  8
0
100
AcDbLine
 10
3074.271983
 20
656.538404
 30
0.0
 11
3067.200915
 21
649.467336
 31
0.0
  0
LINE
  5
1388B
100
AcDbEntity
  8
0
100
AcDbLine
 10
2508.911628
 20
1895.780361
 30
0.0
 11
2505.715512
 21
1879.799781
 31
0.0
  0
LINE
  5
1388C
100
AcDbEntity
  8
0
100
AcDbLine
 10
2662.911628
 20
1895.780361
 30
0.0
 11
2666.107744
 21
1879.799781
 31
0.0
  0
LINE
  5
1388D
100
AcDbEntity
  8
0
100
AcDbLine
 10
2552.911628
 20
1678.780361
 30
0.0
 11
2557.982696
 21
1673.709294
 31
0.0
  0
LINE
  5
1388E
100
AcDbEntity
  8
0
100
AcDbLine
 10
2554.599994
 20
1878.833361
 30
0.0
 11
2553.652994
 21
1879.780361
 31
0.0
  0
LINE
  5
1388F
100
AcDbEntity
  8
0
100
AcDbLine
 10
2539.378994
 20
1823.780361
 30
0.0
 11
2557.820994
 21
1823.780361
 31
0.0
  0
ARC
  5
13890
100
AcDbEntity
  8
0
100
AcDbCircle
 10
2556.826994
 20
1829.180158
 30
0.0
 40
5.176327
100
AcDbArc
 50
238.000464
 51
301.999536
  0
LINE
  5
13891
100
AcDbEntity
  8
0
100
AcDbLine
 10
2542.249119
 20
1678.780361
 30
0.0
 11
2560.691119
 21
1678.780361
 31
0.0
  0
ARC
  5
13892
100
AcDbEntity
  8
0
100
AcDbCircle
 10
2551.470119
 20
1698.520267
 30
0.0
 40
19.51624
100
AcDbArc
 50
253.680297
 51
286.319703
  0
LINE
  5
13893
100
AcDbEntity
  8
0
100
AcDbLine
 10
2556.523119
 20
1734.780361
 30
0.0
 11
2546.417119
 21
1734.780361
 31
0.0
  0
LINE
  5
13894
100
AcDbEntity
  8
0
100
AcDbLine
 10
2691.911628
 20
1688.780361
 30
0.0
 11
2479.911628
 21
1688.780361
 31
0.0
  0
LINE
  5
13895
100
AcDbEntity
  8
0
100
AcDbLine
 10
2691.911628
 20
1709.780361
 30
0.0
 11
2479.911628
 21
1709.780361
 31
0.0
  0
LINE
  5
13896
100
AcDbEntity
  8
0
100
AcDbLine
 10
2691.911628
 20
1730.780361
 30
0.0
 11
2479.911628
 21
1730.780361
 31
0.0
  0
LINE
  5
13897
100
AcDbEntity
  8
0
100
AcDbLine
 10
2700.911628
 20
1833.780361
 30
0.0
 11
2470.911628
 21
1833.780361
 31
0.0
  0
LINE
  5
13898
100
AcDbEntity
  8
0
100
AcDbLine
 10
2700.911628
 20
1854.780361
 30
0.0
 11
2470.911628
 21
1854.780361
 31
0.0
  0
LINE
  5
13899
100
AcDbEntity
  8
0
100
AcDbLine
 10
2700.911628
 20
1875.780361
 30
0.0
 11
2470.911628
 21
1875.780361
 31
0.0
  0
LINE
  5
1389A
100
AcDbEntity
  8
0
100
AcDbLine
 10
2564.411628
 20
1648.780361
 30
0.0
 11
2521.411628
 21
1648.780361
 31
0.0
  0
LINE
  5
1389B
100
AcDbEntity
  8
0
100
AcDbLine
 10
2691.911628
 20
1730.780361
 30
0.0
 11
2691.911628
 21
1688.780361
 31
0.0
  0
LINE
  5
1389C
100
AcDbEntity
  8
0
100
AcDbLine
 10
2611.132137
 20
1678.780361
 30
0.0
 11
2629.574137
 21
1678.780361
 31
0.0
  0
ARC
  5
1389D
100
AcDbEntity
  8
0
100
AcDbCircle
 10
2620.353137
 20
1698.520267
 30
0.0
 40
19.51624
100
AcDbArc
 50
253.680297
 51
286.319703
  0
ARC
  5
1389E
100
AcDbEntity
  8
0
100
AcDbCircle
 10
2660.833786
 20
1684.180158
 30
0.0
 40
5.176327
100
AcDbArc
 50
238.000464
 51
301.999536
  0
LINE
  5
1389F
100
AcDbEntity
  8
0
100
AcDbLine
 10
2658.090786
 20
1679.790361
 30
0.0
 11
2659.839786
 21
1678.780361
 31
0.0
  0
LINE
  5
138A0
100
AcDbEntity
  8
0
100
AcDbLine
 10
2659.839786
 20
1678.780361
 30
0.0
 11
2678.281786
 21
1678.780361
 31
0.0
  0
ARC
  5
138A1
100
AcDbEntity
  8
0
100
AcDbCircle
 10
2669.060786
 20
1698.520267
 30
0.0
 40
19.51624
100
AcDbArc
 50
253.680297
 51
286.319703
  0
LINE
  5
138A2
100
AcDbEntity
  8
0
100
AcDbLine
 10
2663.576786
 20
1679.790361
 30
0.0
 11
2663.576786
 21
1688.780361
 31
0.0
  0
ARC
  5
138A3
100
AcDbEntity
  8
0
100
AcDbCircle
 10
2677.287786
 20
1684.180158
 30
0.0
 40
5.176327
100
AcDbArc
 50
238.000464
 51
301.999536
  0
LINE
  5
138A4
100
AcDbEntity
  8
0
100
AcDbLine
 10
2678.281786
 20
1678.780361
 30
0.0
 11
2680.030786
 21
1679.790361
 31
0.0
  0
LINE
  5
138A5
100
AcDbEntity
  8
0
100
AcDbLine
 10
2680.030786
 20
1679.790361
 30
0.0
 11
2680.030786
 21
1688.780361
 31
0.0
  0
LINE
  5
138A6
100
AcDbEntity
  8
0
100
AcDbLine
 10
2674.544786
 20
1679.790361
 30
0.0
 11
2674.544786
 21
1688.780361
 31
0.0
  0
ARC
  5
138A7
100
AcDbEntity
  8
0
100
AcDbCircle
 10
2633.053764
 20
1678.780361
 30
0.0
 40
10.0
100
AcDbArc
 50
90.0
 51
99.965937
  0
ARC
  5
138A8
100
AcDbEntity
  8
0
100
AcDbCircle
 10
2628.580137
 20
1684.180158
 30
0.0
 40
5.176327
100
AcDbArc
 50
238.000464
 51
301.999536
  0
LINE
  5
138A9
100
AcDbEntity
  8
0
100
AcDbLine
 10
2629.574137
 20
1678.780361
 30
0.0
 11
2631.323137
 21
1679.790361
 31
0.0
  0
LINE
  5
138AA
100
AcDbEntity
  8
0
100
AcDbLine
 10
2631.323137
 20
1679.790361
 30
0.0
 11
2631.323137
 21
1688.780361
 31
0.0
  0
LINE
  5
138AB
100
AcDbEntity
  8
0
100
AcDbLine
 10
2625.837137
 20
1679.790361
 30
0.0
 11
2625.837137
 21
1688.780361
 31
0.0
  0
LINE
  5
138AC
100
AcDbEntity
  8
0
100
AcDbLine
 10
2658.090786
 20
1688.780361
 30
0.0
 11
2658.090786
 21
1679.790361
 31
0.0
  0
LINE
  5
138AD
100
AcDbEntity
  8
0
100
AcDbLine
 10
2609.911628
 20
1660.780361
 30
0.0
 11
2575.911628
 21
1660.780361
 31
0.0
  0
LINE
  5
138AE
100
AcDbEntity
  8
0
100
AcDbLine
 10
2606.769493
 20
1670.780361
 30
0.0
 11
2565.053764
 21
1670.780361
 31
0.0
  0
LINE
  5
138AF
100
AcDbEntity
  8
0
100
AcDbLine
 10
2618.911628
 20
1678.780361
 30
0.0
 11
2613.84056
 21
1673.709294
 31
0.0
  0
ARC
  5
138B0
100
AcDbEntity
  8
0
100
AcDbCircle
 10
2612.126137
 20
1684.180158
 30
0.0
 40
5.176327
100
AcDbArc
 50
238.000464
 51
301.999536
  0
LINE
  5
138B1
100
AcDbEntity
  8
0
100
AcDbLine
 10
2614.869137
 20
1679.790361
 30
0.0
 11
2614.869137
 21
1688.780361
 31
0.0
  0
LINE
  5
138B2
100
AcDbEntity
  8
0
100
AcDbLine
 10
2609.383137
 20
1679.790361
 30
0.0
 11
2611.132137
 21
1678.780361
 31
0.0
  0
LINE
  5
138B3
100
AcDbEntity
  8
0
100
AcDbLine
 10
2609.383137
 20
1688.780361
 30
0.0
 11
2609.383137
 21
1679.790361
 31
0.0
  0
ARC
  5
138B4
100
AcDbEntity
  8
0
100
AcDbCircle
 10
2609.911628
 20
1662.780361
 30
0.0
 40
2.0
100
AcDbArc
 50
270.0
 51
0.0
  0
LINE
  5
138B5
100
AcDbEntity
  8
0
100
AcDbLine
 10
2611.911628
 20
1672.20374
 30
0.0
 11
2611.911628
 21
1662.780361
 31
0.0
  0
ARC
  5
138B6
100
AcDbEntity
  8
0
100
AcDbCircle
 10
2606.769493
 20
1680.780361
 30
0.0
 40
10.0
100
AcDbArc
 50
270.0
 51
315.0
  0
ARC
  5
138B7
100
AcDbEntity
  8
0
100
AcDbCircle
 10
2559.697119
 20
1684.180158
 30
0.0
 40
5.176327
100
AcDbArc
 50
238.000464
 51
301.999536
  0
LINE
  5
138B8
100
AcDbEntity
  8
0
100
AcDbLine
 10
2560.691119
 20
1678.780361
 30
0.0
 11
2562.440119
 21
1679.790361
 31
0.0
  0
LINE
  5
138B9
100
AcDbEntity
  8
0
100
AcDbLine
 10
2562.440119
 20
1679.790361
 30
0.0
 11
2562.440119
 21
1688.780361
 31
0.0
  0
LINE
  5
138BA
100
AcDbEntity
  8
0
100
AcDbLine
 10
2556.954119
 20
1679.790361
 30
0.0
 11
2556.954119
 21
1688.780361
 31
0.0
  0
ARC
  5
138BB
100
AcDbEntity
  8
0
100
AcDbCircle
 10
2575.911628
 20
1662.780361
 30
0.0
 40
2.0
100
AcDbArc
 50
180.0
 51
270.0
  0
LINE
  5
138BC
100
AcDbEntity
  8
0
100
AcDbLine
 10
2573.911628
 20
1666.780361
 30
0.0
 11
2573.911628
 21
1662.780361
 31
0.0
  0
LINE
  5
138BD
100
AcDbEntity
  8
0
100
AcDbLine
 10
2564.411628
 20
1648.780361
 30
0.0
 11
2565.411628
 21
1649.780361
 31
0.0
  0
LINE
  5
138BE
100
AcDbEntity
  8
0
100
AcDbLine
 10
2565.411628
 20
1666.780361
 30
0.0
 11
2565.411628
 21
1649.780361
 31
0.0
  0
ARC
  5
138BF
100
AcDbEntity
  8
0
100
AcDbCircle
 10
2565.053764
 20
1680.780361
 30
0.0
 40
10.0
100
AcDbArc
 50
225.0
 51
270.0
  0
LINE
  5
138C0
100
AcDbEntity
  8
0
100
AcDbLine
 10
2569.911628
 20
1670.780361
 30
0.0
 11
2569.411628
 21
1670.780361
 31
0.0
  0
ARC
  5
138C1
100
AcDbEntity
  8
0
100
AcDbCircle
 10
2569.411628
 20
1666.780361
 30
0.0
 40
4.0
100
AcDbArc
 50
90.0
 51
180.0
  0
ARC
  5
138C2
100
AcDbEntity
  8
0
100
AcDbCircle
 10
2569.911628
 20
1666.780361
 30
0.0
 40
4.0
100
AcDbArc
 50
0.0
 51
90.0
  0
LINE
  5
138C3
100
AcDbEntity
  8
0
100
AcDbLine
 10
2700.911628
 20
1875.780361
 30
0.0
 11
2700.911628
 21
1833.780361
 31
0.0
  0
LINE
  5
138C4
100
AcDbEntity
  8
0
100
AcDbLine
 10
2659.911628
 20
1813.780361
 30
0.0
 11
2659.911628
 21
1750.780361
 31
0.0
  0
LINE
  5
138C5
100
AcDbEntity
  8
0
100
AcDbLine
 10
2625.406137
 20
1734.780361
 30
0.0
 11
2615.300137
 21
1734.780361
 31
0.0
  0
LINE
  5
138C6
100
AcDbEntity
  8
0
100
AcDbLine
 10
2663.260988
 20
1734.033563
 30
0.0
 11
2659.911628
 21
1750.780361
 31
0.0
  0
LINE
  5
138C7
100
AcDbEntity
  8
0
100
AcDbLine
 10
2664.007786
 20
1734.780361
 30
0.0
 11
2663.060786
 21
1733.833361
 31
0.0
  0
LINE
  5
138C8
100
AcDbEntity
  8
0
100
AcDbLine
 10
2663.060786
 20
1733.833361
 30
0.0
 11
2663.060786
 21
1730.780361
 31
0.0
  0
LINE
  5
138C9
100
AcDbEntity
  8
0
100
AcDbLine
 10
2674.113786
 20
1734.780361
 30
0.0
 11
2664.007786
 21
1734.780361
 31
0.0
  0
LINE
  5
138CA
100
AcDbEntity
  8
0
100
AcDbLine
 10
2675.060786
 20
1733.833361
 30
0.0
 11
2675.060786
 21
1730.780361
 31
0.0
  0
LINE
  5
138CB
100
AcDbEntity
  8
0
100
AcDbLine
 10
2675.060786
 20
1733.833361
 30
0.0
 11
2674.113786
 21
1734.780361
 31
0.0
  0
LINE
  5
138CC
100
AcDbEntity
  8
0
100
AcDbLine
 10
2626.353137
 20
1733.833361
 30
0.0
 11
2626.353137
 21
1730.780361
 31
0.0
  0
LINE
  5
138CD
100
AcDbEntity
  8
0
100
AcDbLine
 10
2626.353137
 20
1733.833361
 30
0.0
 11
2625.406137
 21
1734.780361
 31
0.0
  0
LINE
  5
138CE
100
AcDbEntity
  8
0
100
AcDbLine
 10
2615.300137
 20
1734.780361
 30
0.0
 11
2614.353137
 21
1733.833361
 31
0.0
  0
LINE
  5
138CF
100
AcDbEntity
  8
0
100
AcDbLine
 10
2614.353137
 20
1733.833361
 30
0.0
 11
2614.353137
 21
1730.780361
 31
0.0
  0
LINE
  5
138D0
100
AcDbEntity
  8
0
100
AcDbLine
 10
2557.470119
 20
1733.833361
 30
0.0
 11
2557.470119
 21
1730.780361
 31
0.0
  0
LINE
  5
138D1
100
AcDbEntity
  8
0
100
AcDbLine
 10
2557.470119
 20
1733.833361
 30
0.0
 11
2556.523119
 21
1734.780361
 31
0.0
  0
LINE
  5
138D2
100
AcDbEntity
  8
0
100
AcDbLine
 10
2618.170263
 20
1879.780361
 30
0.0
 11
2628.276263
 21
1879.780361
 31
0.0
  0
ARC
  5
138D3
100
AcDbEntity
  8
0
100
AcDbCircle
 10
2623.223263
 20
1843.520267
 30
0.0
 40
19.51624
100
AcDbArc
 50
253.680297
 51
286.319703
  0
LINE
  5
138D4
100
AcDbEntity
  8
0
100
AcDbLine
 10
2632.444263
 20
1823.780361
 30
0.0
 11
2614.002263
 21
1823.780361
 31
0.0
  0
LINE
  5
138D5
100
AcDbEntity
  8
0
100
AcDbLine
 10
2663.911628
 20
1833.780361
 30
0.0
 11
2659.911628
 21
1813.780361
 31
0.0
  0
ARC
  5
138D6
100
AcDbEntity
  8
0
100
AcDbCircle
 10
2684.216883
 20
1829.180158
 30
0.0
 40
5.176327
100
AcDbArc
 50
238.000464
 51
301.999536
  0
LINE
  5
138D7
100
AcDbEntity
  8
0
100
AcDbLine
 10
2685.210883
 20
1823.780361
 30
0.0
 11
2666.768883
 21
1823.780361
 31
0.0
  0
ARC
  5
138D8
100
AcDbEntity
  8
0
100
AcDbCircle
 10
2667.762883
 20
1829.180158
 30
0.0
 40
5.176327
100
AcDbArc
 50
238.000464
 51
301.999536
  0
LINE
  5
138D9
100
AcDbEntity
  8
0
100
AcDbLine
 10
2666.768883
 20
1823.780361
 30
0.0
 11
2665.019883
 21
1824.790361
 31
0.0
  0
LINE
  5
138DA
100
AcDbEntity
  8
0
100
AcDbLine
 10
2670.505883
 20
1824.790361
 30
0.0
 11
2670.505883
 21
1833.780361
 31
0.0
  0
LINE
  5
138DB
100
AcDbEntity
  8
0
100
AcDbLine
 10
2665.019883
 20
1824.790361
 30
0.0
 11
2665.019883
 21
1833.780361
 31
0.0
  0
LINE
  5
138DC
100
AcDbEntity
  8
0
100
AcDbLine
 10
2681.473883
 20
1824.790361
 30
0.0
 11
2681.473883
 21
1833.780361
 31
0.0
  0
ARC
  5
138DD
100
AcDbEntity
  8
0
100
AcDbCircle
 10
2675.989883
 20
1843.520267
 30
0.0
 40
19.51624
100
AcDbArc
 50
253.680297
 51
286.319703
  0
LINE
  5
138DE
100
AcDbEntity
  8
0
100
AcDbLine
 10
2686.959883
 20
1824.790361
 30
0.0
 11
2685.210883
 21
1823.780361
 31
0.0
  0
LINE
  5
138DF
100
AcDbEntity
  8
0
100
AcDbLine
 10
2686.959883
 20
1833.780361
 30
0.0
 11
2686.959883
 21
1824.790361
 31
0.0
  0
LINE
  5
138E0
100
AcDbEntity
  8
0
100
AcDbLine
 10
2634.193263
 20
1833.780361
 30
0.0
 11
2634.193263
 21
1824.790361
 31
0.0
  0
LINE
  5
138E1
100
AcDbEntity
  8
0
100
AcDbLine
 10
2634.193263
 20
1824.790361
 30
0.0
 11
2632.444263
 21
1823.780361
 31
0.0
  0
LINE
  5
138E2
100
AcDbEntity
  8
0
100
AcDbLine
 10
2628.707263
 20
1824.790361
 30
0.0
 11
2628.707263
 21
1833.780361
 31
0.0
  0
ARC
  5
138E3
100
AcDbEntity
  8
0
100
AcDbCircle
 10
2631.450263
 20
1829.180158
 30
0.0
 40
5.176327
100
AcDbArc
 50
238.000464
 51
301.999536
  0
ARC
  5
138E4
100
AcDbEntity
  8
0
100
AcDbCircle
 10
2671.010648
 20
1880.780361
 30
0.0
 40
5.0
100
AcDbArc
 50
191.309932
 51
270.0
  0
LINE
  5
138E5
100
AcDbEntity
  8
0
100
AcDbLine
 10
2670.936883
 20
1879.780361
 30
0.0
 11
2681.042883
 21
1879.780361
 31
0.0
  0
LINE
  5
138E6
100
AcDbEntity
  8
0
100
AcDbLine
 10
2681.989883
 20
1878.833361
 30
0.0
 11
2681.989883
 21
1875.780361
 31
0.0
  0
LINE
  5
138E7
100
AcDbEntity
  8
0
100
AcDbLine
 10
2681.042883
 20
1879.780361
 30
0.0
 11
2681.989883
 21
1878.833361
 31
0.0
  0
LINE
  5
138E8
100
AcDbEntity
  8
0
100
AcDbLine
 10
2669.989883
 20
1878.833361
 30
0.0
 11
2670.936883
 21
1879.780361
 31
0.0
  0
LINE
  5
138E9
100
AcDbEntity
  8
0
100
AcDbLine
 10
2669.989883
 20
1875.780361
 30
0.0
 11
2669.989883
 21
1878.833361
 31
0.0
  0
LINE
  5
138EA
100
AcDbEntity
  8
0
100
AcDbLine
 10
2628.276263
 20
1879.780361
 30
0.0
 11
2629.223263
 21
1878.833361
 31
0.0
  0
LINE
  5
138EB
100
AcDbEntity
  8
0
100
AcDbLine
 10
2629.223263
 20
1878.833361
 30
0.0
 11
2629.223263
 21
1875.780361
 31
0.0
  0
LINE
  5
138EC
100
AcDbEntity
  8
0
100
AcDbLine
 10
2612.253263
 20
1824.790361
 30
0.0
 11
2612.253263
 21
1833.780361
 31
0.0
  0
LINE
  5
138ED
100
AcDbEntity
  8
0
100
AcDbLine
 10
2617.739263
 20
1824.790361
 30
0.0
 11
2617.739263
 21
1833.780361
 31
0.0
  0
LINE
  5
138EE
100
AcDbEntity
  8
0
100
AcDbLine
 10
2614.002263
 20
1823.780361
 30
0.0
 11
2612.253263
 21
1824.790361
 31
0.0
  0
ARC
  5
138EF
100
AcDbEntity
  8
0
100
AcDbCircle
 10
2614.996263
 20
1829.180158
 30
0.0
 40
5.176327
100
AcDbArc
 50
238.000464
 51
301.999536
  0
LINE
  5
138F0
100
AcDbEntity
  8
0
100
AcDbLine
 10
2557.820994
 20
1823.780361
 30
0.0
 11
2559.569994
 21
1824.790361
 31
0.0
  0
LINE
  5
138F1
100
AcDbEntity
  8
0
100
AcDbLine
 10
2559.569994
 20
1824.790361
 30
0.0
 11
2559.569994
 21
1833.780361
 31
0.0
  0
LINE
  5
138F2
100
AcDbEntity
  8
0
100
AcDbLine
 10
2617.223263
 20
1875.780361
 30
0.0
 11
2617.223263
 21
1878.833361
 31
0.0
  0
LINE
  5
138F3
100
AcDbEntity
  8
0
100
AcDbLine
 10
2617.223263
 20
1878.833361
 30
0.0
 11
2618.170263
 21
1879.780361
 31
0.0
  0
LINE
  5
138F4
100
AcDbEntity
  8
0
100
AcDbLine
 10
2554.599994
 20
1875.780361
 30
0.0
 11
2554.599994
 21
1878.833361
 31
0.0
  0
LINE
  5
138F5
100
AcDbEntity
  8
0
100
AcDbLine
 10
2479.911628
 20
1730.780361
 30
0.0
 11
2479.911628
 21
1688.780361
 31
0.0
  0
ARC
  5
138F6
100
AcDbEntity
  8
0
100
AcDbCircle
 10
2516.411628
 20
1684.780361
 30
0.0
 40
4.0
100
AcDbArc
 50
0.0
 51
90.0
  0
ARC
  5
138F7
100
AcDbEntity
  8
0
100
AcDbCircle
 10
2538.769493
 20
1678.780361
 30
0.0
 40
10.0
100
AcDbArc
 50
80.034063
 51
90.0
  0
ARC
  5
138F8
100
AcDbEntity
  8
0
100
AcDbCircle
 10
2543.243119
 20
1684.180158
 30
0.0
 40
5.176327
100
AcDbArc
 50
238.000464
 51
301.999536
  0
LINE
  5
138F9
100
AcDbEntity
  8
0
100
AcDbLine
 10
2545.986119
 20
1679.790361
 30
0.0
 11
2545.986119
 21
1688.780361
 31
0.0
  0
LINE
  5
138FA
100
AcDbEntity
  8
0
100
AcDbLine
 10
2540.500119
 20
1679.790361
 30
0.0
 11
2542.249119
 21
1678.780361
 31
0.0
  0
LINE
  5
138FB
100
AcDbEntity
  8
0
100
AcDbLine
 10
2540.500119
 20
1688.780361
 30
0.0
 11
2540.500119
 21
1679.790361
 31
0.0
  0
LINE
  5
138FC
100
AcDbEntity
  8
0
100
AcDbLine
 10
2520.411628
 20
1649.780361
 30
0.0
 11
2521.411628
 21
1648.780361
 31
0.0
  0
LINE
  5
138FD
100
AcDbEntity
  8
0
100
AcDbLine
 10
2520.411628
 20
1684.780361
 30
0.0
 11
2520.411628
 21
1649.780361
 31
0.0
  0
LINE
  5
138FE
100
AcDbEntity
  8
0
100
AcDbLine
 10
2493.54147
 20
1678.780361
 30
0.0
 11
2511.98347
 21
1678.780361
 31
0.0
  0
ARC
  5
138FF
100
AcDbEntity
  8
0
100
AcDbCircle
 10
2502.76247
 20
1698.520267
 30
0.0
 40
19.51624
100
AcDbArc
 50
253.680297
 51
286.319703
  0
ARC
  5
13900
100
AcDbEntity
  8
0
100
AcDbCircle
 10
2494.53547
 20
1684.180158
 30
0.0
 40
5.176327
100
AcDbArc
 50
238.000464
 51
301.999536
  0
LINE
  5
13901
100
AcDbEntity
  8
0
100
AcDbLine
 10
2497.27847
 20
1679.790361
 30
0.0
 11
2497.27847
 21
1688.780361
 31
0.0
  0
LINE
  5
13902
100
AcDbEntity
  8
0
100
AcDbLine
 10
2491.79247
 20
1679.790361
 30
0.0
 11
2493.54147
 21
1678.780361
 31
0.0
  0
LINE
  5
13903
100
AcDbEntity
  8
0
100
AcDbLine
 10
2491.79247
 20
1688.780361
 30
0.0
 11
2491.79247
 21
1679.790361
 31
0.0
  0
ARC
  5
13904
100
AcDbEntity
  8
0
100
AcDbCircle
 10
2510.98947
 20
1684.180158
 30
0.0
 40
5.176327
100
AcDbArc
 50
238.000464
 51
301.999536
  0
LINE
  5
13905
100
AcDbEntity
  8
0
100
AcDbLine
 10
2511.98347
 20
1678.780361
 30
0.0
 11
2513.73247
 21
1679.790361
 31
0.0
  0
LINE
  5
13906
100
AcDbEntity
  8
0
100
AcDbLine
 10
2508.24647
 20
1679.790361
 30
0.0
 11
2508.24647
 21
1688.780361
 31
0.0
  0
LINE
  5
13907
100
AcDbEntity
  8
0
100
AcDbLine
 10
2513.73247
 20
1679.790361
 30
0.0
 11
2513.73247
 21
1688.780361
 31
0.0
  0
LINE
  5
13908
100
AcDbEntity
  8
0
100
AcDbLine
 10
2511.911628
 20
1813.780361
 30
0.0
 11
2511.911628
 21
1750.780361
 31
0.0
  0
LINE
  5
13909
100
AcDbEntity
  8
0
100
AcDbLine
 10
2508.562269
 20
1734.033563
 30
0.0
 11
2511.911628
 21
1750.780361
 31
0.0
  0
LINE
  5
1390A
100
AcDbEntity
  8
0
100
AcDbLine
 10
2546.417119
 20
1734.780361
 30
0.0
 11
2545.470119
 21
1733.833361
 31
0.0
  0
LINE
  5
1390B
100
AcDbEntity
  8
0
100
AcDbLine
 10
2545.470119
 20
1733.833361
 30
0.0
 11
2545.470119
 21
1730.780361
 31
0.0
  0
LINE
  5
1390C
100
AcDbEntity
  8
0
100
AcDbLine
 10
2507.81547
 20
1734.780361
 30
0.0
 11
2497.70947
 21
1734.780361
 31
0.0
  0
LINE
  5
1390D
100
AcDbEntity
  8
0
100
AcDbLine
 10
2497.70947
 20
1734.780361
 30
0.0
 11
2496.76247
 21
1733.833361
 31
0.0
  0
LINE
  5
1390E
100
AcDbEntity
  8
0
100
AcDbLine
 10
2496.76247
 20
1733.833361
 30
0.0
 11
2496.76247
 21
1730.780361
 31
0.0
  0
LINE
  5
1390F
100
AcDbEntity
  8
0
100
AcDbLine
 10
2508.76247
 20
1733.833361
 30
0.0
 11
2508.76247
 21
1730.780361
 31
0.0
  0
LINE
  5
13910
100
AcDbEntity
  8
0
100
AcDbLine
 10
2508.76247
 20
1733.833361
 30
0.0
 11
2507.81547
 21
1734.780361
 31
0.0
  0
LINE
  5
13911
100
AcDbEntity
  8
0
100
AcDbLine
 10
2484.863374
 20
1824.790361
 30
0.0
 11
2486.612374
 21
1823.780361
 31
0.0
  0
ARC
  5
13912
100
AcDbEntity
  8
0
100
AcDbCircle
 10
2487.606374
 20
1829.180158
 30
0.0
 40
5.176327
100
AcDbArc
 50
238.000464
 51
301.999536
  0
ARC
  5
13913
100
AcDbEntity
  8
0
100
AcDbCircle
 10
2540.372994
 20
1829.180158
 30
0.0
 40
5.176327
100
AcDbArc
 50
238.000464
 51
301.999536
  0
LINE
  5
13914
100
AcDbEntity
  8
0
100
AcDbLine
 10
2554.083994
 20
1824.790361
 30
0.0
 11
2554.083994
 21
1833.780361
 31
0.0
  0
LINE
  5
13915
100
AcDbEntity
  8
0
100
AcDbLine
 10
2543.115994
 20
1824.790361
 30
0.0
 11
2543.115994
 21
1833.780361
 31
0.0
  0
ARC
  5
13916
100
AcDbEntity
  8
0
100
AcDbCircle
 10
2548.599994
 20
1843.520267
 30
0.0
 40
19.51624
100
AcDbArc
 50
253.680297
 51
286.319703
  0
LINE
  5
13917
100
AcDbEntity
  8
0
100
AcDbLine
 10
2537.629994
 20
1824.790361
 30
0.0
 11
2539.378994
 21
1823.780361
 31
0.0
  0
LINE
  5
13918
100
AcDbEntity
  8
0
100
AcDbLine
 10
2537.629994
 20
1833.780361
 30
0.0
 11
2537.629994
 21
1824.790361
 31
0.0
  0
LINE
  5
13919
100
AcDbEntity
  8
0
100
AcDbLine
 10
2507.911628
 20
1833.780361
 30
0.0
 11
2511.911628
 21
1813.780361
 31
0.0
  0
ARC
  5
1391A
100
AcDbEntity
  8
0
100
AcDbCircle
 10
2495.833374
 20
1843.520267
 30
0.0
 40
19.51624
100
AcDbArc
 50
253.680297
 51
286.319703
  0
LINE
  5
1391B
100
AcDbEntity
  8
0
100
AcDbLine
 10
2486.612374
 20
1823.780361
 30
0.0
 11
2505.054374
 21
1823.780361
 31
0.0
  0
LINE
  5
1391C
100
AcDbEntity
  8
0
100
AcDbLine
 10
2490.349374
 20
1824.790361
 30
0.0
 11
2490.349374
 21
1833.780361
 31
0.0
  0
LINE
  5
1391D
100
AcDbEntity
  8
0
100
AcDbLine
 10
2506.803374
 20
1824.790361
 30
0.0
 11
2506.803374
 21
1833.780361
 31
0.0
  0
LINE
  5
1391E
100
AcDbEntity
  8
0
100
AcDbLine
 10
2501.317374
 20
1824.790361
 30
0.0
 11
2501.317374
 21
1833.780361
 31
0.0
  0
LINE
  5
1391F
100
AcDbEntity
  8
0
100
AcDbLine
 10
2505.054374
 20
1823.780361
 30
0.0
 11
2506.803374
 21
1824.790361
 31
0.0
  0
ARC
  5
13920
100
AcDbEntity
  8
0
100
AcDbCircle
 10
2504.060374
 20
1829.180158
 30
0.0
 40
5.176327
100
AcDbArc
 50
238.000464
 51
301.999536
  0
LINE
  5
13921
100
AcDbEntity
  8
0
100
AcDbLine
 10
2553.652994
 20
1879.780361
 30
0.0
 11
2543.546994
 21
1879.780361
 31
0.0
  0
LINE
  5
13922
100
AcDbEntity
  8
0
100
AcDbLine
 10
2542.599994
 20
1878.833361
 30
0.0
 11
2542.599994
 21
1875.780361
 31
0.0
  0
LINE
  5
13923
100
AcDbEntity
  8
0
100
AcDbLine
 10
2543.546994
 20
1879.780361
 30
0.0
 11
2542.599994
 21
1878.833361
 31
0.0
  0
ARC
  5
13924
100
AcDbEntity
  8
0
100
AcDbCircle
 10
2500.812609
 20
1880.780361
 30
0.0
 40
5.0
100
AcDbArc
 50
270.0
 51
348.690068
  0
LINE
  5
13925
100
AcDbEntity
  8
0
100
AcDbLine
 10
2500.886374
 20
1879.780361
 30
0.0
 11
2490.780374
 21
1879.780361
 31
0.0
  0
LINE
  5
13926
100
AcDbEntity
  8
0
100
AcDbLine
 10
2490.780374
 20
1879.780361
 30
0.0
 11
2489.833374
 21
1878.833361
 31
0.0
  0
LINE
  5
13927
100
AcDbEntity
  8
0
100
AcDbLine
 10
2489.833374
 20
1878.833361
 30
0.0
 11
2489.833374
 21
1875.780361
 31
0.0
  0
LINE
  5
13928
100
AcDbEntity
  8
0
100
AcDbLine
 10
2501.833374
 20
1878.833361
 30
0.0
 11
2501.833374
 21
1875.780361
 31
0.0
  0
LINE
  5
13929
100
AcDbEntity
  8
0
100
AcDbLine
 10
2501.833374
 20
1878.833361
 30
0.0
 11
2500.886374
 21
1879.780361
 31
0.0
  0
LINE
  5
1392A
100
AcDbEntity
  8
0
100
AcDbLine
 10
2470.911628
 20
1875.780361
 30
0.0
 11
2470.911628
 21
1833.780361
 31
0.0
  0
LINE
  5
1392B
100
AcDbEntity
  8
0
100
AcDbLine
 10
2484.863374
 20
1833.780361
 30
0.0
 11
2484.863374
 21
1824.790361
 31
0.0
  0
LINE
  5
1392C
100
AcDbEntity
  8
0
100
AcDbLine
 10
2585.911628
 20
2037.780361
 30
0.0
 11
2514.301158
 21
2037.780361
 31
0.0
  0
ARC
  5
1392D
100
AcDbEntity
  8
0
100
AcDbCircle
 10
2546.924451
 20
2047.780361
 30
0.0
 40
10.0
100
AcDbArc
 50
270.0
 51
1.469284
  0
LINE
  5
1392E
100
AcDbEntity
  8
0
100
AcDbLine
 10
2635.911628
 20
1993.780361
 30
0.0
 11
2535.911628
 21
1993.780361
 31
0.0
  0
LINE
  5
1392F
100
AcDbEntity
  8
0
100
AcDbLine
 10
2712.911628
 20
2011.780361
 30
0.0
 11
2683.411628
 21
2011.780361
 31
0.0
  0
LINE
  5
13930
100
AcDbEntity
  8
0
100
AcDbLine
 10
2712.911628
 20
1947.780361
 30
0.0
 11
2677.911628
 21
1947.780361
 31
0.0
  0
LINE
  5
13931
100
AcDbEntity
  8
0
100
AcDbLine
 10
2622.316677
 20
2038.394951
 30
0.0
 11
2717.911628
 21
2012.780361
 31
0.0
  0
LINE
  5
13932
100
AcDbEntity
  8
0
100
AcDbLine
 10
2727.911628
 20
2057.280361
 30
0.0
 11
2727.911628
 21
1902.280361
 31
0.0
  0
ARC
  5
13933
100
AcDbEntity
  8
0
100
AcDbCircle
 10
2722.911628
 20
1940.681342
 30
0.0
 40
5.0
100
AcDbArc
 50
360.0
 51
78.690068
  0
LINE
  5
13934
100
AcDbEntity
  8
0
100
AcDbLine
 10
2723.892209
 20
1945.584245
 30
0.0
 11
2712.911628
 21
1947.780361
 31
0.0
  0
ARC
  5
13935
100
AcDbEntity
  8
0
100
AcDbCircle
 10
2722.911628
 20
2018.879381
 30
0.0
 40
5.0
100
AcDbArc
 50
281.309932
 51
0.0
  0
LINE
  5
13936
100
AcDbEntity
  8
0
100
AcDbLine
 10
2723.892209
 20
2013.976478
 30
0.0
 11
2712.911628
 21
2011.780361
 31
0.0
  0
ARC
  5
13937
100
AcDbEntity
  8
0
100
AcDbCircle
 10
2635.911628
 20
1966.780361
 30
0.0
 40
27.0
100
AcDbArc
 50
0.0
 51
90.0
  0
ARC
  5
13938
100
AcDbEntity
  8
0
100
AcDbCircle
 10
2677.911628
 20
1932.780361
 30
0.0
 40
15.0
100
AcDbArc
 50
90.0
 51
180.0
  0
LINE
  5
13939
100
AcDbEntity
  8
0
100
AcDbLine
 10
2662.911628
 20
1932.780361
 30
0.0
 11
2662.911628
 21
1895.780361
 31
0.0
  0
ARC
  5
1393B
100
AcDbEntity
  8
0
100
AcDbCircle
 10
2601.911628
 20
2003.40165
 30
0.0
 40
32.0
100
AcDbArc
 50
0.0
 51
73.08761
  0
ARC
  5
1393C
100
AcDbEntity
  8
0
100
AcDbCircle
 10
2683.411628
 20
1954.780361
 30
0.0
 40
57.0
100
AcDbArc
 50
90.0
 51
129.704721
  0
ARC
  5
1393D
100
AcDbEntity
  8
0
100
AcDbCircle
 10
2641.8876
 20
2004.787911
 30
0.0
 40
8.0
100
AcDbArc
 50
181.986071
 51
309.704721
  0
ARC
  5
1393E
100
AcDbEntity
  8
0
100
AcDbCircle
 10
2585.911628
 20
2048.780361
 30
0.0
 40
29.0
100
AcDbArc
 50
358.933132
 51
181.469284
  0
ARC
  5
1393F
100
AcDbEntity
  8
0
100
AcDbCircle
 10
2624.904867
 20
2048.05421
 30
0.0
 40
10.0
100
AcDbArc
 50
178.933132
 51
255.0
  0
CIRCLE
  5
13940
100
AcDbEntity
  8
0
100
AcDbCircle
 10
2585.911628
 20
2048.780361
 30
0.0
 40
11.0
  0
ARC
  5
13941
100
AcDbEntity
  8
0
100
AcDbCircle
 10
2585.911628
 20
1950.780361
 30
0.0
 40
87.0
100
AcDbArc
 50
73.08761
 51
90.0
  0
LINE
  5
13942
100
AcDbEntity
  8
0
100
AcDbLine
 10
2443.911628
 20
2057.280361
 30
0.0
 11
2443.911628
 21
1902.280361
 31
0.0
  0
ARC
  5
13943
100
AcDbEntity
  8
0
100
AcDbCircle
 10
2535.911628
 20
1966.780361
 30
0.0
 40
27.0
100
AcDbArc
 50
90.0
 51
180.0
  0
LINE
  5
13944
100
AcDbEntity
  8
0
100
AcDbLine
 10
2447.931048
 20
1945.584245
 30
0.0
 11
2501.734931
 21
1956.345022
 31
0.0
  0
LINE
  5
13945
100
AcDbEntity
  8
0
100
AcDbLine
 10
2508.911628
 20
1950.461538
 30
0.0
 11
2508.911628
 21
1895.780361
 31
0.0
  0
ARC
  5
13946
100
AcDbEntity
  8
0
100
AcDbCircle
 10
2502.911628
 20
1950.461538
 30
0.0
 40
6.0
100
AcDbArc
 50
0.0
 51
101.309932
  0
ARC
  5
13947
100
AcDbEntity
  8
0
100
AcDbCircle
 10
2448.911628
 20
1940.681342
 30
0.0
 40
5.0
100
AcDbArc
 50
101.309932
 51
180.0
  0
ARC
  5
13948
100
AcDbEntity
  8
0
100
AcDbCircle
 10
2514.301158
 20
1965.780361
 30
0.0
 40
72.0
100
AcDbArc
 50
90.0
 51
138.048787
  0
LINE
  5
13949
100
AcDbEntity
  8
0
100
AcDbLine
 10
2447.931048
 20
2013.976478
 30
0.0
 11
2456.054575
 21
2012.351772
 31
0.0
  0
ARC
  5
1394A
100
AcDbEntity
  8
0
100
AcDbCircle
 10
2457.035156
 20
2017.254675
 30
0.0
 40
5.0
100
AcDbArc
 50
258.690068
 51
318.048787
  0
ARC
  5
1394B
100
AcDbEntity
  8
0
100
AcDbCircle
 10
2448.911628
 20
2018.879381
 30
0.0
 40
5.0
100
AcDbArc
 50
180.0
 51
258.690068
  0
VIEWPORT
  5
41
100
AcDbEntity
 67
     1
  8
0
100
AcDbViewport
 10
117.358407
 20
73.5
 30
0.0
 40
234.716814
 41
147.0
 68
    -1
 69
     1
1001
ACAD
1000
MVIEW
1002
{
1070
    16
1010
0.0
1020
0.0
1030
0.0
1010
0.0
1020
0.0
1030
1.0
1040
0.0
1040
147.0
1040
117.358407
1040
73.5
1040
50.0
1040
0.0
1040
0.0
1070
     0
1070
   100
1070
     1
1070
     1
1070
     0
1070
     0
1070
     0
1070
     0
1040
0.0
1040
0.0
1040
0.0
1040
1.0
1040
1.0
1040
0.0
1040
0.0
1070
     0
1002
{
1002
}
1002
}
  0
ENDSEC
  0
SECTION
  2
OBJECTS
  0
DICTIONARY
  5
C
100
AcDbDictionary
  3
ACAD_GROUP
350
D
  3
ACAD_MLINESTYLE
350
E
  0
DICTIONARY
  5
D
102
{ACAD_REACTORS
330
C
102
}
100
AcDbDictionary
  0
DICTIONARY
  5
E
102
{ACAD_REACTORS
330
C
102
}
100
AcDbDictionary
  3
STANDARD
350
1B
  0
MLINESTYLE
  5
1B
102
{ACAD_REACTORS
330
E
102
}
100
AcDbMlineStyle
  2
STANDARD
 70
     0
  3

 62
     0
 51
90.0
 52
90.0
 71
     2
 49
0.5
 62
   256
  6
BYLAYER
 49
-0.5
 62
   256
  6
BYLAYER
  0
ENDSEC
  0
EOF
