  0
SECTION
  2
HEADER
  9
$ACADVER
  1
AC1012
  9
$DWGCODEPAGE
  3
dos932
  9
$INSBASE
 10
0.0
 20
0.0
 30
0.0
  9
$EXTMIN
 10
131.7683800335144
 20
59.90845320269909
 30
-0.0015258207003583
  9
$EXTMAX
 10
3432.231636562654
 20
2292.05566966447
 30
0.0000000349246037
  9
$LIMMIN
 10
0.0
 20
0.0
  9
$LIMMAX
 10
3564.0
 20
2520.0
  9
$ORTHOMODE
 70
     1
  9
$REGENMODE
 70
     1
  9
$FILLMODE
 70
     1
  9
$QTEXTMODE
 70
     0
  9
$MIRRTEXT
 70
     1
  9
$DRAGMODE
 70
     2
  9
$LTSCALE
 40
48.0
  9
$OSMODE
 70
   163
  9
$ATTMODE
 70
     1
  9
$TEXTSIZE
 40
48.0
  9
$TRACEWID
 40
0.05
  9
$TEXTSTYLE
  7
STANDARD
  9
$CLAYER
  8
0
  9
$CELTYPE
  6
BYLAYER
  9
$CECOLOR
 62
   256
  9
$CELTSCALE
 40
1.0
  9
$DELOBJ
 70
     1
  9
$DISPSILH
 70
     0
  9
$DIMSCALE
 40
12.0
  9
$DIMASZ
 40
2.799999999999999
  9
$DIMEXO
 40
1.0
  9
$DIMDLI
 40
5.0
  9
$DIMRND
 40
0.1
  9
$DIMDLE
 40
0.0
  9
$DIMEXE
 40
1.0
  9
$DIMTP
 40
0.0
  9
$DIMTM
 40
0.0
  9
$DIMTXT
 40
2.5
  9
$DIMCEN
 40
0.0
  9
$DIMTSZ
 40
0.0
  9
$DIMTOL
 70
     0
  9
$DIMLIM
 70
     0
  9
$DIMTIH
 70
     0
  9
$DIMTOH
 70
     0
  9
$DIMSE1
 70
     0
  9
$DIMSE2
 70
     0
  9
$DIMTAD
 70
     3
  9
$DIMZIN
 70
     8
  9
$DIMBLK
  1

  9
$DIMASO
 70
     1
  9
$DIMSHO
 70
     1
  9
$DIMPOST
  1

  9
$DIMAPOST
  1

  9
$DIMALT
 70
     0
  9
$DIMALTD
 70
     2
  9
$DIMALTF
 40
1.0
  9
$DIMLFAC
 40
1.0
  9
$DIMTOFL
 70
     1
  9
$DIMTVP
 40
0.0
  9
$DIMTIX
 70
     0
  9
$DIMSOXD
 70
     0
  9
$DIMSAH
 70
     1
  9
$DIMBLK1
  1
OPEN
  9
$DIMBLK2
  1
OPEN
  9
$DIMSTYLE
  2
DIM1
  9
$DIMCLRD
 70
     2
  9
$DIMCLRE
 70
     2
  9
$DIMCLRT
 70
     2
  9
$DIMTFAC
 40
0.7
  9
$DIMGAP
 40
0.85
  9
$DIMJUST
 70
     0
  9
$DIMSD1
 70
     0
  9
$DIMSD2
 70
     0
  9
$DIMTOLJ
 70
     1
  9
$DIMTZIN
 70
     8
  9
$DIMALTZ
 70
     8
  9
$DIMALTTZ
 70
     8
  9
$DIMFIT
 70
     3
  9
$DIMUPT
 70
     0
  9
$DIMUNIT
 70
     2
  9
$DIMDEC
 70
     2
  9
$DIMTDEC
 70
     3
  9
$DIMALTU
 70
     2
  9
$DIMALTTD
 70
     3
  9
$DIMTXSTY
  7
DIM
  9
$DIMAUNIT
 70
     0
  9
$LUNITS
 70
     2
  9
$LUPREC
 70
     4
  9
$SKETCHINC
 40
0.1
  9
$FILLETRAD
 40
3.0
  9
$AUNITS
 70
     0
  9
$AUPREC
 70
     0
  9
$MENU
  1
C:\ACADR13\WIN\SUPPORT\ACAD.mnc
  9
$ELEVATION
 40
0.0
  9
$PELEVATION
 40
0.0
  9
$THICKNESS
 40
0.0
  9
$LIMCHECK
 70
     0
  9
$BLIPMODE
 70
     0
  9
$CHAMFERA
 40
0.0
  9
$CHAMFERB
 40
0.0
  9
$CHAMFERC
 40
0.0
  9
$CHAMFERD
 40
0.0
  9
$SKPOLY
 70
     0
  9
$TDCREATE
 40
2451564.369914201
  9
$TDUPDATE
 40
2452247.715083183
  9
$TDINDWG
 40
0.3217831250
  9
$TDUSRTIMER
 40
0.3217831250
  9
$USRTIMER
 70
     1
  9
$ANGBASE
 50
0.0
  9
$ANGDIR
 70
     0
  9
$PDMODE
 70
     0
  9
$PDSIZE
 40
0.0
  9
$PLINEWID
 40
0.0
  9
$COORDS
 70
     2
  9
$SPLFRAME
 70
     0
  9
$SPLINETYPE
 70
     6
  9
$SPLINESEGS
 70
     8
  9
$ATTDIA
 70
     0
  9
$ATTREQ
 70
     1
  9
$HANDLING
 70
-16383
  9
$HANDSEED
  5
4850
  9
$SURFTAB1
 70
     6
  9
$SURFTAB2
 70
     6
  9
$SURFTYPE
 70
     6
  9
$SURFU
 70
     6
  9
$SURFV
 70
     6
  9
$UCSNAME
  2

  9
$UCSORG
 10
0.0
 20
0.0
 30
0.0
  9
$UCSXDIR
 10
1.0
 20
0.0
 30
0.0
  9
$UCSYDIR
 10
0.0
 20
1.0
 30
0.0
  9
$PUCSNAME
  2

  9
$PUCSORG
 10
0.0
 20
0.0
 30
0.0
  9
$PUCSXDIR
 10
1.0
 20
0.0
 30
0.0
  9
$PUCSYDIR
 10
0.0
 20
1.0
 30
0.0
  9
$USERI1
 70
     0
  9
$USERI2
 70
     0
  9
$USERI3
 70
     0
  9
$USERI4
 70
     0
  9
$USERI5
 70
     0
  9
$USERR1
 40
0.0
  9
$USERR2
 40
0.0
  9
$USERR3
 40
0.0
  9
$USERR4
 40
0.0
  9
$USERR5
 40
0.0
  9
$WORLDVIEW
 70
     1
  9
$SHADEDGE
 70
     3
  9
$SHADEDIF
 70
    70
  9
$TILEMODE
 70
     1
  9
$MAXACTVP
 70
    16
  9
$PINSBASE
 10
0.0
 20
0.0
 30
0.0
  9
$PLIMCHECK
 70
     0
  9
$PEXTMIN
 10
1.000000000000000E+20
 20
1.000000000000000E+20
 30
1.000000000000000E+20
  9
$PEXTMAX
 10
-1.000000000000000E+20
 20
-1.000000000000000E+20
 30
-1.000000000000000E+20
  9
$PLIMMIN
 10
0.0
 20
0.0
  9
$PLIMMAX
 10
20.0
 20
147.0
  9
$UNITMODE
 70
     0
  9
$VISRETAIN
 70
     0
  9
$PLINEGEN
 70
     0
  9
$PSLTSCALE
 70
     1
  9
$TREEDEPTH
 70
  3020
  9
$PICKSTYLE
 70
     0
  9
$CMLSTYLE
  2
STANDARD
  9
$CMLJUST
 70
     0
  9
$CMLSCALE
 40
1.0
  9
$SAVEIMAGES
 70
     1
  0
ENDSEC
  0
SECTION
  2
CLASSES
  0
CLASS
  1
LWPOLYLINE
  2
AcDbPolyline
  3
AutoCAD 2000
 90
    32768
280
     0
281
     1
  0
CLASS
  1
ACDBDICTIONARYWDFLT
  2
AcDbDictionaryWithDefault
  3
AutoCAD 2000
 90
    32768
280
     0
281
     0
  0
CLASS
  1
ACDBPLACEHOLDER
  2
AcDbPlaceHolder
  3
AutoCAD 2000
 90
    32768
280
     0
281
     0
  0
CLASS
  1
LAYOUT
  2
AcDbLayout
  3
AutoCAD 2000
 90
    32768
280
     0
281
     0
  0
CLASS
  1
LONG_TRANSACTION
  2
AcDbLongTransaction
  3
AutoCAD 2000
 90
    32768
280
     0
281
     0
  0
CLASS
  1
LWPOLYLINE
  2
AcDbPolyline
  3
AutoCAD 2000
 90
    32768
280
     0
281
     1
  0
CLASS
  1
HATCH
  2
AcDbHatch
  3
AutoCAD 2000
 90
    32768
280
     0
281
     1
  0
CLASS
  1
XRECORD
  2
AcDbXrecord
  3
AutoCAD 2000
 90
    32768
280
     0
281
     0
  0
CLASS
  1
LONG_TRANSACTION
  2
AcDbLongTransaction
  3
AutoCAD 2000
 90
    32768
280
     0
281
     0
  0
CLASS
  1
LWPOLYLINE
  2
AcDbPolyline
  3
AutoCAD 2000
 90
    32768
280
     0
281
     1
  0
CLASS
  1
HATCH
  2
AcDbHatch
  3
AutoCAD 2000
 90
    32768
280
     0
281
     1
  0
CLASS
  1
XRECORD
  2
AcDbXrecord
  3
AutoCAD 2000
 90
    32768
280
     0
281
     0
  0
ENDSEC
  0
SECTION
  2
TABLES
  0
TABLE
  2
VPORT
  5
8
330
0
100
AcDbSymbolTable
 70
     9
  0
VPORT
  5
4848
330
8
100
AcDbSymbolTableRecord
100
AcDbViewportTableRecord
  2
*ACTIVE
 70
     0
 10
0.0
 20
0.0
 11
1.0
 21
1.0
 12
1782.0
 22
1260.0
 13
0.0
 23
0.0
 14
1.0
 24
1.0
 15
0.0
 25
0.0
 16
0.0
 26
0.0
 36
1.0
 17
0.0
 27
0.0
 37
0.0
 40
2541.235955056179
 41
1.686357243319268
 42
50.0
 43
0.0
 44
0.0
 50
0.0
 51
0.0
 71
     0
 72
   100
 73
     1
 74
     1
 75
     0
 76
     0
 77
     0
 78
     0
  0
ENDTAB
  0
TABLE
  2
LTYPE
  5
5
330
0
100
AcDbSymbolTable
 70
     1
  0
LTYPE
  5
12
330
5
100
AcDbSymbolTableRecord
100
AcDbLinetypeTableRecord
  2
BYBLOCK
 70
     0
  3

 72
    65
 73
     0
 40
0.0
  0
LTYPE
  5
13
330
5
100
AcDbSymbolTableRecord
100
AcDbLinetypeTableRecord
  2
BYLAYER
 70
     0
  3

 72
    65
 73
     0
 40
0.0
  0
LTYPE
  5
14
330
5
100
AcDbSymbolTableRecord
100
AcDbLinetypeTableRecord
  2
CONTINUOUS
 70
     0
  3
Solid line
 72
    65
 73
     0
 40
0.0
  0
ENDTAB
  0
TABLE
  2
LAYER
  5
2
330
0
100
AcDbSymbolTable
 70
     1
  0
LAYER
  5
F
330
2
100
AcDbSymbolTableRecord
100
AcDbLayerTableRecord
  2
0
 70
     0
 62
     7
  6
CONTINUOUS
  0
ENDTAB
  0
TABLE
  2
STYLE
  5
3
330
0
100
AcDbSymbolTable
 70
     3
  0
STYLE
  5
10
330
3
100
AcDbSymbolTableRecord
100
AcDbTextStyleTableRecord
  2
STANDARD
 70
     0
 40
0.0
 41
0.8
 50
0.0
 71
     0
 42
48.0
  3
simplex
  4
extfont
  0
STYLE
  5
237C
330
3
100
AcDbSymbolTableRecord
100
AcDbTextStyleTableRecord
  2
PTSH
 70
     0
 40
0.0
 41
0.9
 50
0.0
 71
     0
 42
4.0
  3
SIMPLEX
  4
EXTFONT
  0
STYLE
  5
2592
330
3
100
AcDbSymbolTableRecord
100
AcDbTextStyleTableRecord
  2
DIM
 70
     0
 40
0.0
 41
0.8
 50
0.0
 71
     0
 42
4.0
  3
simplex
  4
extfont
  0
ENDTAB
  0
TABLE
  2
VIEW
  5
6
330
0
100
AcDbSymbolTable
 70
     0
  0
ENDTAB
  0
TABLE
  2
UCS
  5
7
330
0
100
AcDbSymbolTable
 70
     0
  0
ENDTAB
  0
TABLE
  2
APPID
  5
9
330
0
100
AcDbSymbolTable
 70
     1
  0
APPID
  5
11
330
9
100
AcDbSymbolTableRecord
100
AcDbRegAppTableRecord
  2
ACAD
 70
     0
  0
ENDTAB
  0
TABLE
  2
DIMSTYLE
  5
A
330
0
100
AcDbSymbolTable
 70
     1
  0
DIMSTYLE
105
2237
330
A
100
AcDbSymbolTableRecord
100
AcDbDimStyleTableRecord
  2
DIM1
 70
     0
  3

  4

  5

  6
OPEN
  7
OPEN
 40
12.0
 41
2.799999999999999
 42
1.0
 43
5.0
 44
1.0
 45
0.1
 46
0.0
 47
0.0
 48
0.0
140
2.5
141
0.0
142
0.0
143
1.0
144
1.0
145
0.0
146
0.7
147
0.85
 71
     0
 72
     0
 73
     0
 74
     0
 75
     0
 76
     0
 77
     3
 78
     8
170
     0
171
     2
172
     1
173
     1
174
     0
175
     0
176
     2
177
     2
178
     2
270
     2
271
     2
272
     3
273
     2
274
     3
340
2592
275
     0
280
     0
281
     0
282
     0
283
     1
284
     8
285
     8
286
     8
287
     3
288
     0
  0
ENDTAB
  0
TABLE
  2
BLOCK_RECORD
  5
1
330
0
100
AcDbSymbolTable
 70
     1
  0
BLOCK_RECORD
  5
18
102
{ACAD_XDICTIONARY
360
46DD
102
}
330
1
100
AcDbSymbolTableRecord
100
AcDbBlockTableRecord
  2
*MODEL_SPACE
  0
BLOCK_RECORD
  5
15
102
{ACAD_XDICTIONARY
360
46DB
102
}
330
1
100
AcDbSymbolTableRecord
100
AcDbBlockTableRecord
  2
*PAPER_SPACE
  0
BLOCK_RECORD
  5
2448
330
1
100
AcDbSymbolTableRecord
100
AcDbBlockTableRecord
  2
_OPEN
  0
ENDTAB
  0
ENDSEC
  0
SECTION
  2
BLOCKS
  0
BLOCK
  5
3C
330
18
100
AcDbEntity
  8
0
100
AcDbBlockBegin
  2
*MODEL_SPACE
 70
     0
 10
0.0
 20
0.0
 30
0.0
  3
*MODEL_SPACE
  1

  0
ENDBLK
  5
3D
330
18
100
AcDbEntity
  8
0
100
AcDbBlockEnd
  0
BLOCK
  5
3A
330
15
100
AcDbEntity
 67
     1
  8
0
100
AcDbBlockBegin
  2
*PAPER_SPACE
 70
     0
 10
0.0
 20
0.0
 30
0.0
  3
*PAPER_SPACE
  1

  0
ENDBLK
  5
3B
330
15
100
AcDbEntity
 67
     1
  8
0
100
AcDbBlockEnd
  0
BLOCK
  5
2449
330
2448
100
AcDbEntity
  8
0
 48
4.0
100
AcDbBlockBegin
  2
_OPEN
 70
     0
 10
0.0
 20
0.0
 30
0.0
  3
_OPEN
  1
H1111.DWG
  0
LINE
  5
244A
330
2448
100
AcDbEntity
  8
0
  6
BYBLOCK
 62
     0
 48
4.0
100
AcDbLine
 10
-1.0
 20
0.1666666666666666
 30
0.0
 11
0.0
 21
0.0
 31
0.0
  0
LINE
  5
244B
330
2448
100
AcDbEntity
  8
0
  6
BYBLOCK
 62
     0
 48
4.0
100
AcDbLine
 10
0.0
 20
0.0
 30
0.0
 11
-1.0
 21
-0.1666666666666666
 31
0.0
  0
LINE
  5
244C
330
2448
100
AcDbEntity
  8
0
  6
BYBLOCK
 62
     0
 48
4.0
100
AcDbLine
 10
0.0
 20
0.0
 30
0.0
 11
-1.0
 21
0.0
 31
0.0
  0
ENDBLK
  5
244D
330
2448
100
AcDbEntity
  8
0
 48
4.0
100
AcDbBlockEnd
  0
ENDSEC
  0
SECTION
  2
ENTITIES
  0
MTEXT
  5
ADA
330
18
100
AcDbEntity
  8
0
100
AcDbMText
 10
4561.671357260498
 20
598.1557336346739
 30
0.0
 40
2.400000000000002
 41
566.7175781849551
 71
     1
 72
     1
  1

1001
ACAD
1000
MTEXTBEGIN
1070
    73
1070
     1
1070
    44
1040
1.0
1070
    74
1070
     0
1000
MTEXTEND
1000
MTEXTBEGIN
1070
    73
1070
     1
1070
    44
1040
1.0
1070
    74
1070
     0
1000
MTEXTEND
  0
MTEXT
  5
ADB
330
18
100
AcDbEntity
  8
0
100
AcDbMText
 10
4668.59919800298
 20
694.2095247947898
 30
0.0
 40
2.400000000000002
 41
545.3320100364568
 71
     1
 72
     1
  1

1001
ACAD
1000
MTEXTBEGIN
1070
    73
1070
     1
1070
    44
1040
1.0
1070
    74
1070
     0
1000
MTEXTEND
1000
MTEXTBEGIN
1070
    73
1070
     1
1070
    44
1040
1.0
1070
    74
1070
     0
1000
MTEXTEND
  0
MTEXT
  5
ADC
330
18
100
AcDbEntity
  8
0
100
AcDbMText
 10
4604.442493557491
 20
-575.8349568659128
 30
0.0
 40
2.400000000000002
 41
620.1814985561984
 71
     1
 72
     1
  1

1001
ACAD
1000
MTEXTBEGIN
1070
    73
1070
     1
1070
    44
1040
1.0
1070
    74
1070
     0
1000
MTEXTEND
1000
MTEXTBEGIN
1070
    73
1070
     1
1070
    44
1040
1.0
1070
    74
1070
     0
1000
MTEXTEND
  0
TEXT
  5
2529
330
18
100
AcDbEntity
  8
0
  6
CONTINUOUS
100
AcDbText
 10
3285.600000000003
 20
81.00000000000008
 30
0.0
 40
36.00000000000004
  1
DC7
 41
0.9
  7
PTSH
 72
     2
 11
3372.000000000003
 21
99.00000000000011
 31
0.0
100
AcDbText
 73
     2
  0
POLYLINE
  5
2563
330
18
100
AcDbEntity
  8
0
100
AcDb2dPolyline
 66
     1
 10
0.0
 20
0.0
 30
0.0
 70
     1
  0
VERTEX
  5
484B
330
2563
100
AcDbEntity
  8
0
100
AcDbVertex
100
AcDb2dVertex
 10
132.0000000000001
 20
60.00000000000007
 30
0.0
  0
VERTEX
  5
484C
330
2563
100
AcDbEntity
  8
0
100
AcDbVertex
100
AcDb2dVertex
 10
3432.000000000004
 20
60.00000000000007
 30
0.0
  0
VERTEX
  5
484D
330
2563
100
AcDbEntity
  8
0
100
AcDbVertex
100
AcDb2dVertex
 10
3432.000000000004
 20
2292.000000000002
 30
0.0
  0
VERTEX
  5
484E
330
2563
100
AcDbEntity
  8
0
100
AcDbVertex
100
AcDb2dVertex
 10
132.0000000000001
 20
2292.000000000002
 30
0.0
  0
SEQEND
  5
484F
330
2563
100
AcDbEntity
  8
0
  0
TEXT
  5
2F04
330
18
100
AcDbEntity
  8
0
100
AcDbText
 10
1480.681115179304
 20
87.78924658212726
 30
0.0
 40
42.00000000000005
  1
TLV  DC7 (PT)
100
AcDbText
  0
TEXT
  5
2F21
330
18
100
AcDbEntity
  8
0
100
AcDbText
 10
169.7054759898597
 20
429.8097810272842
 30
0.0
 40
51.42857142857148
  1
正面
100
AcDbText
  0
TEXT
  5
2F70
330
18
100
AcDbEntity
  8
0
100
AcDbText
 10
169.7054759898597
 20
746.189300733204
 30
0.0
 40
51.42857142857148
  1
平面
100
AcDbText
  0
TEXT
  5
2F95
330
18
100
AcDbEntity
  8
0
100
AcDbText
 10
169.7054759898597
 20
1134.319894507634
 30
0.0
 40
51.42857142857148
  1
背面
100
AcDbText
  0
LINE
  5
315F
330
18
100
AcDbEntity
  8
0
100
AcDbLine
 10
926.8324689427899
 20
1862.1413777247
 30
0.0
 11
959.2440403713617
 21
1862.1413777247
 31
0.0
  0
LINE
  5
3160
330
18
100
AcDbEntity
  8
0
100
AcDbLine
 10
991.6575403713618
 20
1851.337520581844
 30
0.0
 11
937.636326085647
 21
1851.337520581844
 31
0.0
  0
TEXT
  5
316A
330
18
100
AcDbEntity
  8
0
100
AcDbText
 10
192.2429671245338
 20
1597.582318486216
 30
0.0
 40
51.42857142857148
  1
正面
100
AcDbText
  0
TEXT
  5
3197
330
18
100
AcDbEntity
  8
0
100
AcDbText
 10
192.2429671245338
 20
1857.342557263448
 30
0.0
 40
51.42857142857148
  1
平面
100
AcDbText
  0
LINE
  5
31AE
330
18
100
AcDbEntity
  8
0
100
AcDbLine
 10
937.636326085647
 20
1851.337520581844
 30
0.0
 11
926.8324689427899
 21
1862.1413777247
 31
0.0
  0
TEXT
  5
31AF
330
18
100
AcDbEntity
  8
0
100
AcDbText
 10
192.2429671245338
 20
2082.692737764875
 30
0.0
 40
51.42857142857148
  1
背面
100
AcDbText
  0
TEXT
  5
31BE
330
18
100
AcDbEntity
  8
0
100
AcDbText
 10
1003.513745614402
 20
1452.264871719491
 30
0.0
 40
30.00000000000003
  1
15,20A
 41
0.8
 11
1003.513745614402
 21
1452.264871719491
 31
0.0
100
AcDbText
 73
     1
  0
LINE
  5
324E
330
18
100
AcDbEntity
  8
0
100
AcDbLine
 10
980.6183975142198
 20
1862.1413777247
 30
0.0
 11
991.6575403713618
 21
1851.337520581844
 31
0.0
  0
LINE
  5
3250
330
18
100
AcDbEntity
  8
0
100
AcDbLine
 10
964.6478975142191
 20
1856.739449153272
 30
0.0
 11
980.6183975142198
 21
1856.739449153272
 31
0.0
  0
LINE
  5
3251
330
18
100
AcDbEntity
  8
0
100
AcDbLine
 10
959.2440403713617
 20
1862.1413777247
 30
0.0
 11
964.6478975142191
 21
1856.739449153272
 31
0.0
  0
LINE
  5
3252
330
18
100
AcDbEntity
  8
0
100
AcDbLine
 10
980.6183975142198
 20
1856.739449153272
 30
0.0
 11
980.6183975142198
 21
1862.1413777247
 31
0.0
  0
LINE
  5
3300
330
18
100
AcDbEntity
  8
0
100
AcDbLine
 10
1189.358637448032
 20
2161.663927457949
 30
0.0
 11
1173.388137448032
 21
2161.663927457949
 31
0.0
  0
LINE
  5
3301
330
18
100
AcDbEntity
  8
0
100
AcDbLine
 10
1162.34899459089
 20
2156.261998886521
 30
0.0
 11
1216.370208876605
 21
2156.261998886521
 31
0.0
  0
LINE
  5
3329
330
18
100
AcDbEntity
  8
0
100
AcDbLine
 10
1173.388137448032
 20
2167.065856029378
 30
0.0
 11
1162.34899459089
 21
2156.261998886521
 31
0.0
  0
LINE
  5
3341
330
18
100
AcDbEntity
  8
0
100
AcDbLine
 10
1173.388137448032
 20
2161.663927457949
 30
0.0
 11
1173.388137448032
 21
2167.065856029378
 31
0.0
  0
LINE
  5
3343
330
18
100
AcDbEntity
  8
0
100
AcDbLine
 10
1216.370208876605
 20
2156.261998886521
 30
0.0
 11
1227.174066019461
 21
2167.065856029378
 31
0.0
  0
LINE
  5
3344
330
18
100
AcDbEntity
  8
0
100
AcDbLine
 10
1227.174066019461
 20
2167.065856029378
 30
0.0
 11
1194.76249459089
 21
2167.065856029378
 31
0.0
  0
LINE
  5
3345
330
18
100
AcDbEntity
  8
0
100
AcDbLine
 10
1194.76249459089
 20
2167.065856029378
 30
0.0
 11
1189.358637448032
 21
2161.663927457949
 31
0.0
  0
LINE
  5
4347
330
18
100
AcDbEntity
  8
0
100
AcDbLine
 10
2410.257092563921
 20
2203.906328959952
 30
0.0
 11
2373.257092563921
 21
2203.906328959952
 31
0.0
  0
ARC
  5
4348
330
18
100
AcDbEntity
  8
0
100
AcDbCircle
 10
2388.757092563921
 20
2154.906328959952
 30
0.0
 40
3.0
100
AcDbArc
 50
90.0
 51
180.0
  0
ARC
  5
4349
330
18
100
AcDbEntity
  8
0
100
AcDbCircle
 10
2367.757092563921
 20
1989.614677713964
 30
0.0
 40
18.0
100
AcDbArc
 50
299.9999999999972
 51
0.0
  0
LINE
  5
434A
330
18
100
AcDbEntity
  8
0
100
AcDbLine
 10
2386.057092563921
 20
2133.406328959952
 30
0.0
 11
2284.457092563922
 21
2133.406328959952
 31
0.0
  0
LINE
  5
434B
330
18
100
AcDbEntity
  8
0
100
AcDbLine
 10
2386.057092563921
 20
2007.906328959952
 30
0.0
 11
2284.457092563922
 21
2007.906328959952
 31
0.0
  0
LINE
  5
434C
330
18
100
AcDbEntity
  8
0
100
AcDbLine
 10
2376.132736910939
 20
1844.447650992977
 30
0.0
 11
2388.257092563921
 21
1837.447650992977
 31
0.0
  0
LINE
  5
434D
330
18
100
AcDbEntity
  8
0
100
AcDbLine
 10
2376.132736910939
 20
1876.447650992977
 30
0.0
 11
2388.257092563921
 21
1883.447650992977
 31
0.0
  0
LINE
  5
434E
330
18
100
AcDbEntity
  8
0
100
AcDbLine
 10
2376.132736910939
 20
1751.681522140822
 30
0.0
 11
2388.257092563921
 21
1758.681522140822
 31
0.0
  0
ARC
  5
434F
330
18
100
AcDbEntity
  8
0
100
AcDbCircle
 10
2388.757092563921
 20
1709.681522140822
 30
0.0
 40
3.0
100
AcDbArc
 50
90.0
 51
180.0
  0
ARC
  5
4350
330
18
100
AcDbEntity
  8
0
100
AcDbCircle
 10
2367.757092563921
 20
1544.389870894833
 30
0.0
 40
18.0
100
AcDbArc
 50
299.9999999999972
 51
0.0
  0
LINE
  5
4351
330
18
100
AcDbEntity
  8
0
100
AcDbLine
 10
2284.457092563922
 20
1688.181522140822
 30
0.0
 11
2386.057092563921
 21
1688.181522140822
 31
0.0
  0
LINE
  5
4352
330
18
100
AcDbEntity
  8
0
100
AcDbLine
 10
2284.457092563922
 20
1562.681522140822
 30
0.0
 11
2386.057092563921
 21
1562.681522140822
 31
0.0
  0
ARC
  5
4353
330
18
100
AcDbEntity
  8
0
100
AcDbCircle
 10
1081.453216795543
 20
2042.868345683652
 30
0.0
 40
73.0
100
AcDbArc
 50
240.0000000000026
 51
299.9999999999972
  0
ARC
  5
4354
330
18
100
AcDbEntity
  8
0
100
AcDbCircle
 10
1052.953216795543
 20
1993.504897667938
 30
0.0
 40
16.0
100
AcDbArc
 50
180.0
 51
240.0000000000026
  0
ARC
  5
4355
330
18
100
AcDbEntity
  8
0
100
AcDbCircle
 10
1109.953216795543
 20
1993.504897667938
 30
0.0
 40
16.0
100
AcDbArc
 50
299.9999999999972
 51
0.0
  0
LINE
  5
4356
330
18
100
AcDbEntity
  8
0
100
AcDbLine
 10
2284.457092563922
 20
2007.906328959952
 30
0.0
 11
2284.457092563922
 21
2133.406328959952
 31
0.0
  0
LINE
  5
4369
330
18
100
AcDbEntity
  8
0
100
AcDbLine
 10
2016.576683035904
 20
512.6712449805136
 30
0.0
 11
2016.576683035904
 21
291.6712449805136
 31
0.0
  0
LINE
  5
436A
330
18
100
AcDbEntity
  8
0
100
AcDbLine
 10
1851.376683035904
 20
512.6712449805136
 30
0.0
 11
1851.376683035905
 21
291.6712449805136
 31
0.0
  0
LINE
  5
436B
330
18
100
AcDbEntity
  8
0
100
AcDbLine
 10
1949.976683035905
 20
237.733761265038
 30
0.0
 11
1949.976683035905
 21
215.6712449805136
 31
0.0
  0
LINE
  5
436C
330
18
100
AcDbEntity
  8
0
100
AcDbLine
 10
1917.976683035904
 20
237.733761265038
 30
0.0
 11
1917.976683035904
 21
215.6712449805136
 31
0.0
  0
LINE
  5
436D
330
18
100
AcDbEntity
  8
0
100
AcDbLine
 10
1918.976683035904
 20
214.6712449805136
 30
0.0
 11
1948.976683035905
 21
214.6712449805136
 31
0.0
  0
LINE
  5
436E
330
18
100
AcDbEntity
  8
0
100
AcDbLine
 10
1917.976683035904
 20
215.6712449805136
 30
0.0
 11
1918.976683035904
 21
214.6712449805136
 31
0.0
  0
LINE
  5
436F
330
18
100
AcDbEntity
  8
0
100
AcDbLine
 10
1948.976683035905
 20
214.6712449805136
 30
0.0
 11
1949.976683035905
 21
215.6712449805136
 31
0.0
  0
LINE
  5
4370
330
18
100
AcDbEntity
  8
0
100
AcDbLine
 10
1851.076683035905
 20
291.6712449805136
 30
0.0
 11
2016.876683035905
 21
291.6712449805136
 31
0.0
  0
LINE
  5
4371
330
18
100
AcDbEntity
  8
0
100
AcDbLine
 10
1851.376683035905
 20
291.6712449805136
 30
0.0
 11
2016.576683035904
 21
291.6712449805136
 31
0.0
  0
ARC
  5
4372
330
18
100
AcDbEntity
  8
0
100
AcDbCircle
 10
1933.976683035904
 20
357.6712449805136
 30
0.0
 40
121.0
100
AcDbArc
 50
233.2054543974891
 51
306.7945456025108
  0
LINE
  5
4373
330
18
100
AcDbEntity
  8
0
100
AcDbLine
 10
1851.076683035905
 20
291.6712449805136
 30
0.0
 11
1851.076683035905
 21
281.5963476752922
 31
0.0
  0
ARC
  5
4374
330
18
100
AcDbEntity
  8
0
100
AcDbCircle
 10
1877.076683035905
 20
281.5963476752922
 30
0.0
 40
26.0
100
AcDbArc
 50
180.0
 51
233.2054543974891
  0
LINE
  5
4375
330
18
100
AcDbEntity
  8
0
100
AcDbLine
 10
2016.876683035905
 20
291.6712449805136
 30
0.0
 11
2016.876683035905
 21
281.5963476752922
 31
0.0
  0
ARC
  5
4376
330
18
100
AcDbEntity
  8
0
100
AcDbCircle
 10
1990.876683035905
 20
281.5963476752922
 30
0.0
 40
26.0
100
AcDbArc
 50
306.7945456025108
 51
0.0
  0
CIRCLE
  5
4377
330
18
100
AcDbEntity
  8
0
100
AcDbCircle
 10
1933.976683035904
 20
574.6712449805136
 30
0.0
 40
36.99999999999994
  0
LINE
  5
4378
330
18
100
AcDbEntity
  8
0
100
AcDbLine
 10
1851.376683035905
 20
512.6712449805136
 30
0.0
 11
2016.576683035904
 21
512.6712449805136
 31
0.0
  0
LINE
  5
4379
330
18
100
AcDbEntity
  8
0
100
AcDbLine
 10
1948.609127459869
 20
608.6549406326875
 30
0.0
 11
1982.026466752437
 21
594.2663536761661
 31
0.0
  0
ARC
  5
437A
330
18
100
AcDbEntity
  8
0
100
AcDbCircle
 10
1877.476683035904
 20
559.6647512001941
 30
0.0
 40
26.0
100
AcDbArc
 50
126.2722685914736
 51
180.0
  0
LINE
  5
437B
330
18
100
AcDbEntity
  8
0
100
AcDbLine
 10
1851.476683035905
 20
559.6647512001941
 30
0.0
 11
1851.476683035905
 21
558.9347576696619
 31
0.0
  0
ARC
  5
437C
330
18
100
AcDbEntity
  8
0
100
AcDbCircle
 10
1933.976683035904
 20
482.6712449805135
 30
0.0
 40
121.5
100
AcDbArc
 50
113.2953817367277
 51
126.2722685914736
  0
LINE
  5
437D
330
18
100
AcDbEntity
  8
0
100
AcDbLine
 10
1919.34423861194
 20
608.6549406326875
 30
0.0
 11
1885.926899319372
 21
594.2663536761661
 31
0.0
  0
ARC
  5
437E
330
18
100
AcDbEntity
  8
0
100
AcDbCircle
 10
1990.476683035904
 20
559.6647512001945
 30
0.0
 40
26.0
100
AcDbArc
 50
0.0
 51
53.72773140852633
  0
LINE
  5
437F
330
18
100
AcDbEntity
  8
0
100
AcDbLine
 10
2016.476683035905
 20
559.6647512001945
 30
0.0
 11
2016.476683035905
 21
512.6712449805136
 31
0.0
  0
ARC
  5
4380
330
18
100
AcDbEntity
  8
0
100
AcDbCircle
 10
1933.976683035904
 20
482.6712449805135
 30
0.0
 40
121.5
100
AcDbArc
 50
53.72773140852633
 51
66.70461826327226
  0
LINE
  5
4381
330
18
100
AcDbEntity
  8
0
100
AcDbLine
 10
1096.453216795543
 20
1947.868345683652
 30
0.0
 11
1066.453216795543
 21
1947.868345683652
 31
0.0
  0
LINE
  5
4382
330
18
100
AcDbEntity
  8
0
100
AcDbLine
 10
1065.453216795543
 20
1969.281662105711
 30
0.0
 11
1065.453216795543
 21
1948.868345683652
 31
0.0
  0
LINE
  5
4383
330
18
100
AcDbEntity
  8
0
100
AcDbLine
 10
1065.453216795543
 20
1948.868345683652
 30
0.0
 11
1066.453216795543
 21
1947.868345683652
 31
0.0
  0
ARC
  5
4384
330
18
100
AcDbEntity
  8
0
100
AcDbCircle
 10
1062.453216795543
 20
1969.281662105711
 30
0.0
 40
3.0
100
AcDbArc
 50
0.0
 51
75.52248781407055
  0
LINE
  5
4385
330
18
100
AcDbEntity
  8
0
100
AcDbLine
 10
1097.453216795543
 20
1969.281662105711
 30
0.0
 11
1097.453216795543
 21
1948.868345683652
 31
0.0
  0
LINE
  5
4386
330
18
100
AcDbEntity
  8
0
100
AcDbLine
 10
1096.453216795543
 20
1947.868345683652
 30
0.0
 11
1097.453216795543
 21
1948.868345683652
 31
0.0
  0
ARC
  5
4387
330
18
100
AcDbEntity
  8
0
100
AcDbCircle
 10
1100.453216795542
 20
1969.281662105711
 30
0.0
 40
3.0
100
AcDbArc
 50
104.4775121859294
 51
180.0
  0
LINE
  5
4388
330
18
100
AcDbEntity
  8
0
100
AcDbLine
 10
2397.047719694961
 20
512.6712449805136
 30
0.0
 11
2397.047719694961
 21
291.6712449805136
 31
0.0
  0
LINE
  5
4389
330
18
100
AcDbEntity
  8
0
100
AcDbLine
 10
2231.847719694961
 20
512.6712449805136
 30
0.0
 11
2231.847719694961
 21
291.6712449805136
 31
0.0
  0
LINE
  5
438C
330
18
100
AcDbEntity
  8
0
100
AcDbLine
 10
2298.447719694961
 20
237.733761265038
 30
0.0
 11
2298.447719694961
 21
215.6712449805136
 31
0.0
  0
LINE
  5
438D
330
18
100
AcDbEntity
  8
0
100
AcDbLine
 10
2330.447719694961
 20
237.733761265038
 30
0.0
 11
2330.447719694961
 21
215.6712449805136
 31
0.0
  0
LINE
  5
4398
330
18
100
AcDbEntity
  8
0
100
AcDbLine
 10
2299.447719694961
 20
214.6712449805136
 30
0.0
 11
2329.447719694961
 21
214.6712449805136
 31
0.0
  0
LINE
  5
4399
330
18
100
AcDbEntity
  8
0
100
AcDbLine
 10
2298.447719694961
 20
215.6712449805136
 30
0.0
 11
2299.447719694961
 21
214.6712449805136
 31
0.0
  0
LINE
  5
439A
330
18
100
AcDbEntity
  8
0
100
AcDbLine
 10
2329.447719694961
 20
214.6712449805136
 30
0.0
 11
2330.447719694961
 21
215.6712449805136
 31
0.0
  0
LINE
  5
43A2
330
18
100
AcDbEntity
  8
0
100
AcDbLine
 10
2231.847719694961
 20
291.6712449805136
 30
0.0
 11
2397.047719694961
 21
291.6712449805136
 31
0.0
  0
ARC
  5
43A3
330
18
100
AcDbEntity
  8
0
100
AcDbCircle
 10
2314.447719694961
 20
357.6712449805136
 30
0.0
 40
121.0
100
AcDbArc
 50
233.2054543974891
 51
306.7945456025108
  0
LINE
  5
43A4
330
18
100
AcDbEntity
  8
0
100
AcDbLine
 10
2231.547719694961
 20
291.6712449805136
 30
0.0
 11
2397.347719694961
 21
291.6712449805136
 31
0.0
  0
LINE
  5
43A5
330
18
100
AcDbEntity
  8
0
100
AcDbLine
 10
2231.547719694961
 20
291.6712449805136
 30
0.0
 11
2231.547719694961
 21
281.5963476752922
 31
0.0
  0
ARC
  5
43A6
330
18
100
AcDbEntity
  8
0
100
AcDbCircle
 10
2257.547719694961
 20
281.5963476752922
 30
0.0
 40
26.0
100
AcDbArc
 50
180.0
 51
233.2054543974891
  0
LINE
  5
43A7
330
18
100
AcDbEntity
  8
0
100
AcDbLine
 10
2397.347719694961
 20
291.6712449805136
 30
0.0
 11
2397.347719694961
 21
281.5963476752922
 31
0.0
  0
ARC
  5
43A8
330
18
100
AcDbEntity
  8
0
100
AcDbCircle
 10
2371.347719694961
 20
281.5963476752922
 30
0.0
 40
26.0
100
AcDbArc
 50
306.7945456025108
 51
0.0
  0
ARC
  5
43B5
330
18
100
AcDbEntity
  8
0
100
AcDbCircle
 10
2314.447719694961
 20
764.719469023835
 30
0.0
 40
82.5
100
AcDbArc
 50
206.6465148842077
 51
335.5253178876496
  0
LINE
  5
43B6
330
18
100
AcDbEntity
  8
0
100
AcDbLine
 10
2381.430340755644
 20
604.1712449805136
 30
0.0
 11
2273.821839369611
 21
604.1712449805136
 31
0.0
  0
LINE
  5
43B7
330
18
100
AcDbEntity
  8
0
100
AcDbLine
 10
2231.847719694961
 20
512.6712449805136
 30
0.0
 11
2397.047719694961
 21
512.6712449805136
 31
0.0
  0
LINE
  5
43B8
330
18
100
AcDbEntity
  8
0
100
AcDbLine
 10
2231.94771969496
 20
512.6712449805136
 30
0.0
 11
2396.947719694961
 21
512.6712449805136
 31
0.0
  0
LINE
  5
43BB
330
18
100
AcDbEntity
  8
0
100
AcDbLine
 10
2204.447719694961
 20
611.6712449805135
 30
0.0
 11
2204.447719694961
 21
574.6712449805136
 31
0.0
  0
LINE
  5
43BC
330
18
100
AcDbEntity
  8
0
100
AcDbLine
 10
2231.94771969496
 20
559.6647512001941
 30
0.0
 11
2231.94771969496
 21
512.6712449805136
 31
0.0
  0
LINE
  5
43BD
330
18
100
AcDbEntity
  8
0
100
AcDbLine
 10
2204.447719694961
 20
537.6712449805136
 30
0.0
 11
2228.947719694961
 21
537.6712449805136
 31
0.0
  0
ARC
  5
43BE
330
18
100
AcDbEntity
  8
0
100
AcDbCircle
 10
2228.947719694961
 20
534.6712449805136
 30
0.0
 40
3.0
100
AcDbArc
 50
0.0
 51
90.0
  0
LINE
  5
43BF
330
18
100
AcDbEntity
  8
0
100
AcDbLine
 10
2204.447719694961
 20
611.6712449805135
 30
0.0
 11
2264.947719694961
 21
611.6712449805135
 31
0.0
  0
ARC
  5
43C0
330
18
100
AcDbEntity
  8
0
100
AcDbCircle
 10
2264.947719694961
 20
605.6712449805136
 30
0.0
 40
6.0
100
AcDbArc
 50
9.594068226864807
 51
90.0
  0
ARC
  5
43C1
330
18
100
AcDbEntity
  8
0
100
AcDbCircle
 10
2273.821839369611
 20
607.1712449805136
 30
0.0
 40
3.0
100
AcDbArc
 50
189.5940682268648
 51
270.0
  0
LINE
  5
43C3
330
18
100
AcDbEntity
  8
0
100
AcDbLine
 10
2394.44771969496
 20
611.6712449805135
 30
0.0
 11
2394.44771969496
 21
570.789048930838
 31
0.0
  0
LINE
  5
43C4
330
18
100
AcDbEntity
  8
0
100
AcDbLine
 10
2424.447719694961
 20
611.6712449805135
 30
0.0
 11
2424.447719694961
 21
574.6712449805136
 31
0.0
  0
LINE
  5
43C5
330
18
100
AcDbEntity
  8
0
100
AcDbLine
 10
2399.947719694961
 20
537.6712449805136
 30
0.0
 11
2424.447719694961
 21
537.6712449805136
 31
0.0
  0
LINE
  5
43C6
330
18
100
AcDbEntity
  8
0
100
AcDbLine
 10
2396.947719694961
 20
534.6712449805136
 30
0.0
 11
2396.947719694961
 21
512.6712449805136
 31
0.0
  0
ARC
  5
43C7
330
18
100
AcDbEntity
  8
0
100
AcDbCircle
 10
2399.947719694961
 20
534.6712449805136
 30
0.0
 40
3.0
100
AcDbArc
 50
90.0
 51
180.0
  0
LINE
  5
43C8
330
18
100
AcDbEntity
  8
0
100
AcDbLine
 10
2424.447719694961
 20
611.6712449805135
 30
0.0
 11
2394.44771969496
 21
611.6712449805135
 31
0.0
  0
LINE
  5
43C9
330
18
100
AcDbEntity
  8
0
100
AcDbLine
 10
2381.430340755644
 20
604.1712449805136
 30
0.0
 11
2381.430340755644
 21
584.0397730148147
 31
0.0
  0
LINE
  5
43CA
330
18
100
AcDbEntity
  8
0
100
AcDbLine
 10
2394.397340960275
 20
611.6577460392391
 30
0.0
 11
2381.430340755644
 21
604.1712449805136
 31
0.0
  0
ARC
  5
43CC
330
18
100
AcDbEntity
  8
0
100
AcDbCircle
 10
2314.447719694961
 20
764.719469023835
 30
0.0
 40
82.5
100
AcDbArc
 50
24.47468211235034
 51
153.3534851157922
  0
ARC
  5
43CD
330
18
100
AcDbEntity
  8
0
100
AcDbCircle
 10
2264.947719694961
 20
795.719469023835
 30
0.0
 40
6.0
100
AcDbArc
 50
9.594068226864807
 51
90.0
  0
LINE
  5
43CE
330
18
100
AcDbEntity
  8
0
100
AcDbLine
 10
2204.447719694961
 20
801.7194690238349
 30
0.0
 11
2204.447719694961
 21
764.719469023835
 31
0.0
  0
LINE
  5
43CF
330
18
100
AcDbEntity
  8
0
100
AcDbLine
 10
2204.447719694961
 20
727.719469023835
 30
0.0
 11
2264.947719694961
 21
727.719469023835
 31
0.0
  0
ARC
  5
43D0
330
18
100
AcDbEntity
  8
0
100
AcDbCircle
 10
2264.947719694961
 20
733.719469023835
 30
0.0
 40
6.0
100
AcDbArc
 50
270.0
 51
350.4059317731352
  0
ARC
  5
43D1
330
18
100
AcDbEntity
  8
0
100
AcDbCircle
 10
2273.821839369611
 20
732.219469023835
 30
0.0
 40
3.0
100
AcDbArc
 50
90.0
 51
170.4059317731351
  0
ARC
  5
43D2
330
18
100
AcDbEntity
  8
0
100
AcDbCircle
 10
2273.821839369611
 20
797.219469023835
 30
0.0
 40
3.0
100
AcDbArc
 50
189.5940682268648
 51
270.0
  0
LINE
  5
43D3
330
18
100
AcDbEntity
  8
0
100
AcDbLine
 10
2204.447719694961
 20
801.7194690238349
 30
0.0
 11
2264.947719694961
 21
801.7194690238349
 31
0.0
  0
LINE
  5
43D4
330
18
100
AcDbEntity
  8
0
100
AcDbLine
 10
2424.447719694961
 20
801.7194690238348
 30
0.0
 11
2424.447719694961
 21
764.7194690238348
 31
0.0
  0
LINE
  5
43D5
330
18
100
AcDbEntity
  8
0
100
AcDbLine
 10
2394.397340960275
 20
801.7059700825599
 30
0.0
 11
2381.430340755644
 21
794.2194690238348
 31
0.0
  0
LINE
  5
43D6
330
18
100
AcDbEntity
  8
0
100
AcDbLine
 10
2394.44771969496
 20
801.7194690238348
 30
0.0
 11
2394.44771969496
 21
727.719469023835
 31
0.0
  0
LINE
  5
43D7
330
18
100
AcDbEntity
  8
0
100
AcDbLine
 10
2394.44771969496
 20
727.719469023835
 30
0.0
 11
2424.447719694961
 21
727.719469023835
 31
0.0
  0
LINE
  5
43D8
330
18
100
AcDbEntity
  8
0
100
AcDbLine
 10
2381.430340755644
 20
735.2194690238352
 30
0.0
 11
2343.94771969496
 21
735.2194690238352
 31
0.0
  0
LINE
  5
43D9
330
18
100
AcDbEntity
  8
0
100
AcDbLine
 10
2394.397340960275
 20
727.7329679651099
 30
0.0
 11
2381.430340755644
 21
735.2194690238352
 31
0.0
  0
LINE
  5
43DA
330
18
100
AcDbEntity
  8
0
100
AcDbLine
 10
2381.430340755644
 20
794.2194690238348
 30
0.0
 11
2343.94771969496
 21
794.2194690238348
 31
0.0
  0
LINE
  5
43DB
330
18
100
AcDbEntity
  8
0
100
AcDbLine
 10
2424.447719694961
 20
801.7194690238348
 30
0.0
 11
2394.44771969496
 21
801.7194690238348
 31
0.0
  0
ARC
  5
43E6
330
18
100
AcDbEntity
  8
0
100
AcDbCircle
 10
2335.257092563921
 20
2045.906328959952
 30
0.0
 40
83.0
100
AcDbArc
 50
240.0000000000026
 51
299.9999999999972
  0
LINE
  5
43E7
330
18
100
AcDbEntity
  8
0
100
AcDbLine
 10
2385.757092563921
 20
2007.906328959952
 30
0.0
 11
2284.757092563921
 21
2007.906328959952
 31
0.0
  0
LINE
  5
43E8
330
18
100
AcDbEntity
  8
0
100
AcDbLine
 10
2284.757092563921
 20
1989.614677713964
 30
0.0
 11
2284.757092563921
 21
2007.906328959952
 31
0.0
  0
ARC
  5
43E9
330
18
100
AcDbEntity
  8
0
100
AcDbCircle
 10
2302.757092563922
 20
1989.614677713964
 30
0.0
 40
18.0
100
AcDbArc
 50
180.0
 51
240.0000000000026
  0
LINE
  5
43EA
330
18
100
AcDbEntity
  8
0
100
AcDbLine
 10
2385.757092563921
 20
1989.614677713964
 30
0.0
 11
2385.757092563921
 21
2007.906328959952
 31
0.0
  0
LINE
  5
43EB
330
18
100
AcDbEntity
  8
0
100
AcDbLine
 10
2350.257092563921
 20
1940.906328959952
 30
0.0
 11
2320.257092563921
 21
1940.906328959952
 31
0.0
  0
LINE
  5
43EC
330
18
100
AcDbEntity
  8
0
100
AcDbLine
 10
2319.257092563921
 20
1941.906328959952
 30
0.0
 11
2319.257092563921
 21
1962.031422104564
 31
0.0
  0
LINE
  5
43ED
330
18
100
AcDbEntity
  8
0
100
AcDbLine
 10
2320.257092563921
 20
1940.906328959952
 30
0.0
 11
2319.257092563921
 21
1941.906328959952
 31
0.0
  0
ARC
  5
43EE
330
18
100
AcDbEntity
  8
0
100
AcDbCircle
 10
2316.257092563921
 20
1962.031422104564
 30
0.0
 40
3.0
100
AcDbArc
 50
0.0
 51
77.23632410755765
  0
LINE
  5
43EF
330
18
100
AcDbEntity
  8
0
100
AcDbLine
 10
2351.257092563921
 20
1941.906328959952
 30
0.0
 11
2351.257092563921
 21
1962.031422104564
 31
0.0
  0
LINE
  5
43F0
330
18
100
AcDbEntity
  8
0
100
AcDbLine
 10
2351.257092563921
 20
1941.906328959952
 30
0.0
 11
2350.257092563921
 21
1940.906328959952
 31
0.0
  0
ARC
  5
43F1
330
18
100
AcDbEntity
  8
0
100
AcDbCircle
 10
2354.257092563921
 20
1962.031422104564
 30
0.0
 40
3.0
100
AcDbArc
 50
102.7636758924423
 51
180.0
  0
LINE
  5
43F3
330
18
100
AcDbEntity
  8
0
100
AcDbLine
 10
1146.453216795543
 20
2176.918345683652
 30
0.0
 11
1115.953216795543
 21
2176.918345683652
 31
0.0
  0
LINE
  5
43F4
330
18
100
AcDbEntity
  8
0
100
AcDbLine
 10
1125.953216795543
 20
2113.368345683652
 30
0.0
 11
1036.953216795543
 21
2113.368345683652
 31
0.0
  0
LINE
  5
43F5
330
18
100
AcDbEntity
  8
0
100
AcDbLine
 10
1126.003216795543
 20
2113.368345683652
 30
0.0
 11
1036.903216795542
 21
2113.368345683652
 31
0.0
  0
LINE
  5
43F6
330
18
100
AcDbEntity
  8
0
100
AcDbLine
 10
1125.953216795543
 20
2009.868345683652
 30
0.0
 11
1036.953216795543
 21
2009.868345683652
 31
0.0
  0
LINE
  5
43F7
330
18
100
AcDbEntity
  8
0
100
AcDbLine
 10
1126.003216795543
 20
2009.868345683652
 30
0.0
 11
1036.903216795542
 21
2009.868345683652
 31
0.0
  0
LINE
  5
43F8
330
18
100
AcDbEntity
  8
0
100
AcDbLine
 10
1117.974309409751
 20
1866.597268306543
 30
0.0
 11
1128.453216795543
 21
1872.647268306543
 31
0.0
  0
LINE
  5
43F9
330
18
100
AcDbEntity
  8
0
100
AcDbLine
 10
1117.974309409751
 20
1840.597268306543
 30
0.0
 11
1128.453216795543
 21
1834.547268306543
 31
0.0
  0
ARC
  5
43FA
330
18
100
AcDbEntity
  8
0
100
AcDbCircle
 10
1081.453216795543
 20
1853.597268306543
 30
0.0
 40
44.5
100
AcDbArc
 50
205.346400557402
 51
339.053297979784
  0
ARC
  5
43FE
330
18
100
AcDbEntity
  8
0
100
AcDbCircle
 10
1081.453216795543
 20
1853.597268306543
 30
0.0
 40
44.5
100
AcDbArc
 50
20.94670202021596
 51
154.6535994425978
  0
ARC
  5
4404
330
18
100
AcDbEntity
  8
0
100
AcDbCircle
 10
859.4844578070484
 20
1734.56471032754
 30
0.0
 40
16.0
100
AcDbArc
 50
0.0
 51
60.00000000000272
  0
ARC
  5
4405
330
18
100
AcDbEntity
  8
0
100
AcDbCircle
 10
802.4844578070478
 20
1734.56471032754
 30
0.0
 40
16.0
100
AcDbArc
 50
119.9999999999973
 51
161.1251096612083
  0
CIRCLE
  5
4406
330
18
100
AcDbEntity
  8
0
100
AcDbCircle
 10
830.9844578070478
 20
1745.201262311826
 30
0.0
 40
19.05000000000003
  0
LINE
  5
4407
330
18
100
AcDbEntity
  8
0
100
AcDbLine
 10
1036.903216795542
 20
2113.368345683652
 30
0.0
 11
1036.903216795542
 21
2009.868345683652
 31
0.0
  0
LINE
  5
4408
330
18
100
AcDbEntity
  8
0
100
AcDbLine
 10
1036.953216795543
 20
1993.504897667938
 30
0.0
 11
1036.953216795543
 21
2009.868345683652
 31
0.0
  0
ARC
  5
4409
330
18
100
AcDbEntity
  8
0
100
AcDbCircle
 10
1033.953216795543
 20
2135.818345683652
 30
0.0
 40
3.0
100
AcDbArc
 50
0.0
 51
90.0
  0
LINE
  5
440A
330
18
100
AcDbEntity
  8
0
100
AcDbLine
 10
1044.932124181334
 20
2170.868345683652
 30
0.0
 11
1034.453216795543
 21
2176.918345683652
 31
0.0
  0
LINE
  5
440B
330
18
100
AcDbEntity
  8
0
100
AcDbLine
 10
1016.453216795543
 20
2176.918345683652
 30
0.0
 11
1016.453216795543
 21
2157.868345683652
 31
0.0
  0
LINE
  5
440C
330
18
100
AcDbEntity
  8
0
100
AcDbLine
 10
1034.453216795543
 20
2176.918345683652
 30
0.0
 11
1034.453216795543
 21
2138.818345683652
 31
0.0
  0
LINE
  5
440D
330
18
100
AcDbEntity
  8
0
100
AcDbLine
 10
1034.453216795543
 20
2138.818345683652
 30
0.0
 11
1016.453216795543
 21
2138.818345683652
 31
0.0
  0
LINE
  5
440E
330
18
100
AcDbEntity
  8
0
100
AcDbLine
 10
1034.453216795543
 20
2176.918345683652
 30
0.0
 11
1016.453216795543
 21
2176.918345683652
 31
0.0
  0
LINE
  5
4411
330
18
100
AcDbEntity
  8
0
100
AcDbLine
 10
1036.953216795543
 20
2135.818345683652
 30
0.0
 11
1036.953216795543
 21
2113.368345683652
 31
0.0
  0
LINE
  5
4413
330
18
100
AcDbEntity
  8
0
100
AcDbLine
 10
1106.129902690822
 20
2170.868345683652
 30
0.0
 11
1044.932124181334
 21
2170.868345683652
 31
0.0
  0
LINE
  5
4415
330
18
100
AcDbEntity
  8
0
100
AcDbLine
 10
1044.932124181334
 20
2170.868345683652
 30
0.0
 11
1044.932124181334
 21
2161.076000909396
 31
0.0
  0
ARC
  5
4416
330
18
100
AcDbEntity
  8
0
100
AcDbCircle
 10
1106.129902690822
 20
2173.868345683652
 30
0.0
 40
3.0
100
AcDbArc
 50
270.0
 51
333.2563160495932
  0
ARC
  5
4417
330
18
100
AcDbEntity
  8
0
100
AcDbCircle
 10
1115.953216795543
 20
2168.918345683651
 30
0.0
 40
8.0
100
AcDbArc
 50
90.0
 51
153.2563160495933
  0
LINE
  5
4418
330
18
100
AcDbEntity
  8
0
100
AcDbLine
 10
786.4344578070481
 20
1700.701262311826
 30
0.0
 11
786.4344578070481
 21
1597.201262311827
 31
0.0
  0
LINE
  5
4419
330
18
100
AcDbEntity
  8
0
100
AcDbLine
 10
875.5344578070481
 20
1700.701262311826
 30
0.0
 11
875.5344578070481
 21
1597.201262311827
 31
0.0
  0
LINE
  5
441A
330
18
100
AcDbEntity
  8
0
100
AcDbLine
 10
786.4844578070479
 20
1597.201262311827
 30
0.0
 11
875.4844578070478
 21
1597.201262311827
 31
0.0
  0
ARC
  5
441B
330
18
100
AcDbEntity
  8
0
100
AcDbCircle
 10
830.9844578070478
 20
1630.201262311826
 30
0.0
 40
73.0
100
AcDbArc
 50
240.0000000000026
 51
299.9999999999972
  0
LINE
  5
441C
330
18
100
AcDbEntity
  8
0
100
AcDbLine
 10
786.4344578070481
 20
1597.201262311827
 30
0.0
 11
875.5344578070481
 21
1597.201262311827
 31
0.0
  0
LINE
  5
441D
330
18
100
AcDbEntity
  8
0
100
AcDbLine
 10
786.4844578070479
 20
1580.837814296113
 30
0.0
 11
786.4844578070479
 21
1597.201262311827
 31
0.0
  0
ARC
  5
441E
330
18
100
AcDbEntity
  8
0
100
AcDbCircle
 10
802.4844578070478
 20
1580.837814296113
 30
0.0
 40
16.0
100
AcDbArc
 50
180.0
 51
240.0000000000026
  0
LINE
  5
441F
330
18
100
AcDbEntity
  8
0
100
AcDbLine
 10
815.9844578070478
 20
1535.201262311827
 30
0.0
 11
845.9844578070478
 21
1535.201262311827
 31
0.0
  0
ARC
  5
4420
330
18
100
AcDbEntity
  8
0
100
AcDbCircle
 10
811.9844578070479
 20
1556.614578733886
 30
0.0
 40
3.0
100
AcDbArc
 50
0.0
 51
75.52248781407055
  0
LINE
  5
4421
330
18
100
AcDbEntity
  8
0
100
AcDbLine
 10
815.9844578070478
 20
1535.201262311827
 30
0.0
 11
814.9844578070478
 21
1536.201262311827
 31
0.0
  0
LINE
  5
4422
330
18
100
AcDbEntity
  8
0
100
AcDbLine
 10
814.9844578070478
 20
1556.614578733886
 30
0.0
 11
814.9844578070478
 21
1536.201262311827
 31
0.0
  0
ARC
  5
4423
330
18
100
AcDbEntity
  8
0
100
AcDbCircle
 10
849.9844578070478
 20
1556.614578733886
 30
0.0
 40
3.0
100
AcDbArc
 50
104.4775121859294
 51
180.0
  0
LINE
  5
4424
330
18
100
AcDbEntity
  8
0
100
AcDbLine
 10
846.9844578070478
 20
1536.201262311827
 30
0.0
 11
845.9844578070478
 21
1535.201262311827
 31
0.0
  0
LINE
  5
4425
330
18
100
AcDbEntity
  8
0
100
AcDbLine
 10
846.9844578070478
 20
1556.614578733886
 30
0.0
 11
846.9844578070478
 21
1536.201262311827
 31
0.0
  0
LINE
  5
4426
330
18
100
AcDbEntity
  8
0
100
AcDbLine
 10
875.4844578070478
 20
1580.837814296113
 30
0.0
 11
875.4844578070478
 21
1597.201262311827
 31
0.0
  0
ARC
  5
4427
330
18
100
AcDbEntity
  8
0
100
AcDbCircle
 10
859.4844578070478
 20
1580.837814296113
 30
0.0
 40
16.0
100
AcDbArc
 50
299.9999999999972
 51
0.0
  0
LINE
  5
4428
330
18
100
AcDbEntity
  8
0
100
AcDbLine
 10
786.4844578070479
 20
1700.701262311826
 30
0.0
 11
875.4844578070478
 21
1700.701262311826
 31
0.0
  0
LINE
  5
4429
330
18
100
AcDbEntity
  8
0
100
AcDbLine
 10
786.4344578070481
 20
1700.701262311826
 30
0.0
 11
875.5344578070481
 21
1700.701262311826
 31
0.0
  0
LINE
  5
442A
330
18
100
AcDbEntity
  8
0
100
AcDbLine
 10
786.4844578070479
 20
1700.701262311826
 30
0.0
 11
875.4844578070478
 21
1700.701262311826
 31
0.0
  0
LINE
  5
442B
330
18
100
AcDbEntity
  8
0
100
AcDbLine
 10
786.4844578070479
 20
1718.701262311827
 30
0.0
 11
786.4844578070479
 21
1700.701262311826
 31
0.0
  0
LINE
  5
442C
330
18
100
AcDbEntity
  8
0
100
AcDbLine
 10
875.4844578070484
 20
1734.56471032754
 30
0.0
 11
875.4844578070478
 21
1700.701262311826
 31
0.0
  0
LINE
  5
443B
330
18
100
AcDbEntity
  8
0
100
AcDbLine
 10
822.6480571008455
 20
1762.330387311826
 30
0.0
 11
799.039195258345
 21
1750.840428978493
 31
0.0
  0
ARC
  5
443C
330
18
100
AcDbEntity
  8
0
100
AcDbCircle
 10
830.9844578070478
 20
1685.201262311827
 30
0.0
 40
73.0
100
AcDbArc
 50
115.9512554294081
 51
119.9999999999973
  0
LINE
  5
443D
330
18
100
AcDbEntity
  8
0
100
AcDbLine
 10
839.3208585132507
 20
1762.330387311826
 30
0.0
 11
862.9297203557511
 21
1750.840428978493
 31
0.0
  0
ARC
  5
443E
330
18
100
AcDbEntity
  8
0
100
AcDbCircle
 10
830.9844578070478
 20
1685.201262311827
 30
0.0
 40
73.0
100
AcDbArc
 50
60.00000000000272
 51
64.04874457059185
  0
LINE
  5
4440
330
18
100
AcDbEntity
  8
0
100
AcDbLine
 10
1016.453216795543
 20
1872.647268306543
 30
0.0
 11
1016.453216795543
 21
1853.597268306543
 31
0.0
  0
LINE
  5
4441
330
18
100
AcDbEntity
  8
0
100
AcDbLine
 10
1016.453216795543
 20
1834.547268306543
 30
0.0
 11
1046.953216795543
 21
1834.547268306543
 31
0.0
  0
ARC
  5
4449
330
18
100
AcDbEntity
  8
0
100
AcDbCircle
 10
1056.776530900263
 20
1837.597268306543
 30
0.0
 40
3.0
100
AcDbArc
 50
90.0
 51
153.2563160495933
  0
ARC
  5
444A
330
18
100
AcDbEntity
  8
0
100
AcDbCircle
 10
1046.953216795543
 20
1842.547268306543
 30
0.0
 40
8.0
100
AcDbArc
 50
270.0
 51
333.2563160495932
  0
LINE
  5
444B
330
18
100
AcDbEntity
  8
0
100
AcDbLine
 10
1094.453216795543
 20
1840.597268306543
 30
0.0
 11
1117.974309409751
 21
1840.597268306543
 31
0.0
  0
LINE
  5
444C
330
18
100
AcDbEntity
  8
0
100
AcDbLine
 10
1016.453216795543
 20
1872.647268306543
 30
0.0
 11
1046.953216795543
 21
1872.647268306543
 31
0.0
  0
ARC
  5
444D
330
18
100
AcDbEntity
  8
0
100
AcDbCircle
 10
1056.776530900263
 20
1869.597268306543
 30
0.0
 40
3.0
100
AcDbArc
 50
206.7436839504066
 51
270.0
  0
ARC
  5
444E
330
18
100
AcDbEntity
  8
0
100
AcDbCircle
 10
1046.953216795543
 20
1864.647268306543
 30
0.0
 40
8.0
100
AcDbArc
 50
26.74368395040668
 51
90.0
  0
LINE
  5
444F
330
18
100
AcDbEntity
  8
0
100
AcDbLine
 10
1094.453216795543
 20
1866.597268306543
 30
0.0
 11
1117.974309409751
 21
1866.597268306543
 31
0.0
  0
LINE
  5
4451
330
18
100
AcDbEntity
  8
0
100
AcDbLine
 10
2260.257092563921
 20
1758.681522140822
 30
0.0
 11
2260.257092563921
 21
1735.681522140822
 31
0.0
  0
ARC
  5
4453
330
18
100
AcDbEntity
  8
0
100
AcDbCircle
 10
2120.437091485788
 20
1726.198760958263
 30
0.0
 40
16.0
100
AcDbArc
 50
0.0
 51
59.26213132786916
  0
ARC
  5
4454
330
18
100
AcDbEntity
  8
0
100
AcDbCircle
 10
2051.437091485787
 20
1726.198760958263
 30
0.0
 40
16.0
100
AcDbArc
 50
120.7378686721308
 51
172.8626886836677
  0
CIRCLE
  5
4455
330
18
100
AcDbEntity
  8
0
100
AcDbCircle
 10
2085.937091485787
 20
1735.681522140822
 30
0.0
 40
23.0
  0
LINE
  5
445B
330
18
100
AcDbEntity
  8
0
100
AcDbLine
 10
2035.137091485788
 20
1688.181522140822
 30
0.0
 11
2136.737091485787
 21
1688.181522140822
 31
0.0
  0
ARC
  5
445C
330
18
100
AcDbEntity
  8
0
100
AcDbCircle
 10
2085.937091485787
 20
1600.681522140822
 30
0.0
 40
83.0
100
AcDbArc
 50
240.0000000000026
 51
299.9999999999972
  0
LINE
  5
445D
330
18
100
AcDbEntity
  8
0
100
AcDbLine
 10
2035.437091485787
 20
1562.681522140822
 30
0.0
 11
2136.437091485788
 21
1562.681522140822
 31
0.0
  0
LINE
  5
445E
330
18
100
AcDbEntity
  8
0
100
AcDbLine
 10
2035.137091485788
 20
1562.681522140822
 30
0.0
 11
2136.737091485787
 21
1562.681522140822
 31
0.0
  0
LINE
  5
445F
330
18
100
AcDbEntity
  8
0
100
AcDbLine
 10
1126.003216795543
 20
2113.368345683652
 30
0.0
 11
1126.003216795543
 21
2009.868345683652
 31
0.0
  0
LINE
  5
4460
330
18
100
AcDbEntity
  8
0
100
AcDbLine
 10
1125.953216795543
 20
1993.504897667938
 30
0.0
 11
1125.953216795543
 21
2009.868345683652
 31
0.0
  0
LINE
  5
4461
330
18
100
AcDbEntity
  8
0
100
AcDbLine
 10
1146.453216795543
 20
2176.918345683652
 30
0.0
 11
1146.453216795543
 21
2157.868345683652
 31
0.0
  0
LINE
  5
4462
330
18
100
AcDbEntity
  8
0
100
AcDbLine
 10
1125.953216795543
 20
2147.231793699365
 30
0.0
 11
1125.953216795543
 21
2113.368345683652
 31
0.0
  0
LINE
  5
4463
330
18
100
AcDbEntity
  8
0
100
AcDbLine
 10
1146.453216795543
 20
2138.818345683652
 30
0.0
 11
1128.953216795543
 21
2138.818345683652
 31
0.0
  0
ARC
  5
4464
330
18
100
AcDbEntity
  8
0
100
AcDbCircle
 10
1128.953216795543
 20
2135.818345683652
 30
0.0
 40
3.0
100
AcDbArc
 50
90.0
 51
180.0
  0
LINE
  5
447B
330
18
100
AcDbEntity
  8
0
100
AcDbLine
 10
2035.137091485788
 20
1562.681522140822
 30
0.0
 11
2035.137091485788
 21
1688.181522140822
 31
0.0
  0
LINE
  5
447F
330
18
100
AcDbEntity
  8
0
100
AcDbLine
 10
2035.437091485787
 20
1544.389870894833
 30
0.0
 11
2035.437091485787
 21
1562.681522140822
 31
0.0
  0
ARC
  5
4480
330
18
100
AcDbEntity
  8
0
100
AcDbCircle
 10
2053.437091485788
 20
1544.389870894833
 30
0.0
 40
18.0
100
AcDbArc
 50
180.0
 51
240.0000000000026
  0
LINE
  5
4482
330
18
100
AcDbEntity
  8
0
100
AcDbLine
 10
2035.437091485787
 20
1707.181060935702
 30
0.0
 11
2035.437091485787
 21
1688.181522140822
 31
0.0
  0
LINE
  5
4483
330
18
100
AcDbEntity
  8
0
100
AcDbLine
 10
2351.257092563921
 20
1496.681522140822
 30
0.0
 11
2351.257092563921
 21
1516.806615285434
 31
0.0
  0
LINE
  5
4484
330
18
100
AcDbEntity
  8
0
100
AcDbLine
 10
2319.257092563921
 20
1496.681522140822
 30
0.0
 11
2319.257092563921
 21
1516.806615285434
 31
0.0
  0
LINE
  5
4485
330
18
100
AcDbEntity
  8
0
100
AcDbLine
 10
2101.937091485787
 20
1496.681522140822
 30
0.0
 11
2101.937091485787
 21
1516.806615285434
 31
0.0
  0
LINE
  5
4486
330
18
100
AcDbEntity
  8
0
100
AcDbLine
 10
2069.937091485787
 20
1496.681522140822
 30
0.0
 11
2069.937091485787
 21
1516.806615285434
 31
0.0
  0
LINE
  5
4487
330
18
100
AcDbEntity
  8
0
100
AcDbLine
 10
2070.937091485788
 20
1495.681522140822
 30
0.0
 11
2100.937091485787
 21
1495.681522140822
 31
0.0
  0
LINE
  5
4488
330
18
100
AcDbEntity
  8
0
100
AcDbLine
 10
2069.937091485787
 20
1496.681522140822
 30
0.0
 11
2070.937091485788
 21
1495.681522140822
 31
0.0
  0
LINE
  5
4489
330
18
100
AcDbEntity
  8
0
100
AcDbLine
 10
2100.937091485787
 20
1495.681522140822
 30
0.0
 11
2101.937091485787
 21
1496.681522140822
 31
0.0
  0
LINE
  5
448A
330
18
100
AcDbEntity
  8
0
100
AcDbLine
 10
2260.257092563921
 20
2203.906328959952
 30
0.0
 11
2260.257092563921
 21
2180.906328959952
 31
0.0
  0
LINE
  5
448B
330
18
100
AcDbEntity
  8
0
100
AcDbLine
 10
2282.257092563921
 20
2203.906328959952
 30
0.0
 11
2282.257092563921
 21
2157.906328959952
 31
0.0
  0
LINE
  5
448D
330
18
100
AcDbEntity
  8
0
100
AcDbLine
 10
2385.757092563921
 20
2133.406328959952
 30
0.0
 11
2284.757092563921
 21
2133.406328959952
 31
0.0
  0
LINE
  5
448E
330
18
100
AcDbEntity
  8
0
100
AcDbLine
 10
2281.757092563921
 20
2157.906328959952
 30
0.0
 11
2260.257092563921
 21
2157.906328959952
 31
0.0
  0
LINE
  5
448F
330
18
100
AcDbEntity
  8
0
100
AcDbLine
 10
2284.757092563921
 20
2154.906328959952
 30
0.0
 11
2284.757092563921
 21
2133.406328959952
 31
0.0
  0
ARC
  5
4490
330
18
100
AcDbEntity
  8
0
100
AcDbCircle
 10
2281.757092563921
 20
2154.906328959952
 30
0.0
 40
3.0
100
AcDbArc
 50
0.0
 51
90.0
  0
LINE
  5
4491
330
18
100
AcDbEntity
  8
0
100
AcDbLine
 10
2385.757092563921
 20
2171.423567777393
 30
0.0
 11
2385.757092563921
 21
2133.406328959952
 31
0.0
  0
LINE
  5
4493
330
18
100
AcDbEntity
  8
0
100
AcDbLine
 10
2362.674087319663
 20
2196.906328959952
 30
0.0
 11
2294.381448216904
 21
2196.906328959952
 31
0.0
  0
LINE
  5
4494
330
18
100
AcDbEntity
  8
0
100
AcDbLine
 10
2282.257092563921
 20
2203.906328959952
 30
0.0
 11
2260.257092563921
 21
2203.906328959952
 31
0.0
  0
LINE
  5
4495
330
18
100
AcDbEntity
  8
0
100
AcDbLine
 10
2294.381448216904
 20
2196.906328959952
 30
0.0
 11
2294.381448216904
 21
2186.217260139385
 31
0.0
  0
LINE
  5
4496
330
18
100
AcDbEntity
  8
0
100
AcDbLine
 10
2294.381448216904
 20
2196.906328959952
 30
0.0
 11
2282.257092563921
 21
2203.906328959952
 31
0.0
  0
ARC
  5
4498
330
18
100
AcDbEntity
  8
0
100
AcDbCircle
 10
2362.674087319663
 20
2199.906328959952
 30
0.0
 40
3.0
100
AcDbArc
 50
270.0
 51
336.9643158940635
  0
ARC
  5
4499
330
18
100
AcDbEntity
  8
0
100
AcDbCircle
 10
2373.257092563921
 20
2195.406328959952
 30
0.0
 40
8.5
100
AcDbArc
 50
90.0
 51
156.9643158940635
  0
LINE
  5
449A
330
18
100
AcDbEntity
  8
0
100
AcDbLine
 10
2320.257092563921
 20
1495.681522140822
 30
0.0
 11
2350.257092563921
 21
1495.681522140822
 31
0.0
  0
LINE
  5
449B
330
18
100
AcDbEntity
  8
0
100
AcDbLine
 10
2319.257092563921
 20
1496.681522140822
 30
0.0
 11
2320.257092563921
 21
1495.681522140822
 31
0.0
  0
LINE
  5
449C
330
18
100
AcDbEntity
  8
0
100
AcDbLine
 10
2350.257092563921
 20
1495.681522140822
 30
0.0
 11
2351.257092563921
 21
1496.681522140822
 31
0.0
  0
LINE
  5
449D
330
18
100
AcDbEntity
  8
0
100
AcDbLine
 10
2136.737091485787
 20
1562.681522140822
 30
0.0
 11
2136.737091485787
 21
1688.181522140822
 31
0.0
  0
LINE
  5
449E
330
18
100
AcDbEntity
  8
0
100
AcDbLine
 10
2136.437091485788
 20
1544.389870894833
 30
0.0
 11
2136.437091485788
 21
1562.681522140822
 31
0.0
  0
ARC
  5
449F
330
18
100
AcDbEntity
  8
0
100
AcDbCircle
 10
2066.937091485788
 20
1516.806615285434
 30
0.0
 40
3.0
100
AcDbArc
 50
0.0
 51
77.23632410755765
  0
ARC
  5
44A0
330
18
100
AcDbEntity
  8
0
100
AcDbCircle
 10
2118.437091485787
 20
1544.389870894833
 30
0.0
 40
18.0
100
AcDbArc
 50
299.9999999999972
 51
0.0
  0
ARC
  5
44A1
330
18
100
AcDbEntity
  8
0
100
AcDbCircle
 10
2104.937091485787
 20
1516.806615285434
 30
0.0
 40
3.0
100
AcDbArc
 50
102.7636758924423
 51
180.0
  0
LINE
  5
44A2
330
18
100
AcDbEntity
  8
0
100
AcDbLine
 10
2136.437091485788
 20
1726.198760958263
 30
0.0
 11
2136.437091485788
 21
1688.181522140822
 31
0.0
  0
LINE
  5
44A3
330
18
100
AcDbEntity
  8
0
100
AcDbLine
 10
2284.457092563922
 20
1562.681522140822
 30
0.0
 11
2284.457092563922
 21
1688.181522140822
 31
0.0
  0
ARC
  5
44A4
330
18
100
AcDbEntity
  8
0
100
AcDbCircle
 10
2335.257092563921
 20
1600.681522140822
 30
0.0
 40
83.0
100
AcDbArc
 50
240.0000000000026
 51
299.9999999999972
  0
LINE
  5
44A5
330
18
100
AcDbEntity
  8
0
100
AcDbLine
 10
2284.757092563921
 20
1562.681522140822
 30
0.0
 11
2385.757092563921
 21
1562.681522140822
 31
0.0
  0
LINE
  5
44A6
330
18
100
AcDbEntity
  8
0
100
AcDbLine
 10
2284.757092563921
 20
1544.389870894833
 30
0.0
 11
2284.757092563921
 21
1562.681522140822
 31
0.0
  0
ARC
  5
44A7
330
18
100
AcDbEntity
  8
0
100
AcDbCircle
 10
2302.757092563922
 20
1544.389870894833
 30
0.0
 40
18.0
100
AcDbArc
 50
180.0
 51
240.0000000000026
  0
LINE
  5
44A8
330
18
100
AcDbEntity
  8
0
100
AcDbLine
 10
2385.757092563921
 20
1544.389870894833
 30
0.0
 11
2385.757092563921
 21
1562.681522140822
 31
0.0
  0
ARC
  5
44A9
330
18
100
AcDbEntity
  8
0
100
AcDbCircle
 10
2316.257092563921
 20
1516.806615285434
 30
0.0
 40
3.0
100
AcDbArc
 50
0.0
 51
77.23632410755765
  0
ARC
  5
44AA
330
18
100
AcDbEntity
  8
0
100
AcDbCircle
 10
2354.257092563921
 20
1516.806615285434
 30
0.0
 40
3.0
100
AcDbArc
 50
102.7636758924423
 51
180.0
  0
LINE
  5
44AB
330
18
100
AcDbEntity
  8
0
100
AcDbLine
 10
2284.757092563921
 20
1688.181522140822
 30
0.0
 11
2385.757092563921
 21
1688.181522140822
 31
0.0
  0
LINE
  5
44AC
330
18
100
AcDbEntity
  8
0
100
AcDbLine
 10
2260.257092563921
 20
1712.681522140822
 30
0.0
 11
2281.757092563921
 21
1712.681522140822
 31
0.0
  0
LINE
  5
44AD
330
18
100
AcDbEntity
  8
0
100
AcDbLine
 10
2284.757092563921
 20
1726.198760958262
 30
0.0
 11
2284.757092563921
 21
1688.181522140822
 31
0.0
  0
ARC
  5
44AE
330
18
100
AcDbEntity
  8
0
100
AcDbCircle
 10
2281.757092563921
 20
1709.681522140822
 30
0.0
 40
3.0
100
AcDbArc
 50
0.0
 51
90.0
  0
LINE
  5
44AF
330
18
100
AcDbEntity
  8
0
100
AcDbLine
 10
2385.757092563922
 20
1726.198760958262
 30
0.0
 11
2385.757092563921
 21
1688.181522140822
 31
0.0
  0
LINE
  5
44B0
330
18
100
AcDbEntity
  8
0
100
AcDbLine
 10
2075.737610609248
 20
1756.296336955636
 30
0.0
 11
2048.908541347047
 21
1743.022262881563
 31
0.0
  0
LINE
  5
44B2
330
18
100
AcDbEntity
  8
0
100
AcDbLine
 10
1128.453216795543
 20
1872.647268306543
 30
0.0
 11
1128.453216795543
 21
1834.547268306543
 31
0.0
  0
LINE
  5
44B3
330
18
100
AcDbEntity
  8
0
100
AcDbLine
 10
1146.453216795543
 20
1872.647268306543
 30
0.0
 11
1146.453216795543
 21
1853.597268306543
 31
0.0
  0
LINE
  5
44B5
330
18
100
AcDbEntity
  8
0
100
AcDbLine
 10
1128.453216795543
 20
1834.547268306543
 30
0.0
 11
1146.453216795543
 21
1834.547268306543
 31
0.0
  0
LINE
  5
44B7
330
18
100
AcDbEntity
  8
0
100
AcDbLine
 10
1128.453216795543
 20
1872.647268306543
 30
0.0
 11
1146.453216795543
 21
1872.647268306543
 31
0.0
  0
ARC
  5
44B8
330
18
100
AcDbEntity
  8
0
100
AcDbCircle
 10
2085.937091485787
 20
1668.181522140822
 30
0.0
 40
83.49999999999999
100
AcDbArc
 50
116.3245765374973
 51
120.7378686721308
  0
LINE
  5
44B9
330
18
100
AcDbEntity
  8
0
100
AcDbLine
 10
2096.136572362327
 20
1756.296336955636
 30
0.0
 11
2122.965641624528
 21
1743.022262881563
 31
0.0
  0
ARC
  5
44BA
330
18
100
AcDbEntity
  8
0
100
AcDbCircle
 10
2085.937091485787
 20
1668.181522140822
 30
0.0
 40
83.49999999999999
100
AcDbArc
 50
59.26213132786916
 51
63.67542346250266
  0
LINE
  5
44BC
330
18
100
AcDbEntity
  8
0
100
AcDbLine
 10
2260.257092563921
 20
1883.447650992977
 30
0.0
 11
2260.257092563921
 21
1860.447650992977
 31
0.0
  0
ARC
  5
44BD
330
18
100
AcDbEntity
  8
0
100
AcDbCircle
 10
2297.257092563921
 20
1845.947650992977
 30
0.0
 40
8.5
100
AcDbArc
 50
270.0
 51
336.9643158940635
  0
ARC
  5
44BE
330
18
100
AcDbEntity
  8
0
100
AcDbCircle
 10
2297.257092563921
 20
1750.181522140822
 30
0.0
 40
8.5
100
AcDbArc
 50
23.03568410593644
 51
90.0
  0
ARC
  5
44BF
330
18
100
AcDbEntity
  8
0
100
AcDbCircle
 10
2335.257092563921
 20
1860.447650992977
 30
0.0
 40
50.5
100
AcDbArc
 50
207.0936050126959
 51
337.4883768967902
  0
LINE
  5
44C0
330
18
100
AcDbEntity
  8
0
100
AcDbLine
 10
2260.257092563921
 20
1758.681522140822
 30
0.0
 11
2297.257092563921
 21
1758.681522140822
 31
0.0
  0
LINE
  5
44C1
330
18
100
AcDbEntity
  8
0
100
AcDbLine
 10
2260.257092563921
 20
1837.447650992977
 30
0.0
 11
2297.257092563921
 21
1837.447650992977
 31
0.0
  0
LINE
  5
44C3
330
18
100
AcDbEntity
  8
0
100
AcDbLine
 10
2307.840097808179
 20
1751.681522140822
 30
0.0
 11
2376.132736910939
 21
1751.681522140822
 31
0.0
  0
ARC
  5
44C4
330
18
100
AcDbEntity
  8
0
100
AcDbCircle
 10
2307.840097808179
 20
1754.681522140822
 30
0.0
 40
3.0
100
AcDbArc
 50
203.0356841059364
 51
270.0
  0
LINE
  5
44C5
330
18
100
AcDbEntity
  8
0
100
AcDbLine
 10
2376.132736910939
 20
1751.681522140822
 30
0.0
 11
2376.132736910939
 21
1740.992453320254
 31
0.0
  0
ARC
  5
44C6
330
18
100
AcDbEntity
  8
0
100
AcDbCircle
 10
2307.840097808179
 20
1841.447650992977
 30
0.0
 40
3.0
100
AcDbArc
 50
90.0
 51
156.9643158940635
  0
LINE
  5
44C7
330
18
100
AcDbEntity
  8
0
100
AcDbLine
 10
2351.257092563921
 20
1844.447650992977
 30
0.0
 11
2376.132736910939
 21
1844.447650992977
 31
0.0
  0
ARC
  5
44C8
330
18
100
AcDbEntity
  8
0
100
AcDbCircle
 10
2297.257092563921
 20
1874.947650992977
 30
0.0
 40
8.5
100
AcDbArc
 50
23.03568410593644
 51
90.0
  0
ARC
  5
44C9
330
18
100
AcDbEntity
  8
0
100
AcDbCircle
 10
2335.257092563921
 20
1860.447650992977
 30
0.0
 40
50.5
100
AcDbArc
 50
22.51162310320978
 51
152.9063949873041
  0
LINE
  5
44CA
330
18
100
AcDbEntity
  8
0
100
AcDbLine
 10
2260.257092563921
 20
1883.447650992977
 30
0.0
 11
2297.257092563921
 21
1883.447650992977
 31
0.0
  0
ARC
  5
44CB
330
18
100
AcDbEntity
  8
0
100
AcDbCircle
 10
2307.840097808179
 20
1879.447650992977
 30
0.0
 40
3.0
100
AcDbArc
 50
203.0356841059364
 51
270.0
  0
LINE
  5
44CC
330
18
100
AcDbEntity
  8
0
100
AcDbLine
 10
2351.257092563921
 20
1876.447650992977
 30
0.0
 11
2376.132736910939
 21
1876.447650992977
 31
0.0
  0
LINE
  5
44CD
330
18
100
AcDbEntity
  8
0
100
AcDbLine
 10
2386.057092563921
 20
2007.906328959952
 30
0.0
 11
2386.057092563921
 21
2133.406328959952
 31
0.0
  0
LINE
  5
44CE
330
18
100
AcDbEntity
  8
0
100
AcDbLine
 10
2410.257092563921
 20
1758.681522140822
 30
0.0
 11
2410.257092563921
 21
1735.681522140822
 31
0.0
  0
LINE
  5
44CF
330
18
100
AcDbEntity
  8
0
100
AcDbLine
 10
2388.257092563921
 20
1758.681522140822
 30
0.0
 11
2388.257092563921
 21
1712.681522140822
 31
0.0
  0
LINE
  5
44D0
330
18
100
AcDbEntity
  8
0
100
AcDbLine
 10
2410.257092563921
 20
2203.906328959952
 30
0.0
 11
2410.257092563921
 21
2180.906328959952
 31
0.0
  0
LINE
  5
44D1
330
18
100
AcDbEntity
  8
0
100
AcDbLine
 10
2410.257092563921
 20
2157.906328959952
 30
0.0
 11
2388.757092563921
 21
2157.906328959952
 31
0.0
  0
LINE
  5
44D2
330
18
100
AcDbEntity
  8
0
100
AcDbLine
 10
2386.057092563921
 20
1562.681522140822
 30
0.0
 11
2386.057092563921
 21
1688.181522140822
 31
0.0
  0
LINE
  5
44D3
330
18
100
AcDbEntity
  8
0
100
AcDbLine
 10
2388.757092563921
 20
1712.681522140822
 30
0.0
 11
2410.257092563921
 21
1712.681522140822
 31
0.0
  0
LINE
  5
44D4
330
18
100
AcDbEntity
  8
0
100
AcDbLine
 10
2388.257092563921
 20
1883.447650992977
 30
0.0
 11
2388.257092563921
 21
1837.447650992977
 31
0.0
  0
LINE
  5
44D5
330
18
100
AcDbEntity
  8
0
100
AcDbLine
 10
2410.257092563921
 20
1883.447650992977
 30
0.0
 11
2410.257092563921
 21
1860.447650992977
 31
0.0
  0
LINE
  5
44D6
330
18
100
AcDbEntity
  8
0
100
AcDbLine
 10
2388.257092563921
 20
1758.681522140822
 30
0.0
 11
2410.257092563921
 21
1758.681522140822
 31
0.0
  0
LINE
  5
44D7
330
18
100
AcDbEntity
  8
0
100
AcDbLine
 10
2388.257092563921
 20
1837.447650992977
 30
0.0
 11
2410.257092563921
 21
1837.447650992977
 31
0.0
  0
LINE
  5
44D8
330
18
100
AcDbEntity
  8
0
100
AcDbLine
 10
2388.257092563921
 20
1883.447650992977
 30
0.0
 11
2410.257092563921
 21
1883.447650992977
 31
0.0
  0
ARC
  5
44EB
330
18
100
AcDbEntity
  8
0
100
AcDbCircle
 10
1059.624744268686
 20
781.8943363225239
 30
0.0
 40
57.00000000000023
100
AcDbArc
 50
28.90807217248721
 51
147.6501394850677
  0
ARC
  5
44EC
330
18
100
AcDbEntity
  8
0
100
AcDbCircle
 10
1059.624744268686
 20
781.8943363225239
 30
0.0
 40
57.00000000000023
100
AcDbArc
 50
212.3498605149322
 51
331.0919278275127
  0
LINE
  5
44ED
330
18
100
AcDbEntity
  8
0
100
AcDbLine
 10
1002.474744268687
 20
355.7296113841946
 30
0.0
 11
1116.774744268687
 21
355.729611384195
 31
0.0
  0
ARC
  5
44EE
330
18
100
AcDbEntity
  8
0
100
AcDbCircle
 10
1059.624744268688
 20
408.7296113841946
 30
0.0
 40
103.0
100
AcDbArc
 50
243.9583500440495
 51
296.0416499559503
  0
LINE
  5
44EF
330
18
100
AcDbEntity
  8
0
100
AcDbLine
 10
1043.624744268688
 20
283.7296113841948
 30
0.0
 11
1075.624744268688
 21
283.7296113841948
 31
0.0
  0
LINE
  5
44F0
330
18
100
AcDbEntity
  8
0
100
AcDbLine
 10
1002.624744268687
 20
355.7296113841946
 30
0.0
 11
1116.624744268687
 21
355.7296113841946
 31
0.0
  0
LINE
  5
44F1
330
18
100
AcDbEntity
  8
0
100
AcDbLine
 10
1002.474744268686
 20
522.7296113841949
 30
0.0
 11
1116.774744268686
 21
522.7296113841953
 31
0.0
  0
LINE
  5
44F2
330
18
100
AcDbEntity
  8
0
100
AcDbLine
 10
1027.290108772536
 20
602.7296113841948
 30
0.0
 11
1103.366414019488
 21
602.7296113841948
 31
0.0
  0
LINE
  5
44F3
330
18
100
AcDbEntity
  8
0
100
AcDbLine
 10
1002.624744268686
 20
522.729611384195
 30
0.0
 11
1116.624744268686
 21
522.7296113841949
 31
0.0
  0
LINE
  5
44F4
330
18
100
AcDbEntity
  8
0
100
AcDbLine
 10
702.289539572197
 20
522.7296113841953
 30
0.0
 11
702.289539572197
 21
355.7296113841942
 31
0.0
  0
LINE
  5
44F5
330
18
100
AcDbEntity
  8
0
100
AcDbLine
 10
816.5895395721973
 20
522.7296113841953
 30
0.0
 11
816.5895395721973
 21
355.729611384195
 31
0.0
  0
LINE
  5
44F6
330
18
100
AcDbEntity
  8
0
100
AcDbLine
 10
1002.474744268686
 20
522.7296113841953
 30
0.0
 11
1002.474744268686
 21
355.7296113841942
 31
0.0
  0
LINE
  5
4517
330
18
100
AcDbEntity
  8
0
100
AcDbLine
 10
702.4395395721981
 20
355.7296113841946
 30
0.0
 11
816.439539572198
 21
355.7296113841946
 31
0.0
  0
ARC
  5
4518
330
18
100
AcDbEntity
  8
0
100
AcDbCircle
 10
759.4395395721985
 20
408.7296113841946
 30
0.0
 40
103.0
100
AcDbArc
 50
243.9583500440495
 51
296.0416499559503
  0
LINE
  5
4519
330
18
100
AcDbEntity
  8
0
100
AcDbLine
 10
702.289539572198
 20
355.7296113841946
 30
0.0
 11
816.5895395721982
 21
355.729611384195
 31
0.0
  0
LINE
  5
451A
330
18
100
AcDbEntity
  8
0
100
AcDbLine
 10
702.4395395721986
 20
355.7296113841946
 30
0.0
 11
702.4395395721986
 21
335.0546495586192
 31
0.0
  0
ARC
  5
451B
330
18
100
AcDbEntity
  8
0
100
AcDbCircle
 10
723.4395395721985
 20
335.0546495586192
 30
0.0
 40
21.0
100
AcDbArc
 50
180.0
 51
243.9583500440495
  0
LINE
  5
451C
330
18
100
AcDbEntity
  8
0
100
AcDbLine
 10
743.4395395721985
 20
283.7296113841948
 30
0.0
 11
775.4395395721985
 21
283.7296113841948
 31
0.0
  0
LINE
  5
451D
330
18
100
AcDbEntity
  8
0
100
AcDbLine
 10
743.4395395721985
 20
306.9799185099654
 30
0.0
 11
743.4395395721985
 21
283.7296113841948
 31
0.0
  0
LINE
  5
451E
330
18
100
AcDbEntity
  8
0
100
AcDbLine
 10
775.4395395721985
 20
306.9799185099654
 30
0.0
 11
775.4395395721985
 21
283.7296113841948
 31
0.0
  0
LINE
  5
451F
330
18
100
AcDbEntity
  8
0
100
AcDbLine
 10
816.439539572198
 20
355.7296113841946
 30
0.0
 11
816.439539572198
 21
335.0546495586192
 31
0.0
  0
ARC
  5
4520
330
18
100
AcDbEntity
  8
0
100
AcDbCircle
 10
795.4395395721981
 20
335.0546495586192
 30
0.0
 40
21.0
100
AcDbArc
 50
296.0416499559503
 51
0.0
  0
LINE
  5
4521
330
18
100
AcDbEntity
  8
0
100
AcDbLine
 10
1002.624744268688
 20
355.7296113841946
 30
0.0
 11
1002.624744268688
 21
335.0546495586192
 31
0.0
  0
ARC
  5
4522
330
18
100
AcDbEntity
  8
0
100
AcDbCircle
 10
1023.624744268688
 20
335.0546495586192
 30
0.0
 40
21.0
100
AcDbArc
 50
180.0
 51
243.9583500440495
  0
LINE
  5
4523
330
18
100
AcDbEntity
  8
0
100
AcDbLine
 10
1043.624744268688
 20
306.9799185099654
 30
0.0
 11
1043.624744268688
 21
283.7296113841948
 31
0.0
  0
ARC
  5
4528
330
18
100
AcDbEntity
  8
0
100
AcDbCircle
 10
792.4395395721976
 20
571.6062194282028
 30
0.0
 40
24.0
100
AcDbArc
 50
0.0
 51
65.63802206002456
  0
LINE
  5
4529
330
18
100
AcDbEntity
  8
0
100
AcDbLine
 10
702.4395395721967
 20
522.729611384195
 30
0.0
 11
816.4395395721967
 21
522.7296113841949
 31
0.0
  0
LINE
  5
452A
330
18
100
AcDbEntity
  8
0
100
AcDbLine
 10
702.4395395721967
 20
522.729611384195
 30
0.0
 11
816.4395395721967
 21
522.7296113841949
 31
0.0
  0
LINE
  5
452B
330
18
100
AcDbEntity
  8
0
100
AcDbLine
 10
747.3969268372302
 20
606.7514863841948
 30
0.0
 11
718.3762043447709
 21
594.279611384195
 31
0.0
  0
LINE
  5
452C
330
18
100
AcDbEntity
  8
0
100
AcDbLine
 10
702.4395395721958
 20
571.6062194282021
 30
0.0
 11
702.4395395721958
 21
568.7571948969385
 31
0.0
  0
ARC
  5
452D
330
18
100
AcDbEntity
  8
0
100
AcDbCircle
 10
726.4395395721958
 20
571.6062194282025
 30
0.0
 40
24.0
100
AcDbArc
 50
114.3619779399754
 51
180.0
  0
ARC
  5
452E
330
18
100
AcDbEntity
  8
0
100
AcDbCircle
 10
759.4395395721967
 20
498.7296113841948
 30
0.0
 40
104.0
100
AcDbArc
 50
113.2559807917669
 51
114.3619779399754
  0
CIRCLE
  5
452F
330
18
100
AcDbEntity
  8
0
100
AcDbCircle
 10
759.4395395721967
 20
578.7296113841948
 30
0.0
 40
30.5
  0
ARC
  5
4530
330
18
100
AcDbEntity
  8
0
100
AcDbCircle
 10
759.4395395721967
 20
578.7296113841946
 30
0.0
 40
30.5
100
AcDbArc
 50
66.74401920823306
 51
113.2559807917669
  0
LINE
  5
4531
330
18
100
AcDbEntity
  8
0
100
AcDbLine
 10
771.4821523071632
 20
606.7514863841948
 30
0.0
 11
800.5028747996226
 21
594.279611384195
 31
0.0
  0
ARC
  5
4532
330
18
100
AcDbEntity
  8
0
100
AcDbCircle
 10
759.4395395721967
 20
498.7296113841948
 30
0.0
 40
104.0
100
AcDbArc
 50
65.63802206002456
 51
66.74401920823306
  0
LINE
  5
4533
330
18
100
AcDbEntity
  8
0
100
AcDbLine
 10
999.6247442686863
 20
548.2296113841939
 30
0.0
 11
974.6247442686863
 21
548.2296113841939
 31
0.0
  0
LINE
  5
4534
330
18
100
AcDbEntity
  8
0
100
AcDbLine
 10
1016.624744268686
 20
609.2296113841946
 30
0.0
 11
974.6247442686863
 21
609.2296113841946
 31
0.0
  0
LINE
  5
4535
330
18
100
AcDbEntity
  8
0
100
AcDbLine
 10
816.4395395721971
 20
571.606219428203
 30
0.0
 11
816.4395395721976
 21
522.7296113841949
 31
0.0
  0
LINE
  5
4536
330
18
100
AcDbEntity
  8
0
100
AcDbLine
 10
974.6247442686863
 20
609.2296113841946
 30
0.0
 11
974.6247442686863
 21
578.7296113841948
 31
0.0
  0
LINE
  5
4538
330
18
100
AcDbEntity
  8
0
100
AcDbLine
 10
1002.624744268686
 20
571.6062194282025
 30
0.0
 11
1002.624744268686
 21
522.729611384195
 31
0.0
  0
ARC
  5
4539
330
18
100
AcDbEntity
  8
0
100
AcDbCircle
 10
999.6247442686863
 20
545.2296113841939
 30
0.0
 40
3.0
100
AcDbArc
 50
0.0
 51
90.0
  0
ARC
  5
453A
330
18
100
AcDbEntity
  8
0
100
AcDbCircle
 10
1016.624744268686
 20
600.2296113841948
 30
0.0
 40
9.0
100
AcDbArc
 50
27.27961273597291
 51
90.0
  0
ARC
  5
453B
330
18
100
AcDbEntity
  8
0
100
AcDbCircle
 10
1027.290108772536
 20
605.7296113841949
 30
0.0
 40
3.0
100
AcDbArc
 50
207.2796127359729
 51
270.0
  0
LINE
  5
453C
330
18
100
AcDbEntity
  8
0
100
AcDbLine
 10
1016.624744268686
 20
751.3943363225239
 30
0.0
 11
974.6247442686863
 21
751.3943363225239
 31
0.0
  0
LINE
  5
453D
330
18
100
AcDbEntity
  8
0
100
AcDbLine
 10
1016.624744268686
 20
812.3943363225235
 30
0.0
 11
974.6247442686863
 21
812.3943363225235
 31
0.0
  0
LINE
  5
453E
330
18
100
AcDbEntity
  8
0
100
AcDbLine
 10
974.6247442686863
 20
812.3943363225235
 30
0.0
 11
974.6247442686863
 21
781.8943363225237
 31
0.0
  0
ARC
  5
453F
330
18
100
AcDbEntity
  8
0
100
AcDbCircle
 10
1016.624744268686
 20
760.3943363225239
 30
0.0
 40
9.0
100
AcDbArc
 50
270.0
 51
332.7203872640271
  0
ARC
  5
4540
330
18
100
AcDbEntity
  8
0
100
AcDbCircle
 10
1027.290108772536
 20
754.8943363225239
 30
0.0
 40
3.0
100
AcDbArc
 50
90.0
 51
152.7203872640271
  0
ARC
  5
4541
330
18
100
AcDbEntity
  8
0
100
AcDbCircle
 10
1016.624744268686
 20
803.3943363225235
 30
0.0
 40
9.0
100
AcDbArc
 50
27.27961273597291
 51
90.0
  0
ARC
  5
4542
330
18
100
AcDbEntity
  8
0
100
AcDbCircle
 10
1027.290108772536
 20
808.8943363225235
 30
0.0
 40
3.0
100
AcDbArc
 50
207.2796127359729
 51
270.0
  0
LINE
  5
4545
330
18
100
AcDbEntity
  8
0
100
AcDbLine
 10
1116.774744268686
 20
522.7296113841953
 30
0.0
 11
1116.774744268686
 21
355.729611384195
 31
0.0
  0
LINE
  5
454E
330
18
100
AcDbEntity
  8
0
100
AcDbLine
 10
1116.624744268687
 20
355.7296113841946
 30
0.0
 11
1116.624744268687
 21
335.0546495586192
 31
0.0
  0
LINE
  5
454F
330
18
100
AcDbEntity
  8
0
100
AcDbLine
 10
1075.624744268688
 20
306.9799185099654
 30
0.0
 11
1075.624744268688
 21
283.7296113841948
 31
0.0
  0
ARC
  5
4550
330
18
100
AcDbEntity
  8
0
100
AcDbCircle
 10
1095.624744268687
 20
335.0546495586192
 30
0.0
 40
21.0
100
AcDbArc
 50
296.0416499559503
 51
0.0
  0
LINE
  5
455B
330
18
100
AcDbEntity
  8
0
100
AcDbLine
 10
1114.624744268686
 20
609.2296113841948
 30
0.0
 11
1144.624744268686
 21
609.2296113841948
 31
0.0
  0
LINE
  5
455C
330
18
100
AcDbEntity
  8
0
100
AcDbLine
 10
1119.624744268686
 20
548.2296113841949
 30
0.0
 11
1144.624744268686
 21
548.2296113841949
 31
0.0
  0
LINE
  5
455E
330
18
100
AcDbEntity
  8
0
100
AcDbLine
 10
1114.624744268686
 20
609.2296113841946
 30
0.0
 11
1114.624744268686
 21
581.1978824748303
 31
0.0
  0
LINE
  5
455F
330
18
100
AcDbEntity
  8
0
100
AcDbLine
 10
1116.624744268686
 20
571.6062194282025
 30
0.0
 11
1116.624744268686
 21
522.7296113841949
 31
0.0
  0
ARC
  5
4560
330
18
100
AcDbEntity
  8
0
100
AcDbCircle
 10
1119.624744268686
 20
545.2296113841946
 30
0.0
 40
3.0
100
AcDbArc
 50
90.0
 51
180.0
  0
LINE
  5
4562
330
18
100
AcDbEntity
  8
0
100
AcDbLine
 10
1103.366414019489
 20
602.7296113841948
 30
0.0
 11
1103.366414019489
 21
593.0681981572168
 31
0.0
  0
LINE
  5
4564
330
18
100
AcDbEntity
  8
0
100
AcDbLine
 10
1103.366414019488
 20
602.7296113841946
 30
0.0
 11
1114.624744268686
 21
609.2296113841948
 31
0.0
  0
LINE
  5
4565
330
18
100
AcDbEntity
  8
0
100
AcDbLine
 10
1144.624744268686
 20
609.2296113841948
 30
0.0
 11
1144.624744268686
 21
578.7296113841948
 31
0.0
  0
LINE
  5
4566
330
18
100
AcDbEntity
  8
0
100
AcDbLine
 10
1114.624744268686
 20
751.3943363225239
 30
0.0
 11
1144.624744268686
 21
751.3943363225239
 31
0.0
  0
LINE
  5
4567
330
18
100
AcDbEntity
  8
0
100
AcDbLine
 10
1114.624744268686
 20
812.3943363225235
 30
0.0
 11
1144.624744268686
 21
812.3943363225235
 31
0.0
  0
LINE
  5
4569
330
18
100
AcDbEntity
  8
0
100
AcDbLine
 10
1114.624744268686
 20
751.3943363225239
 30
0.0
 11
1114.624744268686
 21
812.3943363225238
 31
0.0
  0
LINE
  5
456A
330
18
100
AcDbEntity
  8
0
100
AcDbLine
 10
1114.624744268686
 20
812.3943363225235
 30
0.0
 11
1114.624744268686
 21
751.3943363225235
 31
0.0
  0
LINE
  5
456B
330
18
100
AcDbEntity
  8
0
100
AcDbLine
 10
1083.624744268686
 20
757.8943363225239
 30
0.0
 11
1103.366414019488
 21
757.8943363225239
 31
0.0
  0
LINE
  5
456C
330
18
100
AcDbEntity
  8
0
100
AcDbLine
 10
1103.366414019488
 20
757.8943363225239
 30
0.0
 11
1114.624744268686
 21
751.3943363225239
 31
0.0
  0
LINE
  5
456D
330
18
100
AcDbEntity
  8
0
100
AcDbLine
 10
1083.624744268686
 20
805.8943363225235
 30
0.0
 11
1103.366414019488
 21
805.8943363225235
 31
0.0
  0
LINE
  5
456E
330
18
100
AcDbEntity
  8
0
100
AcDbLine
 10
1103.366414019488
 20
805.8943363225235
 30
0.0
 11
1114.624744268686
 21
812.3943363225235
 31
0.0
  0
LINE
  5
456F
330
18
100
AcDbEntity
  8
0
100
AcDbLine
 10
1144.624744268686
 20
812.3943363225235
 30
0.0
 11
1144.624744268686
 21
781.8943363225237
 31
0.0
  0
ARC
  5
457E
330
18
100
AcDbEntity
  8
0
100
AcDbCircle
 10
1081.453216795543
 20
1853.597268306543
 30
0.0
 40
18.38477631085023
100
AcDbArc
 50
315.000000000001
 51
45.0
  0
ARC
  5
457F
330
18
100
AcDbEntity
  8
0
100
AcDbCircle
 10
2335.257092563921
 20
1860.447650992977
 30
0.0
 40
22.62741699796952
100
AcDbArc
 50
315.0
 51
45.0
  0
ARC
  5
4580
330
18
100
AcDbEntity
  8
0
100
AcDbCircle
 10
1059.624744268686
 20
781.8943363225239
 30
0.0
 40
33.94112549695428
100
AcDbArc
 50
315.0
 51
44.99999999999973
  0
ARC
  5
4581
330
18
100
AcDbEntity
  8
0
100
AcDbCircle
 10
2314.447719694961
 20
764.719469023835
 30
0.0
 40
41.71930009000614
100
AcDbArc
 50
315.0000000000002
 51
44.99999999999978
  0
LINE
  5
4582
330
18
100
AcDbEntity
  8
0
100
AcDbLine
 10
926.8324689427899
 20
1752.721167463724
 30
0.0
 11
959.2440403713617
 21
1752.721167463724
 31
0.0
  0
LINE
  5
4583
330
18
100
AcDbEntity
  8
0
100
AcDbLine
 10
937.636326085647
 20
1741.917310320867
 30
0.0
 11
926.8324689427899
 21
1752.721167463724
 31
0.0
  0
LINE
  5
4584
330
18
100
AcDbEntity
  8
0
100
AcDbLine
 10
964.6478975142191
 20
1747.319238892296
 30
0.0
 11
980.6183975142198
 21
1747.319238892296
 31
0.0
  0
LINE
  5
4585
330
18
100
AcDbEntity
  8
0
100
AcDbLine
 10
991.6575403713618
 20
1741.917310320867
 30
0.0
 11
937.636326085647
 21
1741.917310320867
 31
0.0
  0
LINE
  5
4586
330
18
100
AcDbEntity
  8
0
100
AcDbLine
 10
959.2440403713617
 20
1752.721167463724
 30
0.0
 11
964.6478975142191
 21
1747.319238892296
 31
0.0
  0
LINE
  5
4587
330
18
100
AcDbEntity
  8
0
100
AcDbLine
 10
980.6183975142198
 20
1752.721167463724
 30
0.0
 11
991.6575403713618
 21
1741.917310320867
 31
0.0
  0
LINE
  5
4588
330
18
100
AcDbEntity
  8
0
100
AcDbLine
 10
980.6183975142198
 20
1747.319238892296
 30
0.0
 11
980.6183975142198
 21
1752.721167463724
 31
0.0
  0
LINE
  5
4589
330
18
100
AcDbEntity
  8
0
100
AcDbLine
 10
2463.083342567938
 20
1285.627532915763
 30
0.0
 11
2452.044199710796
 21
1274.823675772906
 31
0.0
  0
LINE
  5
458A
330
18
100
AcDbEntity
  8
0
100
AcDbLine
 10
2452.044199710796
 20
1274.823675772906
 30
0.0
 11
2506.065413996511
 21
1274.823675772906
 31
0.0
  0
LINE
  5
458B
330
18
100
AcDbEntity
  8
0
100
AcDbLine
 10
2516.869271139368
 20
1285.627532915763
 30
0.0
 11
2484.457699710796
 21
1285.627532915763
 31
0.0
  0
LINE
  5
458C
330
18
100
AcDbEntity
  8
0
100
AcDbLine
 10
2484.457699710796
 20
1285.627532915763
 30
0.0
 11
2479.053842567938
 21
1280.225604344334
 31
0.0
  0
LINE
  5
458D
330
18
100
AcDbEntity
  8
0
100
AcDbLine
 10
2463.083342567938
 20
1280.225604344334
 30
0.0
 11
2463.083342567938
 21
1285.627532915763
 31
0.0
  0
LINE
  5
458E
330
18
100
AcDbEntity
  8
0
100
AcDbLine
 10
2479.053842567938
 20
1280.225604344334
 30
0.0
 11
2463.083342567938
 21
1280.225604344334
 31
0.0
  0
LINE
  5
458F
330
18
100
AcDbEntity
  8
0
100
AcDbLine
 10
2506.065413996511
 20
1274.823675772906
 30
0.0
 11
2516.869271139368
 21
1285.627532915763
 31
0.0
  0
LINE
  5
4590
330
18
100
AcDbEntity
  8
0
100
AcDbLine
 10
1160.214375714786
 20
1190.725616021796
 30
0.0
 11
1214.235590000501
 21
1190.725616021796
 31
0.0
  0
LINE
  5
4591
330
18
100
AcDbEntity
  8
0
100
AcDbLine
 10
1171.253518571929
 20
1201.529473164653
 30
0.0
 11
1160.214375714786
 21
1190.725616021796
 31
0.0
  0
LINE
  5
4592
330
18
100
AcDbEntity
  8
0
100
AcDbLine
 10
1225.039447143358
 20
1201.529473164653
 30
0.0
 11
1192.627875714786
 21
1201.529473164653
 31
0.0
  0
LINE
  5
4593
330
18
100
AcDbEntity
  8
0
100
AcDbLine
 10
1192.627875714786
 20
1201.529473164653
 30
0.0
 11
1187.224018571929
 21
1196.127544593224
 31
0.0
  0
LINE
  5
4594
330
18
100
AcDbEntity
  8
0
100
AcDbLine
 10
1187.224018571929
 20
1196.127544593224
 30
0.0
 11
1171.253518571929
 21
1196.127544593224
 31
0.0
  0
LINE
  5
4595
330
18
100
AcDbEntity
  8
0
100
AcDbLine
 10
1171.253518571929
 20
1196.127544593224
 30
0.0
 11
1171.253518571929
 21
1201.529473164653
 31
0.0
  0
LINE
  5
4596
330
18
100
AcDbEntity
  8
0
100
AcDbLine
 10
1214.235590000501
 20
1190.725616021796
 30
0.0
 11
1225.039447143358
 21
1201.529473164653
 31
0.0
  0
LINE
  5
4597
330
18
100
AcDbEntity
  8
0
100
AcDbLine
 10
2173.258838841197
 20
1870.108388605278
 30
0.0
 11
2205.670410269768
 21
1870.108388605278
 31
0.0
  0
LINE
  5
4598
330
18
100
AcDbEntity
  8
0
100
AcDbLine
 10
2184.062695984053
 20
1859.304531462422
 30
0.0
 11
2173.258838841197
 21
1870.108388605278
 31
0.0
  0
LINE
  5
4599
330
18
100
AcDbEntity
  8
0
100
AcDbLine
 10
2211.074267412626
 20
1864.70646003385
 30
0.0
 11
2227.044767412626
 21
1864.70646003385
 31
0.0
  0
LINE
  5
459A
330
18
100
AcDbEntity
  8
0
100
AcDbLine
 10
2238.083910269768
 20
1859.304531462422
 30
0.0
 11
2184.062695984053
 21
1859.304531462422
 31
0.0
  0
LINE
  5
459B
330
18
100
AcDbEntity
  8
0
100
AcDbLine
 10
2205.670410269768
 20
1870.108388605278
 30
0.0
 11
2211.074267412626
 21
1864.70646003385
 31
0.0
  0
LINE
  5
459C
330
18
100
AcDbEntity
  8
0
100
AcDbLine
 10
2227.044767412626
 20
1870.108388605278
 30
0.0
 11
2238.083910269768
 21
1859.304531462422
 31
0.0
  0
LINE
  5
459D
330
18
100
AcDbEntity
  8
0
100
AcDbLine
 10
2227.044767412626
 20
1864.70646003385
 30
0.0
 11
2227.044767412626
 21
1870.108388605278
 31
0.0
  0
LINE
  5
459E
330
18
100
AcDbEntity
  8
0
100
AcDbLine
 10
2173.258838841197
 20
1743.668369478409
 30
0.0
 11
2205.670410269768
 21
1743.668369478409
 31
0.0
  0
LINE
  5
459F
330
18
100
AcDbEntity
  8
0
100
AcDbLine
 10
2184.062695984053
 20
1732.864512335552
 30
0.0
 11
2173.258838841197
 21
1743.668369478409
 31
0.0
  0
LINE
  5
45A0
330
18
100
AcDbEntity
  8
0
100
AcDbLine
 10
2211.074267412626
 20
1738.26644090698
 30
0.0
 11
2227.044767412626
 21
1738.26644090698
 31
0.0
  0
LINE
  5
45A1
330
18
100
AcDbEntity
  8
0
100
AcDbLine
 10
2238.083910269768
 20
1732.864512335552
 30
0.0
 11
2184.062695984053
 21
1732.864512335552
 31
0.0
  0
LINE
  5
45A2
330
18
100
AcDbEntity
  8
0
100
AcDbLine
 10
2205.670410269768
 20
1743.668369478409
 30
0.0
 11
2211.074267412626
 21
1738.26644090698
 31
0.0
  0
LINE
  5
45A3
330
18
100
AcDbEntity
  8
0
100
AcDbLine
 10
2227.044767412626
 20
1743.668369478409
 30
0.0
 11
2238.083910269768
 21
1732.864512335552
 31
0.0
  0
LINE
  5
45A4
330
18
100
AcDbEntity
  8
0
100
AcDbLine
 10
2227.044767412626
 20
1738.26644090698
 30
0.0
 11
2227.044767412626
 21
1743.668369478409
 31
0.0
  0
LINE
  5
45A5
330
18
100
AcDbEntity
  8
0
100
AcDbLine
 10
953.741094749159
 20
572.2559125939401
 30
0.0
 11
899.7198804634445
 21
572.2559125939401
 31
0.0
  0
LINE
  5
45A6
330
18
100
AcDbEntity
  8
0
100
AcDbLine
 10
888.9160233205876
 20
583.0597697367968
 30
0.0
 11
921.3275947491593
 21
583.0597697367968
 31
0.0
  0
LINE
  5
45A7
330
18
100
AcDbEntity
  8
0
100
AcDbLine
 10
899.7198804634445
 20
572.2559125939401
 30
0.0
 11
888.9160233205876
 21
583.0597697367968
 31
0.0
  0
LINE
  5
45A8
330
18
100
AcDbEntity
  8
0
100
AcDbLine
 10
942.701951892017
 20
583.0597697367968
 30
0.0
 11
953.741094749159
 21
572.2559125939401
 31
0.0
  0
LINE
  5
45A9
330
18
100
AcDbEntity
  8
0
100
AcDbLine
 10
926.7314518920166
 20
577.6578411653684
 30
0.0
 11
942.701951892017
 21
577.6578411653684
 31
0.0
  0
LINE
  5
45AA
330
18
100
AcDbEntity
  8
0
100
AcDbLine
 10
921.3275947491593
 20
583.0597697367968
 30
0.0
 11
926.7314518920166
 21
577.6578411653684
 31
0.0
  0
LINE
  5
45AB
330
18
100
AcDbEntity
  8
0
100
AcDbLine
 10
942.701951892017
 20
577.6578411653684
 30
0.0
 11
942.701951892017
 21
583.0597697367968
 31
0.0
  0
LINE
  5
45AC
330
18
100
AcDbEntity
  8
0
100
AcDbLine
 10
901.7198804634444
 20
778.4357190527511
 30
0.0
 11
890.9160233205875
 21
789.2395761956079
 31
0.0
  0
LINE
  5
45AD
330
18
100
AcDbEntity
  8
0
100
AcDbLine
 10
890.9160233205875
 20
789.2395761956079
 30
0.0
 11
923.3275947491593
 21
789.2395761956079
 31
0.0
  0
LINE
  5
45AE
330
18
100
AcDbEntity
  8
0
100
AcDbLine
 10
928.7314518920165
 20
783.8376476241794
 30
0.0
 11
944.701951892017
 21
783.8376476241794
 31
0.0
  0
LINE
  5
45AF
330
18
100
AcDbEntity
  8
0
100
AcDbLine
 10
955.741094749159
 20
778.4357190527511
 30
0.0
 11
901.7198804634444
 21
778.4357190527511
 31
0.0
  0
LINE
  5
45B0
330
18
100
AcDbEntity
  8
0
100
AcDbLine
 10
923.3275947491593
 20
789.2395761956079
 30
0.0
 11
928.7314518920165
 21
783.8376476241794
 31
0.0
  0
LINE
  5
45B1
330
18
100
AcDbEntity
  8
0
100
AcDbLine
 10
944.701951892017
 20
789.2395761956079
 30
0.0
 11
955.741094749159
 21
778.4357190527511
 31
0.0
  0
LINE
  5
45B2
330
18
100
AcDbEntity
  8
0
100
AcDbLine
 10
944.701951892017
 20
783.8376476241794
 30
0.0
 11
944.701951892017
 21
789.2395761956079
 31
0.0
  0
LINE
  5
45B3
330
18
100
AcDbEntity
  8
0
100
AcDbLine
 10
2112.054806853653
 20
584.296690958864
 30
0.0
 11
2144.466378282225
 21
584.296690958864
 31
0.0
  0
LINE
  5
45B4
330
18
100
AcDbEntity
  8
0
100
AcDbLine
 10
2122.85866399651
 20
573.492833816007
 30
0.0
 11
2112.054806853653
 21
584.296690958864
 31
0.0
  0
LINE
  5
45B5
330
18
100
AcDbEntity
  8
0
100
AcDbLine
 10
2149.870235425082
 20
578.8947623874356
 30
0.0
 11
2165.840735425083
 21
578.8947623874356
 31
0.0
  0
LINE
  5
45B6
330
18
100
AcDbEntity
  8
0
100
AcDbLine
 10
2176.879878282225
 20
573.492833816007
 30
0.0
 11
2122.85866399651
 21
573.492833816007
 31
0.0
  0
LINE
  5
45B7
330
18
100
AcDbEntity
  8
0
100
AcDbLine
 10
2144.466378282225
 20
584.296690958864
 30
0.0
 11
2149.870235425082
 21
578.8947623874356
 31
0.0
  0
LINE
  5
45B8
330
18
100
AcDbEntity
  8
0
100
AcDbLine
 10
2165.840735425083
 20
584.296690958864
 30
0.0
 11
2176.879878282225
 21
573.492833816007
 31
0.0
  0
LINE
  5
45B9
330
18
100
AcDbEntity
  8
0
100
AcDbLine
 10
2165.840735425083
 20
578.8947623874356
 30
0.0
 11
2165.840735425083
 21
584.296690958864
 31
0.0
  0
LINE
  5
45BA
330
18
100
AcDbEntity
  8
0
100
AcDbLine
 10
2179.385181853654
 20
759.9759303227372
 30
0.0
 11
2125.363967567939
 21
759.9759303227372
 31
0.0
  0
LINE
  5
45BB
330
18
100
AcDbEntity
  8
0
100
AcDbLine
 10
2114.560110425082
 20
770.7797874655939
 30
0.0
 11
2146.971681853654
 21
770.7797874655939
 31
0.0
  0
LINE
  5
45BC
330
18
100
AcDbEntity
  8
0
100
AcDbLine
 10
2125.363967567939
 20
759.9759303227372
 30
0.0
 11
2114.560110425082
 21
770.7797874655939
 31
0.0
  0
LINE
  5
45BD
330
18
100
AcDbEntity
  8
0
100
AcDbLine
 10
2152.375538996512
 20
765.3778588941654
 30
0.0
 11
2168.346038996511
 21
765.3778588941654
 31
0.0
  0
LINE
  5
45BE
330
18
100
AcDbEntity
  8
0
100
AcDbLine
 10
2146.971681853654
 20
770.7797874655939
 30
0.0
 11
2152.375538996512
 21
765.3778588941654
 31
0.0
  0
LINE
  5
45BF
330
18
100
AcDbEntity
  8
0
100
AcDbLine
 10
2168.346038996511
 20
765.3778588941654
 30
0.0
 11
2168.346038996511
 21
770.7797874655939
 31
0.0
  0
LINE
  5
45C0
330
18
100
AcDbEntity
  8
0
100
AcDbLine
 10
2168.346038996511
 20
770.7797874655939
 30
0.0
 11
2179.385181853654
 21
759.9759303227372
 31
0.0
  0
LINE
  5
45C6
330
18
100
AcDbEntity
  8
0
100
AcDbLine
 10
1036.953216795543
 20
2147.231793699365
 30
0.0
 11
1036.953216795543
 21
2113.368345683652
 31
0.0
  0
ARC
  5
45C7
330
18
100
AcDbEntity
  8
0
100
AcDbCircle
 10
1052.953216795543
 20
2147.231793699365
 30
0.0
 40
16.0
100
AcDbArc
 50
119.9999999999973
 51
180.0
  0
ARC
  5
45C9
330
18
100
AcDbEntity
  8
0
100
AcDbCircle
 10
1081.453216795543
 20
2097.868345683651
 30
0.0
 40
72.99999999999996
100
AcDbArc
 50
60.00000000000003
 51
119.9999999999999
  0
ARC
  5
45CA
330
18
100
AcDbEntity
  8
0
100
AcDbCircle
 10
1109.953216795543
 20
2147.231793699365
 30
0.0
 40
16.0
100
AcDbArc
 50
0.000000000000007
 51
60.0000000000027
  0
ARC
  5
45CC
330
18
100
AcDbEntity
  8
0
100
AcDbCircle
 10
1081.516578692895
 20
1685.201262311827
 30
0.0
 40
72.99999999999996
100
AcDbArc
 50
60.00000000000005
 51
119.9999999999999
  0
LINE
  5
45CD
330
18
100
AcDbEntity
  8
0
100
AcDbLine
 10
1016.516578692896
 20
1764.251262311826
 30
0.0
 11
1016.516578692896
 21
1745.201262311826
 31
0.0
  0
LINE
  5
45CE
330
18
100
AcDbEntity
  8
0
100
AcDbLine
 10
1118.037671307104
 20
1758.201262311827
 30
0.0
 11
1118.037671307104
 21
1748.408917537571
 31
0.0
  0
LINE
  5
45CF
330
18
100
AcDbEntity
  8
0
100
AcDbLine
 10
1128.516578692896
 20
1764.251262311826
 30
0.0
 11
1128.516578692896
 21
1726.151262311827
 31
0.0
  0
LINE
  5
45D0
330
18
100
AcDbEntity
  8
0
100
AcDbLine
 10
1146.516578692896
 20
1764.251262311826
 30
0.0
 11
1146.516578692896
 21
1745.201262311826
 31
0.0
  0
LINE
  5
45D1
330
18
100
AcDbEntity
  8
0
100
AcDbLine
 10
1036.966578692896
 20
1597.201262311827
 30
0.0
 11
1126.066578692896
 21
1597.201262311827
 31
0.0
  0
LINE
  5
45D2
330
18
100
AcDbEntity
  8
0
100
AcDbLine
 10
1037.016578692896
 20
1597.201262311827
 30
0.0
 11
1126.016578692895
 21
1597.201262311827
 31
0.0
  0
LINE
  5
45D3
330
18
100
AcDbEntity
  8
0
100
AcDbLine
 10
1036.966578692896
 20
1700.701262311826
 30
0.0
 11
1126.066578692896
 21
1700.701262311826
 31
0.0
  0
LINE
  5
45D4
330
18
100
AcDbEntity
  8
0
100
AcDbLine
 10
1037.016578692896
 20
1700.701262311826
 30
0.0
 11
1126.016578692895
 21
1700.701262311826
 31
0.0
  0
LINE
  5
45D5
330
18
100
AcDbEntity
  8
0
100
AcDbLine
 10
1066.516578692896
 20
1535.201262311827
 30
0.0
 11
1096.516578692896
 21
1535.201262311827
 31
0.0
  0
ARC
  5
45D6
330
18
100
AcDbEntity
  8
0
100
AcDbCircle
 10
1081.516578692895
 20
1630.201262311826
 30
0.0
 40
73.0
100
AcDbArc
 50
240.0000000000027
 51
299.9999999999973
  0
LINE
  5
45D7
330
18
100
AcDbEntity
  8
0
100
AcDbLine
 10
1126.066578692896
 20
1700.701262311826
 30
0.0
 11
1126.066578692896
 21
1597.201262311827
 31
0.0
  0
LINE
  5
45D8
330
18
100
AcDbEntity
  8
0
100
AcDbLine
 10
1126.016578692895
 20
1580.837814296113
 30
0.0
 11
1126.016578692895
 21
1597.201262311827
 31
0.0
  0
ARC
  5
45D9
330
18
100
AcDbEntity
  8
0
100
AcDbCircle
 10
1110.016578692895
 20
1580.837814296113
 30
0.0
 40
16.0
100
AcDbArc
 50
299.9999999999973
 51
0.000000000000007
  0
LINE
  5
45DA
330
18
100
AcDbEntity
  8
0
100
AcDbLine
 10
1097.516578692895
 20
1556.614578733885
 30
0.0
 11
1097.516578692895
 21
1536.201262311827
 31
0.0
  0
LINE
  5
45DB
330
18
100
AcDbEntity
  8
0
100
AcDbLine
 10
1097.516578692895
 20
1536.201262311827
 30
0.0
 11
1096.516578692896
 21
1535.201262311827
 31
0.0
  0
ARC
  5
45DC
330
18
100
AcDbEntity
  8
0
100
AcDbCircle
 10
1100.516578692896
 20
1556.614578733885
 30
0.0
 40
3.0
100
AcDbArc
 50
104.4775121859294
 51
180.0
  0
LINE
  5
45DD
330
18
100
AcDbEntity
  8
0
100
AcDbLine
 10
1126.016578692895
 20
1734.56471032754
 30
0.0
 11
1126.016578692895
 21
1700.701262311826
 31
0.0
  0
ARC
  5
45DE
330
18
100
AcDbEntity
  8
0
100
AcDbCircle
 10
1129.016578692896
 20
1723.151262311827
 30
0.0
 40
3.0
100
AcDbArc
 50
90.0
 51
180.0
  0
LINE
  5
45DF
330
18
100
AcDbEntity
  8
0
100
AcDbLine
 10
1126.016578692895
 20
1723.151262311827
 30
0.0
 11
1126.016578692895
 21
1700.701262311826
 31
0.0
  0
LINE
  5
45E0
330
18
100
AcDbEntity
  8
0
100
AcDbLine
 10
1128.516578692896
 20
1726.151262311827
 30
0.0
 11
1146.516578692896
 21
1726.151262311827
 31
0.0
  0
ARC
  5
45E1
330
18
100
AcDbEntity
  8
0
100
AcDbCircle
 10
1110.016578692895
 20
1734.56471032754
 30
0.0
 40
16.0
100
AcDbArc
 50
0.000000000000007
 51
60.0000000000027
  0
LINE
  5
45E2
330
18
100
AcDbEntity
  8
0
100
AcDbLine
 10
1036.966578692896
 20
1700.701262311826
 30
0.0
 11
1036.966578692896
 21
1597.201262311827
 31
0.0
  0
LINE
  5
45E3
330
18
100
AcDbEntity
  8
0
100
AcDbLine
 10
1037.016578692896
 20
1580.837814296113
 30
0.0
 11
1037.016578692896
 21
1597.201262311827
 31
0.0
  0
LINE
  5
45E4
330
18
100
AcDbEntity
  8
0
100
AcDbLine
 10
1065.516578692895
 20
1556.614578733885
 30
0.0
 11
1065.516578692895
 21
1536.201262311827
 31
0.0
  0
LINE
  5
45E5
330
18
100
AcDbEntity
  8
0
100
AcDbLine
 10
1066.516578692896
 20
1535.201262311827
 30
0.0
 11
1065.516578692895
 21
1536.201262311827
 31
0.0
  0
ARC
  5
45E6
330
18
100
AcDbEntity
  8
0
100
AcDbCircle
 10
1062.516578692896
 20
1556.614578733885
 30
0.0
 40
3.0
100
AcDbArc
 50
0.000000000000007
 51
75.52248781407056
  0
ARC
  5
45E7
330
18
100
AcDbEntity
  8
0
100
AcDbCircle
 10
1053.016578692895
 20
1580.837814296113
 30
0.0
 40
16.0
100
AcDbArc
 50
180.0
 51
240.0000000000027
  0
LINE
  5
45E8
330
18
100
AcDbEntity
  8
0
100
AcDbLine
 10
1016.516578692896
 20
1726.151262311827
 30
0.0
 11
1034.016578692896
 21
1726.151262311827
 31
0.0
  0
LINE
  5
45E9
330
18
100
AcDbEntity
  8
0
100
AcDbLine
 10
1037.016578692896
 20
1734.56471032754
 30
0.0
 11
1037.016578692896
 21
1700.701262311826
 31
0.0
  0
ARC
  5
45EA
330
18
100
AcDbEntity
  8
0
100
AcDbCircle
 10
1034.016578692896
 20
1723.151262311827
 30
0.0
 40
3.0
100
AcDbArc
 50
0.000000000000007
 51
90.0
  0
ARC
  5
45EB
330
18
100
AcDbEntity
  8
0
100
AcDbCircle
 10
1053.016578692895
 20
1734.56471032754
 30
0.0
 40
16.0
100
AcDbArc
 50
119.9999999999973
 51
180.0
  0
LINE
  5
45EC
330
18
100
AcDbEntity
  8
0
100
AcDbLine
 10
1056.839892797617
 20
1758.201262311827
 30
0.0
 11
1118.037671307104
 21
1758.201262311827
 31
0.0
  0
LINE
  5
45ED
330
18
100
AcDbEntity
  8
0
100
AcDbLine
 10
1128.516578692896
 20
1764.251262311826
 30
0.0
 11
1146.516578692896
 21
1764.251262311826
 31
0.0
  0
LINE
  5
45EE
330
18
100
AcDbEntity
  8
0
100
AcDbLine
 10
1118.037671307104
 20
1758.201262311827
 30
0.0
 11
1128.516578692896
 21
1764.251262311827
 31
0.0
  0
LINE
  5
45EF
330
18
100
AcDbEntity
  8
0
100
AcDbLine
 10
1016.516578692896
 20
1764.251262311826
 30
0.0
 11
1047.016578692896
 21
1764.251262311826
 31
0.0
  0
ARC
  5
45F0
330
18
100
AcDbEntity
  8
0
100
AcDbCircle
 10
1047.016578692896
 20
1756.251262311826
 30
0.0
 40
8.0
100
AcDbArc
 50
26.74368395040668
 51
90.0
  0
ARC
  5
45F1
330
18
100
AcDbEntity
  8
0
100
AcDbCircle
 10
1056.839892797617
 20
1761.201262311826
 30
0.0
 40
3.0
100
AcDbArc
 50
206.7436839504066
 51
270.0
  0
ARC
  5
4602
330
18
100
AcDbEntity
  8
0
100
AcDbCircle
 10
2300.757092563921
 20
2171.423567777393
 30
0.0
 40
16.0
100
AcDbArc
 50
120.7378686721308
 51
180.0
  0
LINE
  5
4604
330
18
100
AcDbEntity
  8
0
100
AcDbLine
 10
2284.757092563921
 20
2171.423567777393
 30
0.0
 11
2284.757092563921
 21
2133.406328959952
 31
0.0
  0
ARC
  5
4605
330
18
100
AcDbEntity
  8
0
100
AcDbCircle
 10
2335.257092563921
 20
2113.406328959952
 30
0.0
 40
83.50000000000015
100
AcDbArc
 50
59.26213132787204
 51
120.7378686721279
  0
ARC
  5
4606
330
18
100
AcDbEntity
  8
0
100
AcDbCircle
 10
2335.257092563921
 20
2113.406328959952
 30
0.0
 40
83.49999999999999
100
AcDbArc
 50
59.26213132786916
 51
63.67542346250267
  0
ARC
  5
4607
330
18
100
AcDbEntity
  8
0
100
AcDbCircle
 10
2369.757092563921
 20
2171.423567777393
 30
0.0
 40
16.0
100
AcDbArc
 50
0.000000000000007
 51
59.26213132786916
  0
ARC
  5
4608
330
18
100
AcDbEntity
  8
0
100
AcDbCircle
 10
2335.257092563921
 20
1668.181522140821
 30
0.0
 40
83.50000000000015
100
AcDbArc
 50
59.26213132787204
 51
120.7378686721279
  0
ARC
  5
460A
330
18
100
AcDbEntity
  8
0
100
AcDbCircle
 10
2369.757092563921
 20
1726.198760958262
 30
0.0
 40
16.0
100
AcDbArc
 50
0.000000000000007
 51
59.26213132786916
  0
ARC
  5
460B
330
18
100
AcDbEntity
  8
0
100
AcDbCircle
 10
2300.757092563921
 20
1726.198760958262
 30
0.0
 40
16.0
100
AcDbArc
 50
120.7378686721308
 51
180.0
  0
ARC
  5
460D
330
18
100
AcDbEntity
  8
0
100
AcDbCircle
 10
1026.624744268685
 20
571.6062194282025
 30
0.0
 40
24.0
100
AcDbArc
 50
114.3619779399754
 51
180.0
  0
ARC
  5
4610
330
18
100
AcDbEntity
  8
0
100
AcDbCircle
 10
1092.624744268687
 20
571.6062194282025
 30
0.0
 40
24.0
100
AcDbArc
 50
0.000000000000007
 51
65.63802206002458
  0
ARC
  5
4612
330
18
100
AcDbEntity
  8
0
100
AcDbCircle
 10
1059.624744268686
 20
498.7296113841948
 30
0.0
 40
104.0
100
AcDbArc
 50
65.63802206001948
 51
114.3619779399805
  0
ARC
  5
4613
330
18
100
AcDbEntity
  8
0
100
AcDbCircle
 10
1023.624744268687
 20
956.0153812779802
 30
0.0
 40
21.0
100
AcDbArc
 50
180.0000000000008
 51
243.9583500440504
  0
ARC
  5
4614
330
18
100
AcDbEntity
  8
0
100
AcDbCircle
 10
1095.624744268687
 20
956.0153812779812
 30
0.0
 40
21.0
100
AcDbArc
 50
296.0416499559512
 51
0.0000000000008792
  0
ARC
  5
4615
330
18
100
AcDbEntity
  8
0
100
AcDbCircle
 10
1059.624744268685
 20
1029.690343103556
 30
0.0
 40
103.0
100
AcDbArc
 50
243.9583500440504
 51
296.0416499559512
  0
LINE
  5
4616
330
18
100
AcDbEntity
  8
0
100
AcDbLine
 10
1075.624744268688
 20
904.6903431035566
 30
0.0
 11
1043.624744268688
 21
904.6903431035561
 31
0.0
  0
LINE
  5
4617
330
18
100
AcDbEntity
  8
0
100
AcDbLine
 10
1075.624744268687
 20
927.9406502293273
 30
0.0
 11
1075.624744268688
 21
904.6903431035566
 31
0.0
  0
LINE
  5
4618
330
18
100
AcDbEntity
  8
0
100
AcDbLine
 10
1043.624744268687
 20
927.9406502293268
 30
0.0
 11
1043.624744268688
 21
904.6903431035561
 31
0.0
  0
LINE
  5
4619
330
18
100
AcDbEntity
  8
0
100
AcDbLine
 10
1002.624744268685
 20
1192.566951147563
 30
0.0
 11
1002.624744268685
 21
1143.690343103555
 31
0.0
  0
LINE
  5
461A
330
18
100
AcDbEntity
  8
0
100
AcDbLine
 10
1116.624744268685
 20
1192.566951147564
 30
0.0
 11
1116.624744268686
 21
1143.690343103557
 31
0.0
  0
LINE
  5
461B
330
18
100
AcDbEntity
  8
0
100
AcDbLine
 10
1116.774744268687
 20
976.690343103557
 30
0.0
 11
1002.474744268687
 21
976.6903431035556
 31
0.0
  0
LINE
  5
461C
330
18
100
AcDbEntity
  8
0
100
AcDbLine
 10
1116.624744268687
 20
976.690343103557
 30
0.0
 11
1002.624744268687
 21
976.6903431035553
 31
0.0
  0
LINE
  5
461D
330
18
100
AcDbEntity
  8
0
100
AcDbLine
 10
1116.774744268685
 20
1143.690343103557
 30
0.0
 11
1002.474744268685
 21
1143.690343103555
 31
0.0
  0
LINE
  5
461E
330
18
100
AcDbEntity
  8
0
100
AcDbLine
 10
1116.624744268686
 20
1143.690343103557
 30
0.0
 11
1002.624744268686
 21
1143.690343103555
 31
0.0
  0
LINE
  5
461F
330
18
100
AcDbEntity
  8
0
100
AcDbLine
 10
1116.774744268685
 20
1143.690343103557
 30
0.0
 11
1116.774744268688
 21
976.6903431035567
 31
0.0
  0
LINE
  5
4620
330
18
100
AcDbEntity
  8
0
100
AcDbLine
 10
1116.624744268686
 20
976.690343103557
 30
0.0
 11
1116.624744268687
 21
956.0153812779818
 31
0.0
  0
LINE
  5
4621
330
18
100
AcDbEntity
  8
0
100
AcDbLine
 10
1002.474744268685
 20
1143.690343103555
 30
0.0
 11
1002.474744268688
 21
976.6903431035556
 31
0.0
  0
LINE
  5
4622
330
18
100
AcDbEntity
  8
0
100
AcDbLine
 10
1002.624744268687
 20
976.6903431035553
 30
0.0
 11
1002.624744268687
 21
956.01538127798
 31
0.0
  0
ARC
  5
4623
330
18
100
AcDbEntity
  8
0
100
AcDbCircle
 10
1059.624744268686
 20
1119.690343103556
 30
0.0
 40
104.0
100
AcDbArc
 50
65.63802206002036
 51
114.3619779399813
  0
LINE
  5
4624
330
18
100
AcDbEntity
  8
0
100
AcDbLine
 10
1091.959379764834
 20
1223.690343103556
 30
0.0
 11
1015.883074517882
 21
1223.690343103555
 31
0.0
  0
LINE
  5
4625
330
18
100
AcDbEntity
  8
0
100
AcDbLine
 10
1119.624744268685
 20
1169.190343103556
 30
0.0
 11
1144.624744268685
 21
1169.190343103556
 31
0.0
  0
LINE
  5
4626
330
18
100
AcDbEntity
  8
0
100
AcDbLine
 10
1102.624744268685
 20
1230.190343103556
 30
0.0
 11
1144.624744268684
 21
1230.190343103557
 31
0.0
  0
LINE
  5
4627
330
18
100
AcDbEntity
  8
0
100
AcDbLine
 10
1144.624744268684
 20
1230.190343103557
 30
0.0
 11
1144.624744268685
 21
1199.690343103557
 31
0.0
  0
ARC
  5
4628
330
18
100
AcDbEntity
  8
0
100
AcDbCircle
 10
1092.624744268686
 20
1192.566951147564
 30
0.0
 40
24.0
100
AcDbArc
 50
0.0000000000008792
 51
65.63802206002545
  0
ARC
  5
4629
330
18
100
AcDbEntity
  8
0
100
AcDbCircle
 10
1119.624744268685
 20
1166.190343103556
 30
0.0
 40
3.0
100
AcDbArc
 50
90.00000000000088
 51
180.0000000000008
  0
ARC
  5
462A
330
18
100
AcDbEntity
  8
0
100
AcDbCircle
 10
1102.624744268685
 20
1221.190343103557
 30
0.0
 40
9.0
100
AcDbArc
 50
90.00000000000088
 51
152.7203872640279
  0
ARC
  5
462B
330
18
100
AcDbEntity
  8
0
100
AcDbCircle
 10
1091.959379764834
 20
1226.690343103556
 30
0.0
 40
3.0
100
AcDbArc
 50
270.0000000000008
 51
332.7203872640279
  0
LINE
  5
462C
330
18
100
AcDbEntity
  8
0
100
AcDbLine
 10
999.6247442686858
 20
1169.190343103555
 30
0.0
 11
974.6247442686858
 21
1169.190343103554
 31
0.0
  0
LINE
  5
462D
330
18
100
AcDbEntity
  8
0
100
AcDbLine
 10
1004.624744268684
 20
1230.190343103555
 30
0.0
 11
974.6247442686849
 21
1230.190343103554
 31
0.0
  0
LINE
  5
462E
330
18
100
AcDbEntity
  8
0
100
AcDbLine
 10
1004.624744268685
 20
1230.190343103555
 30
0.0
 11
1004.624744268685
 21
1202.158614194191
 31
0.0
  0
LINE
  5
462F
330
18
100
AcDbEntity
  8
0
100
AcDbLine
 10
1015.883074517881
 20
1223.690343103555
 30
0.0
 11
1015.883074517881
 21
1214.028929876578
 31
0.0
  0
ARC
  5
4630
330
18
100
AcDbEntity
  8
0
100
AcDbCircle
 10
1026.624744268684
 20
1192.566951147563
 30
0.0
 40
24.0
100
AcDbArc
 50
114.3619779399763
 51
180.0000000000008
  0
ARC
  5
4631
330
18
100
AcDbEntity
  8
0
100
AcDbCircle
 10
999.6247442686858
 20
1166.190343103555
 30
0.0
 40
3.0
100
AcDbArc
 50
0.0000000000008792
 51
90.00000000000088
  0
LINE
  5
4632
330
18
100
AcDbEntity
  8
0
100
AcDbLine
 10
1015.883074517882
 20
1223.690343103555
 30
0.0
 11
1004.624744268685
 21
1230.190343103555
 31
0.0
  0
LINE
  5
4633
330
18
100
AcDbEntity
  8
0
100
AcDbLine
 10
974.6247442686849
 20
1230.190343103554
 30
0.0
 11
974.6247442686858
 21
1199.690343103554
 31
0.0
  0
ARC
  5
463A
330
18
100
AcDbEntity
  8
0
100
AcDbCircle
 10
2314.447719694961
 20
482.6712449805135
 30
0.0
 40
121.5000000000002
100
AcDbArc
 50
53.72773140853014
 51
126.2722685914698
  0
ARC
  5
463B
330
18
100
AcDbEntity
  8
0
100
AcDbCircle
 10
2257.947719694961
 20
559.6647512001941
 30
0.0
 40
26.0
100
AcDbArc
 50
126.2722685914736
 51
180.0
  0
ARC
  5
463C
330
18
100
AcDbEntity
  8
0
100
AcDbCircle
 10
2370.947719694961
 20
559.6647512001941
 30
0.0
 40
26.0
100
AcDbArc
 50
0.000000000000007
 51
53.72773140852633
  0
LINE
  5
463D
330
18
100
AcDbEntity
  8
0
100
AcDbLine
 10
2396.947719694961
 20
559.6647512001941
 30
0.0
 11
2396.947719694961
 21
512.6712449805136
 31
0.0
  0
LINE
  5
463E
330
18
100
AcDbEntity
  8
0
100
AcDbLine
 10
2397.047719694961
 20
1208.655815934646
 30
0.0
 11
2397.047719694961
 21
987.6558159346458
 31
0.0
  0
LINE
  5
463F
330
18
100
AcDbEntity
  8
0
100
AcDbLine
 10
2231.847719694961
 20
1208.655815934646
 30
0.0
 11
2231.847719694961
 21
987.6558159346458
 31
0.0
  0
LINE
  5
4640
330
18
100
AcDbEntity
  8
0
100
AcDbLine
 10
2231.547719694961
 20
987.6558159346458
 30
0.0
 11
2231.547719694961
 21
977.5809186294246
 31
0.0
  0
LINE
  5
4641
330
18
100
AcDbEntity
  8
0
100
AcDbLine
 10
2397.34771969496
 20
987.6558159346458
 30
0.0
 11
2397.34771969496
 21
977.5809186294246
 31
0.0
  0
ARC
  5
4642
330
18
100
AcDbEntity
  8
0
100
AcDbCircle
 10
2314.447719694961
 20
1053.655815934645
 30
0.0
 40
121.0
100
AcDbArc
 50
233.2054543974891
 51
306.7945456025108
  0
ARC
  5
4643
330
18
100
AcDbEntity
  8
0
100
AcDbCircle
 10
2371.347719694961
 20
977.5809186294246
 30
0.0
 40
26.0
100
AcDbArc
 50
306.7945456025108
 51
0.000000000000007
  0
LINE
  5
4644
330
18
100
AcDbEntity
  8
0
100
AcDbLine
 10
2298.447719694961
 20
933.7183322191703
 30
0.0
 11
2298.447719694961
 21
911.6558159346459
 31
0.0
  0
LINE
  5
4645
330
18
100
AcDbEntity
  8
0
100
AcDbLine
 10
2330.447719694961
 20
933.7183322191703
 30
0.0
 11
2330.447719694961
 21
911.6558159346459
 31
0.0
  0
LINE
  5
4646
330
18
100
AcDbEntity
  8
0
100
AcDbLine
 10
2329.447719694961
 20
910.6558159346459
 30
0.0
 11
2299.447719694961
 21
910.6558159346459
 31
0.0
  0
LINE
  5
4647
330
18
100
AcDbEntity
  8
0
100
AcDbLine
 10
2330.447719694961
 20
911.6558159346459
 30
0.0
 11
2329.447719694961
 21
910.6558159346459
 31
0.0
  0
LINE
  5
4648
330
18
100
AcDbEntity
  8
0
100
AcDbLine
 10
2299.447719694961
 20
910.6558159346459
 30
0.0
 11
2298.447719694961
 21
911.6558159346459
 31
0.0
  0
ARC
  5
4649
330
18
100
AcDbEntity
  8
0
100
AcDbCircle
 10
2257.547719694961
 20
977.5809186294246
 30
0.0
 40
26.0
100
AcDbArc
 50
180.0
 51
233.2054543974891
  0
LINE
  5
464A
330
18
100
AcDbEntity
  8
0
100
AcDbLine
 10
2397.34771969496
 20
987.6558159346458
 30
0.0
 11
2231.547719694961
 21
987.6558159346458
 31
0.0
  0
LINE
  5
464B
330
18
100
AcDbEntity
  8
0
100
AcDbLine
 10
2397.047719694961
 20
987.6558159346458
 30
0.0
 11
2231.847719694961
 21
987.6558159346458
 31
0.0
  0
ARC
  5
464C
330
18
100
AcDbEntity
  8
0
100
AcDbCircle
 10
2314.447719694961
 20
1178.655815934645
 30
0.0
 40
121.5000000000002
100
AcDbArc
 50
53.72773140853015
 51
126.2722685914698
  0
LINE
  5
464D
330
18
100
AcDbEntity
  8
0
100
AcDbLine
 10
2396.947719694961
 20
1208.655815934646
 30
0.0
 11
2231.94771969496
 21
1208.655815934646
 31
0.0
  0
LINE
  5
464E
330
18
100
AcDbEntity
  8
0
100
AcDbLine
 10
2397.047719694961
 20
1208.655815934646
 30
0.0
 11
2231.847719694961
 21
1208.655815934646
 31
0.0
  0
LINE
  5
464F
330
18
100
AcDbEntity
  8
0
100
AcDbLine
 10
2247.465098634277
 20
1300.155815934646
 30
0.0
 11
2355.073600020311
 21
1300.155815934646
 31
0.0
  0
ARC
  5
4650
330
18
100
AcDbEntity
  8
0
100
AcDbCircle
 10
2363.94771969496
 20
1301.655815934646
 30
0.0
 40
6.0
100
AcDbArc
 50
90.0
 51
170.4059317731351
  0
LINE
  5
4651
330
18
100
AcDbEntity
  8
0
100
AcDbLine
 10
2424.447719694961
 20
1307.655815934646
 30
0.0
 11
2363.94771969496
 21
1307.655815934646
 31
0.0
  0
LINE
  5
4652
330
18
100
AcDbEntity
  8
0
100
AcDbLine
 10
2424.447719694961
 20
1233.655815934646
 30
0.0
 11
2399.947719694961
 21
1233.655815934646
 31
0.0
  0
LINE
  5
4653
330
18
100
AcDbEntity
  8
0
100
AcDbLine
 10
2424.447719694961
 20
1307.655815934646
 30
0.0
 11
2424.447719694961
 21
1270.655815934645
 31
0.0
  0
LINE
  5
4654
330
18
100
AcDbEntity
  8
0
100
AcDbLine
 10
2396.947719694961
 20
1255.649322154326
 30
0.0
 11
2396.947719694961
 21
1208.655815934646
 31
0.0
  0
ARC
  5
4655
330
18
100
AcDbEntity
  8
0
100
AcDbCircle
 10
2399.947719694961
 20
1230.655815934646
 30
0.0
 40
3.0
100
AcDbArc
 50
90.0
 51
180.0
  0
ARC
  5
4656
330
18
100
AcDbEntity
  8
0
100
AcDbCircle
 10
2370.947719694961
 20
1255.649322154326
 30
0.0
 40
26.0
100
AcDbArc
 50
0.000000000000007
 51
53.72773140852633
  0
ARC
  5
4657
330
18
100
AcDbEntity
  8
0
100
AcDbCircle
 10
2355.073600020311
 20
1303.155815934646
 30
0.0
 40
3.0
100
AcDbArc
 50
270.0
 51
350.4059317731352
  0
LINE
  5
4658
330
18
100
AcDbEntity
  8
0
100
AcDbLine
 10
2231.94771969496
 20
1255.649322154326
 30
0.0
 11
2231.94771969496
 21
1208.655815934646
 31
0.0
  0
LINE
  5
4659
330
18
100
AcDbEntity
  8
0
100
AcDbLine
 10
2204.447719694961
 20
1307.655815934646
 30
0.0
 11
2204.447719694961
 21
1270.655815934645
 31
0.0
  0
LINE
  5
465A
330
18
100
AcDbEntity
  8
0
100
AcDbLine
 10
2228.947719694961
 20
1233.655815934646
 30
0.0
 11
2204.447719694961
 21
1233.655815934646
 31
0.0
  0
ARC
  5
465B
330
18
100
AcDbEntity
  8
0
100
AcDbCircle
 10
2228.947719694961
 20
1230.655815934646
 30
0.0
 40
3.0
100
AcDbArc
 50
0.000000000000007
 51
90.0
  0
LINE
  5
465C
330
18
100
AcDbEntity
  8
0
100
AcDbLine
 10
2231.94771969496
 20
1230.655815934646
 30
0.0
 11
2231.94771969496
 21
1208.655815934646
 31
0.0
  0
ARC
  5
465D
330
18
100
AcDbEntity
  8
0
100
AcDbCircle
 10
2257.947719694961
 20
1255.649322154326
 30
0.0
 40
26.0
100
AcDbArc
 50
126.2722685914736
 51
180.0
  0
LINE
  5
465E
330
18
100
AcDbEntity
  8
0
100
AcDbLine
 10
2234.498098429647
 20
1307.642316993371
 30
0.0
 11
2247.465098634277
 21
1300.155815934646
 31
0.0
  0
LINE
  5
465F
330
18
100
AcDbEntity
  8
0
100
AcDbLine
 10
2247.465098634277
 20
1300.155815934646
 30
0.0
 11
2247.465098634277
 21
1280.024343968947
 31
0.0
  0
LINE
  5
4660
330
18
100
AcDbEntity
  8
0
100
AcDbLine
 10
2234.447719694961
 20
1307.655815934646
 30
0.0
 11
2234.447719694961
 21
1266.77361988497
 31
0.0
  0
LINE
  5
4661
330
18
100
AcDbEntity
  8
0
100
AcDbLine
 10
2204.447719694961
 20
1307.655815934646
 30
0.0
 11
2234.447719694961
 21
1307.655815934646
 31
0.0
  0
ARC
  5
466F
330
18
100
AcDbEntity
  8
0
100
AcDbCircle
 10
2299.447719694961
 20
1235.655815934646
 30
0.0
 40
2.0
100
AcDbArc
 50
180.0
 51
270.0
  0
ARC
  5
4670
330
18
100
AcDbEntity
  8
0
100
AcDbCircle
 10
2329.447719694961
 20
1235.655815934646
 30
0.0
 40
2.0
100
AcDbArc
 50
270.0
 51
0.0
  0
LINE
  5
4671
330
18
100
AcDbEntity
  8
0
100
AcDbLine
 10
2329.447719694961
 20
1233.655815934646
 30
0.0
 11
2299.447719694961
 21
1233.655815934646
 31
0.0
  0
LINE
  5
4672
330
18
100
AcDbEntity
  8
0
100
AcDbLine
 10
2329.447719694961
 20
1254.655815934646
 30
0.0
 11
2299.447719694961
 21
1254.655815934646
 31
0.0
  0
LINE
  5
4673
330
18
100
AcDbEntity
  8
0
100
AcDbLine
 10
2297.44771969496
 20
1252.655815934645
 30
0.0
 11
2297.44771969496
 21
1235.655815934646
 31
0.0
  0
ARC
  5
4674
330
18
100
AcDbEntity
  8
0
100
AcDbCircle
 10
2299.447719694961
 20
1252.655815934645
 30
0.0
 40
2.0
100
AcDbArc
 50
90.0
 51
180.0
  0
LINE
  5
4675
330
18
100
AcDbEntity
  8
0
100
AcDbLine
 10
2331.447719694961
 20
1252.655815934645
 30
0.0
 11
2331.447719694961
 21
1235.655815934646
 31
0.0
  0
ARC
  5
4676
330
18
100
AcDbEntity
  8
0
100
AcDbCircle
 10
2329.447719694961
 20
1252.655815934645
 30
0.0
 40
2.0
100
AcDbArc
 50
0.0
 51
90.0
  0
LINE
  5
4677
330
18
100
AcDbEntity
  8
0
100
AcDbLine
 10
1074.624744268685
 20
1168.690343103556
 30
0.0
 11
1044.624744268685
 21
1168.690343103556
 31
0.0
  0
LINE
  5
4678
330
18
100
AcDbEntity
  8
0
100
AcDbLine
 10
1074.624744268685
 20
1189.690343103557
 30
0.0
 11
1044.624744268685
 21
1189.690343103556
 31
0.0
  0
LINE
  5
467A
330
18
100
AcDbEntity
  8
0
100
AcDbLine
 10
1042.624744268685
 20
1187.690343103556
 30
0.0
 11
1042.624744268685
 21
1170.690343103556
 31
0.0
  0
LINE
  5
467B
330
18
100
AcDbEntity
  8
0
100
AcDbLine
 10
1076.624744268685
 20
1187.690343103557
 30
0.0
 11
1076.624744268685
 21
1170.690343103556
 31
0.0
  0
ARC
  5
467C
330
18
100
AcDbEntity
  8
0
100
AcDbCircle
 10
1044.624744268685
 20
1187.690343103556
 30
0.0
 40
2.0
100
AcDbArc
 50
90.0000000000009
 51
180.0
  0
ARC
  5
467D
330
18
100
AcDbEntity
  8
0
100
AcDbCircle
 10
1044.624744268685
 20
1170.690343103556
 30
0.0
 40
2.0
100
AcDbArc
 50
180.0
 51
270.0000000000009
  0
ARC
  5
467E
330
18
100
AcDbEntity
  8
0
100
AcDbCircle
 10
1074.624744268685
 20
1170.690343103556
 30
0.0
 40
2.0
100
AcDbArc
 50
270.0000000000011
 51
0.0
  0
ARC
  5
467F
330
18
100
AcDbEntity
  8
0
100
AcDbCircle
 10
1074.624744268685
 20
1187.690343103557
 30
0.0
 40
2.0
100
AcDbArc
 50
0.0
 51
90.00000000000111
  0
LINE
  5
4680
330
18
100
AcDbEntity
  8
0
100
AcDbLine
 10
2350.257092563921
 20
2152.406328959952
 30
0.0
 11
2320.257092563921
 21
2152.406328959952
 31
0.0
  0
LINE
  5
4681
330
18
100
AcDbEntity
  8
0
100
AcDbLine
 10
2350.257092563921
 20
2173.406328959952
 30
0.0
 11
2320.257092563921
 21
2173.406328959952
 31
0.0
  0
LINE
  5
4683
330
18
100
AcDbEntity
  8
0
100
AcDbLine
 10
2318.257092563921
 20
2171.406328959952
 30
0.0
 11
2318.257092563921
 21
2154.406328959952
 31
0.0
  0
LINE
  5
4684
330
18
100
AcDbEntity
  8
0
100
AcDbLine
 10
2352.257092563922
 20
2171.406328959952
 30
0.0
 11
2352.257092563921
 21
2154.406328959951
 31
0.0
  0
ARC
  5
4685
330
18
100
AcDbEntity
  8
0
100
AcDbCircle
 10
2320.257092563921
 20
2171.406328959952
 30
0.0
 40
2.0
100
AcDbArc
 50
90.0
 51
180.0
  0
ARC
  5
4686
330
18
100
AcDbEntity
  8
0
100
AcDbCircle
 10
2320.257092563921
 20
2154.406328959952
 30
0.0
 40
2.0
100
AcDbArc
 50
180.0
 51
270.0
  0
ARC
  5
4687
330
18
100
AcDbEntity
  8
0
100
AcDbCircle
 10
2350.257092563921
 20
2154.406328959951
 30
0.0
 40
2.0
100
AcDbArc
 50
270.0
 51
0.0
  0
ARC
  5
4688
330
18
100
AcDbEntity
  8
0
100
AcDbCircle
 10
2350.257092563921
 20
2171.406328959952
 30
0.0
 40
2.0
100
AcDbArc
 50
359.9999999999992
 51
90.0
  0
LINE
  5
4689
330
18
100
AcDbEntity
  8
0
100
AcDbLine
 10
1096.453216795543
 20
2131.368345683652
 30
0.0
 11
1066.453216795543
 21
2131.368345683652
 31
0.0
  0
LINE
  5
468B
330
18
100
AcDbEntity
  8
0
100
AcDbLine
 10
1096.453216795543
 20
2152.368345683651
 30
0.0
 11
1066.453216795543
 21
2152.368345683651
 31
0.0
  0
LINE
  5
468C
330
18
100
AcDbEntity
  8
0
100
AcDbLine
 10
1064.453216795543
 20
2133.368345683652
 30
0.0
 11
1064.453216795543
 21
2150.368345683652
 31
0.0
  0
LINE
  5
468D
330
18
100
AcDbEntity
  8
0
100
AcDbLine
 10
1098.453216795543
 20
2133.368345683652
 30
0.0
 11
1098.453216795543
 21
2150.368345683652
 31
0.0
  0
ARC
  5
468E
330
18
100
AcDbEntity
  8
0
100
AcDbCircle
 10
1066.453216795543
 20
2150.368345683652
 30
0.0
 40
2.0
100
AcDbArc
 50
90.0
 51
180.0
  0
ARC
  5
468F
330
18
100
AcDbEntity
  8
0
100
AcDbCircle
 10
1066.453216795543
 20
2133.368345683652
 30
0.0
 40
2.0
100
AcDbArc
 50
180.0000000000003
 51
270.0
  0
ARC
  5
4690
330
18
100
AcDbEntity
  8
0
100
AcDbCircle
 10
1096.453216795543
 20
2133.368345683652
 30
0.0
 40
2.0
100
AcDbArc
 50
270.0
 51
0.0
  0
ARC
  5
4691
330
18
100
AcDbEntity
  8
0
100
AcDbCircle
 10
1096.453216795543
 20
2150.368345683652
 30
0.0
 40
2.0
100
AcDbArc
 50
0.0
 51
90.0
  0
LINE
  5
4696
330
18
100
AcDbEntity
  8
0
100
AcDbLine
 10
1146.453216795543
 20
2157.868345683652
 30
0.0
 11
1146.453216795543
 21
2138.818345683652
 31
0.0
  0
LINE
  5
4697
330
18
100
AcDbEntity
  8
0
100
AcDbLine
 10
1016.453216795543
 20
2157.868345683652
 30
0.0
 11
1016.453216795543
 21
2138.818345683652
 31
0.0
  0
LINE
  5
4698
330
18
100
AcDbEntity
  8
0
100
AcDbLine
 10
1146.453216795543
 20
1853.597268306543
 30
0.0
 11
1146.453216795543
 21
1834.547268306543
 31
0.0
  0
LINE
  5
4699
330
18
100
AcDbEntity
  8
0
100
AcDbLine
 10
1016.453216795543
 20
1853.597268306543
 30
0.0
 11
1016.453216795543
 21
1834.547268306543
 31
0.0
  0
LINE
  5
469A
330
18
100
AcDbEntity
  8
0
100
AcDbLine
 10
1146.516578692896
 20
1745.201262311826
 30
0.0
 11
1146.516578692896
 21
1726.151262311827
 31
0.0
  0
LINE
  5
469B
330
18
100
AcDbEntity
  8
0
100
AcDbLine
 10
1016.516578692896
 20
1745.201262311826
 30
0.0
 11
1016.516578692896
 21
1726.151262311827
 31
0.0
  0
LINE
  5
469C
330
18
100
AcDbEntity
  8
0
100
AcDbLine
 10
2410.257092563921
 20
2180.906328959952
 30
0.0
 11
2410.257092563921
 21
2157.906328959952
 31
0.0
  0
LINE
  5
469D
330
18
100
AcDbEntity
  8
0
100
AcDbLine
 10
2260.257092563921
 20
2180.906328959952
 30
0.0
 11
2260.257092563921
 21
2157.906328959952
 31
0.0
  0
LINE
  5
469E
330
18
100
AcDbEntity
  8
0
100
AcDbLine
 10
2410.257092563921
 20
1860.447650992977
 30
0.0
 11
2410.257092563921
 21
1837.447650992977
 31
0.0
  0
LINE
  5
469F
330
18
100
AcDbEntity
  8
0
100
AcDbLine
 10
2260.257092563921
 20
1860.447650992977
 30
0.0
 11
2260.257092563921
 21
1837.447650992977
 31
0.0
  0
LINE
  5
46A0
330
18
100
AcDbEntity
  8
0
100
AcDbLine
 10
2260.257092563921
 20
1735.681522140822
 30
0.0
 11
2260.257092563921
 21
1712.681522140822
 31
0.0
  0
LINE
  5
46A1
330
18
100
AcDbEntity
  8
0
100
AcDbLine
 10
2410.257092563921
 20
1735.681522140822
 30
0.0
 11
2410.257092563921
 21
1712.681522140822
 31
0.0
  0
LINE
  5
46A2
330
18
100
AcDbEntity
  8
0
100
AcDbLine
 10
1144.624744268685
 20
1199.690343103557
 30
0.0
 11
1144.624744268685
 21
1169.190343103557
 31
0.0
  0
LINE
  5
46A3
330
18
100
AcDbEntity
  8
0
100
AcDbLine
 10
974.6247442686858
 20
1199.690343103554
 30
0.0
 11
974.6247442686858
 21
1169.190343103554
 31
0.0
  0
LINE
  5
46A4
330
18
100
AcDbEntity
  8
0
100
AcDbLine
 10
1144.624744268686
 20
781.8943363225237
 30
0.0
 11
1144.624744268686
 21
751.3943363225239
 31
0.0
  0
LINE
  5
46A5
330
18
100
AcDbEntity
  8
0
100
AcDbLine
 10
974.6247442686863
 20
781.8943363225237
 30
0.0
 11
974.6247442686863
 21
751.3943363225239
 31
0.0
  0
LINE
  5
46A6
330
18
100
AcDbEntity
  8
0
100
AcDbLine
 10
1144.624744268686
 20
578.7296113841948
 30
0.0
 11
1144.624744268686
 21
548.2296113841949
 31
0.0
  0
LINE
  5
46A7
330
18
100
AcDbEntity
  8
0
100
AcDbLine
 10
974.6247442686863
 20
578.7296113841948
 30
0.0
 11
974.6247442686863
 21
548.2296113841949
 31
0.0
  0
LINE
  5
46A8
330
18
100
AcDbEntity
  8
0
100
AcDbLine
 10
2424.447719694961
 20
574.6712449805136
 30
0.0
 11
2424.447719694961
 21
537.6712449805136
 31
0.0
  0
LINE
  5
46A9
330
18
100
AcDbEntity
  8
0
100
AcDbLine
 10
2204.447719694961
 20
574.6712449805136
 30
0.0
 11
2204.447719694961
 21
537.6712449805136
 31
0.0
  0
LINE
  5
46AA
330
18
100
AcDbEntity
  8
0
100
AcDbLine
 10
2424.447719694961
 20
1270.655815934645
 30
0.0
 11
2424.447719694961
 21
1233.655815934646
 31
0.0
  0
LINE
  5
46AB
330
18
100
AcDbEntity
  8
0
100
AcDbLine
 10
2204.447719694961
 20
1270.655815934645
 30
0.0
 11
2204.447719694961
 21
1233.655815934646
 31
0.0
  0
LINE
  5
46AC
330
18
100
AcDbEntity
  8
0
100
AcDbLine
 10
2424.447719694961
 20
764.7194690238348
 30
0.0
 11
2424.447719694961
 21
727.719469023835
 31
0.0
  0
LINE
  5
46AD
330
18
100
AcDbEntity
  8
0
100
AcDbLine
 10
2204.447719694961
 20
764.719469023835
 30
0.0
 11
2204.447719694961
 21
727.719469023835
 31
0.0
  0
TEXT
  5
46AE
330
18
100
AcDbEntity
  8
0
100
AcDbText
 10
2307.859288005855
 20
1398.727597764411
 30
0.0
 40
30.00000000000003
  1
25A
 41
0.8
 11
2307.859288005855
 21
1398.727597764411
 31
0.0
100
AcDbText
 73
     1
  0
TEXT
  5
46AF
330
18
100
AcDbEntity
  8
0
100
AcDbText
 10
1033.170658331516
 20
187.6656670079039
 30
0.0
 40
30.00000000000003
  1
40A
 41
0.8
 11
1033.170658331516
 21
187.6656670079039
 31
0.0
100
AcDbText
 73
     1
  0
TEXT
  5
46B0
330
18
100
AcDbEntity
  8
0
100
AcDbText
 10
2254.908087606391
 20
131.4036949844328
 30
0.0
 40
30.00000000000003
  1
50A
 41
0.8
 11
2254.908087606391
 21
131.4036949844328
 31
0.0
100
AcDbText
 73
     1
  0
LINE
  5
46EE
330
18
100
AcDbEntity
  8
0
100
AcDbLine
 10
1064.453216795543
 20
1900.097268306544
 30
0.0
 11
1064.453216795543
 21
1896.681488155579
 31
0.0
  0
LINE
  5
46F0
330
18
100
AcDbEntity
  8
0
100
AcDbLine
 10
1098.453216795543
 20
1900.097268306543
 30
0.0
 11
1098.453216795543
 21
1896.681488155579
 31
0.0
  0
LINE
  5
46F2
330
18
100
AcDbEntity
  8
0
100
AcDbLine
 10
1065.453216795543
 20
1901.097268306544
 30
0.0
 11
1097.453216795543
 21
1901.097268306544
 31
0.0
  0
ARC
  5
46F3
330
18
100
AcDbEntity
  8
0
100
AcDbCircle
 10
1065.453216795543
 20
1900.097268306544
 30
0.0
 40
1.0
100
AcDbArc
 50
90.0
 51
180.0000000000009
  0
ARC
  5
46F4
330
18
100
AcDbEntity
  8
0
100
AcDbCircle
 10
1097.453216795543
 20
1900.097268306543
 30
0.0
 40
1.0
100
AcDbArc
 50
359.9999999999989
 51
89.99999999999976
  0
ARC
  5
46F5
330
18
100
AcDbEntity
  8
0
100
AcDbCircle
 10
1101.453216795543
 20
1896.681488155579
 30
0.0
 40
3.0
100
AcDbArc
 50
180.0
 51
245.0989376296323
  0
ARC
  5
46F6
330
18
100
AcDbEntity
  8
0
100
AcDbCircle
 10
1061.453216795543
 20
1896.681488155579
 30
0.0
 40
3.0
100
AcDbArc
 50
294.9010623703676
 51
0.000000000000007
  0
LINE
  5
46F8
330
18
100
AcDbEntity
  8
0
100
AcDbLine
 10
2318.257092563922
 20
1912.947650992976
 30
0.0
 11
2318.257092563922
 21
1910.068715068629
 31
0.0
  0
LINE
  5
46FB
330
18
100
AcDbEntity
  8
0
100
AcDbLine
 10
2319.257092563922
 20
1913.947650992976
 30
0.0
 11
2351.257092563921
 21
1913.947650992976
 31
0.0
  0
ARC
  5
46FC
330
18
100
AcDbEntity
  8
0
100
AcDbCircle
 10
2315.257092563921
 20
1910.068715068629
 30
0.0
 40
3.0
100
AcDbArc
 50
291.9521278352092
 51
0.0
  0
LINE
  5
46FD
330
18
100
AcDbEntity
  8
0
100
AcDbLine
 10
2352.257092563921
 20
1912.947650992976
 30
0.0
 11
2352.257092563921
 21
1910.068715068629
 31
0.0
  0
ARC
  5
46FE
330
18
100
AcDbEntity
  8
0
100
AcDbCircle
 10
2355.257092563921
 20
1910.068715068629
 30
0.0
 40
3.0
100
AcDbArc
 50
180.0
 51
248.0478721647907
  0
ARC
  5
46FF
330
18
100
AcDbEntity
  8
0
100
AcDbCircle
 10
2351.257092563921
 20
1912.947650992976
 30
0.0
 40
1.0
100
AcDbArc
 50
359.9999999999933
 51
89.99999999999962
  0
ARC
  5
4700
330
18
100
AcDbEntity
  8
0
100
AcDbCircle
 10
2319.257092563922
 20
1912.947650992976
 30
0.0
 40
1.0
100
AcDbArc
 50
89.9999999999992
 51
180.0000000000067
  0
LINE
  5
4702
330
18
100
AcDbEntity
  8
0
100
AcDbLine
 10
1042.624744268685
 20
840.8943363225242
 30
0.0
 11
1042.624744268685
 21
838.4628788174476
 31
0.0
  0
LINE
  5
4703
330
18
100
AcDbEntity
  8
0
100
AcDbLine
 10
1076.624744268685
 20
840.8943363225242
 30
0.0
 11
1076.624744268685
 21
838.4628788174477
 31
0.0
  0
LINE
  5
4705
330
18
100
AcDbEntity
  8
0
100
AcDbLine
 10
1043.624744268685
 20
841.8943363225242
 30
0.0
 11
1075.624744268685
 21
841.8943363225242
 31
0.0
  0
ARC
  5
4706
330
18
100
AcDbEntity
  8
0
100
AcDbCircle
 10
1043.624744268685
 20
840.8943363225242
 30
0.0
 40
1.0
100
AcDbArc
 50
89.9999999999998
 51
180.0
  0
ARC
  5
4707
330
18
100
AcDbEntity
  8
0
100
AcDbCircle
 10
1075.624744268685
 20
840.8943363225242
 30
0.0
 40
1.0
100
AcDbArc
 50
0.0
 51
90.0
  0
ARC
  5
4709
330
18
100
AcDbEntity
  8
0
100
AcDbCircle
 10
1039.624744268685
 20
838.4628788174477
 30
0.0
 40
3.0
100
AcDbArc
 50
289.4712206344905
 51
359.9999999999957
  0
ARC
  5
470A
330
18
100
AcDbEntity
  8
0
100
AcDbCircle
 10
1079.624744268685
 20
838.4628788174477
 30
0.0
 40
3.0
100
AcDbArc
 50
180.0000000000043
 51
250.5287793655095
  0
LINE
  5
470D
330
18
100
AcDbEntity
  8
0
100
AcDbLine
 10
2298.447719694961
 20
850.2194690238349
 30
0.0
 11
2330.447719694961
 21
850.2194690238351
 31
0.0
  0
LINE
  5
470E
330
18
100
AcDbEntity
  8
0
100
AcDbLine
 10
2331.447719694961
 20
849.2194690238351
 30
0.0
 11
2331.447719694961
 21
847.8473825066116
 31
0.0
  0
LINE
  5
470F
330
18
100
AcDbEntity
  8
0
100
AcDbLine
 10
2297.44771969496
 20
849.2194690238349
 30
0.0
 11
2297.44771969496
 21
847.8473825066116
 31
0.0
  0
ARC
  5
4711
330
18
100
AcDbEntity
  8
0
100
AcDbCircle
 10
2294.44771969496
 20
847.8473825066116
 30
0.0
 40
3.0
100
AcDbArc
 50
283.5278587493048
 51
0.0
  0
ARC
  5
4713
330
18
100
AcDbEntity
  8
0
100
AcDbCircle
 10
2334.447719694961
 20
847.8473825066116
 30
0.0
 40
3.0
100
AcDbArc
 50
180.0
 51
256.4721412506951
  0
ARC
  5
4714
330
18
100
AcDbEntity
  8
0
100
AcDbCircle
 10
2298.447719694961
 20
849.2194690238349
 30
0.0
 40
1.0
100
AcDbArc
 50
90.00000000000019
 51
179.9999999999945
  0
ARC
  5
4715
330
18
100
AcDbEntity
  8
0
100
AcDbCircle
 10
2330.447719694961
 20
849.2194690238351
 30
0.0
 40
1.0
100
AcDbArc
 50
0.0
 51
90.0000000000004
  0
LINE
  5
471F
330
18
100
AcDbEntity
  8
0
100
AcDbLine
 10
2470.688356709546
 20
2179.001333086583
 30
0.0
 11
2454.717856709546
 21
2179.001333086583
 31
0.0
  0
LINE
  5
4720
330
18
100
AcDbEntity
  8
0
100
AcDbLine
 10
2443.678713852404
 20
2173.599404515155
 30
0.0
 11
2497.699928138118
 21
2173.599404515155
 31
0.0
  0
LINE
  5
4721
330
18
100
AcDbEntity
  8
0
100
AcDbLine
 10
2454.717856709546
 20
2179.001333086583
 30
0.0
 11
2454.717856709546
 21
2184.403261658012
 31
0.0
  0
LINE
  5
4722
330
18
100
AcDbEntity
  8
0
100
AcDbLine
 10
2454.717856709546
 20
2184.403261658012
 30
0.0
 11
2443.678713852404
 21
2173.599404515155
 31
0.0
  0
LINE
  5
4723
330
18
100
AcDbEntity
  8
0
100
AcDbLine
 10
2497.699928138118
 20
2173.599404515155
 30
0.0
 11
2508.503785280975
 21
2184.403261658012
 31
0.0
  0
LINE
  5
4724
330
18
100
AcDbEntity
  8
0
100
AcDbLine
 10
2508.503785280975
 20
2184.403261658012
 30
0.0
 11
2476.092213852403
 21
2184.403261658012
 31
0.0
  0
LINE
  5
4725
330
18
100
AcDbEntity
  8
0
100
AcDbLine
 10
2476.092213852403
 20
2184.403261658012
 30
0.0
 11
2470.688356709546
 21
2179.001333086583
 31
0.0
  0
LINE
  5
472A
330
18
100
AcDbEntity
  8
0
100
AcDbLine
 10
784.4844578070479
 20
1718.701262311826
 30
0.0
 11
786.8596477770915
 21
1718.701262311827
 31
0.0
  0
LINE
  5
472B
330
18
100
AcDbEntity
  8
0
100
AcDbLine
 10
784.4844578070477
 20
1739.701262311826
 30
0.0
 11
786.8596477770918
 21
1739.701262311827
 31
0.0
  0
LINE
  5
472F
330
18
100
AcDbEntity
  8
0
100
AcDbLine
 10
783.4844578070478
 20
1738.701262311827
 30
0.0
 11
783.4844578070478
 21
1719.701262311826
 31
0.0
  0
ARC
  5
4739
330
18
100
AcDbEntity
  8
0
100
AcDbCircle
 10
786.8596477770916
 20
1715.701262311827
 30
0.0
 40
3.0
100
AcDbArc
 50
0.0
 51
90.00000000000204
  0
ARC
  5
473A
330
18
100
AcDbEntity
  8
0
100
AcDbCircle
 10
786.8596477770917
 20
1742.701262311827
 30
0.0
 40
3.0
100
AcDbArc
 50
270.000000000002
 51
0.0
  0
ARC
  5
473B
330
18
100
AcDbEntity
  8
0
100
AcDbCircle
 10
784.4844578070478
 20
1719.701262311826
 30
0.0
 40
1.0
100
AcDbArc
 50
180.0
 51
270.0000000000038
  0
ARC
  5
473C
330
18
100
AcDbEntity
  8
0
100
AcDbCircle
 10
784.4844578070478
 20
1738.701262311827
 30
0.0
 40
1.0
100
AcDbArc
 50
90.0000000000077
 51
180.0
  0
LINE
  5
473D
330
18
100
AcDbEntity
  8
0
100
AcDbLine
 10
1244.644381128295
 20
1700.701262311826
 30
0.0
 11
1244.644381128295
 21
1597.201262311826
 31
0.0
  0
LINE
  5
473E
330
18
100
AcDbEntity
  8
0
100
AcDbLine
 10
1333.744381128295
 20
1700.701262311825
 30
0.0
 11
1333.744381128294
 21
1597.201262311825
 31
0.0
  0
LINE
  5
473F
330
18
100
AcDbEntity
  8
0
100
AcDbLine
 10
1333.744381128294
 20
1597.201262311825
 30
0.0
 11
1244.644381128295
 21
1597.201262311826
 31
0.0
  0
LINE
  5
4740
330
18
100
AcDbEntity
  8
0
100
AcDbLine
 10
1333.694381128295
 20
1597.201262311825
 30
0.0
 11
1244.694381128295
 21
1597.201262311826
 31
0.0
  0
ARC
  5
4741
330
18
100
AcDbEntity
  8
0
100
AcDbCircle
 10
1289.194381128295
 20
1630.201262311826
 30
0.0
 40
73.0
100
AcDbArc
 50
240.0000000000024
 51
299.999999999997
  0
ARC
  5
4742
330
18
100
AcDbEntity
  8
0
100
AcDbCircle
 10
1317.694381128295
 20
1580.837814296113
 30
0.0
 40
16.0
100
AcDbArc
 50
299.999999999997
 51
359.9999999999997
  0
LINE
  5
4743
330
18
100
AcDbEntity
  8
0
100
AcDbLine
 10
1333.694381128295
 20
1580.837814296112
 30
0.0
 11
1333.694381128295
 21
1597.201262311825
 31
0.0
  0
LINE
  5
4744
330
18
100
AcDbEntity
  8
0
100
AcDbLine
 10
1305.194381128295
 20
1556.614578733884
 30
0.0
 11
1305.194381128295
 21
1536.201262311825
 31
0.0
  0
LINE
  5
4745
330
18
100
AcDbEntity
  8
0
100
AcDbLine
 10
1273.194381128295
 20
1556.614578733884
 30
0.0
 11
1273.194381128295
 21
1536.201262311825
 31
0.0
  0
LINE
  5
4746
330
18
100
AcDbEntity
  8
0
100
AcDbLine
 10
1304.194381128294
 20
1535.201262311825
 30
0.0
 11
1274.194381128294
 21
1535.201262311825
 31
0.0
  0
LINE
  5
4747
330
18
100
AcDbEntity
  8
0
100
AcDbLine
 10
1304.194381128294
 20
1535.201262311825
 30
0.0
 11
1305.194381128295
 21
1536.201262311825
 31
0.0
  0
LINE
  5
4748
330
18
100
AcDbEntity
  8
0
100
AcDbLine
 10
1273.194381128295
 20
1536.201262311825
 30
0.0
 11
1274.194381128294
 21
1535.201262311825
 31
0.0
  0
ARC
  5
4749
330
18
100
AcDbEntity
  8
0
100
AcDbCircle
 10
1260.694381128295
 20
1580.837814296113
 30
0.0
 40
16.0
100
AcDbArc
 50
179.9999999999997
 51
240.0000000000024
  0
ARC
  5
474A
330
18
100
AcDbEntity
  8
0
100
AcDbCircle
 10
1308.194381128295
 20
1556.614578733884
 30
0.0
 40
3.0
100
AcDbArc
 50
104.4775121859291
 51
179.9999999999997
  0
LINE
  5
474B
330
18
100
AcDbEntity
  8
0
100
AcDbLine
 10
1244.694381128295
 20
1580.837814296113
 30
0.0
 11
1244.694381128295
 21
1597.201262311826
 31
0.0
  0
ARC
  5
474C
330
18
100
AcDbEntity
  8
0
100
AcDbCircle
 10
1270.194381128295
 20
1556.614578733884
 30
0.0
 40
3.0
100
AcDbArc
 50
359.9999999999997
 51
75.5224878140703
  0
LINE
  5
474D
330
18
100
AcDbEntity
  8
0
100
AcDbLine
 10
1333.694381128295
 20
1700.701262311825
 30
0.0
 11
1244.694381128295
 21
1700.701262311826
 31
0.0
  0
LINE
  5
474E
330
18
100
AcDbEntity
  8
0
100
AcDbLine
 10
1297.530781834498
 20
1762.330387311825
 30
0.0
 11
1321.139643676998
 21
1750.840428978492
 31
0.0
  0
LINE
  5
474F
330
18
100
AcDbEntity
  8
0
100
AcDbLine
 10
1333.744381128295
 20
1700.701262311825
 30
0.0
 11
1244.644381128295
 21
1700.701262311826
 31
0.0
  0
LINE
  5
4750
330
18
100
AcDbEntity
  8
0
100
AcDbLine
 10
1333.694381128295
 20
1700.701262311825
 30
0.0
 11
1244.694381128295
 21
1700.701262311826
 31
0.0
  0
LINE
  5
4751
330
18
100
AcDbEntity
  8
0
100
AcDbLine
 10
1333.694381128295
 20
1718.701262311825
 30
0.0
 11
1333.694381128295
 21
1700.701262311825
 31
0.0
  0
ARC
  5
4752
330
18
100
AcDbEntity
  8
0
100
AcDbCircle
 10
1317.694381128295
 20
1734.564710327538
 30
0.0
 40
16.0
100
AcDbArc
 50
18.87489033879139
 51
60.00000000000245
  0
LINE
  5
4753
330
18
100
AcDbEntity
  8
0
100
AcDbLine
 10
1336.694381128295
 20
1738.701262311825
 30
0.0
 11
1336.694381128295
 21
1719.701262311825
 31
0.0
  0
LINE
  5
4754
330
18
100
AcDbEntity
  8
0
100
AcDbLine
 10
1335.694381128295
 20
1739.701262311825
 30
0.0
 11
1333.319191158251
 21
1739.701262311825
 31
0.0
  0
ARC
  5
4755
330
18
100
AcDbEntity
  8
0
100
AcDbCircle
 10
1335.694381128295
 20
1738.701262311825
 30
0.0
 40
1.0
100
AcDbArc
 50
359.9999999999997
 51
89.99999999999204
  0
LINE
  5
4756
330
18
100
AcDbEntity
  8
0
100
AcDbLine
 10
1335.694381128295
 20
1718.701262311825
 30
0.0
 11
1333.319191158252
 21
1718.701262311825
 31
0.0
  0
ARC
  5
4757
330
18
100
AcDbEntity
  8
0
100
AcDbCircle
 10
1335.694381128295
 20
1719.701262311825
 30
0.0
 40
1.0
100
AcDbArc
 50
269.9999999999958
 51
359.9999999999997
  0
ARC
  5
4758
330
18
100
AcDbEntity
  8
0
100
AcDbCircle
 10
1333.319191158252
 20
1742.701262311825
 30
0.0
 40
3.0
100
AcDbArc
 50
179.9999999999997
 51
269.9999999999977
  0
ARC
  5
4759
330
18
100
AcDbEntity
  8
0
100
AcDbCircle
 10
1333.319191158252
 20
1715.701262311825
 30
0.0
 40
3.0
100
AcDbArc
 50
89.99999999999772
 51
179.9999999999997
  0
ARC
  5
475A
330
18
100
AcDbEntity
  8
0
100
AcDbCircle
 10
1289.194381128295
 20
1685.201262311825
 30
0.0
 40
73.0
100
AcDbArc
 50
60.00000000000245
 51
64.04874457059161
  0
CIRCLE
  5
475B
330
18
100
AcDbEntity
  8
0
100
AcDbCircle
 10
1289.194381128295
 20
1745.201262311825
 30
0.0
 40
19.05000000000003
  0
LINE
  5
475C
330
18
100
AcDbEntity
  8
0
100
AcDbLine
 10
1280.857980422093
 20
1762.330387311825
 30
0.0
 11
1257.249118579592
 21
1750.840428978492
 31
0.0
  0
ARC
  5
475D
330
18
100
AcDbEntity
  8
0
100
AcDbCircle
 10
1260.694381128295
 20
1734.564710327538
 30
0.0
 40
16.0
100
AcDbArc
 50
119.999999999997
 51
179.9999999999997
  0
LINE
  5
475E
330
18
100
AcDbEntity
  8
0
100
AcDbLine
 10
1244.694381128295
 20
1734.564710327538
 30
0.0
 11
1244.694381128295
 21
1700.701262311826
 31
0.0
  0
ARC
  5
475F
330
18
100
AcDbEntity
  8
0
100
AcDbCircle
 10
1289.194381128295
 20
1685.201262311825
 30
0.0
 40
73.0
100
AcDbArc
 50
115.9512554294078
 51
119.999999999997
  0
LINE
  5
4760
330
18
100
AcDbEntity
  8
0
100
AcDbLine
 10
2032.437091485787
 20
1707.181522140822
 30
0.0
 11
2035.384489033345
 21
1707.181522140822
 31
0.0
  0
LINE
  5
4761
330
18
100
AcDbEntity
  8
0
100
AcDbLine
 10
2032.437091485787
 20
1728.181522140822
 30
0.0
 11
2035.384489033345
 21
1728.181522140822
 31
0.0
  0
LINE
  5
4762
330
18
100
AcDbEntity
  8
0
100
AcDbLine
 10
2032.437091485787
 20
1728.181522140822
 30
0.0
 11
2032.437091485787
 21
1707.181522140822
 31
0.0
  0
ARC
  5
4766
330
18
100
AcDbEntity
  8
0
100
AcDbCircle
 10
2035.384489033345
 20
1731.181522140822
 30
0.0
 40
3.0
100
AcDbArc
 50
270.0000000000001
 51
0.0
  0
ARC
  5
4767
330
18
100
AcDbEntity
  8
0
100
AcDbCircle
 10
2035.384489033345
 20
1704.181522140822
 30
0.0
 40
3.0
100
AcDbArc
 50
0.0
 51
89.99999999999991
  0
LINE
  5
4768
330
18
100
AcDbEntity
  8
0
100
AcDbLine
 10
2609.664500818944
 20
1562.681522140822
 30
0.0
 11
2609.664500818944
 21
1688.181522140822
 31
0.0
  0
LINE
  5
4769
330
18
100
AcDbEntity
  8
0
100
AcDbLine
 10
2508.064500818945
 20
1562.681522140822
 30
0.0
 11
2508.064500818945
 21
1688.181522140822
 31
0.0
  0
LINE
  5
476A
330
18
100
AcDbEntity
  8
0
100
AcDbLine
 10
2609.664500818944
 20
1562.681522140822
 30
0.0
 11
2508.064500818945
 21
1562.681522140822
 31
0.0
  0
LINE
  5
476B
330
18
100
AcDbEntity
  8
0
100
AcDbLine
 10
2609.364500818944
 20
1562.681522140822
 30
0.0
 11
2508.364500818944
 21
1562.681522140822
 31
0.0
  0
ARC
  5
476C
330
18
100
AcDbEntity
  8
0
100
AcDbCircle
 10
2558.864500818944
 20
1600.681522140822
 30
0.0
 40
83.0
100
AcDbArc
 50
240.0000000000027
 51
299.9999999999973
  0
LINE
  5
476D
330
18
100
AcDbEntity
  8
0
100
AcDbLine
 10
2609.364500818944
 20
1544.389870894833
 30
0.0
 11
2609.364500818944
 21
1562.681522140822
 31
0.0
  0
ARC
  5
476E
330
18
100
AcDbEntity
  8
0
100
AcDbCircle
 10
2591.364500818944
 20
1544.389870894833
 30
0.0
 40
18.0
100
AcDbArc
 50
299.9999999999973
 51
0.000000000000007
  0
LINE
  5
476F
330
18
100
AcDbEntity
  8
0
100
AcDbLine
 10
2508.364500818944
 20
1544.389870894833
 30
0.0
 11
2508.364500818944
 21
1562.681522140822
 31
0.0
  0
ARC
  5
4770
330
18
100
AcDbEntity
  8
0
100
AcDbCircle
 10
2526.364500818944
 20
1544.389870894833
 30
0.0
 40
18.0
100
AcDbArc
 50
180.0
 51
240.0000000000027
  0
LINE
  5
4771
330
18
100
AcDbEntity
  8
0
100
AcDbLine
 10
2542.864500818945
 20
1496.681522140822
 30
0.0
 11
2542.864500818945
 21
1516.806615285434
 31
0.0
  0
LINE
  5
4772
330
18
100
AcDbEntity
  8
0
100
AcDbLine
 10
2574.864500818944
 20
1496.681522140822
 30
0.0
 11
2574.864500818944
 21
1516.806615285434
 31
0.0
  0
LINE
  5
4773
330
18
100
AcDbEntity
  8
0
100
AcDbLine
 10
2573.864500818944
 20
1495.681522140822
 30
0.0
 11
2543.864500818944
 21
1495.681522140822
 31
0.0
  0
LINE
  5
4774
330
18
100
AcDbEntity
  8
0
100
AcDbLine
 10
2574.864500818944
 20
1496.681522140822
 30
0.0
 11
2573.864500818944
 21
1495.681522140822
 31
0.0
  0
LINE
  5
4775
330
18
100
AcDbEntity
  8
0
100
AcDbLine
 10
2543.864500818944
 20
1495.681522140822
 30
0.0
 11
2542.864500818945
 21
1496.681522140822
 31
0.0
  0
ARC
  5
4776
330
18
100
AcDbEntity
  8
0
100
AcDbCircle
 10
2577.864500818944
 20
1516.806615285434
 30
0.0
 40
3.0
100
AcDbArc
 50
102.7636758924423
 51
180.0
  0
ARC
  5
4777
330
18
100
AcDbEntity
  8
0
100
AcDbCircle
 10
2539.864500818945
 20
1516.806615285434
 30
0.0
 40
3.0
100
AcDbArc
 50
0.000000000000007
 51
77.23632410755765
  0
LINE
  5
4778
330
18
100
AcDbEntity
  8
0
100
AcDbLine
 10
2569.063981695484
 20
1756.296336955636
 30
0.0
 11
2595.893050957685
 21
1743.022262881563
 31
0.0
  0
LINE
  5
4779
330
18
100
AcDbEntity
  8
0
100
AcDbLine
 10
2609.664500818944
 20
1688.181522140822
 30
0.0
 11
2508.064500818945
 21
1688.181522140822
 31
0.0
  0
LINE
  5
477A
330
18
100
AcDbEntity
  8
0
100
AcDbLine
 10
2609.364500818944
 20
1707.181060935702
 30
0.0
 11
2609.364500818944
 21
1688.181522140822
 31
0.0
  0
ARC
  5
477B
330
18
100
AcDbEntity
  8
0
100
AcDbCircle
 10
2593.364500818944
 20
1726.198760958263
 30
0.0
 40
16.0
100
AcDbArc
 50
7.137311316332216
 51
59.26213132786916
  0
LINE
  5
477C
330
18
100
AcDbEntity
  8
0
100
AcDbLine
 10
2612.364500818944
 20
1707.181522140822
 30
0.0
 11
2609.417103271387
 21
1707.181522140822
 31
0.0
  0
ARC
  5
477D
330
18
100
AcDbEntity
  8
0
100
AcDbCircle
 10
2609.417103271387
 20
1704.181522140822
 30
0.0
 40
3.0
100
AcDbArc
 50
90.00000000000007
 51
180.0
  0
LINE
  5
477E
330
18
100
AcDbEntity
  8
0
100
AcDbLine
 10
2612.364500818944
 20
1728.181522140822
 30
0.0
 11
2609.417103271387
 21
1728.181522140822
 31
0.0
  0
ARC
  5
477F
330
18
100
AcDbEntity
  8
0
100
AcDbCircle
 10
2609.417103271387
 20
1731.181522140822
 30
0.0
 40
3.0
100
AcDbArc
 50
180.0
 51
269.9999999999998
  0
LINE
  5
4780
330
18
100
AcDbEntity
  8
0
100
AcDbLine
 10
2612.364500818944
 20
1728.181522140822
 30
0.0
 11
2612.364500818944
 21
1707.181522140822
 31
0.0
  0
ARC
  5
4781
330
18
100
AcDbEntity
  8
0
100
AcDbCircle
 10
2558.864500818944
 20
1668.181522140822
 30
0.0
 40
83.49999999999999
100
AcDbArc
 50
59.26213132786916
 51
63.67542346250267
  0
LINE
  5
4782
330
18
100
AcDbEntity
  8
0
100
AcDbLine
 10
2548.665019942405
 20
1756.296336955636
 30
0.0
 11
2521.835950680204
 21
1743.022262881563
 31
0.0
  0
CIRCLE
  5
4783
330
18
100
AcDbEntity
  8
0
100
AcDbCircle
 10
2558.864500818944
 20
1735.681522140822
 30
0.0
 40
23.0
  0
ARC
  5
4784
330
18
100
AcDbEntity
  8
0
100
AcDbCircle
 10
2524.364500818944
 20
1726.198760958263
 30
0.0
 40
16.0
100
AcDbArc
 50
120.7378686721308
 51
180.0
  0
ARC
  5
4785
330
18
100
AcDbEntity
  8
0
100
AcDbCircle
 10
2558.864500818944
 20
1668.181522140822
 30
0.0
 40
83.49999999999999
100
AcDbArc
 50
116.3245765374973
 51
120.7378686721308
  0
LINE
  5
4786
330
18
100
AcDbEntity
  8
0
100
AcDbLine
 10
2508.364500818944
 20
1726.198760958263
 30
0.0
 11
2508.364500818944
 21
1688.181522140822
 31
0.0
  0
LINE
  5
4787
330
18
100
AcDbEntity
  8
0
100
AcDbLine
 10
699.4395395721958
 20
568.7296113841947
 30
0.0
 11
699.4395395721962
 21
547.7296113841946
 31
0.0
  0
LINE
  5
4788
330
18
100
AcDbEntity
  8
0
100
AcDbLine
 10
699.4395395721962
 20
547.7296113841946
 30
0.0
 11
702.0336575372545
 21
547.7296113841946
 31
0.0
  0
LINE
  5
4789
330
18
100
AcDbEntity
  8
0
100
AcDbLine
 10
699.4395395721958
 20
568.7296113841947
 30
0.0
 11
702.0336575372545
 21
568.7296113841947
 31
0.0
  0
ARC
  5
478D
330
18
100
AcDbEntity
  8
0
100
AcDbCircle
 10
702.0336575372545
 20
544.7296113841946
 30
0.0
 40
3.0
100
AcDbArc
 50
0.000000000000916
 51
89.99999999999991
  0
ARC
  5
478E
330
18
100
AcDbEntity
  8
0
100
AcDbCircle
 10
702.0336575372545
 20
571.7296113841946
 30
0.0
 40
3.0
100
AcDbArc
 50
270.0000000000001
 51
359.999999999999
  0
LINE
  5
478F
330
18
100
AcDbEntity
  8
0
100
AcDbLine
 10
702.4395395721962
 20
547.7020278714507
 30
0.0
 11
702.4395395721967
 21
522.729611384195
 31
0.0
  0
LINE
  5
4790
330
18
100
AcDbEntity
  8
0
100
AcDbLine
 10
1416.959948965176
 20
522.7296113841953
 30
0.0
 11
1416.959948965176
 21
355.7296113841942
 31
0.0
  0
LINE
  5
4791
330
18
100
AcDbEntity
  8
0
100
AcDbLine
 10
1302.659948965176
 20
522.7296113841953
 30
0.0
 11
1302.659948965176
 21
355.729611384195
 31
0.0
  0
ARC
  5
4792
330
18
100
AcDbEntity
  8
0
100
AcDbCircle
 10
1323.809948965175
 20
335.0546495586192
 30
0.0
 40
21.0
100
AcDbArc
 50
180.0
 51
243.9583500440496
  0
LINE
  5
4793
330
18
100
AcDbEntity
  8
0
100
AcDbLine
 10
1416.959948965175
 20
355.7296113841946
 30
0.0
 11
1302.659948965175
 21
355.729611384195
 31
0.0
  0
LINE
  5
4794
330
18
100
AcDbEntity
  8
0
100
AcDbLine
 10
1416.809948965175
 20
355.7296113841946
 30
0.0
 11
1302.809948965175
 21
355.7296113841946
 31
0.0
  0
ARC
  5
4795
330
18
100
AcDbEntity
  8
0
100
AcDbCircle
 10
1359.809948965175
 20
408.7296113841946
 30
0.0
 40
103.0
100
AcDbArc
 50
243.9583500440496
 51
296.0416499559503
  0
ARC
  5
4796
330
18
100
AcDbEntity
  8
0
100
AcDbCircle
 10
1395.809948965174
 20
335.0546495586192
 30
0.0
 40
21.0
100
AcDbArc
 50
296.0416499559503
 51
0.000000000000007
  0
LINE
  5
4797
330
18
100
AcDbEntity
  8
0
100
AcDbLine
 10
1416.809948965175
 20
355.7296113841946
 30
0.0
 11
1416.809948965175
 21
335.0546495586192
 31
0.0
  0
LINE
  5
4798
330
18
100
AcDbEntity
  8
0
100
AcDbLine
 10
1375.809948965175
 20
283.7296113841948
 30
0.0
 11
1343.809948965175
 21
283.7296113841948
 31
0.0
  0
LINE
  5
4799
330
18
100
AcDbEntity
  8
0
100
AcDbLine
 10
1375.809948965175
 20
306.9799185099654
 30
0.0
 11
1375.809948965175
 21
283.7296113841948
 31
0.0
  0
LINE
  5
479A
330
18
100
AcDbEntity
  8
0
100
AcDbLine
 10
1343.809948965175
 20
306.9799185099654
 30
0.0
 11
1343.809948965175
 21
283.7296113841948
 31
0.0
  0
LINE
  5
479B
330
18
100
AcDbEntity
  8
0
100
AcDbLine
 10
1302.809948965175
 20
355.7296113841946
 30
0.0
 11
1302.809948965175
 21
335.0546495586192
 31
0.0
  0
ARC
  5
479C
330
18
100
AcDbEntity
  8
0
100
AcDbCircle
 10
1326.809948965175
 20
571.6062194282028
 30
0.0
 40
24.0
100
AcDbArc
 50
114.3619779399754
 51
180.0
  0
LINE
  5
479D
330
18
100
AcDbEntity
  8
0
100
AcDbLine
 10
1416.809948965176
 20
522.729611384195
 30
0.0
 11
1302.809948965176
 21
522.7296113841949
 31
0.0
  0
LINE
  5
479E
330
18
100
AcDbEntity
  8
0
100
AcDbLine
 10
1416.809948965176
 20
522.729611384195
 30
0.0
 11
1302.809948965176
 21
522.7296113841949
 31
0.0
  0
LINE
  5
479F
330
18
100
AcDbEntity
  8
0
100
AcDbLine
 10
1416.809948965177
 20
571.6062194282021
 30
0.0
 11
1416.809948965177
 21
568.7571948969385
 31
0.0
  0
ARC
  5
47A0
330
18
100
AcDbEntity
  8
0
100
AcDbCircle
 10
1417.215831000119
 20
571.7296113841946
 30
0.0
 40
3.0
100
AcDbArc
 50
180.0000000000009
 51
269.9999999999998
  0
CIRCLE
  5
47A1
330
18
100
AcDbEntity
  8
0
100
AcDbCircle
 10
1359.809948965176
 20
578.7296113841948
 30
0.0
 40
30.5
  0
ARC
  5
47A2
330
18
100
AcDbEntity
  8
0
100
AcDbCircle
 10
1417.215831000119
 20
544.7296113841946
 30
0.0
 40
3.0
100
AcDbArc
 50
90.0000000000001
 51
179.999999999999
  0
LINE
  5
47A3
330
18
100
AcDbEntity
  8
0
100
AcDbLine
 10
1416.809948965177
 20
547.7020278714507
 30
0.0
 11
1416.809948965176
 21
522.729611384195
 31
0.0
  0
LINE
  5
47A4
330
18
100
AcDbEntity
  8
0
100
AcDbLine
 10
1419.809948965177
 20
568.7296113841947
 30
0.0
 11
1417.215831000119
 21
568.7296113841947
 31
0.0
  0
LINE
  5
47A5
330
18
100
AcDbEntity
  8
0
100
AcDbLine
 10
1419.809948965177
 20
547.7296113841946
 30
0.0
 11
1417.215831000119
 21
547.7296113841946
 31
0.0
  0
LINE
  5
47A6
330
18
100
AcDbEntity
  8
0
100
AcDbLine
 10
1419.809948965177
 20
568.7296113841947
 30
0.0
 11
1419.809948965177
 21
547.7296113841946
 31
0.0
  0
LINE
  5
47A7
330
18
100
AcDbEntity
  8
0
100
AcDbLine
 10
1371.852561700143
 20
606.7514863841948
 30
0.0
 11
1400.873284192602
 21
594.279611384195
 31
0.0
  0
ARC
  5
47A8
330
18
100
AcDbEntity
  8
0
100
AcDbCircle
 10
1392.809948965177
 20
571.6062194282025
 30
0.0
 40
24.0
100
AcDbArc
 50
0.000000000000007
 51
65.63802206002458
  0
ARC
  5
47A9
330
18
100
AcDbEntity
  8
0
100
AcDbCircle
 10
1359.809948965176
 20
498.7296113841948
 30
0.0
 40
104.0
100
AcDbArc
 50
65.63802206002458
 51
66.74401920823306
  0
LINE
  5
47AA
330
18
100
AcDbEntity
  8
0
100
AcDbLine
 10
1347.76733623021
 20
606.7514863841948
 30
0.0
 11
1318.746613737751
 21
594.279611384195
 31
0.0
  0
ARC
  5
47AB
330
18
100
AcDbEntity
  8
0
100
AcDbCircle
 10
1359.809948965176
 20
578.7296113841946
 30
0.0
 40
30.5
100
AcDbArc
 50
66.74401920823306
 51
113.2559807917669
  0
ARC
  5
47AC
330
18
100
AcDbEntity
  8
0
100
AcDbCircle
 10
1359.809948965176
 20
498.7296113841948
 30
0.0
 40
104.0
100
AcDbArc
 50
113.2559807917669
 51
114.3619779399754
  0
LINE
  5
47AD
330
18
100
AcDbEntity
  8
0
100
AcDbLine
 10
1302.809948965176
 20
571.606219428203
 30
0.0
 11
1302.809948965175
 21
522.7296113841949
 31
0.0
  0
LINE
  5
47AF
330
18
100
AcDbEntity
  8
0
100
AcDbLine
 10
1848.476683035904
 20
537.6712449805136
 30
0.0
 11
1850.247196477398
 21
537.6712449805136
 31
0.0
  0
LINE
  5
47B0
330
18
100
AcDbEntity
  8
0
100
AcDbLine
 10
1848.476683035904
 20
558.6712449805136
 30
0.0
 11
1850.247196477398
 21
558.6712449805134
 31
0.0
  0
LINE
  5
47B1
330
18
100
AcDbEntity
  8
0
100
AcDbLine
 10
1848.476683035905
 20
558.6712449805136
 30
0.0
 11
1848.476683035904
 21
537.6712449805136
 31
0.0
  0
ARC
  5
47B4
330
18
100
AcDbEntity
  8
0
100
AcDbCircle
 10
1850.247196477398
 20
534.6712449805136
 30
0.0
 40
3.0
100
AcDbArc
 50
359.9999999999987
 51
90.0
  0
ARC
  5
47B5
330
18
100
AcDbEntity
  8
0
100
AcDbCircle
 10
1850.247196477398
 20
561.6712449805135
 30
0.0
 40
3.0
100
AcDbArc
 50
270.0
 51
0.0000000000012354
  0
LINE
  5
47B6
330
18
100
AcDbEntity
  8
0
100
AcDbLine
 10
1851.476683035905
 20
537.4077322913652
 30
0.0
 11
1851.476683035905
 21
512.6712449805136
 31
0.0
  0
LINE
  5
47B7
330
18
100
AcDbEntity
  8
0
100
AcDbLine
 10
2612.318756354017
 20
512.6712449805136
 30
0.0
 11
2612.318756354017
 21
291.6712449805136
 31
0.0
  0
LINE
  5
47B8
330
18
100
AcDbEntity
  8
0
100
AcDbLine
 10
2777.518756354017
 20
512.6712449805136
 30
0.0
 11
2777.518756354017
 21
291.6712449805136
 31
0.0
  0
ARC
  5
47B9
330
18
100
AcDbEntity
  8
0
100
AcDbCircle
 10
2638.018756354017
 20
281.5963476752922
 30
0.0
 40
26.0
100
AcDbArc
 50
180.0
 51
233.2054543974891
  0
ARC
  5
47BA
330
18
100
AcDbEntity
  8
0
100
AcDbCircle
 10
2751.818756354017
 20
281.5963476752922
 30
0.0
 40
26.0
100
AcDbArc
 50
306.7945456025108
 51
0.000000000000007
  0
ARC
  5
47BB
330
18
100
AcDbEntity
  8
0
100
AcDbCircle
 10
2694.918756354017
 20
357.6712449805136
 30
0.0
 40
121.0
100
AcDbArc
 50
233.2054543974891
 51
306.7945456025108
  0
LINE
  5
47BC
330
18
100
AcDbEntity
  8
0
100
AcDbLine
 10
2709.918756354017
 20
214.6712449805136
 30
0.0
 11
2679.918756354017
 21
214.6712449805136
 31
0.0
  0
LINE
  5
47BD
330
18
100
AcDbEntity
  8
0
100
AcDbLine
 10
2710.918756354017
 20
237.733761265038
 30
0.0
 11
2710.918756354017
 21
215.6712449805136
 31
0.0
  0
LINE
  5
47BE
330
18
100
AcDbEntity
  8
0
100
AcDbLine
 10
2710.918756354017
 20
215.6712449805136
 30
0.0
 11
2709.918756354017
 21
214.6712449805136
 31
0.0
  0
LINE
  5
47BF
330
18
100
AcDbEntity
  8
0
100
AcDbLine
 10
2678.918756354017
 20
237.733761265038
 30
0.0
 11
2678.918756354017
 21
215.6712449805136
 31
0.0
  0
LINE
  5
47C0
330
18
100
AcDbEntity
  8
0
100
AcDbLine
 10
2679.918756354017
 20
214.6712449805136
 30
0.0
 11
2678.918756354017
 21
215.6712449805136
 31
0.0
  0
LINE
  5
47C1
330
18
100
AcDbEntity
  8
0
100
AcDbLine
 10
2777.818756354017
 20
291.6712449805136
 30
0.0
 11
2612.018756354017
 21
291.6712449805136
 31
0.0
  0
LINE
  5
47C2
330
18
100
AcDbEntity
  8
0
100
AcDbLine
 10
2777.518756354017
 20
291.6712449805136
 30
0.0
 11
2612.318756354017
 21
291.6712449805136
 31
0.0
  0
LINE
  5
47C3
330
18
100
AcDbEntity
  8
0
100
AcDbLine
 10
2777.818756354017
 20
291.6712449805136
 30
0.0
 11
2777.818756354017
 21
281.5963476752922
 31
0.0
  0
LINE
  5
47C4
330
18
100
AcDbEntity
  8
0
100
AcDbLine
 10
2612.018756354017
 20
291.6712449805136
 30
0.0
 11
2612.018756354017
 21
281.5963476752922
 31
0.0
  0
CIRCLE
  5
47C5
330
18
100
AcDbEntity
  8
0
100
AcDbCircle
 10
2694.918756354017
 20
574.6712449805136
 30
0.0
 40
36.99999999999994
  0
LINE
  5
47C6
330
18
100
AcDbEntity
  8
0
100
AcDbLine
 10
2777.518756354017
 20
512.6712449805136
 30
0.0
 11
2612.318756354017
 21
512.6712449805136
 31
0.0
  0
ARC
  5
47C7
330
18
100
AcDbEntity
  8
0
100
AcDbCircle
 10
2751.418756354017
 20
559.6647512001941
 30
0.0
 40
26.0
100
AcDbArc
 50
0.000000000000007
 51
53.72773140852633
  0
ARC
  5
47C8
330
18
100
AcDbEntity
  8
0
100
AcDbCircle
 10
2778.648242912523
 20
561.6712449805135
 30
0.0
 40
3.0
100
AcDbArc
 50
179.9999999999987
 51
270.0
  0
ARC
  5
47C9
330
18
100
AcDbEntity
  8
0
100
AcDbCircle
 10
2778.648242912523
 20
534.6712449805136
 30
0.0
 40
3.0
100
AcDbArc
 50
90.0
 51
180.0000000000012
  0
LINE
  5
47CA
330
18
100
AcDbEntity
  8
0
100
AcDbLine
 10
2777.418756354017
 20
537.4077322913652
 30
0.0
 11
2777.418756354017
 21
512.6712449805136
 31
0.0
  0
LINE
  5
47CB
330
18
100
AcDbEntity
  8
0
100
AcDbLine
 10
2777.418756354017
 20
559.6647512001941
 30
0.0
 11
2777.418756354017
 21
558.9347576696619
 31
0.0
  0
LINE
  5
47CC
330
18
100
AcDbEntity
  8
0
100
AcDbLine
 10
2780.418756354017
 20
558.6712449805136
 30
0.0
 11
2778.648242912523
 21
558.6712449805134
 31
0.0
  0
LINE
  5
47CD
330
18
100
AcDbEntity
  8
0
100
AcDbLine
 10
2780.418756354017
 20
537.6712449805136
 30
0.0
 11
2778.648242912523
 21
537.6712449805136
 31
0.0
  0
LINE
  5
47CE
330
18
100
AcDbEntity
  8
0
100
AcDbLine
 10
2780.418756354017
 20
558.6712449805136
 30
0.0
 11
2780.418756354017
 21
537.6712449805136
 31
0.0
  0
LINE
  5
47CF
330
18
100
AcDbEntity
  8
0
100
AcDbLine
 10
2709.551200777982
 20
608.6549406326875
 30
0.0
 11
2742.96854007055
 21
594.2663536761661
 31
0.0
  0
ARC
  5
47D0
330
18
100
AcDbEntity
  8
0
100
AcDbCircle
 10
2694.918756354017
 20
482.6712449805135
 30
0.0
 40
121.5
100
AcDbArc
 50
53.72773140852633
 51
66.70461826327226
  0
ARC
  5
47D1
330
18
100
AcDbEntity
  8
0
100
AcDbCircle
 10
2638.418756354017
 20
559.6647512001945
 30
0.0
 40
26.0
100
AcDbArc
 50
126.2722685914736
 51
180.0
  0
LINE
  5
47D2
330
18
100
AcDbEntity
  8
0
100
AcDbLine
 10
2612.418756354017
 20
559.6647512001945
 30
0.0
 11
2612.418756354017
 21
512.6712449805136
 31
0.0
  0
ARC
  5
47D3
330
18
100
AcDbEntity
  8
0
100
AcDbCircle
 10
2694.918756354017
 20
482.6712449805135
 30
0.0
 40
121.5
100
AcDbArc
 50
113.2953817367277
 51
126.2722685914736
  0
LINE
  5
47D4
330
18
100
AcDbEntity
  8
0
100
AcDbLine
 10
2680.286311930053
 20
608.6549406326875
 30
0.0
 11
2646.868972637484
 21
594.2663536761661
 31
0.0
  0
VIEWPORT
  5
41
330
15
100
AcDbEntity
 67
     1
  8
0
100
AcDbViewport
 10
117.358407079646
 20
73.5
 30
0.0
 40
234.716814159292
 41
147.0
 68
     1
 69
     1
1001
ACAD
1000
MVIEW
1002
{
1070
    16
1010
0.0
1020
0.0
1030
0.0
1010
0.0
1020
0.0
1030
1.0
1040
0.0
1040
147.0
1040
117.358407079646
1040
73.5
1040
50.0
1040
0.0
1040
0.0
1070
     0
1070
   100
1070
     1
1070
     1
1070
     0
1070
     0
1070
     0
1070
     0
1040
0.0
1040
0.0
1040
0.0
1040
1.0
1040
1.0
1040
0.0
1040
0.0
1070
     0
1002
{
1002
}
1002
}
  0
ENDSEC
  0
SECTION
  2
OBJECTS
  0
DICTIONARY
  5
C
330
0
100
AcDbDictionary
  3
ACAD_GROUP
350
D
  3
ACAD_LAYOUT
350
3829
  3
ACAD_MLINESTYLE
350
E
  3
ACAD_PLOTSETTINGS
350
382A
1001
ACAD
1000
TREAT_AS_HARD
1070
     0
  0
DICTIONARY
  5
46DD
330
18
100
AcDbDictionary
  3
ACAD_LAYOUTSELFREF
350
484A
1001
ACAD
1000
TREAT_AS_HARD
1070
     1
  0
DICTIONARY
  5
46DB
330
15
100
AcDbDictionary
  3
ACAD_LAYOUTSELFREF
350
4849
1001
ACAD
1000
TREAT_AS_HARD
1070
     1
  0
DICTIONARY
  5
D
102
{ACAD_REACTORS
330
C
102
}
330
C
100
AcDbDictionary
1001
ACAD
1000
TREAT_AS_HARD
1070
     0
  0
DICTIONARY
  5
3829
102
{ACAD_REACTORS
330
C
102
}
330
C
100
AcDbDictionary
1001
ACAD
1000
TREAT_AS_HARD
1070
     0
  0
DICTIONARY
  5
E
102
{ACAD_REACTORS
330
C
102
}
330
C
100
AcDbDictionary
  3
STANDARD
350
1B
1001
ACAD
1000
TREAT_AS_HARD
1070
     0
  0
DICTIONARY
  5
382A
102
{ACAD_REACTORS
330
C
102
}
330
C
100
AcDbDictionary
1001
ACAD
1000
TREAT_AS_HARD
1070
     0
  0
XRECORD
  5
484A
102
{ACAD_REACTORS
330
46DD
102
}
330
46DD
100
AcDbXrecord
340
18
  0
XRECORD
  5
4849
102
{ACAD_REACTORS
330
46DB
102
}
330
46DB
100
AcDbXrecord
340
15
  0
MLINESTYLE
  5
1B
102
{ACAD_REACTORS
330
E
102
}
330
E
100
AcDbMlineStyle
  2
STANDARD
 70
     0
  3

 62
     0
 51
90.0
 52
90.0
 71
     2
 49
0.5
 62
   256
  6
BYLAYER
 49
-0.5
 62
   256
  6
BYLAYER
  0
ENDSEC
  0
EOF
