  0
SECTION
  2
HEADER
  9
$ACADVER
  1
AC1012
  9
$DWGCODEPAGE
  3
dos932
  9
$INSBASE
 10
0.0
 20
0.0
 30
0.0
  9
$EXTMIN
 10
131.7683800335144
 20
59.90845320269909
 30
-0.0015258207003583
  9
$EXTMAX
 10
3432.231636562654
 20
2292.05566966447
 30
0.0000000349246037
  9
$LIMMIN
 10
0.0
 20
0.0
  9
$LIMMAX
 10
3564.0
 20
2520.0
  9
$ORTHOMODE
 70
     1
  9
$REGENMODE
 70
     1
  9
$FILLMODE
 70
     1
  9
$QTEXTMODE
 70
     0
  9
$MIRRTEXT
 70
     1
  9
$DRAGMODE
 70
     2
  9
$LTSCALE
 40
48.0
  9
$OSMODE
 70
   163
  9
$ATTMODE
 70
     1
  9
$TEXTSIZE
 40
48.0
  9
$TRACEWID
 40
0.05
  9
$TEXTSTYLE
  7
STANDARD
  9
$CLAYER
  8
0
  9
$CELTYPE
  6
BYLAYER
  9
$CECOLOR
 62
   256
  9
$CELTSCALE
 40
1.0
  9
$DELOBJ
 70
     1
  9
$DISPSILH
 70
     0
  9
$DIMSCALE
 40
12.0
  9
$DIMASZ
 40
2.799999999999999
  9
$DIMEXO
 40
1.0
  9
$DIMDLI
 40
5.0
  9
$DIMRND
 40
0.1
  9
$DIMDLE
 40
0.0
  9
$DIMEXE
 40
1.0
  9
$DIMTP
 40
0.0
  9
$DIMTM
 40
0.0
  9
$DIMTXT
 40
2.5
  9
$DIMCEN
 40
0.0
  9
$DIMTSZ
 40
0.0
  9
$DIMTOL
 70
     0
  9
$DIMLIM
 70
     0
  9
$DIMTIH
 70
     0
  9
$DIMTOH
 70
     0
  9
$DIMSE1
 70
     0
  9
$DIMSE2
 70
     0
  9
$DIMTAD
 70
     3
  9
$DIMZIN
 70
     8
  9
$DIMBLK
  1

  9
$DIMASO
 70
     1
  9
$DIMSHO
 70
     1
  9
$DIMPOST
  1

  9
$DIMAPOST
  1

  9
$DIMALT
 70
     0
  9
$DIMALTD
 70
     2
  9
$DIMALTF
 40
1.0
  9
$DIMLFAC
 40
1.0
  9
$DIMTOFL
 70
     1
  9
$DIMTVP
 40
0.0
  9
$DIMTIX
 70
     0
  9
$DIMSOXD
 70
     0
  9
$DIMSAH
 70
     1
  9
$DIMBLK1
  1
OPEN
  9
$DIMBLK2
  1
OPEN
  9
$DIMSTYLE
  2
DIM1
  9
$DIMCLRD
 70
     2
  9
$DIMCLRE
 70
     2
  9
$DIMCLRT
 70
     2
  9
$DIMTFAC
 40
0.7
  9
$DIMGAP
 40
0.85
  9
$DIMJUST
 70
     0
  9
$DIMSD1
 70
     0
  9
$DIMSD2
 70
     0
  9
$DIMTOLJ
 70
     1
  9
$DIMTZIN
 70
     8
  9
$DIMALTZ
 70
     8
  9
$DIMALTTZ
 70
     8
  9
$DIMFIT
 70
     3
  9
$DIMUPT
 70
     0
  9
$DIMUNIT
 70
     2
  9
$DIMDEC
 70
     2
  9
$DIMTDEC
 70
     3
  9
$DIMALTU
 70
     2
  9
$DIMALTTD
 70
     3
  9
$DIMTXSTY
  7
DIM
  9
$DIMAUNIT
 70
     0
  9
$LUNITS
 70
     2
  9
$LUPREC
 70
     4
  9
$SKETCHINC
 40
0.1
  9
$FILLETRAD
 40
1.0
  9
$AUNITS
 70
     0
  9
$AUPREC
 70
     0
  9
$MENU
  1
C:\ACADR13\WIN\SUPPORT\ACAD.mnc
  9
$ELEVATION
 40
0.0
  9
$PELEVATION
 40
0.0
  9
$THICKNESS
 40
0.0
  9
$LIMCHECK
 70
     0
  9
$BLIPMODE
 70
     0
  9
$CHAMFERA
 40
0.0
  9
$CHAMFERB
 40
0.0
  9
$CHAMFERC
 40
0.0
  9
$CHAMFERD
 40
0.0
  9
$SKPOLY
 70
     0
  9
$TDCREATE
 40
2451564.369914201
  9
$TDUPDATE
 40
2452247.577000497
  9
$TDINDWG
 40
0.3704050810
  9
$TDUSRTIMER
 40
0.3704050810
  9
$USRTIMER
 70
     1
  9
$ANGBASE
 50
0.0
  9
$ANGDIR
 70
     0
  9
$PDMODE
 70
     0
  9
$PDSIZE
 40
0.0
  9
$PLINEWID
 40
0.0
  9
$COORDS
 70
     2
  9
$SPLFRAME
 70
     0
  9
$SPLINETYPE
 70
     6
  9
$SPLINESEGS
 70
     8
  9
$ATTDIA
 70
     0
  9
$ATTREQ
 70
     1
  9
$HANDLING
 70
-16383
  9
$HANDSEED
  5
4D71
  9
$SURFTAB1
 70
     6
  9
$SURFTAB2
 70
     6
  9
$SURFTYPE
 70
     6
  9
$SURFU
 70
     6
  9
$SURFV
 70
     6
  9
$UCSNAME
  2

  9
$UCSORG
 10
0.0
 20
0.0
 30
0.0
  9
$UCSXDIR
 10
1.0
 20
0.0
 30
0.0
  9
$UCSYDIR
 10
0.0
 20
1.0
 30
0.0
  9
$PUCSNAME
  2

  9
$PUCSORG
 10
0.0
 20
0.0
 30
0.0
  9
$PUCSXDIR
 10
1.0
 20
0.0
 30
0.0
  9
$PUCSYDIR
 10
0.0
 20
1.0
 30
0.0
  9
$USERI1
 70
     0
  9
$USERI2
 70
     0
  9
$USERI3
 70
     0
  9
$USERI4
 70
     0
  9
$USERI5
 70
     0
  9
$USERR1
 40
0.0
  9
$USERR2
 40
0.0
  9
$USERR3
 40
0.0
  9
$USERR4
 40
0.0
  9
$USERR5
 40
0.0
  9
$WORLDVIEW
 70
     1
  9
$SHADEDGE
 70
     3
  9
$SHADEDIF
 70
    70
  9
$TILEMODE
 70
     1
  9
$MAXACTVP
 70
    16
  9
$PINSBASE
 10
0.0
 20
0.0
 30
0.0
  9
$PLIMCHECK
 70
     0
  9
$PEXTMIN
 10
1.000000000000000E+20
 20
1.000000000000000E+20
 30
1.000000000000000E+20
  9
$PEXTMAX
 10
-1.000000000000000E+20
 20
-1.000000000000000E+20
 30
-1.000000000000000E+20
  9
$PLIMMIN
 10
0.0
 20
0.0
  9
$PLIMMAX
 10
20.0
 20
147.0
  9
$UNITMODE
 70
     0
  9
$VISRETAIN
 70
     0
  9
$PLINEGEN
 70
     0
  9
$PSLTSCALE
 70
     1
  9
$TREEDEPTH
 70
  3020
  9
$PICKSTYLE
 70
     0
  9
$CMLSTYLE
  2
STANDARD
  9
$CMLJUST
 70
     0
  9
$CMLSCALE
 40
1.0
  9
$SAVEIMAGES
 70
     1
  0
ENDSEC
  0
SECTION
  2
CLASSES
  0
CLASS
  1
LWPOLYLINE
  2
AcDbPolyline
  3
AutoCAD 2000
 90
    32768
280
     0
281
     1
  0
CLASS
  1
ACDBDICTIONARYWDFLT
  2
AcDbDictionaryWithDefault
  3
AutoCAD 2000
 90
    32768
280
     0
281
     0
  0
CLASS
  1
ACDBPLACEHOLDER
  2
AcDbPlaceHolder
  3
AutoCAD 2000
 90
    32768
280
     0
281
     0
  0
CLASS
  1
LAYOUT
  2
AcDbLayout
  3
AutoCAD 2000
 90
    32768
280
     0
281
     0
  0
CLASS
  1
LONG_TRANSACTION
  2
AcDbLongTransaction
  3
AutoCAD 2000
 90
    32768
280
     0
281
     0
  0
CLASS
  1
LWPOLYLINE
  2
AcDbPolyline
  3
AutoCAD 2000
 90
    32768
280
     0
281
     1
  0
CLASS
  1
HATCH
  2
AcDbHatch
  3
AutoCAD 2000
 90
    32768
280
     0
281
     1
  0
CLASS
  1
XRECORD
  2
AcDbXrecord
  3
AutoCAD 2000
 90
    32768
280
     0
281
     0
  0
CLASS
  1
LONG_TRANSACTION
  2
AcDbLongTransaction
  3
AutoCAD 2000
 90
    32768
280
     0
281
     0
  0
CLASS
  1
LWPOLYLINE
  2
AcDbPolyline
  3
AutoCAD 2000
 90
    32768
280
     0
281
     1
  0
CLASS
  1
HATCH
  2
AcDbHatch
  3
AutoCAD 2000
 90
    32768
280
     0
281
     1
  0
CLASS
  1
XRECORD
  2
AcDbXrecord
  3
AutoCAD 2000
 90
    32768
280
     0
281
     0
  0
ENDSEC
  0
SECTION
  2
TABLES
  0
TABLE
  2
VPORT
  5
8
330
0
100
AcDbSymbolTable
 70
     5
  0
VPORT
  5
4D69
330
8
100
AcDbSymbolTableRecord
100
AcDbViewportTableRecord
  2
*ACTIVE
 70
     0
 10
0.0
 20
0.0
 11
1.0
 21
1.0
 12
1782.0
 22
1260.0
 13
0.0
 23
0.0
 14
1.0
 24
1.0
 15
0.0
 25
0.0
 16
0.0
 26
0.0
 36
1.0
 17
0.0
 27
0.0
 37
0.0
 40
2541.235955056179
 41
1.686357243319268
 42
50.0
 43
0.0
 44
0.0
 50
0.0
 51
0.0
 71
     0
 72
   100
 73
     1
 74
     1
 75
     0
 76
     0
 77
     0
 78
     0
  0
ENDTAB
  0
TABLE
  2
LTYPE
  5
5
330
0
100
AcDbSymbolTable
 70
     1
  0
LTYPE
  5
12
330
5
100
AcDbSymbolTableRecord
100
AcDbLinetypeTableRecord
  2
BYBLOCK
 70
     0
  3

 72
    65
 73
     0
 40
0.0
  0
LTYPE
  5
13
330
5
100
AcDbSymbolTableRecord
100
AcDbLinetypeTableRecord
  2
BYLAYER
 70
     0
  3

 72
    65
 73
     0
 40
0.0
  0
LTYPE
  5
14
330
5
100
AcDbSymbolTableRecord
100
AcDbLinetypeTableRecord
  2
CONTINUOUS
 70
     0
  3
Solid line
 72
    65
 73
     0
 40
0.0
  0
ENDTAB
  0
TABLE
  2
LAYER
  5
2
330
0
100
AcDbSymbolTable
 70
     1
  0
LAYER
  5
F
330
2
100
AcDbSymbolTableRecord
100
AcDbLayerTableRecord
  2
0
 70
     0
 62
     7
  6
CONTINUOUS
  0
ENDTAB
  0
TABLE
  2
STYLE
  5
3
330
0
100
AcDbSymbolTable
 70
     3
  0
STYLE
  5
10
330
3
100
AcDbSymbolTableRecord
100
AcDbTextStyleTableRecord
  2
STANDARD
 70
     0
 40
0.0
 41
0.8
 50
0.0
 71
     0
 42
48.0
  3
simplex
  4
extfont
  0
STYLE
  5
237C
330
3
100
AcDbSymbolTableRecord
100
AcDbTextStyleTableRecord
  2
PTSH
 70
     0
 40
0.0
 41
0.9
 50
0.0
 71
     0
 42
4.0
  3
SIMPLEX
  4
EXTFONT
  0
STYLE
  5
2592
330
3
100
AcDbSymbolTableRecord
100
AcDbTextStyleTableRecord
  2
DIM
 70
     0
 40
0.0
 41
0.8
 50
0.0
 71
     0
 42
4.0
  3
simplex
  4
extfont
  0
ENDTAB
  0
TABLE
  2
VIEW
  5
6
330
0
100
AcDbSymbolTable
 70
     0
  0
ENDTAB
  0
TABLE
  2
UCS
  5
7
330
0
100
AcDbSymbolTable
 70
     0
  0
ENDTAB
  0
TABLE
  2
APPID
  5
9
330
0
100
AcDbSymbolTable
 70
     1
  0
APPID
  5
11
330
9
100
AcDbSymbolTableRecord
100
AcDbRegAppTableRecord
  2
ACAD
 70
     0
  0
ENDTAB
  0
TABLE
  2
DIMSTYLE
  5
A
330
0
100
AcDbSymbolTable
 70
     2
  0
DIMSTYLE
105
2237
330
A
100
AcDbSymbolTableRecord
100
AcDbDimStyleTableRecord
  2
DIM1
 70
     0
  3

  4

  5

  6
OPEN
  7
OPEN
 40
12.0
 41
2.799999999999999
 42
1.0
 43
5.0
 44
1.0
 45
0.1
 46
0.0
 47
0.0
 48
0.0
140
2.5
141
0.0
142
0.0
143
1.0
144
1.0
145
0.0
146
0.7
147
0.85
 71
     0
 72
     0
 73
     0
 74
     0
 75
     0
 76
     0
 77
     3
 78
     8
170
     0
171
     2
172
     1
173
     1
174
     0
175
     0
176
     2
177
     2
178
     2
270
     2
271
     2
272
     3
273
     2
274
     3
340
2592
275
     0
280
     0
281
     0
282
     0
283
     1
284
     8
285
     8
286
     8
287
     3
288
     0
  0
ENDTAB
  0
TABLE
  2
BLOCK_RECORD
  5
1
330
0
100
AcDbSymbolTable
 70
     1
  0
BLOCK_RECORD
  5
18
102
{ACAD_XDICTIONARY
360
4CC2
102
}
330
1
100
AcDbSymbolTableRecord
100
AcDbBlockTableRecord
  2
*MODEL_SPACE
  0
BLOCK_RECORD
  5
15
102
{ACAD_XDICTIONARY
360
4CC0
102
}
330
1
100
AcDbSymbolTableRecord
100
AcDbBlockTableRecord
  2
*PAPER_SPACE
  0
BLOCK_RECORD
  5
2448
330
1
100
AcDbSymbolTableRecord
100
AcDbBlockTableRecord
  2
_OPEN
  0
ENDTAB
  0
ENDSEC
  0
SECTION
  2
BLOCKS
  0
BLOCK
  5
3C
330
18
100
AcDbEntity
  8
0
100
AcDbBlockBegin
  2
*MODEL_SPACE
 70
     0
 10
0.0
 20
0.0
 30
0.0
  3
*MODEL_SPACE
  1

  0
ENDBLK
  5
3D
330
18
100
AcDbEntity
  8
0
100
AcDbBlockEnd
  0
BLOCK
  5
3A
330
15
100
AcDbEntity
 67
     1
  8
0
100
AcDbBlockBegin
  2
*PAPER_SPACE
 70
     0
 10
0.0
 20
0.0
 30
0.0
  3
*PAPER_SPACE
  1

  0
ENDBLK
  5
3B
330
15
100
AcDbEntity
 67
     1
  8
0
100
AcDbBlockEnd
  0
BLOCK
  5
2449
330
2448
100
AcDbEntity
  8
0
 48
4.0
100
AcDbBlockBegin
  2
_OPEN
 70
     0
 10
0.0
 20
0.0
 30
0.0
  3
_OPEN
  1
H1111.DWG
  0
LINE
  5
244A
330
2448
100
AcDbEntity
  8
0
  6
BYBLOCK
 62
     0
 48
4.0
100
AcDbLine
 10
-1.0
 20
0.1666666666666666
 30
0.0
 11
0.0
 21
0.0
 31
0.0
  0
LINE
  5
244B
330
2448
100
AcDbEntity
  8
0
  6
BYBLOCK
 62
     0
 48
4.0
100
AcDbLine
 10
0.0
 20
0.0
 30
0.0
 11
-1.0
 21
-0.1666666666666666
 31
0.0
  0
LINE
  5
244C
330
2448
100
AcDbEntity
  8
0
  6
BYBLOCK
 62
     0
 48
4.0
100
AcDbLine
 10
0.0
 20
0.0
 30
0.0
 11
-1.0
 21
0.0
 31
0.0
  0
ENDBLK
  5
244D
330
2448
100
AcDbEntity
  8
0
 48
4.0
100
AcDbBlockEnd
  0
ENDSEC
  0
SECTION
  2
ENTITIES
  0
MTEXT
  5
ADA
330
18
100
AcDbEntity
  8
0
100
AcDbMText
 10
4561.671357260498
 20
598.1557336346739
 30
0.0
 40
2.400000000000002
 41
566.7175781849551
 71
     1
 72
     1
  1

1001
ACAD
1000
MTEXTBEGIN
1070
    73
1070
     1
1070
    44
1040
1.0
1070
    74
1070
     0
1000
MTEXTEND
1000
MTEXTBEGIN
1070
    73
1070
     1
1070
    44
1040
1.0
1070
    74
1070
     0
1000
MTEXTEND
  0
MTEXT
  5
ADB
330
18
100
AcDbEntity
  8
0
100
AcDbMText
 10
4668.59919800298
 20
694.2095247947898
 30
0.0
 40
2.400000000000002
 41
545.3320100364568
 71
     1
 72
     1
  1

1001
ACAD
1000
MTEXTBEGIN
1070
    73
1070
     1
1070
    44
1040
1.0
1070
    74
1070
     0
1000
MTEXTEND
1000
MTEXTBEGIN
1070
    73
1070
     1
1070
    44
1040
1.0
1070
    74
1070
     0
1000
MTEXTEND
  0
MTEXT
  5
ADC
330
18
100
AcDbEntity
  8
0
100
AcDbMText
 10
4604.442493557491
 20
-575.8349568659128
 30
0.0
 40
2.400000000000002
 41
620.1814985561984
 71
     1
 72
     1
  1

1001
ACAD
1000
MTEXTBEGIN
1070
    73
1070
     1
1070
    44
1040
1.0
1070
    74
1070
     0
1000
MTEXTEND
1000
MTEXTBEGIN
1070
    73
1070
     1
1070
    44
1040
1.0
1070
    74
1070
     0
1000
MTEXTEND
  0
TEXT
  5
2529
330
18
100
AcDbEntity
  8
0
  6
CONTINUOUS
100
AcDbText
 10
3256.285714285717
 20
81.00000000000008
 30
0.0
 40
36.00000000000004
  1
DC7F
 41
0.9
  7
PTSH
 72
     2
 11
3372.000000000003
 21
99.00000000000011
 31
0.0
100
AcDbText
 73
     2
  0
POLYLINE
  5
2563
330
18
100
AcDbEntity
  8
0
100
AcDb2dPolyline
 66
     1
 10
0.0
 20
0.0
 30
0.0
 70
     1
  0
VERTEX
  5
4D6C
330
2563
100
AcDbEntity
  8
0
100
AcDbVertex
100
AcDb2dVertex
 10
132.0000000000001
 20
60.00000000000007
 30
0.0
  0
VERTEX
  5
4D6D
330
2563
100
AcDbEntity
  8
0
100
AcDbVertex
100
AcDb2dVertex
 10
3432.000000000004
 20
60.00000000000007
 30
0.0
  0
VERTEX
  5
4D6E
330
2563
100
AcDbEntity
  8
0
100
AcDbVertex
100
AcDb2dVertex
 10
3432.000000000004
 20
2292.000000000002
 30
0.0
  0
VERTEX
  5
4D6F
330
2563
100
AcDbEntity
  8
0
100
AcDbVertex
100
AcDb2dVertex
 10
132.0000000000001
 20
2292.000000000002
 30
0.0
  0
SEQEND
  5
4D70
330
2563
100
AcDbEntity
  8
0
  0
TEXT
  5
2F04
330
18
100
AcDbEntity
  8
0
100
AcDbText
 10
1480.681115179304
 20
87.78924658212726
 30
0.0
 40
42.00000000000005
  1
TLV  DC7 (JIS20K)
100
AcDbText
  0
TEXT
  5
2F21
330
18
100
AcDbEntity
  8
0
100
AcDbText
 10
169.7054759898597
 20
429.8097810272842
 30
0.0
 40
51.42857142857148
  1
正面
100
AcDbText
  0
TEXT
  5
2F70
330
18
100
AcDbEntity
  8
0
100
AcDbText
 10
169.7054759898597
 20
746.189300733204
 30
0.0
 40
51.42857142857148
  1
平面
100
AcDbText
  0
TEXT
  5
2F95
330
18
100
AcDbEntity
  8
0
100
AcDbText
 10
169.7054759898597
 20
1134.319894507634
 30
0.0
 40
51.42857142857148
  1
背面
100
AcDbText
  0
LINE
  5
315F
330
18
100
AcDbEntity
  8
0
100
AcDbLine
 10
550.3855730926627
 20
1814.452467493776
 30
0.0
 11
582.7971445212344
 21
1814.452467493776
 31
0.0
  0
LINE
  5
3160
330
18
100
AcDbEntity
  8
0
100
AcDbLine
 10
615.2106445212342
 20
1803.648610350919
 30
0.0
 11
561.1894302355193
 21
1803.648610350919
 31
0.0
  0
TEXT
  5
316A
330
18
100
AcDbEntity
  8
0
100
AcDbText
 10
192.2429671245338
 20
1597.582318486216
 30
0.0
 40
51.42857142857148
  1
正面
100
AcDbText
  0
TEXT
  5
3197
330
18
100
AcDbEntity
  8
0
100
AcDbText
 10
192.2429671245338
 20
1857.342557263448
 30
0.0
 40
51.42857142857148
  1
平面
100
AcDbText
  0
LINE
  5
31AE
330
18
100
AcDbEntity
  8
0
100
AcDbLine
 10
561.1894302355193
 20
1803.648610350919
 30
0.0
 11
550.3855730926627
 21
1814.452467493776
 31
0.0
  0
TEXT
  5
31AF
330
18
100
AcDbEntity
  8
0
100
AcDbText
 10
192.2429671245338
 20
2082.692737764875
 30
0.0
 40
51.42857142857148
  1
背面
100
AcDbText
  0
TEXT
  5
31BE
330
18
100
AcDbEntity
  8
0
100
AcDbText
 10
737.7738316418053
 20
1419.335207089469
 30
0.0
 40
30.00000000000003
  1
15A
 41
0.8
 11
737.7738316418053
 21
1419.335207089469
 31
0.0
100
AcDbText
 73
     1
  0
LINE
  5
324E
330
18
100
AcDbEntity
  8
0
100
AcDbLine
 10
604.1715016640922
 20
1814.452467493776
 30
0.0
 11
615.2106445212342
 21
1803.648610350919
 31
0.0
  0
LINE
  5
3250
330
18
100
AcDbEntity
  8
0
100
AcDbLine
 10
588.2010016640917
 20
1809.050538922347
 30
0.0
 11
604.1715016640922
 21
1809.050538922347
 31
0.0
  0
LINE
  5
3251
330
18
100
AcDbEntity
  8
0
100
AcDbLine
 10
582.7971445212344
 20
1814.452467493776
 30
0.0
 11
588.2010016640917
 21
1809.050538922347
 31
0.0
  0
LINE
  5
3252
330
18
100
AcDbEntity
  8
0
100
AcDbLine
 10
604.1715016640922
 20
1809.050538922347
 30
0.0
 11
604.1715016640922
 21
1814.452467493776
 31
0.0
  0
LINE
  5
3300
330
18
100
AcDbEntity
  8
0
100
AcDbLine
 10
873.6189254182242
 20
2107.319352111369
 30
0.0
 11
857.6484254182236
 21
2107.319352111369
 31
0.0
  0
LINE
  5
3301
330
18
100
AcDbEntity
  8
0
100
AcDbLine
 10
846.6092825610816
 20
2101.917423539942
 30
0.0
 11
900.6304968467963
 21
2101.917423539942
 31
0.0
  0
LINE
  5
3329
330
18
100
AcDbEntity
  8
0
100
AcDbLine
 10
857.6484254182236
 20
2112.721280682798
 30
0.0
 11
846.6092825610816
 21
2101.917423539942
 31
0.0
  0
LINE
  5
3341
330
18
100
AcDbEntity
  8
0
100
AcDbLine
 10
857.6484254182236
 20
2107.319352111369
 30
0.0
 11
857.6484254182236
 21
2112.721280682798
 31
0.0
  0
LINE
  5
3343
330
18
100
AcDbEntity
  8
0
100
AcDbLine
 10
900.6304968467963
 20
2101.917423539942
 30
0.0
 11
911.434353989653
 21
2112.721280682798
 31
0.0
  0
LINE
  5
3344
330
18
100
AcDbEntity
  8
0
100
AcDbLine
 10
911.434353989653
 20
2112.721280682798
 30
0.0
 11
879.0227825610816
 21
2112.721280682798
 31
0.0
  0
LINE
  5
3345
330
18
100
AcDbEntity
  8
0
100
AcDbLine
 10
879.0227825610816
 20
2112.721280682798
 30
0.0
 11
873.6189254182242
 21
2107.319352111369
 31
0.0
  0
LINE
  5
4347
330
18
100
AcDbEntity
  8
0
100
AcDbLine
 10
2232.120438820121
 20
2171.881162132915
 30
0.0
 11
2195.12043882012
 21
2171.881162132915
 31
0.0
  0
ARC
  5
4348
330
18
100
AcDbEntity
  8
0
100
AcDbCircle
 10
2210.620438820121
 20
2122.881162132915
 30
0.0
 40
3.0
100
AcDbArc
 50
90.0
 51
180.0
  0
ARC
  5
4349
330
18
100
AcDbEntity
  8
0
100
AcDbCircle
 10
2189.62043882012
 20
1957.589510886926
 30
0.0
 40
18.0
100
AcDbArc
 50
299.9999999999972
 51
0.0
  0
LINE
  5
434A
330
18
100
AcDbEntity
  8
0
100
AcDbLine
 10
2207.92043882012
 20
2101.381162132915
 30
0.0
 11
2106.320438820121
 21
2101.381162132915
 31
0.0
  0
LINE
  5
434B
330
18
100
AcDbEntity
  8
0
100
AcDbLine
 10
2207.92043882012
 20
1975.881162132914
 30
0.0
 11
2106.320438820121
 21
1975.881162132914
 31
0.0
  0
LINE
  5
434C
330
18
100
AcDbEntity
  8
0
100
AcDbLine
 10
2197.996083167138
 20
1812.422484165939
 30
0.0
 11
2210.12043882012
 21
1805.422484165939
 31
0.0
  0
LINE
  5
434D
330
18
100
AcDbEntity
  8
0
100
AcDbLine
 10
2197.996083167138
 20
1844.42248416594
 30
0.0
 11
2210.12043882012
 21
1851.422484165939
 31
0.0
  0
LINE
  5
434E
330
18
100
AcDbEntity
  8
0
100
AcDbLine
 10
2197.996083167138
 20
1697.336946794242
 30
0.0
 11
2210.12043882012
 21
1704.336946794242
 31
0.0
  0
ARC
  5
434F
330
18
100
AcDbEntity
  8
0
100
AcDbCircle
 10
2210.620438820121
 20
1655.336946794243
 30
0.0
 40
3.0
100
AcDbArc
 50
90.0
 51
180.0
  0
ARC
  5
4350
330
18
100
AcDbEntity
  8
0
100
AcDbCircle
 10
2189.62043882012
 20
1490.045295548254
 30
0.0
 40
18.0
100
AcDbArc
 50
299.9999999999972
 51
0.0
  0
LINE
  5
4351
330
18
100
AcDbEntity
  8
0
100
AcDbLine
 10
2106.320438820121
 20
1633.836946794242
 30
0.0
 11
2207.92043882012
 21
1633.836946794242
 31
0.0
  0
LINE
  5
4352
330
18
100
AcDbEntity
  8
0
100
AcDbLine
 10
2106.320438820121
 20
1508.336946794242
 30
0.0
 11
2207.92043882012
 21
1508.336946794242
 31
0.0
  0
ARC
  5
4353
330
18
100
AcDbEntity
  8
0
100
AcDbCircle
 10
740.4517012356945
 20
1988.523770337072
 30
0.0
 40
73.0
100
AcDbArc
 50
240.0000000000026
 51
299.9999999999972
  0
ARC
  5
4354
330
18
100
AcDbEntity
  8
0
100
AcDbCircle
 10
711.9517012356945
 20
1939.160322321359
 30
0.0
 40
16.0
100
AcDbArc
 50
180.0
 51
240.0000000000026
  0
ARC
  5
4355
330
18
100
AcDbEntity
  8
0
100
AcDbCircle
 10
768.9517012356946
 20
1939.160322321359
 30
0.0
 40
16.0
100
AcDbArc
 50
299.9999999999972
 51
0.0
  0
LINE
  5
4356
330
18
100
AcDbEntity
  8
0
100
AcDbLine
 10
2106.320438820121
 20
1975.881162132914
 30
0.0
 11
2106.320438820121
 21
2101.381162132915
 31
0.0
  0
LINE
  5
4369
330
18
100
AcDbEntity
  8
0
100
AcDbLine
 10
813.7074118965369
 20
526.4156290129667
 30
0.0
 11
813.7074118965369
 21
305.4156290129667
 31
0.0
  0
LINE
  5
436A
330
18
100
AcDbEntity
  8
0
100
AcDbLine
 10
648.507411896537
 20
526.4156290129667
 30
0.0
 11
648.5074118965371
 21
305.4156290129667
 31
0.0
  0
LINE
  5
436B
330
18
100
AcDbEntity
  8
0
100
AcDbLine
 10
747.107411896537
 20
251.4781452974911
 30
0.0
 11
747.107411896537
 21
229.4156290129667
 31
0.0
  0
LINE
  5
436C
330
18
100
AcDbEntity
  8
0
100
AcDbLine
 10
715.1074118965371
 20
251.4781452974911
 30
0.0
 11
715.1074118965371
 21
229.4156290129667
 31
0.0
  0
LINE
  5
436D
330
18
100
AcDbEntity
  8
0
100
AcDbLine
 10
716.1074118965371
 20
228.4156290129667
 30
0.0
 11
746.107411896537
 21
228.4156290129667
 31
0.0
  0
LINE
  5
436E
330
18
100
AcDbEntity
  8
0
100
AcDbLine
 10
715.1074118965371
 20
229.4156290129667
 30
0.0
 11
716.1074118965371
 21
228.4156290129667
 31
0.0
  0
LINE
  5
436F
330
18
100
AcDbEntity
  8
0
100
AcDbLine
 10
746.107411896537
 20
228.4156290129667
 30
0.0
 11
747.107411896537
 21
229.4156290129667
 31
0.0
  0
LINE
  5
4370
330
18
100
AcDbEntity
  8
0
100
AcDbLine
 10
648.2074118965372
 20
305.4156290129667
 30
0.0
 11
814.0074118965371
 21
305.4156290129667
 31
0.0
  0
LINE
  5
4371
330
18
100
AcDbEntity
  8
0
100
AcDbLine
 10
648.5074118965371
 20
305.4156290129667
 30
0.0
 11
813.7074118965369
 21
305.4156290129667
 31
0.0
  0
ARC
  5
4372
330
18
100
AcDbEntity
  8
0
100
AcDbCircle
 10
731.1074118965371
 20
371.4156290129667
 30
0.0
 40
121.0
100
AcDbArc
 50
233.2054543974891
 51
306.7945456025108
  0
LINE
  5
4373
330
18
100
AcDbEntity
  8
0
100
AcDbLine
 10
648.2074118965372
 20
305.4156290129667
 30
0.0
 11
648.2074118965372
 21
295.3407317077453
 31
0.0
  0
ARC
  5
4374
330
18
100
AcDbEntity
  8
0
100
AcDbCircle
 10
674.2074118965372
 20
295.3407317077453
 30
0.0
 40
26.0
100
AcDbArc
 50
180.0
 51
233.2054543974891
  0
LINE
  5
4375
330
18
100
AcDbEntity
  8
0
100
AcDbLine
 10
814.0074118965371
 20
305.4156290129667
 30
0.0
 11
814.0074118965371
 21
295.3407317077453
 31
0.0
  0
ARC
  5
4376
330
18
100
AcDbEntity
  8
0
100
AcDbCircle
 10
788.0074118965372
 20
295.3407317077453
 30
0.0
 40
26.0
100
AcDbArc
 50
306.7945456025108
 51
0.0
  0
LINE
  5
4378
330
18
100
AcDbEntity
  8
0
100
AcDbLine
 10
648.5074118965371
 20
526.4156290129667
 30
0.0
 11
684.607411896537
 21
526.4156290129667
 31
0.0
  0
ARC
  5
437A
330
18
100
AcDbEntity
  8
0
100
AcDbCircle
 10
674.6074118965368
 20
573.4091352326472
 30
0.0
 40
26.0
100
AcDbArc
 50
143.868539015455
 51
180.0
  0
LINE
  5
437B
330
18
100
AcDbEntity
  8
0
100
AcDbLine
 10
648.6074118965371
 20
573.4091352326472
 30
0.0
 11
648.6074118965371
 21
526.4156290129667
 31
0.0
  0
ARC
  5
437E
330
18
100
AcDbEntity
  8
0
100
AcDbCircle
 10
787.607411896537
 20
573.4091352326477
 30
0.0
 40
26.0
100
AcDbArc
 50
0.0
 51
36.13146098454409
  0
LINE
  5
437F
330
18
100
AcDbEntity
  8
0
100
AcDbLine
 10
813.6074118965371
 20
573.4091352326477
 30
0.0
 11
813.6074118965371
 21
526.4156290129667
 31
0.0
  0
LINE
  5
4381
330
18
100
AcDbEntity
  8
0
100
AcDbLine
 10
755.4517012356946
 20
1893.523770337072
 30
0.0
 11
725.4517012356946
 21
1893.523770337072
 31
0.0
  0
LINE
  5
4382
330
18
100
AcDbEntity
  8
0
100
AcDbLine
 10
724.4517012356945
 20
1914.937086759131
 30
0.0
 11
724.4517012356945
 21
1894.523770337072
 31
0.0
  0
LINE
  5
4383
330
18
100
AcDbEntity
  8
0
100
AcDbLine
 10
724.4517012356945
 20
1894.523770337072
 30
0.0
 11
725.4517012356946
 21
1893.523770337072
 31
0.0
  0
ARC
  5
4384
330
18
100
AcDbEntity
  8
0
100
AcDbCircle
 10
721.4517012356946
 20
1914.937086759131
 30
0.0
 40
3.0
100
AcDbArc
 50
0.0
 51
75.52248781407055
  0
LINE
  5
4385
330
18
100
AcDbEntity
  8
0
100
AcDbLine
 10
756.4517012356946
 20
1914.937086759131
 30
0.0
 11
756.4517012356946
 21
1894.523770337072
 31
0.0
  0
LINE
  5
4386
330
18
100
AcDbEntity
  8
0
100
AcDbLine
 10
755.4517012356946
 20
1893.523770337072
 30
0.0
 11
756.4517012356946
 21
1894.523770337072
 31
0.0
  0
ARC
  5
4387
330
18
100
AcDbEntity
  8
0
100
AcDbCircle
 10
759.4517012356946
 20
1914.937086759131
 30
0.0
 40
3.0
100
AcDbArc
 50
104.4775121859294
 51
180.0
  0
LINE
  5
4388
330
18
100
AcDbEntity
  8
0
100
AcDbLine
 10
1194.178448555593
 20
526.4156290129667
 30
0.0
 11
1194.178448555593
 21
305.4156290129667
 31
0.0
  0
LINE
  5
4389
330
18
100
AcDbEntity
  8
0
100
AcDbLine
 10
1028.978448555593
 20
526.4156290129667
 30
0.0
 11
1028.978448555593
 21
305.4156290129667
 31
0.0
  0
LINE
  5
438A
330
18
100
AcDbEntity
  8
0
100
AcDbLine
 10
1381.802955100707
 20
526.4156290129667
 30
0.0
 11
1381.802955100708
 21
305.4156290129667
 31
0.0
  0
LINE
  5
438B
330
18
100
AcDbEntity
  8
0
100
AcDbLine
 10
1547.002955100707
 20
526.4156290129667
 30
0.0
 11
1547.002955100707
 21
305.4156290129667
 31
0.0
  0
LINE
  5
438C
330
18
100
AcDbEntity
  8
0
100
AcDbLine
 10
1095.578448555593
 20
251.4781452974911
 30
0.0
 11
1095.578448555593
 21
229.4156290129667
 31
0.0
  0
LINE
  5
438D
330
18
100
AcDbEntity
  8
0
100
AcDbLine
 10
1127.578448555593
 20
251.4781452974911
 30
0.0
 11
1127.578448555593
 21
229.4156290129667
 31
0.0
  0
LINE
  5
4398
330
18
100
AcDbEntity
  8
0
100
AcDbLine
 10
1096.578448555593
 20
228.4156290129667
 30
0.0
 11
1126.578448555593
 21
228.4156290129667
 31
0.0
  0
LINE
  5
4399
330
18
100
AcDbEntity
  8
0
100
AcDbLine
 10
1095.578448555593
 20
229.4156290129667
 30
0.0
 11
1096.578448555593
 21
228.4156290129667
 31
0.0
  0
LINE
  5
439A
330
18
100
AcDbEntity
  8
0
100
AcDbLine
 10
1126.578448555593
 20
228.4156290129667
 30
0.0
 11
1127.578448555593
 21
229.4156290129667
 31
0.0
  0
LINE
  5
43A2
330
18
100
AcDbEntity
  8
0
100
AcDbLine
 10
1028.978448555593
 20
305.4156290129667
 30
0.0
 11
1194.178448555593
 21
305.4156290129667
 31
0.0
  0
ARC
  5
43A3
330
18
100
AcDbEntity
  8
0
100
AcDbCircle
 10
1111.578448555593
 20
371.4156290129667
 30
0.0
 40
121.0
100
AcDbArc
 50
233.2054543974891
 51
306.7945456025108
  0
LINE
  5
43A4
330
18
100
AcDbEntity
  8
0
100
AcDbLine
 10
1028.678448555593
 20
305.4156290129667
 30
0.0
 11
1194.478448555593
 21
305.4156290129667
 31
0.0
  0
LINE
  5
43A5
330
18
100
AcDbEntity
  8
0
100
AcDbLine
 10
1028.678448555593
 20
305.4156290129667
 30
0.0
 11
1028.678448555593
 21
295.3407317077453
 31
0.0
  0
ARC
  5
43A6
330
18
100
AcDbEntity
  8
0
100
AcDbCircle
 10
1054.678448555593
 20
295.3407317077453
 30
0.0
 40
26.0
100
AcDbArc
 50
180.0
 51
233.2054543974891
  0
LINE
  5
43A7
330
18
100
AcDbEntity
  8
0
100
AcDbLine
 10
1194.478448555593
 20
305.4156290129667
 30
0.0
 11
1194.478448555593
 21
295.3407317077453
 31
0.0
  0
ARC
  5
43A8
330
18
100
AcDbEntity
  8
0
100
AcDbCircle
 10
1168.478448555593
 20
295.3407317077453
 30
0.0
 40
26.0
100
AcDbArc
 50
306.7945456025108
 51
0.0
  0
LINE
  5
43A9
330
18
100
AcDbEntity
  8
0
100
AcDbLine
 10
1448.402955100708
 20
251.4781452974911
 30
0.0
 11
1448.402955100708
 21
229.4156290129667
 31
0.0
  0
LINE
  5
43AA
330
18
100
AcDbEntity
  8
0
100
AcDbLine
 10
1480.402955100708
 20
251.4781452974911
 30
0.0
 11
1480.402955100708
 21
229.4156290129667
 31
0.0
  0
LINE
  5
43AB
330
18
100
AcDbEntity
  8
0
100
AcDbLine
 10
1449.402955100707
 20
228.4156290129667
 30
0.0
 11
1479.402955100708
 21
228.4156290129667
 31
0.0
  0
LINE
  5
43AC
330
18
100
AcDbEntity
  8
0
100
AcDbLine
 10
1448.402955100708
 20
229.4156290129667
 30
0.0
 11
1449.402955100707
 21
228.4156290129667
 31
0.0
  0
LINE
  5
43AD
330
18
100
AcDbEntity
  8
0
100
AcDbLine
 10
1479.402955100708
 20
228.4156290129667
 30
0.0
 11
1480.402955100708
 21
229.4156290129667
 31
0.0
  0
ARC
  5
43AE
330
18
100
AcDbEntity
  8
0
100
AcDbCircle
 10
1464.402955100708
 20
371.4156290129667
 30
0.0
 40
121.0
100
AcDbArc
 50
233.2054543974891
 51
306.7945456025108
  0
LINE
  5
43AF
330
18
100
AcDbEntity
  8
0
100
AcDbLine
 10
1381.802955100708
 20
305.4156290129667
 30
0.0
 11
1547.002955100707
 21
305.4156290129667
 31
0.0
  0
LINE
  5
43B0
330
18
100
AcDbEntity
  8
0
100
AcDbLine
 10
1381.502955100708
 20
305.4156290129667
 30
0.0
 11
1547.302955100708
 21
305.4156290129667
 31
0.0
  0
LINE
  5
43B1
330
18
100
AcDbEntity
  8
0
100
AcDbLine
 10
1381.502955100708
 20
305.4156290129667
 30
0.0
 11
1381.502955100708
 21
295.3407317077453
 31
0.0
  0
ARC
  5
43B2
330
18
100
AcDbEntity
  8
0
100
AcDbCircle
 10
1407.502955100708
 20
295.3407317077453
 30
0.0
 40
26.0
100
AcDbArc
 50
180.0
 51
233.2054543974891
  0
LINE
  5
43B3
330
18
100
AcDbEntity
  8
0
100
AcDbLine
 10
1547.302955100708
 20
305.4156290129667
 30
0.0
 11
1547.302955100708
 21
295.3407317077453
 31
0.0
  0
ARC
  5
43B4
330
18
100
AcDbEntity
  8
0
100
AcDbCircle
 10
1521.302955100708
 20
295.3407317077453
 30
0.0
 40
26.0
100
AcDbArc
 50
306.7945456025108
 51
0.0
  0
ARC
  5
43B5
330
18
100
AcDbEntity
  8
0
100
AcDbCircle
 10
1111.578448555593
 20
778.4638530562881
 30
0.0
 40
82.5
100
AcDbArc
 50
206.6465148842077
 51
335.5253178876496
  0
LINE
  5
43B6
330
18
100
AcDbEntity
  8
0
100
AcDbLine
 10
1178.561069616276
 20
617.9156290129667
 30
0.0
 11
1070.952568230242
 21
617.9156290129667
 31
0.0
  0
LINE
  5
43B7
330
18
100
AcDbEntity
  8
0
100
AcDbLine
 10
1028.978448555593
 20
526.4156290129667
 30
0.0
 11
1194.178448555593
 21
526.4156290129667
 31
0.0
  0
LINE
  5
43B8
330
18
100
AcDbEntity
  8
0
100
AcDbLine
 10
1029.078448555593
 20
526.4156290129667
 30
0.0
 11
1194.078448555593
 21
526.4156290129667
 31
0.0
  0
LINE
  5
43BB
330
18
100
AcDbEntity
  8
0
100
AcDbLine
 10
1001.578448555593
 20
625.4156290129667
 30
0.0
 11
1001.578448555593
 21
551.4156290129667
 31
0.0
  0
LINE
  5
43BC
330
18
100
AcDbEntity
  8
0
100
AcDbLine
 10
1029.078448555593
 20
573.4091352326472
 30
0.0
 11
1029.078448555593
 21
526.4156290129667
 31
0.0
  0
LINE
  5
43BD
330
18
100
AcDbEntity
  8
0
100
AcDbLine
 10
1001.578448555593
 20
551.4156290129667
 30
0.0
 11
1026.078448555593
 21
551.4156290129667
 31
0.0
  0
ARC
  5
43BE
330
18
100
AcDbEntity
  8
0
100
AcDbCircle
 10
1026.078448555593
 20
548.4156290129667
 30
0.0
 40
3.0
100
AcDbArc
 50
0.0
 51
90.0
  0
LINE
  5
43BF
330
18
100
AcDbEntity
  8
0
100
AcDbLine
 10
1001.578448555593
 20
625.4156290129667
 30
0.0
 11
1062.078448555593
 21
625.4156290129667
 31
0.0
  0
ARC
  5
43C0
330
18
100
AcDbEntity
  8
0
100
AcDbCircle
 10
1062.078448555593
 20
619.4156290129667
 30
0.0
 40
6.0
100
AcDbArc
 50
9.594068226864807
 51
90.0
  0
ARC
  5
43C1
330
18
100
AcDbEntity
  8
0
100
AcDbCircle
 10
1070.952568230242
 20
620.9156290129667
 30
0.0
 40
3.0
100
AcDbArc
 50
189.5940682268648
 51
270.0
  0
LINE
  5
43C3
330
18
100
AcDbEntity
  8
0
100
AcDbLine
 10
1191.578448555593
 20
625.4156290129667
 30
0.0
 11
1191.578448555593
 21
584.5334329632911
 31
0.0
  0
LINE
  5
43C4
330
18
100
AcDbEntity
  8
0
100
AcDbLine
 10
1221.578448555593
 20
625.4156290129667
 30
0.0
 11
1221.578448555593
 21
551.4156290129667
 31
0.0
  0
LINE
  5
43C5
330
18
100
AcDbEntity
  8
0
100
AcDbLine
 10
1197.078448555593
 20
551.4156290129667
 30
0.0
 11
1221.578448555593
 21
551.4156290129667
 31
0.0
  0
LINE
  5
43C6
330
18
100
AcDbEntity
  8
0
100
AcDbLine
 10
1194.078448555593
 20
548.4156290129667
 30
0.0
 11
1194.078448555593
 21
526.4156290129667
 31
0.0
  0
ARC
  5
43C7
330
18
100
AcDbEntity
  8
0
100
AcDbCircle
 10
1197.078448555593
 20
548.4156290129667
 30
0.0
 40
3.0
100
AcDbArc
 50
90.0
 51
180.0
  0
LINE
  5
43C8
330
18
100
AcDbEntity
  8
0
100
AcDbLine
 10
1221.578448555593
 20
625.4156290129667
 30
0.0
 11
1191.578448555593
 21
625.4156290129667
 31
0.0
  0
LINE
  5
43C9
330
18
100
AcDbEntity
  8
0
100
AcDbLine
 10
1178.561069616276
 20
617.9156290129667
 30
0.0
 11
1178.561069616276
 21
597.7841570472678
 31
0.0
  0
LINE
  5
43CA
330
18
100
AcDbEntity
  8
0
100
AcDbLine
 10
1191.528069820907
 20
625.4021300716922
 30
0.0
 11
1178.561069616276
 21
617.9156290129667
 31
0.0
  0
ARC
  5
43CC
330
18
100
AcDbEntity
  8
0
100
AcDbCircle
 10
1111.578448555593
 20
778.4638530562881
 30
0.0
 40
82.5
100
AcDbArc
 50
24.47468211235034
 51
153.3534851157922
  0
ARC
  5
43CD
330
18
100
AcDbEntity
  8
0
100
AcDbCircle
 10
1062.078448555593
 20
809.4638530562882
 30
0.0
 40
6.0
100
AcDbArc
 50
9.594068226864807
 51
90.0
  0
LINE
  5
43CE
330
18
100
AcDbEntity
  8
0
100
AcDbLine
 10
1001.578448555593
 20
815.4638530562881
 30
0.0
 11
1001.578448555593
 21
741.4638530562881
 31
0.0
  0
LINE
  5
43CF
330
18
100
AcDbEntity
  8
0
100
AcDbLine
 10
1001.578448555593
 20
741.4638530562881
 30
0.0
 11
1062.078448555593
 21
741.4638530562881
 31
0.0
  0
ARC
  5
43D0
330
18
100
AcDbEntity
  8
0
100
AcDbCircle
 10
1062.078448555593
 20
747.4638530562881
 30
0.0
 40
6.0
100
AcDbArc
 50
270.0
 51
350.4059317731352
  0
ARC
  5
43D1
330
18
100
AcDbEntity
  8
0
100
AcDbCircle
 10
1070.952568230242
 20
745.9638530562881
 30
0.0
 40
3.0
100
AcDbArc
 50
90.0
 51
170.4059317731351
  0
ARC
  5
43D2
330
18
100
AcDbEntity
  8
0
100
AcDbCircle
 10
1070.952568230242
 20
810.9638530562881
 30
0.0
 40
3.0
100
AcDbArc
 50
189.5940682268648
 51
270.0
  0
LINE
  5
43D3
330
18
100
AcDbEntity
  8
0
100
AcDbLine
 10
1001.578448555593
 20
815.4638530562881
 30
0.0
 11
1062.078448555593
 21
815.4638530562881
 31
0.0
  0
LINE
  5
43D4
330
18
100
AcDbEntity
  8
0
100
AcDbLine
 10
1221.578448555593
 20
815.4638530562879
 30
0.0
 11
1221.578448555593
 21
741.4638530562881
 31
0.0
  0
LINE
  5
43D5
330
18
100
AcDbEntity
  8
0
100
AcDbLine
 10
1191.528069820907
 20
815.450354115013
 30
0.0
 11
1178.561069616276
 21
807.9638530562879
 31
0.0
  0
LINE
  5
43D6
330
18
100
AcDbEntity
  8
0
100
AcDbLine
 10
1191.578448555593
 20
815.4638530562879
 30
0.0
 11
1191.578448555593
 21
741.4638530562881
 31
0.0
  0
LINE
  5
43D7
330
18
100
AcDbEntity
  8
0
100
AcDbLine
 10
1191.578448555593
 20
741.4638530562881
 30
0.0
 11
1221.578448555593
 21
741.4638530562881
 31
0.0
  0
LINE
  5
43D8
330
18
100
AcDbEntity
  8
0
100
AcDbLine
 10
1178.561069616276
 20
748.9638530562883
 30
0.0
 11
1141.078448555593
 21
748.9638530562883
 31
0.0
  0
LINE
  5
43D9
330
18
100
AcDbEntity
  8
0
100
AcDbLine
 10
1191.528069820907
 20
741.4773519975631
 30
0.0
 11
1178.561069616276
 21
748.9638530562883
 31
0.0
  0
LINE
  5
43DA
330
18
100
AcDbEntity
  8
0
100
AcDbLine
 10
1178.561069616276
 20
807.9638530562879
 30
0.0
 11
1141.078448555593
 21
807.9638530562879
 31
0.0
  0
LINE
  5
43DB
330
18
100
AcDbEntity
  8
0
100
AcDbLine
 10
1221.578448555593
 20
815.4638530562879
 30
0.0
 11
1191.578448555593
 21
815.4638530562879
 31
0.0
  0
LINE
  5
43DD
330
18
100
AcDbEntity
  8
0
100
AcDbLine
 10
1381.802955100708
 20
526.4156290129667
 30
0.0
 11
1417.902955100708
 21
526.4156290129667
 31
0.0
  0
ARC
  5
43DE
330
18
100
AcDbEntity
  8
0
100
AcDbCircle
 10
1407.902955100707
 20
573.4091352326472
 30
0.0
 40
26.0
100
AcDbArc
 50
143.868539015455
 51
180.0
  0
LINE
  5
43E0
330
18
100
AcDbEntity
  8
0
100
AcDbLine
 10
1381.902955100708
 20
573.4091352326472
 30
0.0
 11
1381.902955100708
 21
526.4156290129667
 31
0.0
  0
ARC
  5
43E3
330
18
100
AcDbEntity
  8
0
100
AcDbCircle
 10
1520.902955100708
 20
573.4091352326477
 30
0.0
 40
26.0
100
AcDbArc
 50
0.0
 51
36.13146098454409
  0
LINE
  5
43E4
330
18
100
AcDbEntity
  8
0
100
AcDbLine
 10
1546.902955100708
 20
573.4091352326477
 30
0.0
 11
1546.902955100708
 21
526.4156290129667
 31
0.0
  0
ARC
  5
43E6
330
18
100
AcDbEntity
  8
0
100
AcDbCircle
 10
2157.120438820121
 20
2013.881162132915
 30
0.0
 40
83.0
100
AcDbArc
 50
240.0000000000026
 51
299.9999999999972
  0
LINE
  5
43E7
330
18
100
AcDbEntity
  8
0
100
AcDbLine
 10
2207.620438820121
 20
1975.881162132914
 30
0.0
 11
2106.620438820121
 21
1975.881162132914
 31
0.0
  0
LINE
  5
43E8
330
18
100
AcDbEntity
  8
0
100
AcDbLine
 10
2106.620438820121
 20
1957.589510886926
 30
0.0
 11
2106.620438820121
 21
1975.881162132914
 31
0.0
  0
ARC
  5
43E9
330
18
100
AcDbEntity
  8
0
100
AcDbCircle
 10
2124.620438820121
 20
1957.589510886926
 30
0.0
 40
18.0
100
AcDbArc
 50
180.0
 51
240.0000000000026
  0
LINE
  5
43EA
330
18
100
AcDbEntity
  8
0
100
AcDbLine
 10
2207.620438820121
 20
1957.589510886926
 30
0.0
 11
2207.620438820121
 21
1975.881162132914
 31
0.0
  0
LINE
  5
43EB
330
18
100
AcDbEntity
  8
0
100
AcDbLine
 10
2172.12043882012
 20
1908.881162132915
 30
0.0
 11
2142.12043882012
 21
1908.881162132915
 31
0.0
  0
LINE
  5
43EC
330
18
100
AcDbEntity
  8
0
100
AcDbLine
 10
2141.120438820121
 20
1909.881162132914
 30
0.0
 11
2141.120438820121
 21
1930.006255277526
 31
0.0
  0
LINE
  5
43ED
330
18
100
AcDbEntity
  8
0
100
AcDbLine
 10
2142.12043882012
 20
1908.881162132915
 30
0.0
 11
2141.120438820121
 21
1909.881162132914
 31
0.0
  0
ARC
  5
43EE
330
18
100
AcDbEntity
  8
0
100
AcDbCircle
 10
2138.12043882012
 20
1930.006255277526
 30
0.0
 40
3.0
100
AcDbArc
 50
0.0
 51
77.23632410755765
  0
LINE
  5
43EF
330
18
100
AcDbEntity
  8
0
100
AcDbLine
 10
2173.120438820121
 20
1909.881162132914
 30
0.0
 11
2173.120438820121
 21
1930.006255277526
 31
0.0
  0
LINE
  5
43F0
330
18
100
AcDbEntity
  8
0
100
AcDbLine
 10
2173.120438820121
 20
1909.881162132914
 30
0.0
 11
2172.12043882012
 21
1908.881162132915
 31
0.0
  0
ARC
  5
43F1
330
18
100
AcDbEntity
  8
0
100
AcDbCircle
 10
2176.12043882012
 20
1930.006255277526
 30
0.0
 40
3.0
100
AcDbArc
 50
102.7636758924423
 51
180.0
  0
LINE
  5
43F3
330
18
100
AcDbEntity
  8
0
100
AcDbLine
 10
805.4517012356946
 20
2122.573770337072
 30
0.0
 11
774.9517012356946
 21
2122.573770337072
 31
0.0
  0
LINE
  5
43F4
330
18
100
AcDbEntity
  8
0
100
AcDbLine
 10
784.9517012356946
 20
2059.023770337072
 30
0.0
 11
695.9517012356946
 21
2059.023770337072
 31
0.0
  0
LINE
  5
43F5
330
18
100
AcDbEntity
  8
0
100
AcDbLine
 10
785.0017012356945
 20
2059.023770337072
 30
0.0
 11
695.9017012356946
 21
2059.023770337072
 31
0.0
  0
LINE
  5
43F6
330
18
100
AcDbEntity
  8
0
100
AcDbLine
 10
784.9517012356946
 20
1955.523770337072
 30
0.0
 11
695.9517012356946
 21
1955.523770337072
 31
0.0
  0
LINE
  5
43F7
330
18
100
AcDbEntity
  8
0
100
AcDbLine
 10
785.0017012356945
 20
1955.523770337072
 30
0.0
 11
695.9017012356946
 21
1955.523770337072
 31
0.0
  0
LINE
  5
43F8
330
18
100
AcDbEntity
  8
0
100
AcDbLine
 10
776.9727938499028
 20
1818.908358075619
 30
0.0
 11
787.4517012356946
 21
1824.958358075619
 31
0.0
  0
LINE
  5
43F9
330
18
100
AcDbEntity
  8
0
100
AcDbLine
 10
776.9727938499028
 20
1792.908358075619
 30
0.0
 11
787.4517012356946
 21
1786.858358075619
 31
0.0
  0
ARC
  5
43FA
330
18
100
AcDbEntity
  8
0
100
AcDbCircle
 10
740.4517012356945
 20
1805.908358075619
 30
0.0
 40
44.5
100
AcDbArc
 50
205.346400557402
 51
339.053297979784
  0
ARC
  5
43FE
330
18
100
AcDbEntity
  8
0
100
AcDbCircle
 10
740.4517012356945
 20
1805.908358075619
 30
0.0
 40
44.5
100
AcDbArc
 50
20.94670202021596
 51
154.6535994425978
  0
LINE
  5
4407
330
18
100
AcDbEntity
  8
0
100
AcDbLine
 10
695.9017012356946
 20
2059.023770337072
 30
0.0
 11
695.9017012356946
 21
1955.523770337072
 31
0.0
  0
LINE
  5
4408
330
18
100
AcDbEntity
  8
0
100
AcDbLine
 10
695.9517012356946
 20
1939.160322321359
 30
0.0
 11
695.9517012356946
 21
1955.523770337072
 31
0.0
  0
ARC
  5
4409
330
18
100
AcDbEntity
  8
0
100
AcDbCircle
 10
692.9517012356945
 20
2081.473770337072
 30
0.0
 40
3.0
100
AcDbArc
 50
0.0
 51
90.0
  0
LINE
  5
440A
330
18
100
AcDbEntity
  8
0
100
AcDbLine
 10
703.9306086214864
 20
2116.523770337072
 30
0.0
 11
693.4517012356946
 21
2122.573770337072
 31
0.0
  0
LINE
  5
440B
330
18
100
AcDbEntity
  8
0
100
AcDbLine
 10
675.4517012356946
 20
2122.573770337072
 30
0.0
 11
675.4517012356946
 21
2084.473770337072
 31
0.0
  0
LINE
  5
440C
330
18
100
AcDbEntity
  8
0
100
AcDbLine
 10
693.4517012356946
 20
2122.573770337072
 30
0.0
 11
693.4517012356946
 21
2084.473770337072
 31
0.0
  0
LINE
  5
440D
330
18
100
AcDbEntity
  8
0
100
AcDbLine
 10
693.4517012356946
 20
2084.473770337072
 30
0.0
 11
675.4517012356946
 21
2084.473770337072
 31
0.0
  0
LINE
  5
440E
330
18
100
AcDbEntity
  8
0
100
AcDbLine
 10
693.4517012356946
 20
2122.573770337072
 30
0.0
 11
675.4517012356946
 21
2122.573770337072
 31
0.0
  0
LINE
  5
4411
330
18
100
AcDbEntity
  8
0
100
AcDbLine
 10
695.9517012356946
 20
2081.473770337072
 30
0.0
 11
695.9517012356946
 21
2059.023770337072
 31
0.0
  0
LINE
  5
4413
330
18
100
AcDbEntity
  8
0
100
AcDbLine
 10
765.128387130974
 20
2116.523770337072
 30
0.0
 11
703.9306086214865
 21
2116.523770337072
 31
0.0
  0
LINE
  5
4415
330
18
100
AcDbEntity
  8
0
100
AcDbLine
 10
703.9306086214865
 20
2116.523770337072
 30
0.0
 11
703.9306086214865
 21
2106.731425562817
 31
0.0
  0
ARC
  5
4416
330
18
100
AcDbEntity
  8
0
100
AcDbCircle
 10
765.128387130974
 20
2119.523770337072
 30
0.0
 40
3.0
100
AcDbArc
 50
270.0
 51
333.2563160495932
  0
ARC
  5
4417
330
18
100
AcDbEntity
  8
0
100
AcDbCircle
 10
774.9517012356946
 20
2114.573770337072
 30
0.0
 40
8.0
100
AcDbArc
 50
90.0
 51
153.2563160495933
  0
LINE
  5
4418
330
18
100
AcDbEntity
  8
0
100
AcDbLine
 10
409.9875619569206
 20
1653.012352080902
 30
0.0
 11
409.9875619569206
 21
1549.512352080902
 31
0.0
  0
LINE
  5
4419
330
18
100
AcDbEntity
  8
0
100
AcDbLine
 10
499.0875619569205
 20
1653.012352080902
 30
0.0
 11
499.0875619569205
 21
1549.512352080902
 31
0.0
  0
LINE
  5
441A
330
18
100
AcDbEntity
  8
0
100
AcDbLine
 10
410.0375619569206
 20
1549.512352080902
 30
0.0
 11
499.0375619569205
 21
1549.512352080902
 31
0.0
  0
ARC
  5
441B
330
18
100
AcDbEntity
  8
0
100
AcDbCircle
 10
454.5375619569206
 20
1582.512352080902
 30
0.0
 40
73.0
100
AcDbArc
 50
240.0000000000026
 51
299.9999999999972
  0
LINE
  5
441C
330
18
100
AcDbEntity
  8
0
100
AcDbLine
 10
409.9875619569206
 20
1549.512352080902
 30
0.0
 11
499.0875619569205
 21
1549.512352080902
 31
0.0
  0
LINE
  5
441D
330
18
100
AcDbEntity
  8
0
100
AcDbLine
 10
410.0375619569206
 20
1533.148904065189
 30
0.0
 11
410.0375619569206
 21
1549.512352080902
 31
0.0
  0
ARC
  5
441E
330
18
100
AcDbEntity
  8
0
100
AcDbCircle
 10
426.0375619569206
 20
1533.148904065189
 30
0.0
 40
16.0
100
AcDbArc
 50
180.0
 51
240.0000000000026
  0
LINE
  5
441F
330
18
100
AcDbEntity
  8
0
100
AcDbLine
 10
439.5375619569206
 20
1487.512352080902
 30
0.0
 11
469.5375619569206
 21
1487.512352080902
 31
0.0
  0
ARC
  5
4420
330
18
100
AcDbEntity
  8
0
100
AcDbCircle
 10
435.5375619569206
 20
1508.925668502961
 30
0.0
 40
3.0
100
AcDbArc
 50
0.0
 51
75.52248781407055
  0
LINE
  5
4421
330
18
100
AcDbEntity
  8
0
100
AcDbLine
 10
439.5375619569206
 20
1487.512352080902
 30
0.0
 11
438.5375619569206
 21
1488.512352080902
 31
0.0
  0
LINE
  5
4422
330
18
100
AcDbEntity
  8
0
100
AcDbLine
 10
438.5375619569206
 20
1508.925668502961
 30
0.0
 11
438.5375619569206
 21
1488.512352080902
 31
0.0
  0
ARC
  5
4423
330
18
100
AcDbEntity
  8
0
100
AcDbCircle
 10
473.5375619569206
 20
1508.925668502961
 30
0.0
 40
3.0
100
AcDbArc
 50
104.4775121859294
 51
180.0
  0
LINE
  5
4424
330
18
100
AcDbEntity
  8
0
100
AcDbLine
 10
470.5375619569206
 20
1488.512352080902
 30
0.0
 11
469.5375619569206
 21
1487.512352080902
 31
0.0
  0
LINE
  5
4425
330
18
100
AcDbEntity
  8
0
100
AcDbLine
 10
470.5375619569206
 20
1508.925668502961
 30
0.0
 11
470.5375619569206
 21
1488.512352080902
 31
0.0
  0
LINE
  5
4426
330
18
100
AcDbEntity
  8
0
100
AcDbLine
 10
499.0375619569205
 20
1533.148904065189
 30
0.0
 11
499.0375619569205
 21
1549.512352080902
 31
0.0
  0
ARC
  5
4427
330
18
100
AcDbEntity
  8
0
100
AcDbCircle
 10
483.0375619569206
 20
1533.148904065189
 30
0.0
 40
16.0
100
AcDbArc
 50
299.9999999999972
 51
0.0
  0
LINE
  5
4428
330
18
100
AcDbEntity
  8
0
100
AcDbLine
 10
410.0375619569206
 20
1653.012352080902
 30
0.0
 11
437.9243142310844
 21
1653.012352080902
 31
0.0
  0
LINE
  5
4429
330
18
100
AcDbEntity
  8
0
100
AcDbLine
 10
409.9875619569206
 20
1653.012352080902
 30
0.0
 11
437.9243142310849
 21
1653.012352080902
 31
0.0
  0
LINE
  5
442A
330
18
100
AcDbEntity
  8
0
100
AcDbLine
 10
410.0375619569206
 20
1653.012352080902
 30
0.0
 11
437.9243142310844
 21
1653.012352080902
 31
0.0
  0
LINE
  5
442B
330
18
100
AcDbEntity
  8
0
100
AcDbLine
 10
410.0375619569206
 20
1680.899104355066
 30
0.0
 11
410.0375619569206
 21
1653.012352080902
 31
0.0
  0
LINE
  5
442C
330
18
100
AcDbEntity
  8
0
100
AcDbLine
 10
499.0375619569207
 20
1680.899104355066
 30
0.0
 11
499.0375619569205
 21
1653.012352080902
 31
0.0
  0
LINE
  5
4440
330
18
100
AcDbEntity
  8
0
100
AcDbLine
 10
675.4517012356946
 20
1824.958358075619
 30
0.0
 11
675.4517012356946
 21
1786.858358075619
 31
0.0
  0
LINE
  5
4441
330
18
100
AcDbEntity
  8
0
100
AcDbLine
 10
675.4517012356946
 20
1786.858358075619
 30
0.0
 11
705.9517012356946
 21
1786.858358075619
 31
0.0
  0
ARC
  5
4449
330
18
100
AcDbEntity
  8
0
100
AcDbCircle
 10
715.7750153404151
 20
1789.908358075619
 30
0.0
 40
3.0
100
AcDbArc
 50
90.0
 51
153.2563160495933
  0
ARC
  5
444A
330
18
100
AcDbEntity
  8
0
100
AcDbCircle
 10
705.9517012356946
 20
1794.858358075619
 30
0.0
 40
8.0
100
AcDbArc
 50
270.0
 51
333.2563160495932
  0
LINE
  5
444B
330
18
100
AcDbEntity
  8
0
100
AcDbLine
 10
753.4517012356945
 20
1792.908358075619
 30
0.0
 11
776.9727938499027
 21
1792.908358075619
 31
0.0
  0
LINE
  5
444C
330
18
100
AcDbEntity
  8
0
100
AcDbLine
 10
675.4517012356946
 20
1824.958358075619
 30
0.0
 11
705.9517012356946
 21
1824.958358075619
 31
0.0
  0
ARC
  5
444D
330
18
100
AcDbEntity
  8
0
100
AcDbCircle
 10
715.7750153404151
 20
1821.908358075619
 30
0.0
 40
3.0
100
AcDbArc
 50
206.7436839504066
 51
270.0
  0
ARC
  5
444E
330
18
100
AcDbEntity
  8
0
100
AcDbCircle
 10
705.9517012356946
 20
1816.958358075619
 30
0.0
 40
8.0
100
AcDbArc
 50
26.74368395040668
 51
90.0
  0
LINE
  5
444F
330
18
100
AcDbEntity
  8
0
100
AcDbLine
 10
753.4517012356945
 20
1818.908358075619
 30
0.0
 11
776.9727938499028
 21
1818.908358075619
 31
0.0
  0
LINE
  5
4451
330
18
100
AcDbEntity
  8
0
100
AcDbLine
 10
2082.12043882012
 20
1704.336946794242
 30
0.0
 11
2082.12043882012
 21
1658.336946794243
 31
0.0
  0
LINE
  5
445B
330
18
100
AcDbEntity
  8
0
100
AcDbLine
 10
1814.140983631622
 20
1633.836946794242
 30
0.0
 11
1824.320791608442
 21
1633.836946794242
 31
0.0
  0
ARC
  5
445C
330
18
100
AcDbEntity
  8
0
100
AcDbCircle
 10
1864.940983631622
 20
1546.336946794242
 30
0.0
 40
83.0
100
AcDbArc
 50
240.0000000000026
 51
299.9999999999972
  0
LINE
  5
445D
330
18
100
AcDbEntity
  8
0
100
AcDbLine
 10
1814.440983631622
 20
1508.336946794242
 30
0.0
 11
1915.440983631622
 21
1508.336946794242
 31
0.0
  0
LINE
  5
445E
330
18
100
AcDbEntity
  8
0
100
AcDbLine
 10
1814.140983631622
 20
1508.336946794242
 30
0.0
 11
1915.740983631622
 21
1508.336946794242
 31
0.0
  0
LINE
  5
445F
330
18
100
AcDbEntity
  8
0
100
AcDbLine
 10
785.0017012356945
 20
2059.023770337072
 30
0.0
 11
785.0017012356945
 21
1955.523770337072
 31
0.0
  0
LINE
  5
4460
330
18
100
AcDbEntity
  8
0
100
AcDbLine
 10
784.9517012356946
 20
1939.160322321359
 30
0.0
 11
784.9517012356946
 21
1955.523770337072
 31
0.0
  0
LINE
  5
4461
330
18
100
AcDbEntity
  8
0
100
AcDbLine
 10
805.4517012356946
 20
2122.573770337072
 30
0.0
 11
805.4517012356946
 21
2084.473770337072
 31
0.0
  0
LINE
  5
4462
330
18
100
AcDbEntity
  8
0
100
AcDbLine
 10
784.9517012356946
 20
2092.887218352785
 30
0.0
 11
784.9517012356946
 21
2059.023770337072
 31
0.0
  0
LINE
  5
4463
330
18
100
AcDbEntity
  8
0
100
AcDbLine
 10
805.4517012356946
 20
2084.473770337072
 30
0.0
 11
787.9517012356946
 21
2084.473770337072
 31
0.0
  0
ARC
  5
4464
330
18
100
AcDbEntity
  8
0
100
AcDbCircle
 10
787.9517012356946
 20
2081.473770337072
 30
0.0
 40
3.0
100
AcDbArc
 50
90.0
 51
180.0
  0
LINE
  5
4465
330
18
100
AcDbEntity
  8
0
100
AcDbLine
 10
918.1433292827398
 20
1653.012352080902
 30
0.0
 11
946.0300815569038
 21
1653.012352080902
 31
0.0
  0
LINE
  5
4466
330
18
100
AcDbEntity
  8
0
100
AcDbLine
 10
918.0933292827399
 20
1653.012352080902
 30
0.0
 11
946.0300815569041
 21
1653.012352080902
 31
0.0
  0
LINE
  5
4467
330
18
100
AcDbEntity
  8
0
100
AcDbLine
 10
918.1433292827398
 20
1653.012352080902
 30
0.0
 11
946.0300815569038
 21
1653.012352080902
 31
0.0
  0
LINE
  5
4468
330
18
100
AcDbEntity
  8
0
100
AcDbLine
 10
918.0933292827399
 20
1549.512352080902
 30
0.0
 11
1007.193329282739
 21
1549.512352080902
 31
0.0
  0
ARC
  5
4469
330
18
100
AcDbEntity
  8
0
100
AcDbCircle
 10
962.6433292827398
 20
1582.512352080902
 30
0.0
 40
73.0
100
AcDbArc
 50
240.0000000000026
 51
299.9999999999972
  0
LINE
  5
446A
330
18
100
AcDbEntity
  8
0
100
AcDbLine
 10
918.1433292827398
 20
1549.512352080902
 30
0.0
 11
1007.143329282739
 21
1549.512352080902
 31
0.0
  0
LINE
  5
446C
330
18
100
AcDbEntity
  8
0
100
AcDbLine
 10
918.0933292827399
 20
1653.012352080902
 30
0.0
 11
918.0933292827399
 21
1549.512352080902
 31
0.0
  0
LINE
  5
446E
330
18
100
AcDbEntity
  8
0
100
AcDbLine
 10
947.6433292827397
 20
1487.512352080902
 30
0.0
 11
977.6433292827398
 21
1487.512352080902
 31
0.0
  0
ARC
  5
446F
330
18
100
AcDbEntity
  8
0
100
AcDbCircle
 10
943.6433292827398
 20
1508.925668502961
 30
0.0
 40
3.0
100
AcDbArc
 50
0.0
 51
75.52248781407055
  0
LINE
  5
4470
330
18
100
AcDbEntity
  8
0
100
AcDbLine
 10
947.6433292827397
 20
1487.512352080902
 30
0.0
 11
946.6433292827398
 21
1488.512352080902
 31
0.0
  0
LINE
  5
4471
330
18
100
AcDbEntity
  8
0
100
AcDbLine
 10
946.6433292827398
 20
1508.925668502961
 30
0.0
 11
946.6433292827398
 21
1488.512352080902
 31
0.0
  0
ARC
  5
4472
330
18
100
AcDbEntity
  8
0
100
AcDbCircle
 10
981.6433292827397
 20
1508.925668502961
 30
0.0
 40
3.0
100
AcDbArc
 50
104.4775121859294
 51
180.0
  0
LINE
  5
4473
330
18
100
AcDbEntity
  8
0
100
AcDbLine
 10
978.6433292827398
 20
1488.512352080902
 30
0.0
 11
977.6433292827398
 21
1487.512352080902
 31
0.0
  0
LINE
  5
4474
330
18
100
AcDbEntity
  8
0
100
AcDbLine
 10
978.6433292827398
 20
1508.925668502961
 30
0.0
 11
978.6433292827398
 21
1488.512352080902
 31
0.0
  0
LINE
  5
4475
330
18
100
AcDbEntity
  8
0
100
AcDbLine
 10
918.1433292827398
 20
1533.148904065189
 30
0.0
 11
918.1433292827398
 21
1549.512352080902
 31
0.0
  0
ARC
  5
4476
330
18
100
AcDbEntity
  8
0
100
AcDbCircle
 10
934.1433292827398
 20
1533.148904065189
 30
0.0
 40
16.0
100
AcDbArc
 50
180.0
 51
240.0000000000026
  0
LINE
  5
447A
330
18
100
AcDbEntity
  8
0
100
AcDbLine
 10
918.1433292827398
 20
1680.899104355066
 30
0.0
 11
918.1433292827398
 21
1653.012352080902
 31
0.0
  0
LINE
  5
447B
330
18
100
AcDbEntity
  8
0
100
AcDbLine
 10
1814.140983631622
 20
1508.336946794242
 30
0.0
 11
1814.140983631622
 21
1633.836946794242
 31
0.0
  0
LINE
  5
447C
330
18
100
AcDbEntity
  8
0
100
AcDbLine
 10
1007.193329282739
 20
1653.012352080902
 30
0.0
 11
1007.193329282739
 21
1549.512352080902
 31
0.0
  0
LINE
  5
447D
330
18
100
AcDbEntity
  8
0
100
AcDbLine
 10
1007.143329282739
 20
1533.148904065189
 30
0.0
 11
1007.143329282739
 21
1549.512352080902
 31
0.0
  0
ARC
  5
447E
330
18
100
AcDbEntity
  8
0
100
AcDbCircle
 10
991.1433292827398
 20
1533.148904065189
 30
0.0
 40
16.0
100
AcDbArc
 50
299.9999999999972
 51
0.0
  0
LINE
  5
447F
330
18
100
AcDbEntity
  8
0
100
AcDbLine
 10
1814.440983631622
 20
1490.045295548254
 30
0.0
 11
1814.440983631622
 21
1508.336946794242
 31
0.0
  0
ARC
  5
4480
330
18
100
AcDbEntity
  8
0
100
AcDbCircle
 10
1832.440983631622
 20
1490.045295548254
 30
0.0
 40
18.0
100
AcDbArc
 50
180.0
 51
240.0000000000026
  0
LINE
  5
4481
330
18
100
AcDbEntity
  8
0
100
AcDbLine
 10
1007.14332928274
 20
1680.899104355066
 30
0.0
 11
1007.143329282739
 21
1653.012352080902
 31
0.0
  0
LINE
  5
4482
330
18
100
AcDbEntity
  8
0
100
AcDbLine
 10
1814.440983631622
 20
1644.513041515198
 30
0.0
 11
1814.440983631622
 21
1633.836946794242
 31
0.0
  0
LINE
  5
4483
330
18
100
AcDbEntity
  8
0
100
AcDbLine
 10
2173.120438820121
 20
1442.336946794242
 30
0.0
 11
2173.120438820121
 21
1462.462039938854
 31
0.0
  0
LINE
  5
4484
330
18
100
AcDbEntity
  8
0
100
AcDbLine
 10
2141.120438820121
 20
1442.336946794242
 30
0.0
 11
2141.120438820121
 21
1462.462039938854
 31
0.0
  0
LINE
  5
4485
330
18
100
AcDbEntity
  8
0
100
AcDbLine
 10
1880.940983631622
 20
1442.336946794242
 30
0.0
 11
1880.940983631622
 21
1462.462039938854
 31
0.0
  0
LINE
  5
4486
330
18
100
AcDbEntity
  8
0
100
AcDbLine
 10
1848.940983631622
 20
1442.336946794242
 30
0.0
 11
1848.940983631622
 21
1462.462039938854
 31
0.0
  0
LINE
  5
4487
330
18
100
AcDbEntity
  8
0
100
AcDbLine
 10
1849.940983631622
 20
1441.336946794242
 30
0.0
 11
1879.940983631622
 21
1441.336946794242
 31
0.0
  0
LINE
  5
4488
330
18
100
AcDbEntity
  8
0
100
AcDbLine
 10
1848.940983631622
 20
1442.336946794242
 30
0.0
 11
1849.940983631622
 21
1441.336946794242
 31
0.0
  0
LINE
  5
4489
330
18
100
AcDbEntity
  8
0
100
AcDbLine
 10
1879.940983631622
 20
1441.336946794242
 30
0.0
 11
1880.940983631622
 21
1442.336946794242
 31
0.0
  0
LINE
  5
448A
330
18
100
AcDbEntity
  8
0
100
AcDbLine
 10
2082.12043882012
 20
2171.881162132915
 30
0.0
 11
2082.12043882012
 21
2125.881162132915
 31
0.0
  0
LINE
  5
448B
330
18
100
AcDbEntity
  8
0
100
AcDbLine
 10
2104.120438820121
 20
2171.881162132915
 30
0.0
 11
2104.120438820121
 21
2125.881162132915
 31
0.0
  0
LINE
  5
448D
330
18
100
AcDbEntity
  8
0
100
AcDbLine
 10
2207.620438820121
 20
2101.381162132915
 30
0.0
 11
2106.620438820121
 21
2101.381162132915
 31
0.0
  0
LINE
  5
448E
330
18
100
AcDbEntity
  8
0
100
AcDbLine
 10
2103.62043882012
 20
2125.881162132915
 30
0.0
 11
2082.12043882012
 21
2125.881162132915
 31
0.0
  0
LINE
  5
448F
330
18
100
AcDbEntity
  8
0
100
AcDbLine
 10
2106.620438820121
 20
2122.881162132915
 30
0.0
 11
2106.620438820121
 21
2101.381162132915
 31
0.0
  0
ARC
  5
4490
330
18
100
AcDbEntity
  8
0
100
AcDbCircle
 10
2103.62043882012
 20
2122.881162132915
 30
0.0
 40
3.0
100
AcDbArc
 50
0.0
 51
90.0
  0
LINE
  5
4491
330
18
100
AcDbEntity
  8
0
100
AcDbLine
 10
2207.620438820121
 20
2139.398400950356
 30
0.0
 11
2207.620438820121
 21
2101.381162132915
 31
0.0
  0
LINE
  5
4493
330
18
100
AcDbEntity
  8
0
100
AcDbLine
 10
2184.537433575862
 20
2164.881162132915
 30
0.0
 11
2116.244794473103
 21
2164.881162132915
 31
0.0
  0
LINE
  5
4494
330
18
100
AcDbEntity
  8
0
100
AcDbLine
 10
2104.120438820121
 20
2171.881162132915
 30
0.0
 11
2082.12043882012
 21
2171.881162132915
 31
0.0
  0
LINE
  5
4495
330
18
100
AcDbEntity
  8
0
100
AcDbLine
 10
2116.244794473103
 20
2164.881162132915
 30
0.0
 11
2116.244794473103
 21
2154.192093312347
 31
0.0
  0
LINE
  5
4496
330
18
100
AcDbEntity
  8
0
100
AcDbLine
 10
2116.244794473103
 20
2164.881162132915
 30
0.0
 11
2104.120438820121
 21
2171.881162132915
 31
0.0
  0
ARC
  5
4498
330
18
100
AcDbEntity
  8
0
100
AcDbCircle
 10
2184.537433575862
 20
2167.881162132915
 30
0.0
 40
3.0
100
AcDbArc
 50
270.0
 51
336.9643158940635
  0
ARC
  5
4499
330
18
100
AcDbEntity
  8
0
100
AcDbCircle
 10
2195.12043882012
 20
2163.381162132915
 30
0.0
 40
8.5
100
AcDbArc
 50
90.0
 51
156.9643158940635
  0
LINE
  5
449A
330
18
100
AcDbEntity
  8
0
100
AcDbLine
 10
2142.12043882012
 20
1441.336946794242
 30
0.0
 11
2172.12043882012
 21
1441.336946794242
 31
0.0
  0
LINE
  5
449B
330
18
100
AcDbEntity
  8
0
100
AcDbLine
 10
2141.120438820121
 20
1442.336946794242
 30
0.0
 11
2142.12043882012
 21
1441.336946794242
 31
0.0
  0
LINE
  5
449C
330
18
100
AcDbEntity
  8
0
100
AcDbLine
 10
2172.12043882012
 20
1441.336946794242
 30
0.0
 11
2173.120438820121
 21
1442.336946794242
 31
0.0
  0
LINE
  5
449D
330
18
100
AcDbEntity
  8
0
100
AcDbLine
 10
1915.740983631622
 20
1508.336946794242
 30
0.0
 11
1915.740983631622
 21
1633.836946794242
 31
0.0
  0
LINE
  5
449E
330
18
100
AcDbEntity
  8
0
100
AcDbLine
 10
1915.440983631622
 20
1490.045295548254
 30
0.0
 11
1915.440983631622
 21
1508.336946794242
 31
0.0
  0
ARC
  5
449F
330
18
100
AcDbEntity
  8
0
100
AcDbCircle
 10
1845.940983631622
 20
1462.462039938854
 30
0.0
 40
3.0
100
AcDbArc
 50
0.0
 51
77.23632410755765
  0
ARC
  5
44A0
330
18
100
AcDbEntity
  8
0
100
AcDbCircle
 10
1897.440983631622
 20
1490.045295548254
 30
0.0
 40
18.0
100
AcDbArc
 50
299.9999999999972
 51
0.0
  0
ARC
  5
44A1
330
18
100
AcDbEntity
  8
0
100
AcDbCircle
 10
1883.940983631622
 20
1462.462039938854
 30
0.0
 40
3.0
100
AcDbArc
 50
102.7636758924423
 51
180.0
  0
LINE
  5
44A2
330
18
100
AcDbEntity
  8
0
100
AcDbLine
 10
1915.440983631622
 20
1644.513041515199
 30
0.0
 11
1915.440983631622
 21
1633.836946794242
 31
0.0
  0
LINE
  5
44A3
330
18
100
AcDbEntity
  8
0
100
AcDbLine
 10
2106.320438820121
 20
1508.336946794242
 30
0.0
 11
2106.320438820121
 21
1633.836946794242
 31
0.0
  0
ARC
  5
44A4
330
18
100
AcDbEntity
  8
0
100
AcDbCircle
 10
2157.120438820121
 20
1546.336946794242
 30
0.0
 40
83.0
100
AcDbArc
 50
240.0000000000026
 51
299.9999999999972
  0
LINE
  5
44A5
330
18
100
AcDbEntity
  8
0
100
AcDbLine
 10
2106.620438820121
 20
1508.336946794242
 30
0.0
 11
2207.620438820121
 21
1508.336946794242
 31
0.0
  0
LINE
  5
44A6
330
18
100
AcDbEntity
  8
0
100
AcDbLine
 10
2106.620438820121
 20
1490.045295548254
 30
0.0
 11
2106.620438820121
 21
1508.336946794242
 31
0.0
  0
ARC
  5
44A7
330
18
100
AcDbEntity
  8
0
100
AcDbCircle
 10
2124.620438820121
 20
1490.045295548254
 30
0.0
 40
18.0
100
AcDbArc
 50
180.0
 51
240.0000000000026
  0
LINE
  5
44A8
330
18
100
AcDbEntity
  8
0
100
AcDbLine
 10
2207.620438820121
 20
1490.045295548254
 30
0.0
 11
2207.620438820121
 21
1508.336946794242
 31
0.0
  0
ARC
  5
44A9
330
18
100
AcDbEntity
  8
0
100
AcDbCircle
 10
2138.12043882012
 20
1462.462039938854
 30
0.0
 40
3.0
100
AcDbArc
 50
0.0
 51
77.23632410755765
  0
ARC
  5
44AA
330
18
100
AcDbEntity
  8
0
100
AcDbCircle
 10
2176.12043882012
 20
1462.462039938854
 30
0.0
 40
3.0
100
AcDbArc
 50
102.7636758924423
 51
180.0
  0
LINE
  5
44AB
330
18
100
AcDbEntity
  8
0
100
AcDbLine
 10
2106.620438820121
 20
1633.836946794242
 30
0.0
 11
2207.620438820121
 21
1633.836946794242
 31
0.0
  0
LINE
  5
44AC
330
18
100
AcDbEntity
  8
0
100
AcDbLine
 10
2082.12043882012
 20
1658.336946794243
 30
0.0
 11
2103.62043882012
 21
1658.336946794243
 31
0.0
  0
LINE
  5
44AD
330
18
100
AcDbEntity
  8
0
100
AcDbLine
 10
2106.620438820121
 20
1671.854185611683
 30
0.0
 11
2106.620438820121
 21
1633.836946794242
 31
0.0
  0
ARC
  5
44AE
330
18
100
AcDbEntity
  8
0
100
AcDbCircle
 10
2103.62043882012
 20
1655.336946794242
 30
0.0
 40
3.0
100
AcDbArc
 50
0.0
 51
90.0
  0
LINE
  5
44AF
330
18
100
AcDbEntity
  8
0
100
AcDbLine
 10
2207.620438820121
 20
1671.854185611683
 30
0.0
 11
2207.620438820121
 21
1633.836946794242
 31
0.0
  0
LINE
  5
44B2
330
18
100
AcDbEntity
  8
0
100
AcDbLine
 10
787.4517012356946
 20
1824.958358075619
 30
0.0
 11
787.4517012356946
 21
1786.858358075619
 31
0.0
  0
LINE
  5
44B3
330
18
100
AcDbEntity
  8
0
100
AcDbLine
 10
805.4517012356946
 20
1824.958358075619
 30
0.0
 11
805.4517012356946
 21
1786.858358075619
 31
0.0
  0
LINE
  5
44B5
330
18
100
AcDbEntity
  8
0
100
AcDbLine
 10
787.4517012356946
 20
1786.858358075619
 30
0.0
 11
805.4517012356946
 21
1786.858358075619
 31
0.0
  0
LINE
  5
44B7
330
18
100
AcDbEntity
  8
0
100
AcDbLine
 10
787.4517012356946
 20
1824.958358075619
 30
0.0
 11
805.4517012356946
 21
1824.958358075619
 31
0.0
  0
LINE
  5
44BC
330
18
100
AcDbEntity
  8
0
100
AcDbLine
 10
2082.12043882012
 20
1851.422484165939
 30
0.0
 11
2082.12043882012
 21
1805.422484165939
 31
0.0
  0
ARC
  5
44BD
330
18
100
AcDbEntity
  8
0
100
AcDbCircle
 10
2119.120438820121
 20
1813.92248416594
 30
0.0
 40
8.5
100
AcDbArc
 50
270.0
 51
336.9643158940635
  0
ARC
  5
44BE
330
18
100
AcDbEntity
  8
0
100
AcDbCircle
 10
2119.120438820121
 20
1695.836946794242
 30
0.0
 40
8.5
100
AcDbArc
 50
23.03568410593644
 51
90.0
  0
ARC
  5
44BF
330
18
100
AcDbEntity
  8
0
100
AcDbCircle
 10
2157.120438820121
 20
1828.422484165939
 30
0.0
 40
50.5
100
AcDbArc
 50
207.0936050126959
 51
337.4883768967902
  0
LINE
  5
44C0
330
18
100
AcDbEntity
  8
0
100
AcDbLine
 10
2082.12043882012
 20
1704.336946794242
 30
0.0
 11
2119.120438820121
 21
1704.336946794242
 31
0.0
  0
LINE
  5
44C1
330
18
100
AcDbEntity
  8
0
100
AcDbLine
 10
2082.12043882012
 20
1805.422484165939
 30
0.0
 11
2119.120438820121
 21
1805.422484165939
 31
0.0
  0
LINE
  5
44C3
330
18
100
AcDbEntity
  8
0
100
AcDbLine
 10
2129.703444064379
 20
1697.336946794242
 30
0.0
 11
2197.996083167138
 21
1697.336946794242
 31
0.0
  0
ARC
  5
44C4
330
18
100
AcDbEntity
  8
0
100
AcDbCircle
 10
2129.703444064379
 20
1700.336946794242
 30
0.0
 40
3.0
100
AcDbArc
 50
203.0356841059364
 51
270.0
  0
LINE
  5
44C5
330
18
100
AcDbEntity
  8
0
100
AcDbLine
 10
2197.996083167138
 20
1697.336946794242
 30
0.0
 11
2197.996083167138
 21
1686.647877973675
 31
0.0
  0
ARC
  5
44C6
330
18
100
AcDbEntity
  8
0
100
AcDbCircle
 10
2129.703444064379
 20
1809.422484165939
 30
0.0
 40
3.0
100
AcDbArc
 50
90.0
 51
156.9643158940635
  0
LINE
  5
44C7
330
18
100
AcDbEntity
  8
0
100
AcDbLine
 10
2173.120438820121
 20
1812.422484165939
 30
0.0
 11
2197.996083167138
 21
1812.422484165939
 31
0.0
  0
ARC
  5
44C8
330
18
100
AcDbEntity
  8
0
100
AcDbCircle
 10
2119.120438820121
 20
1842.922484165939
 30
0.0
 40
8.5
100
AcDbArc
 50
23.03568410593644
 51
90.0
  0
ARC
  5
44C9
330
18
100
AcDbEntity
  8
0
100
AcDbCircle
 10
2157.120438820121
 20
1828.422484165939
 30
0.0
 40
50.5
100
AcDbArc
 50
22.51162310320978
 51
152.9063949873041
  0
LINE
  5
44CA
330
18
100
AcDbEntity
  8
0
100
AcDbLine
 10
2082.12043882012
 20
1851.422484165939
 30
0.0
 11
2119.120438820121
 21
1851.422484165939
 31
0.0
  0
ARC
  5
44CB
330
18
100
AcDbEntity
  8
0
100
AcDbCircle
 10
2129.703444064379
 20
1847.42248416594
 30
0.0
 40
3.0
100
AcDbArc
 50
203.0356841059364
 51
270.0
  0
LINE
  5
44CC
330
18
100
AcDbEntity
  8
0
100
AcDbLine
 10
2173.120438820121
 20
1844.42248416594
 30
0.0
 11
2197.996083167138
 21
1844.42248416594
 31
0.0
  0
LINE
  5
44CD
330
18
100
AcDbEntity
  8
0
100
AcDbLine
 10
2207.92043882012
 20
1975.881162132914
 30
0.0
 11
2207.92043882012
 21
2101.381162132915
 31
0.0
  0
LINE
  5
44CE
330
18
100
AcDbEntity
  8
0
100
AcDbLine
 10
2232.120438820121
 20
1704.336946794242
 30
0.0
 11
2232.120438820121
 21
1658.336946794243
 31
0.0
  0
LINE
  5
44CF
330
18
100
AcDbEntity
  8
0
100
AcDbLine
 10
2210.12043882012
 20
1704.336946794242
 30
0.0
 11
2210.12043882012
 21
1658.336946794243
 31
0.0
  0
LINE
  5
44D0
330
18
100
AcDbEntity
  8
0
100
AcDbLine
 10
2232.120438820121
 20
2171.881162132915
 30
0.0
 11
2232.120438820121
 21
2125.881162132915
 31
0.0
  0
LINE
  5
44D1
330
18
100
AcDbEntity
  8
0
100
AcDbLine
 10
2232.120438820121
 20
2125.881162132915
 30
0.0
 11
2210.620438820121
 21
2125.881162132915
 31
0.0
  0
LINE
  5
44D2
330
18
100
AcDbEntity
  8
0
100
AcDbLine
 10
2207.92043882012
 20
1508.336946794242
 30
0.0
 11
2207.92043882012
 21
1633.836946794242
 31
0.0
  0
LINE
  5
44D3
330
18
100
AcDbEntity
  8
0
100
AcDbLine
 10
2210.620438820121
 20
1658.336946794243
 30
0.0
 11
2232.120438820121
 21
1658.336946794243
 31
0.0
  0
LINE
  5
44D4
330
18
100
AcDbEntity
  8
0
100
AcDbLine
 10
2210.12043882012
 20
1851.422484165939
 30
0.0
 11
2210.12043882012
 21
1805.422484165939
 31
0.0
  0
LINE
  5
44D5
330
18
100
AcDbEntity
  8
0
100
AcDbLine
 10
2232.120438820121
 20
1851.422484165939
 30
0.0
 11
2232.120438820121
 21
1805.422484165939
 31
0.0
  0
LINE
  5
44D6
330
18
100
AcDbEntity
  8
0
100
AcDbLine
 10
2210.12043882012
 20
1704.336946794242
 30
0.0
 11
2232.120438820121
 21
1704.336946794242
 31
0.0
  0
LINE
  5
44D7
330
18
100
AcDbEntity
  8
0
100
AcDbLine
 10
2210.12043882012
 20
1805.422484165939
 30
0.0
 11
2232.120438820121
 21
1805.422484165939
 31
0.0
  0
LINE
  5
44D8
330
18
100
AcDbEntity
  8
0
100
AcDbLine
 10
2210.12043882012
 20
1851.422484165939
 30
0.0
 11
2232.120438820121
 21
1851.422484165939
 31
0.0
  0
ARC
  5
44EB
330
18
100
AcDbEntity
  8
0
100
AcDbCircle
 10
2982.874681188006
 20
1692.340232673609
 30
0.0
 40
57.00000000000023
100
AcDbArc
 50
28.90807217248721
 51
147.6501394850677
  0
ARC
  5
44EC
330
18
100
AcDbEntity
  8
0
100
AcDbCircle
 10
2982.874681188006
 20
1692.340232673609
 30
0.0
 40
57.00000000000023
100
AcDbArc
 50
212.3498605149322
 51
331.0919278275127
  0
LINE
  5
44ED
330
18
100
AcDbEntity
  8
0
100
AcDbLine
 10
2925.724681188007
 20
1266.17550773528
 30
0.0
 11
3040.024681188008
 21
1266.17550773528
 31
0.0
  0
ARC
  5
44EE
330
18
100
AcDbEntity
  8
0
100
AcDbCircle
 10
2982.874681188008
 20
1319.17550773528
 30
0.0
 40
103.0
100
AcDbArc
 50
243.9583500440495
 51
296.0416499559503
  0
LINE
  5
44EF
330
18
100
AcDbEntity
  8
0
100
AcDbLine
 10
2966.874681188008
 20
1194.17550773528
 30
0.0
 11
2998.874681188008
 21
1194.17550773528
 31
0.0
  0
LINE
  5
44F0
330
18
100
AcDbEntity
  8
0
100
AcDbLine
 10
2925.874681188007
 20
1266.17550773528
 30
0.0
 11
3039.874681188007
 21
1266.17550773528
 31
0.0
  0
LINE
  5
44F1
330
18
100
AcDbEntity
  8
0
100
AcDbLine
 10
2925.724681188007
 20
1433.17550773528
 30
0.0
 11
3040.024681188007
 21
1433.17550773528
 31
0.0
  0
LINE
  5
44F2
330
18
100
AcDbEntity
  8
0
100
AcDbLine
 10
2950.540045691857
 20
1513.17550773528
 30
0.0
 11
3026.616350938809
 21
1513.17550773528
 31
0.0
  0
LINE
  5
44F3
330
18
100
AcDbEntity
  8
0
100
AcDbLine
 10
2925.874681188006
 20
1433.17550773528
 30
0.0
 11
3039.874681188006
 21
1433.17550773528
 31
0.0
  0
LINE
  5
44F4
330
18
100
AcDbEntity
  8
0
100
AcDbLine
 10
2625.539476491517
 20
1433.17550773528
 30
0.0
 11
2625.539476491517
 21
1266.175507735279
 31
0.0
  0
LINE
  5
44F5
330
18
100
AcDbEntity
  8
0
100
AcDbLine
 10
2739.839476491517
 20
1433.17550773528
 30
0.0
 11
2739.839476491517
 21
1266.17550773528
 31
0.0
  0
LINE
  5
44F6
330
18
100
AcDbEntity
  8
0
100
AcDbLine
 10
2925.724681188007
 20
1433.17550773528
 30
0.0
 11
2925.724681188007
 21
1266.175507735279
 31
0.0
  0
LINE
  5
44FA
330
18
100
AcDbEntity
  8
0
100
AcDbLine
 10
2459.029285650474
 20
1442.336946794242
 30
0.0
 11
2459.029285650474
 21
1462.462039938854
 31
0.0
  0
LINE
  5
44FB
330
18
100
AcDbEntity
  8
0
100
AcDbLine
 10
2427.029285650474
 20
1442.336946794242
 30
0.0
 11
2427.029285650474
 21
1462.462039938854
 31
0.0
  0
LINE
  5
44FC
330
18
100
AcDbEntity
  8
0
100
AcDbLine
 10
2428.029285650474
 20
1441.336946794242
 30
0.0
 11
2458.029285650474
 21
1441.336946794242
 31
0.0
  0
LINE
  5
44FD
330
18
100
AcDbEntity
  8
0
100
AcDbLine
 10
2427.029285650474
 20
1442.336946794242
 30
0.0
 11
2428.029285650474
 21
1441.336946794242
 31
0.0
  0
LINE
  5
44FE
330
18
100
AcDbEntity
  8
0
100
AcDbLine
 10
2458.029285650474
 20
1441.336946794242
 30
0.0
 11
2459.029285650474
 21
1442.336946794242
 31
0.0
  0
LINE
  5
44FF
330
18
100
AcDbEntity
  8
0
100
AcDbLine
 10
2493.829285650474
 20
1508.336946794242
 30
0.0
 11
2493.829285650474
 21
1633.836946794242
 31
0.0
  0
LINE
  5
4500
330
18
100
AcDbEntity
  8
0
100
AcDbLine
 10
2392.229285650474
 20
1508.336946794242
 30
0.0
 11
2392.229285650474
 21
1633.836946794242
 31
0.0
  0
LINE
  5
4501
330
18
100
AcDbEntity
  8
0
100
AcDbLine
 10
2392.229285650474
 20
1508.336946794242
 30
0.0
 11
2493.829285650474
 21
1508.336946794242
 31
0.0
  0
LINE
  5
4502
330
18
100
AcDbEntity
  8
0
100
AcDbLine
 10
2392.529285650474
 20
1508.336946794242
 30
0.0
 11
2493.529285650474
 21
1508.336946794242
 31
0.0
  0
ARC
  5
4503
330
18
100
AcDbEntity
  8
0
100
AcDbCircle
 10
2443.029285650474
 20
1546.336946794242
 30
0.0
 40
83.0
100
AcDbArc
 50
240.0000000000026
 51
299.9999999999972
  0
LINE
  5
4504
330
18
100
AcDbEntity
  8
0
100
AcDbLine
 10
2392.529285650474
 20
1490.045295548254
 30
0.0
 11
2392.529285650474
 21
1508.336946794242
 31
0.0
  0
ARC
  5
4505
330
18
100
AcDbEntity
  8
0
100
AcDbCircle
 10
2410.529285650474
 20
1490.045295548254
 30
0.0
 40
18.0
100
AcDbArc
 50
180.0
 51
240.0000000000026
  0
ARC
  5
4506
330
18
100
AcDbEntity
  8
0
100
AcDbCircle
 10
2424.029285650474
 20
1462.462039938854
 30
0.0
 40
3.0
100
AcDbArc
 50
0.0
 51
77.23632410755765
  0
ARC
  5
4507
330
18
100
AcDbEntity
  8
0
100
AcDbCircle
 10
2462.029285650474
 20
1462.462039938854
 30
0.0
 40
3.0
100
AcDbArc
 50
102.7636758924423
 51
180.0
  0
LINE
  5
4508
330
18
100
AcDbEntity
  8
0
100
AcDbLine
 10
2493.529285650474
 20
1490.045295548254
 30
0.0
 11
2493.529285650474
 21
1508.336946794242
 31
0.0
  0
ARC
  5
4509
330
18
100
AcDbEntity
  8
0
100
AcDbCircle
 10
2475.529285650474
 20
1490.045295548254
 30
0.0
 40
18.0
100
AcDbArc
 50
299.9999999999972
 51
0.0
  0
LINE
  5
450A
330
18
100
AcDbEntity
  8
0
100
AcDbLine
 10
2392.229285650474
 20
1633.836946794242
 30
0.0
 11
2402.409093627294
 21
1633.836946794242
 31
0.0
  0
LINE
  5
450B
330
18
100
AcDbEntity
  8
0
100
AcDbLine
 10
2392.529285650474
 20
1644.513041515199
 30
0.0
 11
2392.529285650474
 21
1633.836946794242
 31
0.0
  0
LINE
  5
450C
330
18
100
AcDbEntity
  8
0
100
AcDbLine
 10
2493.529285650474
 20
1644.513041515198
 30
0.0
 11
2493.529285650474
 21
1633.836946794242
 31
0.0
  0
LINE
  5
4517
330
18
100
AcDbEntity
  8
0
100
AcDbLine
 10
2625.689476491518
 20
1266.17550773528
 30
0.0
 11
2739.689476491518
 21
1266.17550773528
 31
0.0
  0
ARC
  5
4518
330
18
100
AcDbEntity
  8
0
100
AcDbCircle
 10
2682.689476491519
 20
1319.17550773528
 30
0.0
 40
103.0
100
AcDbArc
 50
243.9583500440495
 51
296.0416499559503
  0
LINE
  5
4519
330
18
100
AcDbEntity
  8
0
100
AcDbLine
 10
2625.539476491518
 20
1266.17550773528
 30
0.0
 11
2739.839476491518
 21
1266.17550773528
 31
0.0
  0
LINE
  5
451A
330
18
100
AcDbEntity
  8
0
100
AcDbLine
 10
2625.689476491519
 20
1266.17550773528
 30
0.0
 11
2625.689476491519
 21
1245.500545909705
 31
0.0
  0
ARC
  5
451B
330
18
100
AcDbEntity
  8
0
100
AcDbCircle
 10
2646.689476491518
 20
1245.500545909705
 30
0.0
 40
21.0
100
AcDbArc
 50
180.0
 51
243.9583500440495
  0
LINE
  5
451C
330
18
100
AcDbEntity
  8
0
100
AcDbLine
 10
2666.689476491518
 20
1194.17550773528
 30
0.0
 11
2698.689476491519
 21
1194.17550773528
 31
0.0
  0
LINE
  5
451D
330
18
100
AcDbEntity
  8
0
100
AcDbLine
 10
2666.689476491518
 20
1217.425814861051
 30
0.0
 11
2666.689476491518
 21
1194.17550773528
 31
0.0
  0
LINE
  5
451E
330
18
100
AcDbEntity
  8
0
100
AcDbLine
 10
2698.689476491519
 20
1217.425814861051
 30
0.0
 11
2698.689476491519
 21
1194.17550773528
 31
0.0
  0
LINE
  5
451F
330
18
100
AcDbEntity
  8
0
100
AcDbLine
 10
2739.689476491518
 20
1266.17550773528
 30
0.0
 11
2739.689476491518
 21
1245.500545909705
 31
0.0
  0
ARC
  5
4520
330
18
100
AcDbEntity
  8
0
100
AcDbCircle
 10
2718.689476491518
 20
1245.500545909705
 30
0.0
 40
21.0
100
AcDbArc
 50
296.0416499559503
 51
0.0
  0
LINE
  5
4521
330
18
100
AcDbEntity
  8
0
100
AcDbLine
 10
2925.874681188008
 20
1266.17550773528
 30
0.0
 11
2925.874681188008
 21
1245.500545909705
 31
0.0
  0
ARC
  5
4522
330
18
100
AcDbEntity
  8
0
100
AcDbCircle
 10
2946.874681188008
 20
1245.500545909705
 30
0.0
 40
21.0
100
AcDbArc
 50
180.0
 51
243.9583500440495
  0
LINE
  5
4523
330
18
100
AcDbEntity
  8
0
100
AcDbLine
 10
2966.874681188008
 20
1217.425814861051
 30
0.0
 11
2966.874681188008
 21
1194.17550773528
 31
0.0
  0
LINE
  5
4529
330
18
100
AcDbEntity
  8
0
100
AcDbLine
 10
2625.689476491517
 20
1433.17550773528
 30
0.0
 11
2640.689476491516
 21
1433.17550773528
 31
0.0
  0
LINE
  5
452A
330
18
100
AcDbEntity
  8
0
100
AcDbLine
 10
2625.689476491517
 20
1433.17550773528
 30
0.0
 11
2640.689476491516
 21
1433.17550773528
 31
0.0
  0
LINE
  5
452C
330
18
100
AcDbEntity
  8
0
100
AcDbLine
 10
2625.689476491515
 20
1448.543008427461
 30
0.0
 11
2625.689476491517
 21
1433.17550773528
 31
0.0
  0
LINE
  5
4533
330
18
100
AcDbEntity
  8
0
100
AcDbLine
 10
2922.874681188006
 20
1458.675507735279
 30
0.0
 11
2897.874681188006
 21
1458.675507735279
 31
0.0
  0
LINE
  5
4534
330
18
100
AcDbEntity
  8
0
100
AcDbLine
 10
2939.874681188006
 20
1519.67550773528
 30
0.0
 11
2897.874681188006
 21
1519.67550773528
 31
0.0
  0
LINE
  5
4535
330
18
100
AcDbEntity
  8
0
100
AcDbLine
 10
2739.689476491518
 20
1448.543008427461
 30
0.0
 11
2739.689476491518
 21
1433.17550773528
 31
0.0
  0
LINE
  5
4536
330
18
100
AcDbEntity
  8
0
100
AcDbLine
 10
2897.874681188006
 20
1519.67550773528
 30
0.0
 11
2897.874681188006
 21
1458.67550773528
 31
0.0
  0
LINE
  5
4538
330
18
100
AcDbEntity
  8
0
100
AcDbLine
 10
2925.874681188006
 20
1482.052115779288
 30
0.0
 11
2925.874681188006
 21
1433.17550773528
 31
0.0
  0
ARC
  5
4539
330
18
100
AcDbEntity
  8
0
100
AcDbCircle
 10
2922.874681188006
 20
1455.675507735279
 30
0.0
 40
3.0
100
AcDbArc
 50
0.0
 51
90.0
  0
ARC
  5
453A
330
18
100
AcDbEntity
  8
0
100
AcDbCircle
 10
2939.874681188006
 20
1510.67550773528
 30
0.0
 40
9.0
100
AcDbArc
 50
27.27961273597291
 51
90.0
  0
ARC
  5
453B
330
18
100
AcDbEntity
  8
0
100
AcDbCircle
 10
2950.540045691857
 20
1516.17550773528
 30
0.0
 40
3.0
100
AcDbArc
 50
207.2796127359729
 51
270.0
  0
LINE
  5
453C
330
18
100
AcDbEntity
  8
0
100
AcDbLine
 10
2939.874681188006
 20
1661.840232673609
 30
0.0
 11
2897.874681188006
 21
1661.840232673609
 31
0.0
  0
LINE
  5
453D
330
18
100
AcDbEntity
  8
0
100
AcDbLine
 10
2939.874681188006
 20
1722.840232673609
 30
0.0
 11
2897.874681188006
 21
1722.840232673609
 31
0.0
  0
LINE
  5
453E
330
18
100
AcDbEntity
  8
0
100
AcDbLine
 10
2897.874681188006
 20
1722.840232673609
 30
0.0
 11
2897.874681188006
 21
1661.840232673609
 31
0.0
  0
ARC
  5
453F
330
18
100
AcDbEntity
  8
0
100
AcDbCircle
 10
2939.874681188006
 20
1670.840232673609
 30
0.0
 40
9.0
100
AcDbArc
 50
270.0
 51
332.7203872640271
  0
ARC
  5
4540
330
18
100
AcDbEntity
  8
0
100
AcDbCircle
 10
2950.540045691857
 20
1665.340232673609
 30
0.0
 40
3.0
100
AcDbArc
 50
90.0
 51
152.7203872640271
  0
ARC
  5
4541
330
18
100
AcDbEntity
  8
0
100
AcDbCircle
 10
2939.874681188006
 20
1713.840232673609
 30
0.0
 40
9.0
100
AcDbArc
 50
27.27961273597291
 51
90.0
  0
ARC
  5
4542
330
18
100
AcDbEntity
  8
0
100
AcDbCircle
 10
2950.540045691857
 20
1719.340232673609
 30
0.0
 40
3.0
100
AcDbArc
 50
207.2796127359729
 51
270.0
  0
LINE
  5
4543
330
18
100
AcDbEntity
  8
0
100
AcDbLine
 10
3263.356807413694
 20
1433.17550773528
 30
0.0
 11
3263.356807413694
 21
1266.17550773528
 31
0.0
  0
LINE
  5
4544
330
18
100
AcDbEntity
  8
0
100
AcDbLine
 10
3149.056807413693
 20
1433.17550773528
 30
0.0
 11
3149.056807413693
 21
1266.175507735279
 31
0.0
  0
LINE
  5
4545
330
18
100
AcDbEntity
  8
0
100
AcDbLine
 10
3040.024681188007
 20
1433.17550773528
 30
0.0
 11
3040.024681188007
 21
1266.17550773528
 31
0.0
  0
LINE
  5
454E
330
18
100
AcDbEntity
  8
0
100
AcDbLine
 10
3039.874681188007
 20
1266.17550773528
 30
0.0
 11
3039.874681188007
 21
1245.500545909705
 31
0.0
  0
LINE
  5
454F
330
18
100
AcDbEntity
  8
0
100
AcDbLine
 10
2998.874681188008
 20
1217.425814861051
 30
0.0
 11
2998.874681188008
 21
1194.17550773528
 31
0.0
  0
ARC
  5
4550
330
18
100
AcDbEntity
  8
0
100
AcDbCircle
 10
3018.874681188008
 20
1245.500545909705
 30
0.0
 40
21.0
100
AcDbArc
 50
296.0416499559503
 51
0.0
  0
LINE
  5
4551
330
18
100
AcDbEntity
  8
0
100
AcDbLine
 10
3149.056807413694
 20
1266.17550773528
 30
0.0
 11
3263.356807413694
 21
1266.17550773528
 31
0.0
  0
ARC
  5
4552
330
18
100
AcDbEntity
  8
0
100
AcDbCircle
 10
3206.206807413695
 20
1319.17550773528
 30
0.0
 40
103.0
100
AcDbArc
 50
243.9583500440495
 51
296.0416499559503
  0
LINE
  5
4553
330
18
100
AcDbEntity
  8
0
100
AcDbLine
 10
3149.206807413694
 20
1266.17550773528
 30
0.0
 11
3263.206807413694
 21
1266.17550773528
 31
0.0
  0
LINE
  5
4554
330
18
100
AcDbEntity
  8
0
100
AcDbLine
 10
3149.206807413695
 20
1266.17550773528
 30
0.0
 11
3149.206807413695
 21
1245.500545909705
 31
0.0
  0
ARC
  5
4555
330
18
100
AcDbEntity
  8
0
100
AcDbCircle
 10
3170.206807413695
 20
1245.500545909705
 30
0.0
 40
21.0
100
AcDbArc
 50
180.0
 51
243.9583500440495
  0
LINE
  5
4556
330
18
100
AcDbEntity
  8
0
100
AcDbLine
 10
3222.206807413694
 20
1217.425814861051
 30
0.0
 11
3222.206807413694
 21
1194.17550773528
 31
0.0
  0
LINE
  5
4557
330
18
100
AcDbEntity
  8
0
100
AcDbLine
 10
3190.206807413695
 20
1217.425814861051
 30
0.0
 11
3190.206807413695
 21
1194.17550773528
 31
0.0
  0
LINE
  5
4558
330
18
100
AcDbEntity
  8
0
100
AcDbLine
 10
3190.206807413695
 20
1194.17550773528
 30
0.0
 11
3222.206807413694
 21
1194.17550773528
 31
0.0
  0
LINE
  5
4559
330
18
100
AcDbEntity
  8
0
100
AcDbLine
 10
3263.206807413694
 20
1266.17550773528
 30
0.0
 11
3263.206807413694
 21
1245.500545909705
 31
0.0
  0
ARC
  5
455A
330
18
100
AcDbEntity
  8
0
100
AcDbCircle
 10
3242.206807413694
 20
1245.500545909705
 30
0.0
 40
21.0
100
AcDbArc
 50
296.0416499559503
 51
0.0
  0
LINE
  5
455B
330
18
100
AcDbEntity
  8
0
100
AcDbLine
 10
3037.874681188007
 20
1519.67550773528
 30
0.0
 11
3067.874681188006
 21
1519.67550773528
 31
0.0
  0
LINE
  5
455C
330
18
100
AcDbEntity
  8
0
100
AcDbLine
 10
3042.874681188006
 20
1458.67550773528
 30
0.0
 11
3067.874681188006
 21
1458.67550773528
 31
0.0
  0
LINE
  5
455E
330
18
100
AcDbEntity
  8
0
100
AcDbLine
 10
3037.874681188006
 20
1519.67550773528
 30
0.0
 11
3037.874681188006
 21
1491.643778825916
 31
0.0
  0
LINE
  5
455F
330
18
100
AcDbEntity
  8
0
100
AcDbLine
 10
3039.874681188007
 20
1482.052115779288
 30
0.0
 11
3039.874681188007
 21
1433.17550773528
 31
0.0
  0
ARC
  5
4560
330
18
100
AcDbEntity
  8
0
100
AcDbCircle
 10
3042.874681188006
 20
1455.67550773528
 30
0.0
 40
3.0
100
AcDbArc
 50
90.0
 51
180.0
  0
LINE
  5
4562
330
18
100
AcDbEntity
  8
0
100
AcDbLine
 10
3026.616350938809
 20
1513.17550773528
 30
0.0
 11
3026.616350938809
 21
1503.514094508302
 31
0.0
  0
LINE
  5
4564
330
18
100
AcDbEntity
  8
0
100
AcDbLine
 10
3026.616350938809
 20
1513.17550773528
 30
0.0
 11
3037.874681188006
 21
1519.67550773528
 31
0.0
  0
LINE
  5
4565
330
18
100
AcDbEntity
  8
0
100
AcDbLine
 10
3067.874681188006
 20
1519.67550773528
 30
0.0
 11
3067.874681188006
 21
1458.67550773528
 31
0.0
  0
LINE
  5
4566
330
18
100
AcDbEntity
  8
0
100
AcDbLine
 10
3037.874681188007
 20
1661.840232673609
 30
0.0
 11
3067.874681188006
 21
1661.840232673609
 31
0.0
  0
LINE
  5
4567
330
18
100
AcDbEntity
  8
0
100
AcDbLine
 10
3037.874681188007
 20
1722.840232673609
 30
0.0
 11
3067.874681188006
 21
1722.840232673609
 31
0.0
  0
LINE
  5
4569
330
18
100
AcDbEntity
  8
0
100
AcDbLine
 10
3037.874681188006
 20
1661.840232673609
 30
0.0
 11
3037.874681188006
 21
1722.840232673609
 31
0.0
  0
LINE
  5
456A
330
18
100
AcDbEntity
  8
0
100
AcDbLine
 10
3037.874681188006
 20
1722.840232673609
 30
0.0
 11
3037.874681188006
 21
1661.840232673609
 31
0.0
  0
LINE
  5
456B
330
18
100
AcDbEntity
  8
0
100
AcDbLine
 10
3006.874681188006
 20
1668.340232673609
 30
0.0
 11
3026.616350938809
 21
1668.340232673609
 31
0.0
  0
LINE
  5
456C
330
18
100
AcDbEntity
  8
0
100
AcDbLine
 10
3026.616350938809
 20
1668.340232673609
 30
0.0
 11
3037.874681188006
 21
1661.840232673609
 31
0.0
  0
LINE
  5
456D
330
18
100
AcDbEntity
  8
0
100
AcDbLine
 10
3006.874681188006
 20
1716.340232673609
 30
0.0
 11
3026.616350938809
 21
1716.340232673609
 31
0.0
  0
LINE
  5
456E
330
18
100
AcDbEntity
  8
0
100
AcDbLine
 10
3026.616350938809
 20
1716.340232673609
 30
0.0
 11
3037.874681188006
 21
1722.840232673609
 31
0.0
  0
LINE
  5
456F
330
18
100
AcDbEntity
  8
0
100
AcDbLine
 10
3067.874681188006
 20
1722.840232673609
 30
0.0
 11
3067.874681188006
 21
1661.840232673609
 31
0.0
  0
LINE
  5
4571
330
18
100
AcDbEntity
  8
0
100
AcDbLine
 10
3149.206807413693
 20
1433.17550773528
 30
0.0
 11
3164.206807413693
 21
1433.17550773528
 31
0.0
  0
LINE
  5
4573
330
18
100
AcDbEntity
  8
0
100
AcDbLine
 10
3149.206807413693
 20
1433.17550773528
 30
0.0
 11
3164.206807413693
 21
1433.17550773528
 31
0.0
  0
LINE
  5
4574
330
18
100
AcDbEntity
  8
0
100
AcDbLine
 10
3149.206807413692
 20
1448.543008427461
 30
0.0
 11
3149.206807413693
 21
1433.17550773528
 31
0.0
  0
LINE
  5
4579
330
18
100
AcDbEntity
  8
0
100
AcDbLine
 10
3263.206807413693
 20
1448.543008427461
 30
0.0
 11
3263.206807413693
 21
1433.17550773528
 31
0.0
  0
ARC
  5
457E
330
18
100
AcDbEntity
  8
0
100
AcDbCircle
 10
740.4517012356945
 20
1805.908358075619
 30
0.0
 40
18.38477631085023
100
AcDbArc
 50
315.000000000001
 51
45.0
  0
ARC
  5
457F
330
18
100
AcDbEntity
  8
0
100
AcDbCircle
 10
2157.120438820121
 20
1828.422484165939
 30
0.0
 40
22.62741699796952
100
AcDbArc
 50
315.0
 51
45.0
  0
ARC
  5
4580
330
18
100
AcDbEntity
  8
0
100
AcDbCircle
 10
2982.874681188006
 20
1692.340232673609
 30
0.0
 40
33.94112549695428
100
AcDbArc
 50
315.0
 51
44.99999999999973
  0
ARC
  5
4581
330
18
100
AcDbEntity
  8
0
100
AcDbCircle
 10
1111.578448555593
 20
778.4638530562881
 30
0.0
 40
41.71930009000614
100
AcDbArc
 50
315.0000000000002
 51
44.99999999999978
  0
LINE
  5
4582
330
18
100
AcDbEntity
  8
0
100
AcDbLine
 10
550.3855730926627
 20
1705.0322572328
 30
0.0
 11
582.7971445212344
 21
1705.0322572328
 31
0.0
  0
LINE
  5
4583
330
18
100
AcDbEntity
  8
0
100
AcDbLine
 10
561.1894302355193
 20
1694.228400089943
 30
0.0
 11
550.3855730926627
 21
1705.0322572328
 31
0.0
  0
LINE
  5
4584
330
18
100
AcDbEntity
  8
0
100
AcDbLine
 10
588.2010016640917
 20
1699.630328661371
 30
0.0
 11
604.1715016640922
 21
1699.630328661371
 31
0.0
  0
LINE
  5
4585
330
18
100
AcDbEntity
  8
0
100
AcDbLine
 10
615.2106445212342
 20
1694.228400089943
 30
0.0
 11
561.1894302355193
 21
1694.228400089943
 31
0.0
  0
LINE
  5
4586
330
18
100
AcDbEntity
  8
0
100
AcDbLine
 10
582.7971445212344
 20
1705.0322572328
 30
0.0
 11
588.2010016640917
 21
1699.630328661371
 31
0.0
  0
LINE
  5
4587
330
18
100
AcDbEntity
  8
0
100
AcDbLine
 10
604.1715016640922
 20
1705.0322572328
 30
0.0
 11
615.2106445212342
 21
1694.228400089943
 31
0.0
  0
LINE
  5
4588
330
18
100
AcDbEntity
  8
0
100
AcDbLine
 10
604.1715016640922
 20
1699.630328661371
 30
0.0
 11
604.1715016640922
 21
1705.0322572328
 31
0.0
  0
LINE
  5
4589
330
18
100
AcDbEntity
  8
0
100
AcDbLine
 10
1311.395814988152
 20
1297.909209315006
 30
0.0
 11
1300.35667213101
 21
1287.105352172149
 31
0.0
  0
LINE
  5
458A
330
18
100
AcDbEntity
  8
0
100
AcDbLine
 10
1300.35667213101
 20
1287.105352172149
 30
0.0
 11
1354.377886416725
 21
1287.105352172149
 31
0.0
  0
LINE
  5
458B
330
18
100
AcDbEntity
  8
0
100
AcDbLine
 10
1365.181743559582
 20
1297.909209315006
 30
0.0
 11
1332.77017213101
 21
1297.909209315006
 31
0.0
  0
LINE
  5
458C
330
18
100
AcDbEntity
  8
0
100
AcDbLine
 10
1332.77017213101
 20
1297.909209315006
 30
0.0
 11
1327.366314988153
 21
1292.507280743577
 31
0.0
  0
LINE
  5
458D
330
18
100
AcDbEntity
  8
0
100
AcDbLine
 10
1311.395814988152
 20
1292.507280743577
 30
0.0
 11
1311.395814988152
 21
1297.909209315006
 31
0.0
  0
LINE
  5
458E
330
18
100
AcDbEntity
  8
0
100
AcDbLine
 10
1327.366314988153
 20
1292.507280743577
 30
0.0
 11
1311.395814988152
 21
1292.507280743577
 31
0.0
  0
LINE
  5
458F
330
18
100
AcDbEntity
  8
0
100
AcDbLine
 10
1354.377886416725
 20
1287.105352172149
 30
0.0
 11
1365.181743559582
 21
1297.909209315006
 31
0.0
  0
LINE
  5
4590
330
18
100
AcDbEntity
  8
0
100
AcDbLine
 10
3126.227419128196
 20
2101.171512372882
 30
0.0
 11
3180.24863341391
 21
2101.171512372882
 31
0.0
  0
LINE
  5
4591
330
18
100
AcDbEntity
  8
0
100
AcDbLine
 10
3137.266561985338
 20
2111.975369515739
 30
0.0
 11
3126.227419128196
 21
2101.171512372882
 31
0.0
  0
LINE
  5
4592
330
18
100
AcDbEntity
  8
0
100
AcDbLine
 10
3191.052490556767
 20
2111.975369515739
 30
0.0
 11
3158.640919128195
 21
2111.975369515739
 31
0.0
  0
LINE
  5
4593
330
18
100
AcDbEntity
  8
0
100
AcDbLine
 10
3158.640919128195
 20
2111.975369515739
 30
0.0
 11
3153.237061985338
 21
2106.573440944309
 31
0.0
  0
LINE
  5
4594
330
18
100
AcDbEntity
  8
0
100
AcDbLine
 10
3153.237061985338
 20
2106.573440944309
 30
0.0
 11
3137.266561985338
 21
2106.573440944309
 31
0.0
  0
LINE
  5
4595
330
18
100
AcDbEntity
  8
0
100
AcDbLine
 10
3137.266561985338
 20
2106.573440944309
 30
0.0
 11
3137.266561985338
 21
2111.975369515739
 31
0.0
  0
LINE
  5
4596
330
18
100
AcDbEntity
  8
0
100
AcDbLine
 10
3180.24863341391
 20
2101.171512372882
 30
0.0
 11
3191.052490556767
 21
2111.975369515739
 31
0.0
  0
LINE
  5
4597
330
18
100
AcDbEntity
  8
0
100
AcDbLine
 10
1948.635336131368
 20
1838.083221778241
 30
0.0
 11
1981.04690755994
 21
1838.083221778241
 31
0.0
  0
LINE
  5
4598
330
18
100
AcDbEntity
  8
0
100
AcDbLine
 10
1959.439193274225
 20
1827.279364635384
 30
0.0
 11
1948.635336131368
 21
1838.083221778241
 31
0.0
  0
LINE
  5
4599
330
18
100
AcDbEntity
  8
0
100
AcDbLine
 10
1986.450764702797
 20
1832.681293206812
 30
0.0
 11
2002.421264702797
 21
1832.681293206812
 31
0.0
  0
LINE
  5
459A
330
18
100
AcDbEntity
  8
0
100
AcDbLine
 10
2013.46040755994
 20
1827.279364635384
 30
0.0
 11
1959.439193274225
 21
1827.279364635384
 31
0.0
  0
LINE
  5
459B
330
18
100
AcDbEntity
  8
0
100
AcDbLine
 10
1981.04690755994
 20
1838.083221778241
 30
0.0
 11
1986.450764702797
 21
1832.681293206812
 31
0.0
  0
LINE
  5
459C
330
18
100
AcDbEntity
  8
0
100
AcDbLine
 10
2002.421264702797
 20
1838.083221778241
 30
0.0
 11
2013.46040755994
 21
1827.279364635384
 31
0.0
  0
LINE
  5
459D
330
18
100
AcDbEntity
  8
0
100
AcDbLine
 10
2002.421264702797
 20
1832.681293206812
 30
0.0
 11
2002.421264702797
 21
1838.083221778241
 31
0.0
  0
LINE
  5
459E
330
18
100
AcDbEntity
  8
0
100
AcDbLine
 10
1948.635336131368
 20
1689.323794131829
 30
0.0
 11
1981.04690755994
 21
1689.323794131829
 31
0.0
  0
LINE
  5
459F
330
18
100
AcDbEntity
  8
0
100
AcDbLine
 10
1959.439193274225
 20
1678.519936988972
 30
0.0
 11
1948.635336131368
 21
1689.323794131829
 31
0.0
  0
LINE
  5
45A0
330
18
100
AcDbEntity
  8
0
100
AcDbLine
 10
1986.450764702797
 20
1683.921865560401
 30
0.0
 11
2002.421264702797
 21
1683.921865560401
 31
0.0
  0
LINE
  5
45A1
330
18
100
AcDbEntity
  8
0
100
AcDbLine
 10
2013.46040755994
 20
1678.519936988972
 30
0.0
 11
1959.439193274225
 21
1678.519936988972
 31
0.0
  0
LINE
  5
45A2
330
18
100
AcDbEntity
  8
0
100
AcDbLine
 10
1981.04690755994
 20
1689.323794131829
 30
0.0
 11
1986.450764702797
 21
1683.921865560401
 31
0.0
  0
LINE
  5
45A3
330
18
100
AcDbEntity
  8
0
100
AcDbLine
 10
2002.421264702797
 20
1689.323794131829
 30
0.0
 11
2013.46040755994
 21
1678.519936988972
 31
0.0
  0
LINE
  5
45A4
330
18
100
AcDbEntity
  8
0
100
AcDbLine
 10
2002.421264702797
 20
1683.921865560401
 30
0.0
 11
2002.421264702797
 21
1689.323794131829
 31
0.0
  0
LINE
  5
45A5
330
18
100
AcDbEntity
  8
0
100
AcDbLine
 10
2836.516857883059
 20
1482.701808945025
 30
0.0
 11
2782.495643597344
 21
1482.701808945025
 31
0.0
  0
LINE
  5
45A6
330
18
100
AcDbEntity
  8
0
100
AcDbLine
 10
2771.691786454487
 20
1493.505666087882
 30
0.0
 11
2804.103357883059
 21
1493.505666087882
 31
0.0
  0
LINE
  5
45A7
330
18
100
AcDbEntity
  8
0
100
AcDbLine
 10
2782.495643597344
 20
1482.701808945025
 30
0.0
 11
2771.691786454487
 21
1493.505666087882
 31
0.0
  0
LINE
  5
45A8
330
18
100
AcDbEntity
  8
0
100
AcDbLine
 10
2825.477715025916
 20
1493.505666087882
 30
0.0
 11
2836.516857883059
 21
1482.701808945025
 31
0.0
  0
LINE
  5
45A9
330
18
100
AcDbEntity
  8
0
100
AcDbLine
 10
2809.507215025917
 20
1488.103737516454
 30
0.0
 11
2825.477715025916
 21
1488.103737516454
 31
0.0
  0
LINE
  5
45AA
330
18
100
AcDbEntity
  8
0
100
AcDbLine
 10
2804.103357883059
 20
1493.505666087882
 30
0.0
 11
2809.507215025917
 21
1488.103737516454
 31
0.0
  0
LINE
  5
45AB
330
18
100
AcDbEntity
  8
0
100
AcDbLine
 10
2825.477715025916
 20
1488.103737516454
 30
0.0
 11
2825.477715025916
 21
1493.505666087882
 31
0.0
  0
LINE
  5
45AC
330
18
100
AcDbEntity
  8
0
100
AcDbLine
 10
2784.495643597344
 20
1688.881615403837
 30
0.0
 11
2773.691786454487
 21
1699.685472546693
 31
0.0
  0
LINE
  5
45AD
330
18
100
AcDbEntity
  8
0
100
AcDbLine
 10
2773.691786454487
 20
1699.685472546693
 30
0.0
 11
2806.103357883059
 21
1699.685472546693
 31
0.0
  0
LINE
  5
45AE
330
18
100
AcDbEntity
  8
0
100
AcDbLine
 10
2811.507215025916
 20
1694.283543975265
 30
0.0
 11
2827.477715025917
 21
1694.283543975265
 31
0.0
  0
LINE
  5
45AF
330
18
100
AcDbEntity
  8
0
100
AcDbLine
 10
2838.516857883059
 20
1688.881615403837
 30
0.0
 11
2784.495643597344
 21
1688.881615403837
 31
0.0
  0
LINE
  5
45B0
330
18
100
AcDbEntity
  8
0
100
AcDbLine
 10
2806.103357883059
 20
1699.685472546693
 30
0.0
 11
2811.507215025916
 21
1694.283543975265
 31
0.0
  0
LINE
  5
45B1
330
18
100
AcDbEntity
  8
0
100
AcDbLine
 10
2827.477715025917
 20
1699.685472546693
 30
0.0
 11
2838.516857883059
 21
1688.881615403837
 31
0.0
  0
LINE
  5
45B2
330
18
100
AcDbEntity
  8
0
100
AcDbLine
 10
2827.477715025917
 20
1694.283543975265
 30
0.0
 11
2827.477715025917
 21
1699.685472546693
 31
0.0
  0
LINE
  5
45B3
330
18
100
AcDbEntity
  8
0
100
AcDbLine
 10
864.1567579580632
 20
598.0410749913171
 30
0.0
 11
896.568329386635
 21
598.0410749913171
 31
0.0
  0
LINE
  5
45B4
330
18
100
AcDbEntity
  8
0
100
AcDbLine
 10
874.9606151009199
 20
587.2372178484602
 30
0.0
 11
864.1567579580632
 21
598.0410749913171
 31
0.0
  0
LINE
  5
45B5
330
18
100
AcDbEntity
  8
0
100
AcDbLine
 10
901.9721865294924
 20
592.6391464198887
 30
0.0
 11
917.9426865294928
 21
592.6391464198887
 31
0.0
  0
LINE
  5
45B6
330
18
100
AcDbEntity
  8
0
100
AcDbLine
 10
928.9818293866348
 20
587.2372178484602
 30
0.0
 11
874.9606151009199
 21
587.2372178484602
 31
0.0
  0
LINE
  5
45B7
330
18
100
AcDbEntity
  8
0
100
AcDbLine
 10
896.568329386635
 20
598.0410749913171
 30
0.0
 11
901.9721865294924
 21
592.6391464198887
 31
0.0
  0
LINE
  5
45B8
330
18
100
AcDbEntity
  8
0
100
AcDbLine
 10
917.9426865294928
 20
598.0410749913171
 30
0.0
 11
928.9818293866348
 21
587.2372178484602
 31
0.0
  0
LINE
  5
45B9
330
18
100
AcDbEntity
  8
0
100
AcDbLine
 10
917.9426865294928
 20
592.6391464198887
 30
0.0
 11
917.9426865294928
 21
598.0410749913171
 31
0.0
  0
LINE
  5
45BA
330
18
100
AcDbEntity
  8
0
100
AcDbLine
 10
931.4871329580638
 20
773.7203143551903
 30
0.0
 11
877.4659186723487
 21
773.7203143551903
 31
0.0
  0
LINE
  5
45BB
330
18
100
AcDbEntity
  8
0
100
AcDbLine
 10
866.6620615294924
 20
784.524171498047
 30
0.0
 11
899.0736329580638
 21
784.524171498047
 31
0.0
  0
LINE
  5
45BC
330
18
100
AcDbEntity
  8
0
100
AcDbLine
 10
877.4659186723487
 20
773.7203143551903
 30
0.0
 11
866.6620615294924
 21
784.524171498047
 31
0.0
  0
LINE
  5
45BD
330
18
100
AcDbEntity
  8
0
100
AcDbLine
 10
904.4774901009212
 20
779.1222429266185
 30
0.0
 11
920.4479901009218
 21
779.1222429266185
 31
0.0
  0
LINE
  5
45BE
330
18
100
AcDbEntity
  8
0
100
AcDbLine
 10
899.0736329580638
 20
784.524171498047
 30
0.0
 11
904.4774901009212
 21
779.1222429266185
 31
0.0
  0
LINE
  5
45BF
330
18
100
AcDbEntity
  8
0
100
AcDbLine
 10
920.4479901009218
 20
779.1222429266185
 30
0.0
 11
920.4479901009218
 21
784.524171498047
 31
0.0
  0
LINE
  5
45C0
330
18
100
AcDbEntity
  8
0
100
AcDbLine
 10
920.4479901009218
 20
784.524171498047
 30
0.0
 11
931.4871329580638
 21
773.7203143551903
 31
0.0
  0
LINE
  5
45C6
330
18
100
AcDbEntity
  8
0
100
AcDbLine
 10
695.9517012356946
 20
2092.887218352785
 30
0.0
 11
695.9517012356946
 21
2059.023770337072
 31
0.0
  0
ARC
  5
45C7
330
18
100
AcDbEntity
  8
0
100
AcDbCircle
 10
711.9517012356945
 20
2092.887218352785
 30
0.0
 40
16.0
100
AcDbArc
 50
119.9999999999973
 51
180.0
  0
ARC
  5
45C9
330
18
100
AcDbEntity
  8
0
100
AcDbCircle
 10
740.4517012356945
 20
2043.523770337072
 30
0.0
 40
72.99999999999996
100
AcDbArc
 50
60.00000000000003
 51
119.9999999999999
  0
ARC
  5
45CA
330
18
100
AcDbEntity
  8
0
100
AcDbCircle
 10
768.9517012356946
 20
2092.887218352785
 30
0.0
 40
16.0
100
AcDbArc
 50
0.000000000000007
 51
60.0000000000027
  0
ARC
  5
45CC
330
18
100
AcDbEntity
  8
0
100
AcDbCircle
 10
740.5150631330476
 20
1637.512352080902
 30
0.0
 40
72.99999999999996
100
AcDbArc
 50
60.00000000000005
 51
119.9999999999999
  0
LINE
  5
45CD
330
18
100
AcDbEntity
  8
0
100
AcDbLine
 10
675.5150631330476
 20
1716.562352080902
 30
0.0
 11
675.5150631330476
 21
1678.462352080902
 31
0.0
  0
LINE
  5
45CE
330
18
100
AcDbEntity
  8
0
100
AcDbLine
 10
777.0361557472557
 20
1710.512352080902
 30
0.0
 11
777.0361557472557
 21
1700.720007306647
 31
0.0
  0
LINE
  5
45CF
330
18
100
AcDbEntity
  8
0
100
AcDbLine
 10
787.5150631330476
 20
1716.562352080902
 30
0.0
 11
787.5150631330476
 21
1678.462352080902
 31
0.0
  0
LINE
  5
45D0
330
18
100
AcDbEntity
  8
0
100
AcDbLine
 10
805.5150631330477
 20
1716.562352080902
 30
0.0
 11
805.5150631330477
 21
1678.462352080902
 31
0.0
  0
LINE
  5
45D1
330
18
100
AcDbEntity
  8
0
100
AcDbLine
 10
695.9650631330476
 20
1549.512352080902
 30
0.0
 11
785.0650631330475
 21
1549.512352080902
 31
0.0
  0
LINE
  5
45D2
330
18
100
AcDbEntity
  8
0
100
AcDbLine
 10
696.0150631330476
 20
1549.512352080902
 30
0.0
 11
785.0150631330476
 21
1549.512352080902
 31
0.0
  0
LINE
  5
45D3
330
18
100
AcDbEntity
  8
0
100
AcDbLine
 10
695.9650631330476
 20
1653.012352080902
 30
0.0
 11
785.0650631330475
 21
1653.012352080902
 31
0.0
  0
LINE
  5
45D4
330
18
100
AcDbEntity
  8
0
100
AcDbLine
 10
696.0150631330476
 20
1653.012352080902
 30
0.0
 11
785.0150631330476
 21
1653.012352080902
 31
0.0
  0
LINE
  5
45D5
330
18
100
AcDbEntity
  8
0
100
AcDbLine
 10
725.5150631330476
 20
1487.512352080902
 30
0.0
 11
755.5150631330477
 21
1487.512352080902
 31
0.0
  0
ARC
  5
45D6
330
18
100
AcDbEntity
  8
0
100
AcDbCircle
 10
740.5150631330476
 20
1582.512352080902
 30
0.0
 40
73.0
100
AcDbArc
 50
240.0000000000027
 51
299.9999999999973
  0
LINE
  5
45D7
330
18
100
AcDbEntity
  8
0
100
AcDbLine
 10
785.0650631330475
 20
1653.012352080902
 30
0.0
 11
785.0650631330475
 21
1549.512352080902
 31
0.0
  0
LINE
  5
45D8
330
18
100
AcDbEntity
  8
0
100
AcDbLine
 10
785.0150631330476
 20
1533.148904065189
 30
0.0
 11
785.0150631330476
 21
1549.512352080902
 31
0.0
  0
ARC
  5
45D9
330
18
100
AcDbEntity
  8
0
100
AcDbCircle
 10
769.0150631330476
 20
1533.148904065189
 30
0.0
 40
16.0
100
AcDbArc
 50
299.9999999999973
 51
0.000000000000007
  0
LINE
  5
45DA
330
18
100
AcDbEntity
  8
0
100
AcDbLine
 10
756.5150631330476
 20
1508.925668502961
 30
0.0
 11
756.5150631330476
 21
1488.512352080902
 31
0.0
  0
LINE
  5
45DB
330
18
100
AcDbEntity
  8
0
100
AcDbLine
 10
756.5150631330476
 20
1488.512352080902
 30
0.0
 11
755.5150631330477
 21
1487.512352080902
 31
0.0
  0
ARC
  5
45DC
330
18
100
AcDbEntity
  8
0
100
AcDbCircle
 10
759.5150631330476
 20
1508.925668502961
 30
0.0
 40
3.0
100
AcDbArc
 50
104.4775121859294
 51
180.0
  0
LINE
  5
45DD
330
18
100
AcDbEntity
  8
0
100
AcDbLine
 10
785.0150631330476
 20
1686.875800096615
 30
0.0
 11
785.0150631330476
 21
1653.012352080902
 31
0.0
  0
ARC
  5
45DE
330
18
100
AcDbEntity
  8
0
100
AcDbCircle
 10
788.0150631330478
 20
1675.462352080902
 30
0.0
 40
3.0
100
AcDbArc
 50
90.0
 51
180.0
  0
LINE
  5
45DF
330
18
100
AcDbEntity
  8
0
100
AcDbLine
 10
785.0150631330476
 20
1675.462352080902
 30
0.0
 11
785.0150631330476
 21
1653.012352080902
 31
0.0
  0
LINE
  5
45E0
330
18
100
AcDbEntity
  8
0
100
AcDbLine
 10
787.5150631330476
 20
1678.462352080902
 30
0.0
 11
805.5150631330477
 21
1678.462352080902
 31
0.0
  0
ARC
  5
45E1
330
18
100
AcDbEntity
  8
0
100
AcDbCircle
 10
769.0150631330476
 20
1686.875800096615
 30
0.0
 40
16.0
100
AcDbArc
 50
0.000000000000007
 51
60.0000000000027
  0
LINE
  5
45E2
330
18
100
AcDbEntity
  8
0
100
AcDbLine
 10
695.9650631330476
 20
1653.012352080902
 30
0.0
 11
695.9650631330476
 21
1549.512352080902
 31
0.0
  0
LINE
  5
45E3
330
18
100
AcDbEntity
  8
0
100
AcDbLine
 10
696.0150631330476
 20
1533.148904065189
 30
0.0
 11
696.0150631330476
 21
1549.512352080902
 31
0.0
  0
LINE
  5
45E4
330
18
100
AcDbEntity
  8
0
100
AcDbLine
 10
724.5150631330476
 20
1508.925668502961
 30
0.0
 11
724.5150631330476
 21
1488.512352080902
 31
0.0
  0
LINE
  5
45E5
330
18
100
AcDbEntity
  8
0
100
AcDbLine
 10
725.5150631330476
 20
1487.512352080902
 30
0.0
 11
724.5150631330476
 21
1488.512352080902
 31
0.0
  0
ARC
  5
45E6
330
18
100
AcDbEntity
  8
0
100
AcDbCircle
 10
721.5150631330476
 20
1508.925668502961
 30
0.0
 40
3.0
100
AcDbArc
 50
0.000000000000007
 51
75.52248781407056
  0
ARC
  5
45E7
330
18
100
AcDbEntity
  8
0
100
AcDbCircle
 10
712.0150631330476
 20
1533.148904065189
 30
0.0
 40
16.0
100
AcDbArc
 50
180.0
 51
240.0000000000027
  0
LINE
  5
45E8
330
18
100
AcDbEntity
  8
0
100
AcDbLine
 10
675.5150631330476
 20
1678.462352080902
 30
0.0
 11
693.0150631330477
 21
1678.462352080902
 31
0.0
  0
LINE
  5
45E9
330
18
100
AcDbEntity
  8
0
100
AcDbLine
 10
696.0150631330476
 20
1686.875800096615
 30
0.0
 11
696.0150631330476
 21
1653.012352080902
 31
0.0
  0
ARC
  5
45EA
330
18
100
AcDbEntity
  8
0
100
AcDbCircle
 10
693.0150631330477
 20
1675.462352080902
 30
0.0
 40
3.0
100
AcDbArc
 50
0.000000000000007
 51
90.0
  0
ARC
  5
45EB
330
18
100
AcDbEntity
  8
0
100
AcDbCircle
 10
712.0150631330476
 20
1686.875800096615
 30
0.0
 40
16.0
100
AcDbArc
 50
119.9999999999973
 51
180.0
  0
LINE
  5
45EC
330
18
100
AcDbEntity
  8
0
100
AcDbLine
 10
715.8383772377682
 20
1710.512352080902
 30
0.0
 11
777.0361557472557
 21
1710.512352080902
 31
0.0
  0
LINE
  5
45ED
330
18
100
AcDbEntity
  8
0
100
AcDbLine
 10
787.5150631330476
 20
1716.562352080902
 30
0.0
 11
805.5150631330477
 21
1716.562352080902
 31
0.0
  0
LINE
  5
45EE
330
18
100
AcDbEntity
  8
0
100
AcDbLine
 10
777.0361557472559
 20
1710.512352080902
 30
0.0
 11
787.5150631330476
 21
1716.562352080902
 31
0.0
  0
LINE
  5
45EF
330
18
100
AcDbEntity
  8
0
100
AcDbLine
 10
675.5150631330476
 20
1716.562352080902
 30
0.0
 11
706.0150631330476
 21
1716.562352080902
 31
0.0
  0
ARC
  5
45F0
330
18
100
AcDbEntity
  8
0
100
AcDbCircle
 10
706.0150631330476
 20
1708.562352080901
 30
0.0
 40
8.0
100
AcDbArc
 50
26.74368395040668
 51
90.0
  0
ARC
  5
45F1
330
18
100
AcDbEntity
  8
0
100
AcDbCircle
 10
715.8383772377682
 20
1713.512352080902
 30
0.0
 40
3.0
100
AcDbArc
 50
206.7436839504066
 51
270.0
  0
LINE
  5
45F7
330
18
100
AcDbEntity
  8
0
100
AcDbLine
 10
2493.529285650474
 20
2096.583227448842
 30
0.0
 11
2493.529285650474
 21
2058.565988631401
 31
0.0
  0
LINE
  5
45F8
330
18
100
AcDbEntity
  8
0
100
AcDbLine
 10
2392.529285650474
 20
2096.583227448842
 30
0.0
 11
2392.529285650474
 21
2058.565988631401
 31
0.0
  0
LINE
  5
45F9
330
18
100
AcDbEntity
  8
0
100
AcDbLine
 10
2392.229285650474
 20
2058.565988631401
 30
0.0
 11
2493.829285650474
 21
2058.565988631401
 31
0.0
  0
CIRCLE
  5
45FA
330
18
100
AcDbEntity
  8
0
100
AcDbCircle
 10
2443.029285650474
 20
2106.065988631401
 30
0.0
 40
23.0
  0
ARC
  5
45FB
330
18
100
AcDbEntity
  8
0
100
AcDbCircle
 10
2408.529285650474
 20
2096.583227448842
 30
0.0
 40
16.0
100
AcDbArc
 50
120.7378686721308
 51
180.0
  0
LINE
  5
45FC
330
18
100
AcDbEntity
  8
0
100
AcDbLine
 10
2432.829804773934
 20
2126.680803446216
 30
0.0
 11
2406.000735511733
 21
2113.406729372142
 31
0.0
  0
ARC
  5
45FD
330
18
100
AcDbEntity
  8
0
100
AcDbCircle
 10
2443.029285650474
 20
2038.565988631401
 30
0.0
 40
83.49999999999999
100
AcDbArc
 50
116.3245765374973
 51
120.7378686721308
  0
ARC
  5
45FE
330
18
100
AcDbEntity
  8
0
100
AcDbCircle
 10
2443.029285650474
 20
2038.565988631401
 30
0.0
 40
83.49999999999999
100
AcDbArc
 50
59.26213132786916
 51
63.67542346250266
  0
LINE
  5
45FF
330
18
100
AcDbEntity
  8
0
100
AcDbLine
 10
2453.228766527013
 20
2126.680803446216
 30
0.0
 11
2480.057835789215
 21
2113.406729372142
 31
0.0
  0
ARC
  5
4600
330
18
100
AcDbEntity
  8
0
100
AcDbCircle
 10
2477.529285650474
 20
2096.583227448842
 30
0.0
 40
16.0
100
AcDbArc
 50
0.0
 51
59.26213132786916
  0
ARC
  5
4602
330
18
100
AcDbEntity
  8
0
100
AcDbCircle
 10
2122.62043882012
 20
2139.398400950356
 30
0.0
 40
16.0
100
AcDbArc
 50
120.7378686721308
 51
180.0
  0
LINE
  5
4604
330
18
100
AcDbEntity
  8
0
100
AcDbLine
 10
2106.620438820121
 20
2139.398400950356
 30
0.0
 11
2106.620438820121
 21
2101.381162132915
 31
0.0
  0
ARC
  5
4605
330
18
100
AcDbEntity
  8
0
100
AcDbCircle
 10
2157.120438820121
 20
2081.381162132915
 30
0.0
 40
83.50000000000015
100
AcDbArc
 50
59.26213132787204
 51
120.7378686721279
  0
ARC
  5
4606
330
18
100
AcDbEntity
  8
0
100
AcDbCircle
 10
2157.120438820121
 20
2081.381162132915
 30
0.0
 40
83.49999999999999
100
AcDbArc
 50
59.26213132786916
 51
63.67542346250267
  0
ARC
  5
4607
330
18
100
AcDbEntity
  8
0
100
AcDbCircle
 10
2191.620438820121
 20
2139.398400950356
 30
0.0
 40
16.0
100
AcDbArc
 50
0.000000000000007
 51
59.26213132786916
  0
ARC
  5
4608
330
18
100
AcDbEntity
  8
0
100
AcDbCircle
 10
2157.120438820121
 20
1613.836946794242
 30
0.0
 40
83.50000000000015
100
AcDbArc
 50
59.26213132787204
 51
120.7378686721279
  0
ARC
  5
460A
330
18
100
AcDbEntity
  8
0
100
AcDbCircle
 10
2191.620438820121
 20
1671.854185611683
 30
0.0
 40
16.0
100
AcDbArc
 50
0.000000000000007
 51
59.26213132786916
  0
ARC
  5
460B
330
18
100
AcDbEntity
  8
0
100
AcDbCircle
 10
2122.62043882012
 20
1671.854185611683
 30
0.0
 40
16.0
100
AcDbArc
 50
120.7378686721308
 51
180.0
  0
ARC
  5
460D
330
18
100
AcDbEntity
  8
0
100
AcDbCircle
 10
2949.874681188005
 20
1482.052115779288
 30
0.0
 40
24.0
100
AcDbArc
 50
114.3619779399754
 51
180.0
  0
ARC
  5
4610
330
18
100
AcDbEntity
  8
0
100
AcDbCircle
 10
3015.874681188007
 20
1482.052115779288
 30
0.0
 40
24.0
100
AcDbArc
 50
0.000000000000007
 51
65.63802206002458
  0
ARC
  5
4612
330
18
100
AcDbEntity
  8
0
100
AcDbCircle
 10
2982.874681188006
 20
1409.17550773528
 30
0.0
 40
104.0
100
AcDbArc
 50
65.63802206001948
 51
114.3619779399805
  0
ARC
  5
4613
330
18
100
AcDbEntity
  8
0
100
AcDbCircle
 10
2946.874681188008
 20
1866.461277629065
 30
0.0
 40
21.0
100
AcDbArc
 50
180.0000000000008
 51
243.9583500440504
  0
ARC
  5
4614
330
18
100
AcDbEntity
  8
0
100
AcDbCircle
 10
3018.874681188007
 20
1866.461277629067
 30
0.0
 40
21.0
100
AcDbArc
 50
296.0416499559512
 51
0.0000000000008792
  0
ARC
  5
4615
330
18
100
AcDbEntity
  8
0
100
AcDbCircle
 10
2982.874681188006
 20
1940.136239454641
 30
0.0
 40
103.0
100
AcDbArc
 50
243.9583500440504
 51
296.0416499559512
  0
LINE
  5
4616
330
18
100
AcDbEntity
  8
0
100
AcDbLine
 10
2998.874681188008
 20
1815.136239454642
 30
0.0
 11
2966.874681188008
 21
1815.136239454641
 31
0.0
  0
LINE
  5
4617
330
18
100
AcDbEntity
  8
0
100
AcDbLine
 10
2998.874681188008
 20
1838.386546580412
 30
0.0
 11
2998.874681188008
 21
1815.136239454642
 31
0.0
  0
LINE
  5
4618
330
18
100
AcDbEntity
  8
0
100
AcDbLine
 10
2966.874681188008
 20
1838.386546580412
 30
0.0
 11
2966.874681188008
 21
1815.136239454641
 31
0.0
  0
LINE
  5
4619
330
18
100
AcDbEntity
  8
0
100
AcDbLine
 10
2925.874681188005
 20
2103.012847498648
 30
0.0
 11
2925.874681188005
 21
2054.136239454641
 31
0.0
  0
LINE
  5
461A
330
18
100
AcDbEntity
  8
0
100
AcDbLine
 10
3039.874681188005
 20
2103.01284749865
 30
0.0
 11
3039.874681188006
 21
2054.136239454643
 31
0.0
  0
LINE
  5
461B
330
18
100
AcDbEntity
  8
0
100
AcDbLine
 10
3040.024681188007
 20
1887.136239454642
 30
0.0
 11
2925.724681188007
 21
1887.136239454641
 31
0.0
  0
LINE
  5
461C
330
18
100
AcDbEntity
  8
0
100
AcDbLine
 10
3039.874681188007
 20
1887.136239454642
 30
0.0
 11
2925.874681188007
 21
1887.13623945464
 31
0.0
  0
LINE
  5
461D
330
18
100
AcDbEntity
  8
0
100
AcDbLine
 10
3040.024681188006
 20
2054.136239454643
 30
0.0
 11
2925.724681188006
 21
2054.136239454641
 31
0.0
  0
LINE
  5
461E
330
18
100
AcDbEntity
  8
0
100
AcDbLine
 10
3039.874681188006
 20
2054.136239454643
 30
0.0
 11
2925.874681188006
 21
2054.136239454641
 31
0.0
  0
LINE
  5
461F
330
18
100
AcDbEntity
  8
0
100
AcDbLine
 10
3040.024681188006
 20
2054.136239454643
 30
0.0
 11
3040.024681188008
 21
1887.136239454642
 31
0.0
  0
LINE
  5
4620
330
18
100
AcDbEntity
  8
0
100
AcDbLine
 10
3039.874681188007
 20
1887.136239454642
 30
0.0
 11
3039.874681188007
 21
1866.461277629067
 31
0.0
  0
LINE
  5
4621
330
18
100
AcDbEntity
  8
0
100
AcDbLine
 10
2925.724681188006
 20
2054.136239454641
 30
0.0
 11
2925.724681188008
 21
1887.136239454641
 31
0.0
  0
LINE
  5
4622
330
18
100
AcDbEntity
  8
0
100
AcDbLine
 10
2925.874681188007
 20
1887.13623945464
 30
0.0
 11
2925.874681188007
 21
1866.461277629065
 31
0.0
  0
ARC
  5
4623
330
18
100
AcDbEntity
  8
0
100
AcDbCircle
 10
2982.874681188006
 20
2030.136239454642
 30
0.0
 40
104.0
100
AcDbArc
 50
65.63802206002036
 51
114.3619779399813
  0
LINE
  5
4624
330
18
100
AcDbEntity
  8
0
100
AcDbLine
 10
3015.209316684154
 20
2134.136239454642
 30
0.0
 11
2939.133011437203
 21
2134.136239454641
 31
0.0
  0
LINE
  5
4625
330
18
100
AcDbEntity
  8
0
100
AcDbLine
 10
3042.874681188006
 20
2079.636239454642
 30
0.0
 11
3067.874681188006
 21
2079.636239454642
 31
0.0
  0
LINE
  5
4626
330
18
100
AcDbEntity
  8
0
100
AcDbLine
 10
3025.874681188005
 20
2140.636239454642
 30
0.0
 11
3067.874681188005
 21
2140.636239454642
 31
0.0
  0
LINE
  5
4627
330
18
100
AcDbEntity
  8
0
100
AcDbLine
 10
3067.874681188005
 20
2140.636239454642
 30
0.0
 11
3067.874681188006
 21
2079.636239454643
 31
0.0
  0
ARC
  5
4628
330
18
100
AcDbEntity
  8
0
100
AcDbCircle
 10
3015.874681188006
 20
2103.01284749865
 30
0.0
 40
24.0
100
AcDbArc
 50
0.0000000000008792
 51
65.63802206002545
  0
ARC
  5
4629
330
18
100
AcDbEntity
  8
0
100
AcDbCircle
 10
3042.874681188006
 20
2076.636239454642
 30
0.0
 40
3.0
100
AcDbArc
 50
90.00000000000088
 51
180.0000000000008
  0
ARC
  5
462A
330
18
100
AcDbEntity
  8
0
100
AcDbCircle
 10
3025.874681188005
 20
2131.636239454642
 30
0.0
 40
9.0
100
AcDbArc
 50
90.00000000000088
 51
152.7203872640279
  0
ARC
  5
462B
330
18
100
AcDbEntity
  8
0
100
AcDbCircle
 10
3015.209316684154
 20
2137.136239454642
 30
0.0
 40
3.0
100
AcDbArc
 50
270.0000000000008
 51
332.7203872640279
  0
LINE
  5
462C
330
18
100
AcDbEntity
  8
0
100
AcDbLine
 10
2922.874681188006
 20
2079.636239454641
 30
0.0
 11
2897.874681188006
 21
2079.63623945464
 31
0.0
  0
LINE
  5
462D
330
18
100
AcDbEntity
  8
0
100
AcDbLine
 10
2927.874681188004
 20
2140.636239454641
 30
0.0
 11
2897.874681188005
 21
2140.63623945464
 31
0.0
  0
LINE
  5
462E
330
18
100
AcDbEntity
  8
0
100
AcDbLine
 10
2927.874681188005
 20
2140.636239454641
 30
0.0
 11
2927.874681188005
 21
2112.604510545276
 31
0.0
  0
LINE
  5
462F
330
18
100
AcDbEntity
  8
0
100
AcDbLine
 10
2939.133011437202
 20
2134.136239454641
 30
0.0
 11
2939.133011437202
 21
2124.474826227663
 31
0.0
  0
ARC
  5
4630
330
18
100
AcDbEntity
  8
0
100
AcDbCircle
 10
2949.874681188004
 20
2103.012847498649
 30
0.0
 40
24.0
100
AcDbArc
 50
114.3619779399763
 51
180.0000000000008
  0
ARC
  5
4631
330
18
100
AcDbEntity
  8
0
100
AcDbCircle
 10
2922.874681188006
 20
2076.636239454641
 30
0.0
 40
3.0
100
AcDbArc
 50
0.0000000000008792
 51
90.00000000000088
  0
LINE
  5
4632
330
18
100
AcDbEntity
  8
0
100
AcDbLine
 10
2939.133011437203
 20
2134.136239454641
 30
0.0
 11
2927.874681188005
 21
2140.636239454641
 31
0.0
  0
LINE
  5
4633
330
18
100
AcDbEntity
  8
0
100
AcDbLine
 10
2897.874681188005
 20
2140.63623945464
 30
0.0
 11
2897.874681188006
 21
2079.63623945464
 31
0.0
  0
ARC
  5
463A
330
18
100
AcDbEntity
  8
0
100
AcDbCircle
 10
1111.578448555593
 20
496.4156290129667
 30
0.0
 40
121.5000000000002
100
AcDbArc
 50
53.72773140853014
 51
126.2722685914698
  0
ARC
  5
463B
330
18
100
AcDbEntity
  8
0
100
AcDbCircle
 10
1055.078448555593
 20
573.4091352326472
 30
0.0
 40
26.0
100
AcDbArc
 50
126.2722685914736
 51
180.0
  0
ARC
  5
463C
330
18
100
AcDbEntity
  8
0
100
AcDbCircle
 10
1168.078448555593
 20
573.4091352326472
 30
0.0
 40
26.0
100
AcDbArc
 50
0.000000000000007
 51
53.72773140852633
  0
LINE
  5
463D
330
18
100
AcDbEntity
  8
0
100
AcDbLine
 10
1194.078448555593
 20
573.4091352326472
 30
0.0
 11
1194.078448555593
 21
526.4156290129667
 31
0.0
  0
LINE
  5
463E
330
18
100
AcDbEntity
  8
0
100
AcDbLine
 10
1194.178448555593
 20
1222.400199967099
 30
0.0
 11
1194.178448555593
 21
1001.400199967099
 31
0.0
  0
LINE
  5
463F
330
18
100
AcDbEntity
  8
0
100
AcDbLine
 10
1028.978448555593
 20
1222.400199967099
 30
0.0
 11
1028.978448555593
 21
1001.400199967099
 31
0.0
  0
LINE
  5
4640
330
18
100
AcDbEntity
  8
0
100
AcDbLine
 10
1028.678448555593
 20
1001.400199967099
 30
0.0
 11
1028.678448555593
 21
991.3253026618777
 31
0.0
  0
LINE
  5
4641
330
18
100
AcDbEntity
  8
0
100
AcDbLine
 10
1194.478448555593
 20
1001.400199967099
 30
0.0
 11
1194.478448555593
 21
991.3253026618777
 31
0.0
  0
ARC
  5
4642
330
18
100
AcDbEntity
  8
0
100
AcDbCircle
 10
1111.578448555593
 20
1067.400199967099
 30
0.0
 40
121.0
100
AcDbArc
 50
233.2054543974891
 51
306.7945456025108
  0
ARC
  5
4643
330
18
100
AcDbEntity
  8
0
100
AcDbCircle
 10
1168.478448555593
 20
991.3253026618777
 30
0.0
 40
26.0
100
AcDbArc
 50
306.7945456025108
 51
0.000000000000007
  0
LINE
  5
4644
330
18
100
AcDbEntity
  8
0
100
AcDbLine
 10
1095.578448555593
 20
947.4627162516235
 30
0.0
 11
1095.578448555593
 21
925.400199967099
 31
0.0
  0
LINE
  5
4645
330
18
100
AcDbEntity
  8
0
100
AcDbLine
 10
1127.578448555593
 20
947.4627162516235
 30
0.0
 11
1127.578448555593
 21
925.400199967099
 31
0.0
  0
LINE
  5
4646
330
18
100
AcDbEntity
  8
0
100
AcDbLine
 10
1126.578448555593
 20
924.400199967099
 30
0.0
 11
1096.578448555593
 21
924.400199967099
 31
0.0
  0
LINE
  5
4647
330
18
100
AcDbEntity
  8
0
100
AcDbLine
 10
1127.578448555593
 20
925.400199967099
 30
0.0
 11
1126.578448555593
 21
924.400199967099
 31
0.0
  0
LINE
  5
4648
330
18
100
AcDbEntity
  8
0
100
AcDbLine
 10
1096.578448555593
 20
924.400199967099
 30
0.0
 11
1095.578448555593
 21
925.400199967099
 31
0.0
  0
ARC
  5
4649
330
18
100
AcDbEntity
  8
0
100
AcDbCircle
 10
1054.678448555593
 20
991.3253026618777
 30
0.0
 40
26.0
100
AcDbArc
 50
180.0
 51
233.2054543974891
  0
LINE
  5
464A
330
18
100
AcDbEntity
  8
0
100
AcDbLine
 10
1194.478448555593
 20
1001.400199967099
 30
0.0
 11
1028.678448555593
 21
1001.400199967099
 31
0.0
  0
LINE
  5
464B
330
18
100
AcDbEntity
  8
0
100
AcDbLine
 10
1194.178448555593
 20
1001.400199967099
 30
0.0
 11
1028.978448555593
 21
1001.400199967099
 31
0.0
  0
ARC
  5
464C
330
18
100
AcDbEntity
  8
0
100
AcDbCircle
 10
1111.578448555593
 20
1192.400199967099
 30
0.0
 40
121.5000000000002
100
AcDbArc
 50
53.72773140853015
 51
126.2722685914698
  0
LINE
  5
464D
330
18
100
AcDbEntity
  8
0
100
AcDbLine
 10
1194.078448555593
 20
1222.400199967099
 30
0.0
 11
1029.078448555593
 21
1222.400199967099
 31
0.0
  0
LINE
  5
464E
330
18
100
AcDbEntity
  8
0
100
AcDbLine
 10
1194.178448555593
 20
1222.400199967099
 30
0.0
 11
1028.978448555593
 21
1222.400199967099
 31
0.0
  0
LINE
  5
464F
330
18
100
AcDbEntity
  8
0
100
AcDbLine
 10
1044.595827494909
 20
1313.900199967099
 30
0.0
 11
1152.204328880943
 21
1313.900199967099
 31
0.0
  0
ARC
  5
4650
330
18
100
AcDbEntity
  8
0
100
AcDbCircle
 10
1161.078448555593
 20
1315.400199967099
 30
0.0
 40
6.0
100
AcDbArc
 50
90.0
 51
170.4059317731351
  0
LINE
  5
4651
330
18
100
AcDbEntity
  8
0
100
AcDbLine
 10
1221.578448555593
 20
1321.400199967099
 30
0.0
 11
1161.078448555593
 21
1321.400199967099
 31
0.0
  0
LINE
  5
4652
330
18
100
AcDbEntity
  8
0
100
AcDbLine
 10
1221.578448555593
 20
1247.400199967099
 30
0.0
 11
1197.078448555593
 21
1247.400199967099
 31
0.0
  0
LINE
  5
4653
330
18
100
AcDbEntity
  8
0
100
AcDbLine
 10
1221.578448555593
 20
1321.400199967099
 30
0.0
 11
1221.578448555593
 21
1247.400199967099
 31
0.0
  0
LINE
  5
4654
330
18
100
AcDbEntity
  8
0
100
AcDbLine
 10
1194.078448555593
 20
1269.393706186779
 30
0.0
 11
1194.078448555593
 21
1222.400199967099
 31
0.0
  0
ARC
  5
4655
330
18
100
AcDbEntity
  8
0
100
AcDbCircle
 10
1197.078448555593
 20
1244.400199967099
 30
0.0
 40
3.0
100
AcDbArc
 50
90.0
 51
180.0
  0
ARC
  5
4656
330
18
100
AcDbEntity
  8
0
100
AcDbCircle
 10
1168.078448555593
 20
1269.393706186779
 30
0.0
 40
26.0
100
AcDbArc
 50
0.000000000000007
 51
53.72773140852633
  0
ARC
  5
4657
330
18
100
AcDbEntity
  8
0
100
AcDbCircle
 10
1152.204328880943
 20
1316.900199967099
 30
0.0
 40
3.0
100
AcDbArc
 50
270.0
 51
350.4059317731352
  0
LINE
  5
4658
330
18
100
AcDbEntity
  8
0
100
AcDbLine
 10
1029.078448555593
 20
1269.393706186779
 30
0.0
 11
1029.078448555593
 21
1222.400199967099
 31
0.0
  0
LINE
  5
4659
330
18
100
AcDbEntity
  8
0
100
AcDbLine
 10
1001.578448555593
 20
1321.400199967099
 30
0.0
 11
1001.578448555593
 21
1247.400199967099
 31
0.0
  0
LINE
  5
465A
330
18
100
AcDbEntity
  8
0
100
AcDbLine
 10
1026.078448555593
 20
1247.400199967099
 30
0.0
 11
1001.578448555593
 21
1247.400199967099
 31
0.0
  0
ARC
  5
465B
330
18
100
AcDbEntity
  8
0
100
AcDbCircle
 10
1026.078448555593
 20
1244.400199967099
 30
0.0
 40
3.0
100
AcDbArc
 50
0.000000000000007
 51
90.0
  0
LINE
  5
465C
330
18
100
AcDbEntity
  8
0
100
AcDbLine
 10
1029.078448555593
 20
1244.400199967099
 30
0.0
 11
1029.078448555593
 21
1222.400199967099
 31
0.0
  0
ARC
  5
465D
330
18
100
AcDbEntity
  8
0
100
AcDbCircle
 10
1055.078448555593
 20
1269.393706186779
 30
0.0
 40
26.0
100
AcDbArc
 50
126.2722685914736
 51
180.0
  0
LINE
  5
465E
330
18
100
AcDbEntity
  8
0
100
AcDbLine
 10
1031.628827290279
 20
1321.386701025824
 30
0.0
 11
1044.595827494909
 21
1313.900199967099
 31
0.0
  0
LINE
  5
465F
330
18
100
AcDbEntity
  8
0
100
AcDbLine
 10
1044.595827494909
 20
1313.900199967099
 30
0.0
 11
1044.595827494909
 21
1293.7687280014
 31
0.0
  0
LINE
  5
4660
330
18
100
AcDbEntity
  8
0
100
AcDbLine
 10
1031.578448555593
 20
1321.400199967099
 30
0.0
 11
1031.578448555593
 21
1280.518003917423
 31
0.0
  0
LINE
  5
4661
330
18
100
AcDbEntity
  8
0
100
AcDbLine
 10
1001.578448555593
 20
1321.400199967099
 30
0.0
 11
1031.578448555593
 21
1321.400199967099
 31
0.0
  0
ARC
  5
466F
330
18
100
AcDbEntity
  8
0
100
AcDbCircle
 10
1096.578448555593
 20
1249.400199967099
 30
0.0
 40
2.0
100
AcDbArc
 50
180.0
 51
270.0
  0
ARC
  5
4670
330
18
100
AcDbEntity
  8
0
100
AcDbCircle
 10
1126.578448555593
 20
1249.400199967099
 30
0.0
 40
2.0
100
AcDbArc
 50
270.0
 51
0.0
  0
LINE
  5
4671
330
18
100
AcDbEntity
  8
0
100
AcDbLine
 10
1126.578448555593
 20
1247.400199967099
 30
0.0
 11
1096.578448555593
 21
1247.400199967099
 31
0.0
  0
LINE
  5
4672
330
18
100
AcDbEntity
  8
0
100
AcDbLine
 10
1126.578448555593
 20
1268.400199967099
 30
0.0
 11
1096.578448555593
 21
1268.400199967099
 31
0.0
  0
LINE
  5
4673
330
18
100
AcDbEntity
  8
0
100
AcDbLine
 10
1094.578448555593
 20
1266.400199967099
 30
0.0
 11
1094.578448555593
 21
1249.400199967099
 31
0.0
  0
ARC
  5
4674
330
18
100
AcDbEntity
  8
0
100
AcDbCircle
 10
1096.578448555593
 20
1266.400199967099
 30
0.0
 40
2.0
100
AcDbArc
 50
90.0
 51
180.0
  0
LINE
  5
4675
330
18
100
AcDbEntity
  8
0
100
AcDbLine
 10
1128.578448555593
 20
1266.400199967099
 30
0.0
 11
1128.578448555593
 21
1249.400199967099
 31
0.0
  0
ARC
  5
4676
330
18
100
AcDbEntity
  8
0
100
AcDbCircle
 10
1126.578448555593
 20
1266.400199967099
 30
0.0
 40
2.0
100
AcDbArc
 50
0.0
 51
90.0
  0
LINE
  5
4677
330
18
100
AcDbEntity
  8
0
100
AcDbLine
 10
2997.874681188005
 20
2079.136239454642
 30
0.0
 11
2967.874681188005
 21
2079.136239454641
 31
0.0
  0
LINE
  5
4678
330
18
100
AcDbEntity
  8
0
100
AcDbLine
 10
2997.874681188005
 20
2100.136239454642
 30
0.0
 11
2967.874681188005
 21
2100.136239454641
 31
0.0
  0
LINE
  5
467A
330
18
100
AcDbEntity
  8
0
100
AcDbLine
 10
2965.874681188005
 20
2098.136239454642
 30
0.0
 11
2965.874681188005
 21
2081.136239454641
 31
0.0
  0
LINE
  5
467B
330
18
100
AcDbEntity
  8
0
100
AcDbLine
 10
2999.874681188005
 20
2098.136239454642
 30
0.0
 11
2999.874681188005
 21
2081.136239454642
 31
0.0
  0
ARC
  5
467C
330
18
100
AcDbEntity
  8
0
100
AcDbCircle
 10
2967.874681188005
 20
2098.136239454642
 30
0.0
 40
2.0
100
AcDbArc
 50
90.0000000000009
 51
180.0
  0
ARC
  5
467D
330
18
100
AcDbEntity
  8
0
100
AcDbCircle
 10
2967.874681188005
 20
2081.136239454641
 30
0.0
 40
2.0
100
AcDbArc
 50
180.0
 51
270.0000000000009
  0
ARC
  5
467E
330
18
100
AcDbEntity
  8
0
100
AcDbCircle
 10
2997.874681188005
 20
2081.136239454642
 30
0.0
 40
2.0
100
AcDbArc
 50
270.0000000000011
 51
0.0
  0
ARC
  5
467F
330
18
100
AcDbEntity
  8
0
100
AcDbCircle
 10
2997.874681188005
 20
2098.136239454642
 30
0.0
 40
2.0
100
AcDbArc
 50
0.0
 51
90.00000000000111
  0
LINE
  5
4680
330
18
100
AcDbEntity
  8
0
100
AcDbLine
 10
2172.12043882012
 20
2120.381162132914
 30
0.0
 11
2142.12043882012
 21
2120.381162132915
 31
0.0
  0
LINE
  5
4681
330
18
100
AcDbEntity
  8
0
100
AcDbLine
 10
2172.120438820121
 20
2141.381162132915
 30
0.0
 11
2142.12043882012
 21
2141.381162132915
 31
0.0
  0
LINE
  5
4683
330
18
100
AcDbEntity
  8
0
100
AcDbLine
 10
2140.12043882012
 20
2139.381162132914
 30
0.0
 11
2140.12043882012
 21
2122.381162132915
 31
0.0
  0
LINE
  5
4684
330
18
100
AcDbEntity
  8
0
100
AcDbLine
 10
2174.120438820121
 20
2139.381162132914
 30
0.0
 11
2174.12043882012
 21
2122.381162132914
 31
0.0
  0
ARC
  5
4685
330
18
100
AcDbEntity
  8
0
100
AcDbCircle
 10
2142.12043882012
 20
2139.381162132914
 30
0.0
 40
2.0
100
AcDbArc
 50
90.0
 51
180.0
  0
ARC
  5
4686
330
18
100
AcDbEntity
  8
0
100
AcDbCircle
 10
2142.12043882012
 20
2122.381162132915
 30
0.0
 40
2.0
100
AcDbArc
 50
180.0
 51
270.0
  0
ARC
  5
4687
330
18
100
AcDbEntity
  8
0
100
AcDbCircle
 10
2172.12043882012
 20
2122.381162132914
 30
0.0
 40
2.0
100
AcDbArc
 50
270.0
 51
0.0
  0
ARC
  5
4688
330
18
100
AcDbEntity
  8
0
100
AcDbCircle
 10
2172.120438820121
 20
2139.381162132914
 30
0.0
 40
2.0
100
AcDbArc
 50
359.9999999999992
 51
90.0
  0
LINE
  5
4689
330
18
100
AcDbEntity
  8
0
100
AcDbLine
 10
755.4517012356946
 20
2077.023770337072
 30
0.0
 11
725.4517012356947
 21
2077.023770337072
 31
0.0
  0
LINE
  5
468B
330
18
100
AcDbEntity
  8
0
100
AcDbLine
 10
755.4517012356946
 20
2098.023770337072
 30
0.0
 11
725.4517012356944
 21
2098.023770337072
 31
0.0
  0
LINE
  5
468C
330
18
100
AcDbEntity
  8
0
100
AcDbLine
 10
723.4517012356946
 20
2079.023770337073
 30
0.0
 11
723.4517012356945
 21
2096.023770337072
 31
0.0
  0
LINE
  5
468D
330
18
100
AcDbEntity
  8
0
100
AcDbLine
 10
757.4517012356945
 20
2079.023770337073
 30
0.0
 11
757.4517012356945
 21
2096.023770337072
 31
0.0
  0
ARC
  5
468E
330
18
100
AcDbEntity
  8
0
100
AcDbCircle
 10
725.4517012356944
 20
2096.023770337072
 30
0.0
 40
2.0
100
AcDbArc
 50
90.0
 51
180.0
  0
ARC
  5
468F
330
18
100
AcDbEntity
  8
0
100
AcDbCircle
 10
725.4517012356947
 20
2079.023770337073
 30
0.0
 40
2.0
100
AcDbArc
 50
180.0000000000003
 51
270.0
  0
ARC
  5
4690
330
18
100
AcDbEntity
  8
0
100
AcDbCircle
 10
755.4517012356946
 20
2079.023770337073
 30
0.0
 40
2.0
100
AcDbArc
 50
270.0
 51
0.0
  0
ARC
  5
4691
330
18
100
AcDbEntity
  8
0
100
AcDbCircle
 10
755.4517012356946
 20
2096.023770337072
 30
0.0
 40
2.0
100
AcDbArc
 50
0.0
 51
90.0
  0
CIRCLE
  5
471B
330
18
100
AcDbEntity
  8
0
100
AcDbCircle
 10
479.2862992984498
 20
1722.261089422431
 30
0.0
 40
7.5
  0
CIRCLE
  5
471C
330
18
100
AcDbEntity
  8
0
100
AcDbCircle
 10
429.7888246153913
 20
1722.261089422431
 30
0.0
 40
7.5
  0
CIRCLE
  5
471D
330
18
100
AcDbEntity
  8
0
100
AcDbCircle
 10
454.5375619569206
 20
1697.512352080902
 30
0.0
 40
47.5
  0
CIRCLE
  5
471E
330
18
100
AcDbEntity
  8
0
100
AcDbCircle
 10
429.7888246153916
 20
1672.763614739373
 30
0.0
 40
7.5
  0
CIRCLE
  5
471F
330
18
100
AcDbEntity
  8
0
100
AcDbCircle
 10
479.2862992984498
 20
1672.763614739373
 30
0.0
 40
7.5
  0
LINE
  5
4720
330
18
100
AcDbEntity
  8
0
100
AcDbLine
 10
471.1508096827568
 20
1653.012352080902
 30
0.0
 11
499.0375619569205
 21
1653.012352080902
 31
0.0
  0
LINE
  5
4721
330
18
100
AcDbEntity
  8
0
100
AcDbLine
 10
471.1508096827563
 20
1653.012352080902
 30
0.0
 11
499.0875619569205
 21
1653.012352080902
 31
0.0
  0
LINE
  5
4722
330
18
100
AcDbEntity
  8
0
100
AcDbLine
 10
471.1508096827568
 20
1653.012352080902
 30
0.0
 11
499.0375619569205
 21
1653.012352080902
 31
0.0
  0
LINE
  5
4734
330
18
100
AcDbEntity
  8
0
100
AcDbLine
 10
829.5150631330477
 20
1745.012352080902
 30
0.0
 11
829.5150631330477
 21
1697.512352080902
 31
0.0
  0
LINE
  5
4735
330
18
100
AcDbEntity
  8
0
100
AcDbLine
 10
815.5150631330476
 20
1743.012352080902
 30
0.0
 11
815.5150631330467
 21
1652.012352080902
 31
0.0
  0
LINE
  5
4736
330
18
100
AcDbEntity
  8
0
100
AcDbLine
 10
817.5150631330476
 20
1745.012352080902
 30
0.0
 11
817.5150631330481
 21
1650.012352080902
 31
0.0
  0
LINE
  5
4737
330
18
100
AcDbEntity
  8
0
100
AcDbLine
 10
807.5150631330476
 20
1686.662352080902
 30
0.0
 11
813.9529482114264
 21
1681.713227926898
 31
0.0
  0
ARC
  5
4738
330
18
100
AcDbEntity
  8
0
100
AcDbCircle
 10
811.5150631330475
 20
1678.541995304617
 30
0.0
 40
4.0
100
AcDbArc
 50
0.0
 51
52.44871787382868
  0
LINE
  5
4739
330
18
100
AcDbEntity
  8
0
100
AcDbLine
 10
815.5150631330476
 20
1652.012352080902
 30
0.0
 11
817.5150631330476
 21
1650.012352080902
 31
0.0
  0
LINE
  5
473A
330
18
100
AcDbEntity
  8
0
100
AcDbLine
 10
817.5150631330476
 20
1650.012352080902
 30
0.0
 11
829.5150631330477
 21
1650.012352080902
 31
0.0
  0
LINE
  5
473B
330
18
100
AcDbEntity
  8
0
100
AcDbLine
 10
807.5150631330476
 20
1708.362352080902
 30
0.0
 11
813.9529482114264
 21
1713.311476234905
 31
0.0
  0
LINE
  5
473C
330
18
100
AcDbEntity
  8
0
100
AcDbLine
 10
805.5150631330471
 20
1708.362352080902
 30
0.0
 11
807.5150631330471
 21
1708.362352080902
 31
0.0
  0
LINE
  5
473D
330
18
100
AcDbEntity
  8
0
100
AcDbLine
 10
805.5150631330471
 20
1686.662352080902
 30
0.0
 11
807.5150631330471
 21
1686.662352080902
 31
0.0
  0
ARC
  5
473E
330
18
100
AcDbEntity
  8
0
100
AcDbCircle
 10
811.5150631330475
 20
1716.482708857187
 30
0.0
 40
4.0
100
AcDbArc
 50
307.5512821261713
 51
0.0
  0
LINE
  5
473F
330
18
100
AcDbEntity
  8
0
100
AcDbLine
 10
815.5150631330476
 20
1743.012352080902
 30
0.0
 11
817.5150631330476
 21
1745.012352080902
 31
0.0
  0
LINE
  5
4740
330
18
100
AcDbEntity
  8
0
100
AcDbLine
 10
817.5150631330476
 20
1745.012352080902
 30
0.0
 11
829.5150631330477
 21
1745.012352080902
 31
0.0
  0
LINE
  5
4741
330
18
100
AcDbEntity
  8
0
100
AcDbLine
 10
675.515063133048
 20
1708.362352080902
 30
0.0
 11
673.5150631330481
 21
1708.362352080902
 31
0.0
  0
LINE
  5
4742
330
18
100
AcDbEntity
  8
0
100
AcDbLine
 10
675.515063133048
 20
1686.662352080902
 30
0.0
 11
673.5150631330481
 21
1686.662352080902
 31
0.0
  0
LINE
  5
4743
330
18
100
AcDbEntity
  8
0
100
AcDbLine
 10
651.5150631330477
 20
1745.012352080902
 30
0.0
 11
651.5150631330477
 21
1697.512352080902
 31
0.0
  0
LINE
  5
4744
330
18
100
AcDbEntity
  8
0
100
AcDbLine
 10
665.5150631330476
 20
1743.012352080902
 30
0.0
 11
665.5150631330485
 21
1652.012352080902
 31
0.0
  0
LINE
  5
4745
330
18
100
AcDbEntity
  8
0
100
AcDbLine
 10
663.5150631330476
 20
1745.012352080902
 30
0.0
 11
663.5150631330471
 21
1650.012352080902
 31
0.0
  0
LINE
  5
4746
330
18
100
AcDbEntity
  8
0
100
AcDbLine
 10
665.5150631330476
 20
1652.012352080902
 30
0.0
 11
663.5150631330476
 21
1650.012352080902
 31
0.0
  0
LINE
  5
4747
330
18
100
AcDbEntity
  8
0
100
AcDbLine
 10
663.5150631330476
 20
1650.012352080902
 30
0.0
 11
651.5150631330477
 21
1650.012352080902
 31
0.0
  0
ARC
  5
4748
330
18
100
AcDbEntity
  8
0
100
AcDbCircle
 10
669.5150631330476
 20
1678.541995304617
 30
0.0
 40
4.0
100
AcDbArc
 50
127.5512821261713
 51
180.0
  0
LINE
  5
4749
330
18
100
AcDbEntity
  8
0
100
AcDbLine
 10
673.5150631330476
 20
1686.662352080902
 30
0.0
 11
667.0771780546689
 21
1681.713227926898
 31
0.0
  0
ARC
  5
474A
330
18
100
AcDbEntity
  8
0
100
AcDbCircle
 10
669.5150631330476
 20
1716.482708857187
 30
0.0
 40
4.0
100
AcDbArc
 50
180.0
 51
232.4487178738286
  0
LINE
  5
474B
330
18
100
AcDbEntity
  8
0
100
AcDbLine
 10
665.5150631330476
 20
1743.012352080902
 30
0.0
 11
663.5150631330476
 21
1745.012352080902
 31
0.0
  0
LINE
  5
474C
330
18
100
AcDbEntity
  8
0
100
AcDbLine
 10
663.5150631330476
 20
1745.012352080902
 30
0.0
 11
651.5150631330477
 21
1745.012352080902
 31
0.0
  0
LINE
  5
474D
330
18
100
AcDbEntity
  8
0
100
AcDbLine
 10
673.5150631330476
 20
1708.362352080902
 30
0.0
 11
667.0771780546689
 21
1713.311476234905
 31
0.0
  0
CIRCLE
  5
487F
330
18
100
AcDbEntity
  8
0
100
AcDbCircle
 10
962.6433292827398
 20
1697.512352080902
 30
0.0
 40
47.5
  0
CIRCLE
  5
4880
330
18
100
AcDbEntity
  8
0
100
AcDbCircle
 10
937.8945919412105
 20
1722.261089422431
 30
0.0
 40
7.5
  0
CIRCLE
  5
4881
330
18
100
AcDbEntity
  8
0
100
AcDbCircle
 10
987.3920666242691
 20
1722.261089422431
 30
0.0
 40
7.5
  0
CIRCLE
  5
4882
330
18
100
AcDbEntity
  8
0
100
AcDbCircle
 10
987.3920666242691
 20
1672.763614739373
 30
0.0
 40
7.5
  0
CIRCLE
  5
4883
330
18
100
AcDbEntity
  8
0
100
AcDbCircle
 10
937.8945919412108
 20
1672.763614739373
 30
0.0
 40
7.5
  0
LINE
  5
4884
330
18
100
AcDbEntity
  8
0
100
AcDbLine
 10
979.256577008576
 20
1653.012352080902
 30
0.0
 11
1007.143329282739
 21
1653.012352080902
 31
0.0
  0
LINE
  5
4885
330
18
100
AcDbEntity
  8
0
100
AcDbLine
 10
979.2565770085754
 20
1653.012352080902
 30
0.0
 11
1007.193329282739
 21
1653.012352080902
 31
0.0
  0
LINE
  5
4886
330
18
100
AcDbEntity
  8
0
100
AcDbLine
 10
979.256577008576
 20
1653.012352080902
 30
0.0
 11
1007.143329282739
 21
1653.012352080902
 31
0.0
  0
LINE
  5
4887
330
18
100
AcDbEntity
  8
0
100
AcDbLine
 10
673.4517012356945
 20
1816.758358075619
 30
0.0
 11
667.0138161573158
 21
1821.707482229623
 31
0.0
  0
LINE
  5
4888
330
18
100
AcDbEntity
  8
0
100
AcDbLine
 10
673.4517012356945
 20
1795.058358075619
 30
0.0
 11
667.0138161573158
 21
1790.109233921615
 31
0.0
  0
LINE
  5
4889
330
18
100
AcDbEntity
  8
0
100
AcDbLine
 10
663.4517012356946
 20
1853.408358075619
 30
0.0
 11
663.4517012356941
 21
1758.408358075619
 31
0.0
  0
LINE
  5
488A
330
18
100
AcDbEntity
  8
0
100
AcDbLine
 10
665.4517012356945
 20
1851.408358075619
 30
0.0
 11
665.4517012356954
 21
1760.408358075619
 31
0.0
  0
LINE
  5
488B
330
18
100
AcDbEntity
  8
0
100
AcDbLine
 10
651.4517012356946
 20
1853.408358075619
 30
0.0
 11
651.4517012356946
 21
1805.908358075619
 31
0.0
  0
LINE
  5
488C
330
18
100
AcDbEntity
  8
0
100
AcDbLine
 10
665.4517012356945
 20
1760.408358075619
 30
0.0
 11
663.4517012356946
 21
1758.408358075619
 31
0.0
  0
LINE
  5
488D
330
18
100
AcDbEntity
  8
0
100
AcDbLine
 10
663.4517012356946
 20
1758.408358075619
 30
0.0
 11
651.4517012356946
 21
1758.408358075619
 31
0.0
  0
ARC
  5
488E
330
18
100
AcDbEntity
  8
0
100
AcDbCircle
 10
669.4517012356945
 20
1786.938001299334
 30
0.0
 40
4.0
100
AcDbArc
 50
127.5512821261713
 51
180.0
  0
LINE
  5
488F
330
18
100
AcDbEntity
  8
0
100
AcDbLine
 10
663.4517012356946
 20
1853.408358075619
 30
0.0
 11
651.4517012356946
 21
1853.408358075619
 31
0.0
  0
LINE
  5
4890
330
18
100
AcDbEntity
  8
0
100
AcDbLine
 10
665.4517012356945
 20
1851.408358075619
 30
0.0
 11
663.4517012356946
 21
1853.408358075619
 31
0.0
  0
ARC
  5
4891
330
18
100
AcDbEntity
  8
0
100
AcDbCircle
 10
669.4517012356945
 20
1824.878714851903
 30
0.0
 40
4.0
100
AcDbArc
 50
180.0
 51
232.4487178738286
  0
LINE
  5
4892
330
18
100
AcDbEntity
  8
0
100
AcDbLine
 10
675.451701235695
 20
1795.058358075619
 30
0.0
 11
673.451701235695
 21
1795.058358075619
 31
0.0
  0
LINE
  5
4893
330
18
100
AcDbEntity
  8
0
100
AcDbLine
 10
675.451701235695
 20
1816.758358075619
 30
0.0
 11
673.451701235695
 21
1816.758358075619
 31
0.0
  0
LINE
  5
4894
330
18
100
AcDbEntity
  8
0
100
AcDbLine
 10
829.4517012356946
 20
1853.408358075619
 30
0.0
 11
829.4517012356946
 21
1805.908358075619
 31
0.0
  0
LINE
  5
4895
330
18
100
AcDbEntity
  8
0
100
AcDbLine
 10
815.4517012356945
 20
1851.408358075619
 30
0.0
 11
815.4517012356937
 21
1760.408358075619
 31
0.0
  0
LINE
  5
4896
330
18
100
AcDbEntity
  8
0
100
AcDbLine
 10
817.4517012356945
 20
1853.408358075619
 30
0.0
 11
817.451701235695
 21
1758.408358075619
 31
0.0
  0
LINE
  5
4897
330
18
100
AcDbEntity
  8
0
100
AcDbLine
 10
815.4517012356945
 20
1760.408358075619
 30
0.0
 11
817.4517012356945
 21
1758.408358075619
 31
0.0
  0
LINE
  5
4898
330
18
100
AcDbEntity
  8
0
100
AcDbLine
 10
817.4517012356945
 20
1758.408358075619
 30
0.0
 11
829.4517012356946
 21
1758.408358075619
 31
0.0
  0
ARC
  5
4899
330
18
100
AcDbEntity
  8
0
100
AcDbCircle
 10
811.4517012356946
 20
1786.938001299334
 30
0.0
 40
4.0
100
AcDbArc
 50
0.0
 51
52.44871787382868
  0
LINE
  5
489A
330
18
100
AcDbEntity
  8
0
100
AcDbLine
 10
807.4517012356945
 20
1795.058358075619
 30
0.0
 11
813.8895863140733
 21
1790.109233921615
 31
0.0
  0
ARC
  5
489B
330
18
100
AcDbEntity
  8
0
100
AcDbCircle
 10
811.4517012356946
 20
1824.878714851903
 30
0.0
 40
4.0
100
AcDbArc
 50
307.5512821261713
 51
0.0
  0
LINE
  5
489C
330
18
100
AcDbEntity
  8
0
100
AcDbLine
 10
815.4517012356945
 20
1851.408358075619
 30
0.0
 11
817.4517012356945
 21
1853.408358075619
 31
0.0
  0
LINE
  5
489D
330
18
100
AcDbEntity
  8
0
100
AcDbLine
 10
817.4517012356945
 20
1853.408358075619
 30
0.0
 11
829.4517012356946
 21
1853.408358075619
 31
0.0
  0
LINE
  5
489E
330
18
100
AcDbEntity
  8
0
100
AcDbLine
 10
807.4517012356945
 20
1816.758358075619
 30
0.0
 11
813.8895863140733
 21
1821.707482229623
 31
0.0
  0
LINE
  5
489F
330
18
100
AcDbEntity
  8
0
100
AcDbLine
 10
673.4517012356945
 20
2114.373770337072
 30
0.0
 11
667.0138161573158
 21
2119.322894491076
 31
0.0
  0
LINE
  5
48A0
330
18
100
AcDbEntity
  8
0
100
AcDbLine
 10
673.4517012356945
 20
2092.673770337072
 30
0.0
 11
667.0138161573158
 21
2087.724646183068
 31
0.0
  0
LINE
  5
48A1
330
18
100
AcDbEntity
  8
0
100
AcDbLine
 10
663.4517012356946
 20
2151.023770337072
 30
0.0
 11
663.4517012356941
 21
2056.023770337072
 31
0.0
  0
LINE
  5
48A2
330
18
100
AcDbEntity
  8
0
100
AcDbLine
 10
665.4517012356945
 20
2149.023770337072
 30
0.0
 11
665.4517012356954
 21
2058.023770337073
 31
0.0
  0
LINE
  5
48A3
330
18
100
AcDbEntity
  8
0
100
AcDbLine
 10
651.4517012356946
 20
2151.023770337072
 30
0.0
 11
651.4517012356946
 21
2103.523770337072
 31
0.0
  0
LINE
  5
48A4
330
18
100
AcDbEntity
  8
0
100
AcDbLine
 10
665.4517012356945
 20
2058.023770337072
 30
0.0
 11
663.4517012356946
 21
2056.023770337072
 31
0.0
  0
LINE
  5
48A5
330
18
100
AcDbEntity
  8
0
100
AcDbLine
 10
663.4517012356946
 20
2056.023770337072
 30
0.0
 11
651.4517012356946
 21
2056.023770337072
 31
0.0
  0
ARC
  5
48A6
330
18
100
AcDbEntity
  8
0
100
AcDbCircle
 10
669.4517012356945
 20
2084.553413560787
 30
0.0
 40
4.0
100
AcDbArc
 50
127.5512821261713
 51
180.0
  0
LINE
  5
48A7
330
18
100
AcDbEntity
  8
0
100
AcDbLine
 10
663.4517012356946
 20
2151.023770337072
 30
0.0
 11
651.4517012356946
 21
2151.023770337072
 31
0.0
  0
LINE
  5
48A8
330
18
100
AcDbEntity
  8
0
100
AcDbLine
 10
665.4517012356945
 20
2149.023770337072
 30
0.0
 11
663.4517012356946
 21
2151.023770337072
 31
0.0
  0
ARC
  5
48A9
330
18
100
AcDbEntity
  8
0
100
AcDbCircle
 10
669.4517012356945
 20
2122.494127113357
 30
0.0
 40
4.0
100
AcDbArc
 50
180.0
 51
232.4487178738286
  0
LINE
  5
48AA
330
18
100
AcDbEntity
  8
0
100
AcDbLine
 10
675.451701235695
 20
2092.673770337072
 30
0.0
 11
673.451701235695
 21
2092.673770337072
 31
0.0
  0
LINE
  5
48AB
330
18
100
AcDbEntity
  8
0
100
AcDbLine
 10
675.451701235695
 20
2114.373770337072
 30
0.0
 11
673.451701235695
 21
2114.373770337072
 31
0.0
  0
LINE
  5
48AC
330
18
100
AcDbEntity
  8
0
100
AcDbLine
 10
829.4517012356946
 20
2151.023770337072
 30
0.0
 11
829.4517012356946
 21
2103.523770337072
 31
0.0
  0
LINE
  5
48AD
330
18
100
AcDbEntity
  8
0
100
AcDbLine
 10
815.4517012356945
 20
2149.023770337072
 30
0.0
 11
815.4517012356937
 21
2058.023770337073
 31
0.0
  0
LINE
  5
48AE
330
18
100
AcDbEntity
  8
0
100
AcDbLine
 10
817.4517012356945
 20
2151.023770337072
 30
0.0
 11
817.451701235695
 21
2056.023770337072
 31
0.0
  0
LINE
  5
48AF
330
18
100
AcDbEntity
  8
0
100
AcDbLine
 10
815.4517012356945
 20
2058.023770337072
 30
0.0
 11
817.4517012356945
 21
2056.023770337072
 31
0.0
  0
LINE
  5
48B0
330
18
100
AcDbEntity
  8
0
100
AcDbLine
 10
817.4517012356945
 20
2056.023770337072
 30
0.0
 11
829.4517012356946
 21
2056.023770337072
 31
0.0
  0
ARC
  5
48B1
330
18
100
AcDbEntity
  8
0
100
AcDbCircle
 10
811.4517012356946
 20
2084.553413560787
 30
0.0
 40
4.0
100
AcDbArc
 50
0.0
 51
52.44871787382868
  0
LINE
  5
48B2
330
18
100
AcDbEntity
  8
0
100
AcDbLine
 10
807.4517012356945
 20
2092.673770337072
 30
0.0
 11
813.8895863140733
 21
2087.724646183068
 31
0.0
  0
ARC
  5
48B3
330
18
100
AcDbEntity
  8
0
100
AcDbCircle
 10
811.4517012356946
 20
2122.494127113357
 30
0.0
 40
4.0
100
AcDbArc
 50
307.5512821261713
 51
0.0
  0
LINE
  5
48B4
330
18
100
AcDbEntity
  8
0
100
AcDbLine
 10
815.4517012356945
 20
2149.023770337072
 30
0.0
 11
817.4517012356945
 21
2151.023770337072
 31
0.0
  0
LINE
  5
48B5
330
18
100
AcDbEntity
  8
0
100
AcDbLine
 10
817.4517012356945
 20
2151.023770337072
 30
0.0
 11
829.4517012356946
 21
2151.023770337072
 31
0.0
  0
LINE
  5
48B6
330
18
100
AcDbEntity
  8
0
100
AcDbLine
 10
807.4517012356945
 20
2114.373770337072
 30
0.0
 11
813.8895863140733
 21
2119.322894491076
 31
0.0
  0
LINE
  5
48C0
330
18
100
AcDbEntity
  8
0
100
AcDbLine
 10
1310.067848984598
 20
1809.050538922347
 30
0.0
 11
1310.067848984598
 21
1814.452467493776
 31
0.0
  0
LINE
  5
48C1
330
18
100
AcDbEntity
  8
0
100
AcDbLine
 10
1288.69349184174
 20
1814.452467493776
 30
0.0
 11
1294.097348984597
 21
1809.050538922347
 31
0.0
  0
LINE
  5
48C2
330
18
100
AcDbEntity
  8
0
100
AcDbLine
 10
1310.067848984598
 20
1814.452467493776
 30
0.0
 11
1321.10699184174
 21
1803.648610350919
 31
0.0
  0
LINE
  5
48C3
330
18
100
AcDbEntity
  8
0
100
AcDbLine
 10
1267.085777556025
 20
1803.648610350919
 30
0.0
 11
1256.281920413168
 21
1814.452467493776
 31
0.0
  0
LINE
  5
48C4
330
18
100
AcDbEntity
  8
0
100
AcDbLine
 10
1204.983909277426
 20
1653.012352080902
 30
0.0
 11
1204.983909277426
 21
1549.512352080902
 31
0.0
  0
LINE
  5
48C5
330
18
100
AcDbEntity
  8
0
100
AcDbLine
 10
1115.883909277426
 20
1653.012352080902
 30
0.0
 11
1115.883909277426
 21
1549.512352080902
 31
0.0
  0
LINE
  5
48C6
330
18
100
AcDbEntity
  8
0
100
AcDbLine
 10
1176.433909277426
 20
1508.925668502961
 30
0.0
 11
1176.433909277426
 21
1488.512352080902
 31
0.0
  0
LINE
  5
48C7
330
18
100
AcDbEntity
  8
0
100
AcDbLine
 10
1144.433909277426
 20
1508.925668502961
 30
0.0
 11
1144.433909277426
 21
1488.512352080902
 31
0.0
  0
LINE
  5
48C8
330
18
100
AcDbEntity
  8
0
100
AcDbLine
 10
1145.433909277426
 20
1487.512352080902
 30
0.0
 11
1175.433909277426
 21
1487.512352080902
 31
0.0
  0
LINE
  5
48C9
330
18
100
AcDbEntity
  8
0
100
AcDbLine
 10
1145.433909277426
 20
1487.512352080902
 30
0.0
 11
1144.433909277426
 21
1488.512352080902
 31
0.0
  0
LINE
  5
48CA
330
18
100
AcDbEntity
  8
0
100
AcDbLine
 10
1176.433909277426
 20
1488.512352080902
 30
0.0
 11
1175.433909277426
 21
1487.512352080902
 31
0.0
  0
LINE
  5
48CB
330
18
100
AcDbEntity
  8
0
100
AcDbLine
 10
1115.883909277426
 20
1549.512352080902
 30
0.0
 11
1204.983909277426
 21
1549.512352080902
 31
0.0
  0
ARC
  5
48CC
330
18
100
AcDbEntity
  8
0
100
AcDbCircle
 10
1160.433909277426
 20
1582.512352080902
 30
0.0
 40
73.0
100
AcDbArc
 50
240.0000000000026
 51
299.9999999999972
  0
LINE
  5
48CD
330
18
100
AcDbEntity
  8
0
100
AcDbLine
 10
1115.933909277426
 20
1549.512352080902
 30
0.0
 11
1204.933909277426
 21
1549.512352080902
 31
0.0
  0
LINE
  5
48CE
330
18
100
AcDbEntity
  8
0
100
AcDbLine
 10
1115.933909277426
 20
1533.148904065189
 30
0.0
 11
1115.933909277426
 21
1549.512352080902
 31
0.0
  0
ARC
  5
48CF
330
18
100
AcDbEntity
  8
0
100
AcDbCircle
 10
1131.933909277426
 20
1533.148904065189
 30
0.0
 40
16.0
100
AcDbArc
 50
180.0
 51
240.0000000000026
  0
ARC
  5
48D0
330
18
100
AcDbEntity
  8
0
100
AcDbCircle
 10
1141.433909277426
 20
1508.925668502961
 30
0.0
 40
3.0
100
AcDbArc
 50
0.0
 51
75.52248781407055
  0
LINE
  5
48D1
330
18
100
AcDbEntity
  8
0
100
AcDbLine
 10
1204.933909277426
 20
1533.148904065189
 30
0.0
 11
1204.933909277426
 21
1549.512352080902
 31
0.0
  0
ARC
  5
48D2
330
18
100
AcDbEntity
  8
0
100
AcDbCircle
 10
1188.933909277426
 20
1533.148904065189
 30
0.0
 40
16.0
100
AcDbArc
 50
299.9999999999972
 51
0.0
  0
ARC
  5
48D3
330
18
100
AcDbEntity
  8
0
100
AcDbCircle
 10
1179.433909277426
 20
1508.925668502961
 30
0.0
 40
3.0
100
AcDbArc
 50
104.4775121859294
 51
180.0
  0
LINE
  5
48D5
330
18
100
AcDbEntity
  8
0
100
AcDbLine
 10
1115.933909277426
 20
1653.012352080902
 30
0.0
 11
1137.63588304707
 21
1653.012352080902
 31
0.0
  0
LINE
  5
48D6
330
18
100
AcDbEntity
  8
0
100
AcDbLine
 10
1115.883909277426
 20
1653.012352080902
 30
0.0
 11
1137.63588304707
 21
1653.012352080902
 31
0.0
  0
LINE
  5
48D7
330
18
100
AcDbEntity
  8
0
100
AcDbLine
 10
1115.933909277426
 20
1653.012352080902
 30
0.0
 11
1137.63588304707
 21
1653.012352080902
 31
0.0
  0
LINE
  5
48D9
330
18
100
AcDbEntity
  8
0
100
AcDbLine
 10
1115.933909277426
 20
1674.714325850546
 30
0.0
 11
1115.933909277426
 21
1653.012352080902
 31
0.0
  0
LINE
  5
48DA
330
18
100
AcDbEntity
  8
0
100
AcDbLine
 10
1183.231935507782
 20
1653.012352080902
 30
0.0
 11
1204.933909277426
 21
1653.012352080902
 31
0.0
  0
LINE
  5
48DB
330
18
100
AcDbEntity
  8
0
100
AcDbLine
 10
1183.231935507781
 20
1653.012352080901
 30
0.0
 11
1204.983909277426
 21
1653.012352080902
 31
0.0
  0
LINE
  5
48DC
330
18
100
AcDbEntity
  8
0
100
AcDbLine
 10
1183.231935507782
 20
1653.012352080902
 30
0.0
 11
1204.933909277426
 21
1653.012352080902
 31
0.0
  0
LINE
  5
48DE
330
18
100
AcDbEntity
  8
0
100
AcDbLine
 10
1204.933909277426
 20
1674.714325850546
 30
0.0
 11
1204.933909277426
 21
1653.012352080902
 31
0.0
  0
LINE
  5
48E4
330
18
100
AcDbEntity
  8
0
100
AcDbLine
 10
1321.10699184174
 20
1694.228400089943
 30
0.0
 11
1267.085777556025
 21
1694.228400089943
 31
0.0
  0
LINE
  5
48E5
330
18
100
AcDbEntity
  8
0
100
AcDbLine
 10
1294.097348984597
 20
1699.630328661371
 30
0.0
 11
1310.067848984598
 21
1699.630328661371
 31
0.0
  0
LINE
  5
48E6
330
18
100
AcDbEntity
  8
0
100
AcDbLine
 10
1256.281920413168
 20
1705.0322572328
 30
0.0
 11
1288.69349184174
 21
1705.0322572328
 31
0.0
  0
LINE
  5
48E7
330
18
100
AcDbEntity
  8
0
100
AcDbLine
 10
1267.085777556025
 20
1694.228400089943
 30
0.0
 11
1256.281920413168
 21
1705.0322572328
 31
0.0
  0
LINE
  5
48E8
330
18
100
AcDbEntity
  8
0
100
AcDbLine
 10
1288.69349184174
 20
1705.0322572328
 30
0.0
 11
1294.097348984597
 21
1699.630328661371
 31
0.0
  0
LINE
  5
48EB
330
18
100
AcDbEntity
  8
0
100
AcDbLine
 10
1310.067848984598
 20
1699.630328661371
 30
0.0
 11
1310.067848984598
 21
1705.0322572328
 31
0.0
  0
LINE
  5
48EC
330
18
100
AcDbEntity
  8
0
100
AcDbLine
 10
1310.067848984598
 20
1705.0322572328
 30
0.0
 11
1321.10699184174
 21
1694.228400089943
 31
0.0
  0
LINE
  5
48EE
330
18
100
AcDbEntity
  8
0
100
AcDbLine
 10
1294.097348984597
 20
1809.050538922347
 30
0.0
 11
1310.067848984598
 21
1809.050538922347
 31
0.0
  0
LINE
  5
48EF
330
18
100
AcDbEntity
  8
0
100
AcDbLine
 10
1321.10699184174
 20
1803.648610350919
 30
0.0
 11
1267.085777556025
 21
1803.648610350919
 31
0.0
  0
LINE
  5
48F6
330
18
100
AcDbEntity
  8
0
100
AcDbLine
 10
1256.281920413168
 20
1814.452467493776
 30
0.0
 11
1288.69349184174
 21
1814.452467493776
 31
0.0
  0
LINE
  5
4906
330
18
100
AcDbEntity
  8
0
100
AcDbLine
 10
1493.3480485562
 20
1824.958358075619
 30
0.0
 11
1493.3480485562
 21
1786.858358075619
 31
0.0
  0
LINE
  5
4907
330
18
100
AcDbEntity
  8
0
100
AcDbLine
 10
1511.3480485562
 20
1824.958358075619
 30
0.0
 11
1511.3480485562
 21
1786.858358075619
 31
0.0
  0
ARC
  5
4908
330
18
100
AcDbEntity
  8
0
100
AcDbCircle
 10
1446.3480485562
 20
1805.908358075619
 30
0.0
 40
18.38477631085023
100
AcDbArc
 50
315.000000000001
 51
45.0
  0
LINE
  5
4909
330
18
100
AcDbEntity
  8
0
100
AcDbLine
 10
1381.3480485562
 20
1824.958358075619
 30
0.0
 11
1381.3480485562
 21
1786.858358075619
 31
0.0
  0
ARC
  5
490B
330
18
100
AcDbEntity
  8
0
100
AcDbCircle
 10
1649.539676603245
 20
1508.925668502961
 30
0.0
 40
3.0
100
AcDbArc
 50
0.0
 51
75.52248781407055
  0
LINE
  5
490C
330
18
100
AcDbEntity
  8
0
100
AcDbLine
 10
1653.539676603245
 20
1487.512352080902
 30
0.0
 11
1652.539676603245
 21
1488.512352080902
 31
0.0
  0
LINE
  5
490D
330
18
100
AcDbEntity
  8
0
100
AcDbLine
 10
1623.989676603246
 20
1549.512352080902
 30
0.0
 11
1713.089676603245
 21
1549.512352080902
 31
0.0
  0
ARC
  5
490E
330
18
100
AcDbEntity
  8
0
100
AcDbCircle
 10
1668.539676603245
 20
1582.512352080902
 30
0.0
 40
73.0
100
AcDbArc
 50
240.0000000000026
 51
299.9999999999972
  0
LINE
  5
490F
330
18
100
AcDbEntity
  8
0
100
AcDbLine
 10
1624.039676603245
 20
1549.512352080902
 30
0.0
 11
1713.039676603245
 21
1549.512352080902
 31
0.0
  0
LINE
  5
4910
330
18
100
AcDbEntity
  8
0
100
AcDbLine
 10
1623.989676603246
 20
1653.012352080902
 30
0.0
 11
1623.989676603246
 21
1549.512352080902
 31
0.0
  0
LINE
  5
4911
330
18
100
AcDbEntity
  8
0
100
AcDbLine
 10
1490.961410453553
 20
1653.012352080902
 30
0.0
 11
1490.961410453553
 21
1549.512352080902
 31
0.0
  0
LINE
  5
4912
330
18
100
AcDbEntity
  8
0
100
AcDbLine
 10
1401.861410453553
 20
1653.012352080902
 30
0.0
 11
1401.861410453553
 21
1549.512352080902
 31
0.0
  0
LINE
  5
4913
330
18
100
AcDbEntity
  8
0
100
AcDbLine
 10
1462.411410453553
 20
1508.925668502961
 30
0.0
 11
1462.411410453553
 21
1488.512352080902
 31
0.0
  0
LINE
  5
4914
330
18
100
AcDbEntity
  8
0
100
AcDbLine
 10
1430.411410453553
 20
1508.925668502961
 30
0.0
 11
1430.411410453553
 21
1488.512352080902
 31
0.0
  0
LINE
  5
4915
330
18
100
AcDbEntity
  8
0
100
AcDbLine
 10
1431.411410453553
 20
1487.512352080902
 30
0.0
 11
1461.411410453553
 21
1487.512352080902
 31
0.0
  0
TEXT
  5
4916
330
18
100
AcDbEntity
  8
0
100
AcDbText
 10
1443.670178962311
 20
1419.335207089469
 30
0.0
 40
30.00000000000003
  1
20A
 41
0.8
 11
1443.670178962311
 21
1419.335207089469
 31
0.0
100
AcDbText
 73
     1
  0
LINE
  5
4917
330
18
100
AcDbEntity
  8
0
100
AcDbLine
 10
1431.411410453553
 20
1487.512352080902
 30
0.0
 11
1430.411410453553
 21
1488.512352080902
 31
0.0
  0
LINE
  5
4918
330
18
100
AcDbEntity
  8
0
100
AcDbLine
 10
1462.411410453553
 20
1488.512352080902
 30
0.0
 11
1461.411410453553
 21
1487.512352080902
 31
0.0
  0
ARC
  5
4919
330
18
100
AcDbEntity
  8
0
100
AcDbCircle
 10
1446.411410453553
 20
1582.512352080902
 30
0.0
 40
73.0
100
AcDbArc
 50
240.0000000000027
 51
299.9999999999973
  0
LINE
  5
491A
330
18
100
AcDbEntity
  8
0
100
AcDbLine
 10
1401.861410453553
 20
1549.512352080902
 30
0.0
 11
1490.961410453553
 21
1549.512352080902
 31
0.0
  0
LINE
  5
491B
330
18
100
AcDbEntity
  8
0
100
AcDbLine
 10
1401.911410453553
 20
1549.512352080902
 30
0.0
 11
1490.911410453553
 21
1549.512352080902
 31
0.0
  0
LINE
  5
491C
330
18
100
AcDbEntity
  8
0
100
AcDbLine
 10
1401.911410453553
 20
1533.148904065189
 30
0.0
 11
1401.911410453553
 21
1549.512352080902
 31
0.0
  0
ARC
  5
491D
330
18
100
AcDbEntity
  8
0
100
AcDbCircle
 10
1417.911410453553
 20
1533.148904065189
 30
0.0
 40
16.0
100
AcDbArc
 50
180.0
 51
240.0000000000027
  0
ARC
  5
491E
330
18
100
AcDbEntity
  8
0
100
AcDbCircle
 10
1427.411410453553
 20
1508.925668502961
 30
0.0
 40
3.0
100
AcDbArc
 50
0.000000000000007
 51
75.52248781407056
  0
LINE
  5
491F
330
18
100
AcDbEntity
  8
0
100
AcDbLine
 10
1490.911410453553
 20
1533.148904065189
 30
0.0
 11
1490.911410453553
 21
1549.512352080902
 31
0.0
  0
ARC
  5
4920
330
18
100
AcDbEntity
  8
0
100
AcDbCircle
 10
1465.411410453553
 20
1508.925668502961
 30
0.0
 40
3.0
100
AcDbArc
 50
104.4775121859294
 51
180.0
  0
ARC
  5
4921
330
18
100
AcDbEntity
  8
0
100
AcDbCircle
 10
1474.911410453553
 20
1533.148904065189
 30
0.0
 40
16.0
100
AcDbArc
 50
299.9999999999973
 51
0.000000000000007
  0
LINE
  5
4922
330
18
100
AcDbEntity
  8
0
100
AcDbLine
 10
1652.539676603245
 20
1508.925668502961
 30
0.0
 11
1652.539676603245
 21
1488.512352080902
 31
0.0
  0
LINE
  5
4923
330
18
100
AcDbEntity
  8
0
100
AcDbLine
 10
1624.039676603245
 20
1533.148904065189
 30
0.0
 11
1624.039676603245
 21
1549.512352080902
 31
0.0
  0
ARC
  5
4924
330
18
100
AcDbEntity
  8
0
100
AcDbCircle
 10
1640.039676603245
 20
1533.148904065189
 30
0.0
 40
16.0
100
AcDbArc
 50
180.0
 51
240.0000000000026
  0
ARC
  5
4928
330
18
100
AcDbEntity
  8
0
100
AcDbCircle
 10
1446.411410453553
 20
1637.512352080902
 30
0.0
 40
72.99999999999996
100
AcDbArc
 50
60.00000000000005
 51
119.9999999999999
  0
LINE
  5
4929
330
18
100
AcDbEntity
  8
0
100
AcDbLine
 10
1482.932503067761
 20
1710.512352080902
 30
0.0
 11
1482.932503067761
 21
1700.720007306647
 31
0.0
  0
LINE
  5
492A
330
18
100
AcDbEntity
  8
0
100
AcDbLine
 10
1493.411410453553
 20
1716.562352080902
 30
0.0
 11
1493.411410453553
 21
1678.462352080902
 31
0.0
  0
LINE
  5
492B
330
18
100
AcDbEntity
  8
0
100
AcDbLine
 10
1511.411410453553
 20
1716.562352080902
 30
0.0
 11
1511.411410453553
 21
1678.462352080902
 31
0.0
  0
LINE
  5
492C
330
18
100
AcDbEntity
  8
0
100
AcDbLine
 10
1381.411410453553
 20
1716.562352080902
 30
0.0
 11
1381.411410453553
 21
1678.462352080902
 31
0.0
  0
LINE
  5
492D
330
18
100
AcDbEntity
  8
0
100
AcDbLine
 10
1401.861410453553
 20
1653.012352080902
 30
0.0
 11
1490.961410453553
 21
1653.012352080902
 31
0.0
  0
LINE
  5
492E
330
18
100
AcDbEntity
  8
0
100
AcDbLine
 10
1401.911410453553
 20
1653.012352080902
 30
0.0
 11
1490.911410453553
 21
1653.012352080902
 31
0.0
  0
ARC
  5
492F
330
18
100
AcDbEntity
  8
0
100
AcDbCircle
 10
1417.911410453553
 20
1686.875800096615
 30
0.0
 40
16.0
100
AcDbArc
 50
119.9999999999973
 51
180.0
  0
LINE
  5
4930
330
18
100
AcDbEntity
  8
0
100
AcDbLine
 10
1381.411410453553
 20
1686.662352080902
 30
0.0
 11
1379.411410453553
 21
1686.662352080902
 31
0.0
  0
LINE
  5
4931
330
18
100
AcDbEntity
  8
0
100
AcDbLine
 10
1381.411410453553
 20
1678.462352080902
 30
0.0
 11
1398.911410453553
 21
1678.462352080902
 31
0.0
  0
LINE
  5
4932
330
18
100
AcDbEntity
  8
0
100
AcDbLine
 10
1401.911410453553
 20
1686.875800096615
 30
0.0
 11
1401.911410453553
 21
1653.012352080902
 31
0.0
  0
ARC
  5
4933
330
18
100
AcDbEntity
  8
0
100
AcDbCircle
 10
1398.911410453553
 20
1675.462352080902
 30
0.0
 40
3.0
100
AcDbArc
 50
0.000000000000007
 51
90.0
  0
LINE
  5
4934
330
18
100
AcDbEntity
  8
0
100
AcDbLine
 10
1490.911410453553
 20
1686.875800096615
 30
0.0
 11
1490.911410453553
 21
1653.012352080902
 31
0.0
  0
ARC
  5
4935
330
18
100
AcDbEntity
  8
0
100
AcDbCircle
 10
1493.911410453553
 20
1675.462352080902
 30
0.0
 40
3.0
100
AcDbArc
 50
90.0
 51
180.0
  0
LINE
  5
4936
330
18
100
AcDbEntity
  8
0
100
AcDbLine
 10
1490.911410453553
 20
1675.462352080902
 30
0.0
 11
1490.911410453553
 21
1653.012352080902
 31
0.0
  0
LINE
  5
4937
330
18
100
AcDbEntity
  8
0
100
AcDbLine
 10
1493.411410453553
 20
1678.462352080902
 30
0.0
 11
1511.411410453553
 21
1678.462352080902
 31
0.0
  0
ARC
  5
4938
330
18
100
AcDbEntity
  8
0
100
AcDbCircle
 10
1474.911410453553
 20
1686.875800096615
 30
0.0
 40
16.0
100
AcDbArc
 50
0.000000000000007
 51
60.0000000000027
  0
LINE
  5
4939
330
18
100
AcDbEntity
  8
0
100
AcDbLine
 10
1421.734724558274
 20
1710.512352080902
 30
0.0
 11
1482.932503067761
 21
1710.512352080902
 31
0.0
  0
ARC
  5
493A
330
18
100
AcDbEntity
  8
0
100
AcDbCircle
 10
1446.3480485562
 20
1805.908358075619
 30
0.0
 40
44.5
100
AcDbArc
 50
205.346400557402
 51
339.053297979784
  0
LINE
  5
493B
330
18
100
AcDbEntity
  8
0
100
AcDbLine
 10
1381.411410453553
 20
1716.562352080902
 30
0.0
 11
1411.911410453553
 21
1716.562352080902
 31
0.0
  0
LINE
  5
493C
330
18
100
AcDbEntity
  8
0
100
AcDbLine
 10
1381.411410453553
 20
1708.362352080902
 30
0.0
 11
1379.411410453553
 21
1708.362352080902
 31
0.0
  0
ARC
  5
493D
330
18
100
AcDbEntity
  8
0
100
AcDbCircle
 10
1411.911410453553
 20
1708.562352080901
 30
0.0
 40
8.0
100
AcDbArc
 50
26.74368395040668
 51
90.0
  0
ARC
  5
493E
330
18
100
AcDbEntity
  8
0
100
AcDbCircle
 10
1421.734724558274
 20
1713.512352080902
 30
0.0
 40
3.0
100
AcDbArc
 50
206.7436839504066
 51
270.0
  0
LINE
  5
493F
330
18
100
AcDbEntity
  8
0
100
AcDbLine
 10
1381.3480485562
 20
1786.858358075619
 30
0.0
 11
1411.8480485562
 21
1786.858358075619
 31
0.0
  0
ARC
  5
4941
330
18
100
AcDbEntity
  8
0
100
AcDbCircle
 10
1421.67136266092
 20
1789.908358075619
 30
0.0
 40
3.0
100
AcDbArc
 50
90.0
 51
153.2563160495933
  0
ARC
  5
4942
330
18
100
AcDbEntity
  8
0
100
AcDbCircle
 10
1411.8480485562
 20
1794.858358075619
 30
0.0
 40
8.0
100
AcDbArc
 50
270.0
 51
333.2563160495932
  0
LINE
  5
4943
330
18
100
AcDbEntity
  8
0
100
AcDbLine
 10
1493.411410453553
 20
1716.562352080902
 30
0.0
 11
1511.411410453553
 21
1716.562352080902
 31
0.0
  0
LINE
  5
4944
330
18
100
AcDbEntity
  8
0
100
AcDbLine
 10
1482.932503067761
 20
1710.512352080902
 30
0.0
 11
1493.411410453553
 21
1716.562352080902
 31
0.0
  0
LINE
  5
4945
330
18
100
AcDbEntity
  8
0
100
AcDbLine
 10
1459.3480485562
 20
1792.908358075619
 30
0.0
 11
1482.869141170408
 21
1792.908358075619
 31
0.0
  0
LINE
  5
4946
330
18
100
AcDbEntity
  8
0
100
AcDbLine
 10
1482.869141170408
 20
1792.908358075619
 30
0.0
 11
1493.3480485562
 21
1786.858358075619
 31
0.0
  0
LINE
  5
4947
330
18
100
AcDbEntity
  8
0
100
AcDbLine
 10
1493.3480485562
 20
1786.858358075619
 30
0.0
 11
1511.3480485562
 21
1786.858358075619
 31
0.0
  0
LINE
  5
494F
330
18
100
AcDbEntity
  8
0
100
AcDbLine
 10
1624.039676603245
 20
1653.012352080902
 30
0.0
 11
1645.741650372889
 21
1653.012352080902
 31
0.0
  0
LINE
  5
4950
330
18
100
AcDbEntity
  8
0
100
AcDbLine
 10
1623.989676603246
 20
1653.012352080902
 30
0.0
 11
1645.74165037289
 21
1653.012352080902
 31
0.0
  0
LINE
  5
4951
330
18
100
AcDbEntity
  8
0
100
AcDbLine
 10
1624.039676603245
 20
1653.012352080902
 30
0.0
 11
1645.741650372889
 21
1653.012352080902
 31
0.0
  0
LINE
  5
4952
330
18
100
AcDbEntity
  8
0
100
AcDbLine
 10
1624.039676603245
 20
1674.714325850546
 30
0.0
 11
1624.039676603245
 21
1653.012352080902
 31
0.0
  0
LINE
  5
495C
330
18
100
AcDbEntity
  8
0
100
AcDbLine
 10
1713.089676603245
 20
1653.012352080902
 30
0.0
 11
1713.089676603245
 21
1549.512352080902
 31
0.0
  0
LINE
  5
495D
330
18
100
AcDbEntity
  8
0
100
AcDbLine
 10
1684.539676603245
 20
1508.925668502961
 30
0.0
 11
1684.539676603245
 21
1488.512352080902
 31
0.0
  0
LINE
  5
495E
330
18
100
AcDbEntity
  8
0
100
AcDbLine
 10
1653.539676603245
 20
1487.512352080902
 30
0.0
 11
1683.539676603245
 21
1487.512352080902
 31
0.0
  0
LINE
  5
495F
330
18
100
AcDbEntity
  8
0
100
AcDbLine
 10
1684.539676603245
 20
1488.512352080902
 30
0.0
 11
1683.539676603245
 21
1487.512352080902
 31
0.0
  0
LINE
  5
4960
330
18
100
AcDbEntity
  8
0
100
AcDbLine
 10
1713.039676603245
 20
1533.148904065189
 30
0.0
 11
1713.039676603245
 21
1549.512352080902
 31
0.0
  0
ARC
  5
4961
330
18
100
AcDbEntity
  8
0
100
AcDbCircle
 10
1687.539676603245
 20
1508.925668502961
 30
0.0
 40
3.0
100
AcDbArc
 50
104.4775121859294
 51
180.0
  0
ARC
  5
4962
330
18
100
AcDbEntity
  8
0
100
AcDbCircle
 10
1697.039676603245
 20
1533.148904065189
 30
0.0
 40
16.0
100
AcDbArc
 50
299.9999999999972
 51
0.0
  0
LINE
  5
4963
330
18
100
AcDbEntity
  8
0
100
AcDbLine
 10
1691.337702833601
 20
1653.012352080902
 30
0.0
 11
1713.039676603245
 21
1653.012352080902
 31
0.0
  0
LINE
  5
4964
330
18
100
AcDbEntity
  8
0
100
AcDbLine
 10
1691.3377028336
 20
1653.012352080901
 30
0.0
 11
1713.089676603245
 21
1653.012352080902
 31
0.0
  0
LINE
  5
4965
330
18
100
AcDbEntity
  8
0
100
AcDbLine
 10
1691.337702833601
 20
1653.012352080902
 30
0.0
 11
1713.039676603245
 21
1653.012352080902
 31
0.0
  0
LINE
  5
4967
330
18
100
AcDbEntity
  8
0
100
AcDbLine
 10
1713.039676603245
 20
1674.714325850546
 30
0.0
 11
1713.039676603245
 21
1653.012352080902
 31
0.0
  0
LINE
  5
4969
330
18
100
AcDbEntity
  8
0
100
AcDbLine
 10
1490.8980485562
 20
2059.023770337072
 30
0.0
 11
1490.8980485562
 21
1955.523770337072
 31
0.0
  0
LINE
  5
496A
330
18
100
AcDbEntity
  8
0
100
AcDbLine
 10
1401.7980485562
 20
2059.023770337072
 30
0.0
 11
1401.7980485562
 21
1955.523770337072
 31
0.0
  0
ARC
  5
496C
330
18
100
AcDbEntity
  8
0
100
AcDbCircle
 10
1446.3480485562
 20
1988.523770337072
 30
0.0
 40
73.0
100
AcDbArc
 50
240.0000000000026
 51
299.9999999999972
  0
LINE
  5
496D
330
18
100
AcDbEntity
  8
0
100
AcDbLine
 10
1461.3480485562
 20
1893.523770337072
 30
0.0
 11
1431.3480485562
 21
1893.523770337072
 31
0.0
  0
ARC
  5
496E
330
18
100
AcDbEntity
  8
0
100
AcDbCircle
 10
1446.3480485562
 20
1805.908358075619
 30
0.0
 40
44.5
100
AcDbArc
 50
20.94670202021596
 51
154.6535994425978
  0
LINE
  5
496F
330
18
100
AcDbEntity
  8
0
100
AcDbLine
 10
1381.3480485562
 20
1824.958358075619
 30
0.0
 11
1411.8480485562
 21
1824.958358075619
 31
0.0
  0
ARC
  5
4971
330
18
100
AcDbEntity
  8
0
100
AcDbCircle
 10
1421.67136266092
 20
1821.908358075619
 30
0.0
 40
3.0
100
AcDbArc
 50
206.7436839504066
 51
270.0
  0
ARC
  5
4972
330
18
100
AcDbEntity
  8
0
100
AcDbCircle
 10
1411.8480485562
 20
1816.958358075619
 30
0.0
 40
8.0
100
AcDbArc
 50
26.74368395040668
 51
90.0
  0
LINE
  5
4973
330
18
100
AcDbEntity
  8
0
100
AcDbLine
 10
1430.3480485562
 20
1914.937086759131
 30
0.0
 11
1430.3480485562
 21
1894.523770337072
 31
0.0
  0
LINE
  5
4974
330
18
100
AcDbEntity
  8
0
100
AcDbLine
 10
1430.3480485562
 20
1894.523770337072
 30
0.0
 11
1431.3480485562
 21
1893.523770337072
 31
0.0
  0
ARC
  5
4975
330
18
100
AcDbEntity
  8
0
100
AcDbCircle
 10
1427.3480485562
 20
1914.937086759131
 30
0.0
 40
3.0
100
AcDbArc
 50
0.0
 51
75.52248781407055
  0
LINE
  5
4976
330
18
100
AcDbEntity
  8
0
100
AcDbLine
 10
1459.3480485562
 20
1818.908358075619
 30
0.0
 11
1482.869141170408
 21
1818.908358075619
 31
0.0
  0
LINE
  5
4977
330
18
100
AcDbEntity
  8
0
100
AcDbLine
 10
1482.869141170408
 20
1818.908358075619
 30
0.0
 11
1493.3480485562
 21
1824.958358075619
 31
0.0
  0
LINE
  5
4978
330
18
100
AcDbEntity
  8
0
100
AcDbLine
 10
1493.3480485562
 20
1824.958358075619
 30
0.0
 11
1511.3480485562
 21
1824.958358075619
 31
0.0
  0
LINE
  5
4979
330
18
100
AcDbEntity
  8
0
100
AcDbLine
 10
1462.3480485562
 20
1914.937086759131
 30
0.0
 11
1462.3480485562
 21
1894.523770337072
 31
0.0
  0
LINE
  5
497A
330
18
100
AcDbEntity
  8
0
100
AcDbLine
 10
1461.3480485562
 20
1893.523770337072
 30
0.0
 11
1462.3480485562
 21
1894.523770337072
 31
0.0
  0
ARC
  5
497B
330
18
100
AcDbEntity
  8
0
100
AcDbCircle
 10
1465.3480485562
 20
1914.937086759131
 30
0.0
 40
3.0
100
AcDbArc
 50
104.4775121859294
 51
180.0
  0
LINE
  5
497C
330
18
100
AcDbEntity
  8
0
100
AcDbLine
 10
1490.8480485562
 20
1955.523770337072
 30
0.0
 11
1401.8480485562
 21
1955.523770337072
 31
0.0
  0
LINE
  5
497D
330
18
100
AcDbEntity
  8
0
100
AcDbLine
 10
1490.8980485562
 20
1955.523770337072
 30
0.0
 11
1401.7980485562
 21
1955.523770337072
 31
0.0
  0
ARC
  5
497E
330
18
100
AcDbEntity
  8
0
100
AcDbCircle
 10
1417.8480485562
 20
1939.160322321359
 30
0.0
 40
16.0
100
AcDbArc
 50
180.0
 51
240.0000000000026
  0
LINE
  5
497F
330
18
100
AcDbEntity
  8
0
100
AcDbLine
 10
1401.8480485562
 20
1939.160322321359
 30
0.0
 11
1401.8480485562
 21
1955.523770337072
 31
0.0
  0
ARC
  5
4980
330
18
100
AcDbEntity
  8
0
100
AcDbCircle
 10
1474.8480485562
 20
1939.160322321359
 30
0.0
 40
16.0
100
AcDbArc
 50
299.9999999999972
 51
0.0
  0
LINE
  5
4981
330
18
100
AcDbEntity
  8
0
100
AcDbLine
 10
1490.8480485562
 20
1939.160322321359
 30
0.0
 11
1490.8480485562
 21
1955.523770337072
 31
0.0
  0
LINE
  5
4987
330
18
100
AcDbEntity
  8
0
100
AcDbLine
 10
1471.024734451479
 20
2116.523770337072
 30
0.0
 11
1409.826955941992
 21
2116.523770337072
 31
0.0
  0
LINE
  5
4988
330
18
100
AcDbEntity
  8
0
100
AcDbLine
 10
1461.3480485562
 20
2098.023770337072
 30
0.0
 11
1431.3480485562
 21
2098.023770337072
 31
0.0
  0
LINE
  5
4989
330
18
100
AcDbEntity
  8
0
100
AcDbLine
 10
1461.3480485562
 20
2077.023770337072
 30
0.0
 11
1431.3480485562
 21
2077.023770337072
 31
0.0
  0
ARC
  5
498A
330
18
100
AcDbEntity
  8
0
100
AcDbCircle
 10
1446.3480485562
 20
2043.523770337072
 30
0.0
 40
72.99999999999996
100
AcDbArc
 50
60.00000000000003
 51
119.9999999999999
  0
LINE
  5
498B
330
18
100
AcDbEntity
  8
0
100
AcDbLine
 10
1490.8480485562
 20
2059.023770337072
 30
0.0
 11
1401.8480485562
 21
2059.023770337072
 31
0.0
  0
LINE
  5
498C
330
18
100
AcDbEntity
  8
0
100
AcDbLine
 10
1490.8980485562
 20
2059.023770337072
 30
0.0
 11
1401.7980485562
 21
2059.023770337072
 31
0.0
  0
LINE
  5
498D
330
18
100
AcDbEntity
  8
0
100
AcDbLine
 10
1429.3480485562
 20
2079.023770337073
 30
0.0
 11
1429.3480485562
 21
2096.023770337072
 31
0.0
  0
ARC
  5
498E
330
18
100
AcDbEntity
  8
0
100
AcDbCircle
 10
1398.8480485562
 20
2081.473770337072
 30
0.0
 40
3.0
100
AcDbArc
 50
0.0
 51
90.0
  0
LINE
  5
498F
330
18
100
AcDbEntity
  8
0
100
AcDbLine
 10
1401.8480485562
 20
2092.887218352785
 30
0.0
 11
1401.8480485562
 21
2059.023770337072
 31
0.0
  0
LINE
  5
4990
330
18
100
AcDbEntity
  8
0
100
AcDbLine
 10
1401.8480485562
 20
2081.473770337072
 30
0.0
 11
1401.8480485562
 21
2059.023770337072
 31
0.0
  0
ARC
  5
4991
330
18
100
AcDbEntity
  8
0
100
AcDbCircle
 10
1431.3480485562
 20
2079.023770337073
 30
0.0
 40
2.0
100
AcDbArc
 50
180.0000000000003
 51
270.0
  0
LINE
  5
4992
330
18
100
AcDbEntity
  8
0
100
AcDbLine
 10
1409.826955941992
 20
2116.523770337072
 30
0.0
 11
1399.3480485562
 21
2122.573770337072
 31
0.0
  0
ARC
  5
4993
330
18
100
AcDbEntity
  8
0
100
AcDbCircle
 10
1417.8480485562
 20
2092.887218352785
 30
0.0
 40
16.0
100
AcDbArc
 50
119.9999999999973
 51
180.0
  0
LINE
  5
4996
330
18
100
AcDbEntity
  8
0
100
AcDbLine
 10
1381.3480485562
 20
2122.573770337072
 30
0.0
 11
1381.3480485562
 21
2084.473770337072
 31
0.0
  0
LINE
  5
4997
330
18
100
AcDbEntity
  8
0
100
AcDbLine
 10
1399.3480485562
 20
2122.573770337072
 30
0.0
 11
1399.3480485562
 21
2084.473770337072
 31
0.0
  0
LINE
  5
4998
330
18
100
AcDbEntity
  8
0
100
AcDbLine
 10
1399.3480485562
 20
2084.473770337072
 30
0.0
 11
1381.3480485562
 21
2084.473770337072
 31
0.0
  0
LINE
  5
4999
330
18
100
AcDbEntity
  8
0
100
AcDbLine
 10
1399.3480485562
 20
2122.573770337072
 30
0.0
 11
1381.3480485562
 21
2122.573770337072
 31
0.0
  0
LINE
  5
499A
330
18
100
AcDbEntity
  8
0
100
AcDbLine
 10
1409.826955941992
 20
2116.523770337072
 30
0.0
 11
1409.826955941992
 21
2106.731425562817
 31
0.0
  0
ARC
  5
499B
330
18
100
AcDbEntity
  8
0
100
AcDbCircle
 10
1431.3480485562
 20
2096.023770337072
 30
0.0
 40
2.0
100
AcDbArc
 50
90.0
 51
180.0
  0
LINE
  5
499C
330
18
100
AcDbEntity
  8
0
100
AcDbLine
 10
1490.8480485562
 20
2092.887218352785
 30
0.0
 11
1490.8480485562
 21
2059.023770337072
 31
0.0
  0
ARC
  5
499D
330
18
100
AcDbEntity
  8
0
100
AcDbCircle
 10
1493.8480485562
 20
2081.473770337072
 30
0.0
 40
3.0
100
AcDbArc
 50
90.0
 51
180.0
  0
LINE
  5
499E
330
18
100
AcDbEntity
  8
0
100
AcDbLine
 10
1463.3480485562
 20
2079.023770337073
 30
0.0
 11
1463.3480485562
 21
2096.023770337072
 31
0.0
  0
ARC
  5
499F
330
18
100
AcDbEntity
  8
0
100
AcDbCircle
 10
1461.3480485562
 20
2079.023770337073
 30
0.0
 40
2.0
100
AcDbArc
 50
270.0
 51
0.0
  0
ARC
  5
49A0
330
18
100
AcDbEntity
  8
0
100
AcDbCircle
 10
1480.8480485562
 20
2114.573770337072
 30
0.0
 40
8.0
100
AcDbArc
 50
90.0
 51
153.2563160495933
  0
ARC
  5
49A1
330
18
100
AcDbEntity
  8
0
100
AcDbCircle
 10
1471.024734451479
 20
2119.523770337072
 30
0.0
 40
3.0
100
AcDbArc
 50
270.0
 51
333.2563160495932
  0
ARC
  5
49A2
330
18
100
AcDbEntity
  8
0
100
AcDbCircle
 10
1461.3480485562
 20
2096.023770337072
 30
0.0
 40
2.0
100
AcDbArc
 50
0.0
 51
90.0
  0
LINE
  5
49A3
330
18
100
AcDbEntity
  8
0
100
AcDbLine
 10
1511.3480485562
 20
2122.573770337072
 30
0.0
 11
1480.8480485562
 21
2122.573770337072
 31
0.0
  0
LINE
  5
49A4
330
18
100
AcDbEntity
  8
0
100
AcDbLine
 10
1511.3480485562
 20
2122.573770337072
 30
0.0
 11
1511.3480485562
 21
2084.473770337072
 31
0.0
  0
LINE
  5
49A5
330
18
100
AcDbEntity
  8
0
100
AcDbLine
 10
1511.3480485562
 20
2084.473770337072
 30
0.0
 11
1493.8480485562
 21
2084.473770337072
 31
0.0
  0
ARC
  5
49A6
330
18
100
AcDbEntity
  8
0
100
AcDbCircle
 10
1474.8480485562
 20
2092.887218352785
 30
0.0
 40
16.0
100
AcDbArc
 50
0.000000000000007
 51
60.0000000000027
  0
LINE
  5
49AA
330
18
100
AcDbEntity
  8
0
100
AcDbLine
 10
1584.919129881587
 20
2112.721280682798
 30
0.0
 11
1579.51527273873
 21
2107.319352111369
 31
0.0
  0
LINE
  5
49AB
330
18
100
AcDbEntity
  8
0
100
AcDbLine
 10
1552.505629881587
 20
2101.917423539942
 30
0.0
 11
1606.526844167302
 21
2101.917423539942
 31
0.0
  0
LINE
  5
49B0
330
18
100
AcDbEntity
  8
0
100
AcDbLine
 10
1563.544772738729
 20
2107.319352111369
 30
0.0
 11
1563.544772738729
 21
2112.721280682798
 31
0.0
  0
LINE
  5
49B1
330
18
100
AcDbEntity
  8
0
100
AcDbLine
 10
1563.544772738729
 20
2112.721280682798
 30
0.0
 11
1552.505629881587
 21
2101.917423539942
 31
0.0
  0
LINE
  5
49B2
330
18
100
AcDbEntity
  8
0
100
AcDbLine
 10
1579.51527273873
 20
2107.319352111369
 30
0.0
 11
1563.544772738729
 21
2107.319352111369
 31
0.0
  0
LINE
  5
49B3
330
18
100
AcDbEntity
  8
0
100
AcDbLine
 10
1617.330701310159
 20
2112.721280682798
 30
0.0
 11
1584.919129881587
 21
2112.721280682798
 31
0.0
  0
LINE
  5
49B4
330
18
100
AcDbEntity
  8
0
100
AcDbLine
 10
1606.526844167302
 20
2101.917423539942
 30
0.0
 11
1617.330701310159
 21
2112.721280682798
 31
0.0
  0
CIRCLE
  5
49CE
330
18
100
AcDbEntity
  8
0
100
AcDbCircle
 10
1160.433909277426
 20
1697.512352080902
 30
0.0
 40
50.0
  0
CIRCLE
  5
49CF
330
18
100
AcDbEntity
  8
0
100
AcDbCircle
 10
1133.91740498293
 20
1724.028856375397
 30
0.0
 40
7.5
  0
CIRCLE
  5
49D0
330
18
100
AcDbEntity
  8
0
100
AcDbCircle
 10
1186.950413571921
 20
1724.028856375398
 30
0.0
 40
7.5
  0
CIRCLE
  5
49D1
330
18
100
AcDbEntity
  8
0
100
AcDbCircle
 10
1133.91740498293
 20
1670.995847786406
 30
0.0
 40
7.5
  0
CIRCLE
  5
49D2
330
18
100
AcDbEntity
  8
0
100
AcDbCircle
 10
1186.950413571921
 20
1670.995847786406
 30
0.0
 40
7.5
  0
CIRCLE
  5
49D3
330
18
100
AcDbEntity
  8
0
100
AcDbCircle
 10
1668.539676603245
 20
1697.512352080902
 30
0.0
 40
50.0
  0
CIRCLE
  5
49D4
330
18
100
AcDbEntity
  8
0
100
AcDbCircle
 10
1642.023172308749
 20
1724.028856375397
 30
0.0
 40
7.5
  0
CIRCLE
  5
49D5
330
18
100
AcDbEntity
  8
0
100
AcDbCircle
 10
1695.05618089774
 20
1724.028856375398
 30
0.0
 40
7.5
  0
CIRCLE
  5
49D6
330
18
100
AcDbEntity
  8
0
100
AcDbCircle
 10
1695.056180897741
 20
1670.995847786406
 30
0.0
 40
7.5
  0
CIRCLE
  5
49D7
330
18
100
AcDbEntity
  8
0
100
AcDbCircle
 10
1642.023172308749
 20
1670.995847786406
 30
0.0
 40
7.5
  0
LINE
  5
49FE
330
18
100
AcDbEntity
  8
0
100
AcDbLine
 10
1527.8480485562
 20
2153.523770337072
 30
0.0
 11
1527.848048556201
 21
2053.523770337072
 31
0.0
  0
LINE
  5
49FF
330
18
100
AcDbEntity
  8
0
100
AcDbLine
 10
1525.8480485562
 20
2151.523770337072
 30
0.0
 11
1525.848048556201
 21
2055.523770337072
 31
0.0
  0
LINE
  5
4A00
330
18
100
AcDbEntity
  8
0
100
AcDbLine
 10
1541.8480485562
 20
2153.523770337072
 30
0.0
 11
1541.8480485562
 21
2103.523770337072
 31
0.0
  0
LINE
  5
4A01
330
18
100
AcDbEntity
  8
0
100
AcDbLine
 10
1527.848048556201
 20
2053.523770337072
 30
0.0
 11
1541.8480485562
 21
2053.523770337072
 31
0.0
  0
LINE
  5
4A02
330
18
100
AcDbEntity
  8
0
100
AcDbLine
 10
1525.848048556201
 20
2055.523770337072
 30
0.0
 11
1527.848048556201
 21
2053.523770337072
 31
0.0
  0
LINE
  5
4A03
330
18
100
AcDbEntity
  8
0
100
AcDbLine
 10
1511.3480485562
 20
2117.123770337072
 30
0.0
 11
1515.8480485562
 21
2117.123770337072
 31
0.0
  0
LINE
  5
4A04
330
18
100
AcDbEntity
  8
0
100
AcDbLine
 10
1511.3480485562
 20
2089.923770337072
 30
0.0
 11
1515.8480485562
 21
2089.923770337072
 31
0.0
  0
ARC
  5
4A05
330
18
100
AcDbEntity
  8
0
100
AcDbCircle
 10
1521.8480485562
 20
2081.334707271583
 30
0.0
 40
4.0
100
AcDbArc
 50
0.0
 51
57.38075692881245
  0
LINE
  5
4A06
330
18
100
AcDbEntity
  8
0
100
AcDbLine
 10
1515.8480485562
 20
2089.923770337072
 30
0.0
 11
1524.004263341893
 21
2084.703792874229
 31
0.0
  0
LINE
  5
4A07
330
18
100
AcDbEntity
  8
0
100
AcDbLine
 10
1527.8480485562
 20
2153.523770337072
 30
0.0
 11
1541.8480485562
 21
2153.523770337072
 31
0.0
  0
LINE
  5
4A08
330
18
100
AcDbEntity
  8
0
100
AcDbLine
 10
1525.8480485562
 20
2151.523770337072
 30
0.0
 11
1527.8480485562
 21
2153.523770337072
 31
0.0
  0
ARC
  5
4A09
330
18
100
AcDbEntity
  8
0
100
AcDbCircle
 10
1521.8480485562
 20
2125.712833402563
 30
0.0
 40
4.0
100
AcDbArc
 50
302.6192430711875
 51
0.0
  0
LINE
  5
4A0A
330
18
100
AcDbEntity
  8
0
100
AcDbLine
 10
1515.8480485562
 20
2117.123770337072
 30
0.0
 11
1524.004263341893
 21
2122.343747799916
 31
0.0
  0
LINE
  5
4A0B
330
18
100
AcDbEntity
  8
0
100
AcDbLine
 10
1350.8480485562
 20
2153.523770337072
 30
0.0
 11
1350.8480485562
 21
2103.523770337072
 31
0.0
  0
LINE
  5
4A0C
330
18
100
AcDbEntity
  8
0
100
AcDbLine
 10
1366.8480485562
 20
2151.523770337072
 30
0.0
 11
1366.848048556199
 21
2055.523770337072
 31
0.0
  0
LINE
  5
4A0D
330
18
100
AcDbEntity
  8
0
100
AcDbLine
 10
1364.8480485562
 20
2153.523770337072
 30
0.0
 11
1364.848048556199
 21
2053.523770337072
 31
0.0
  0
LINE
  5
4A0E
330
18
100
AcDbEntity
  8
0
100
AcDbLine
 10
1364.848048556199
 20
2053.523770337072
 30
0.0
 11
1350.8480485562
 21
2053.523770337072
 31
0.0
  0
LINE
  5
4A0F
330
18
100
AcDbEntity
  8
0
100
AcDbLine
 10
1366.848048556199
 20
2055.523770337072
 30
0.0
 11
1364.848048556199
 21
2053.523770337072
 31
0.0
  0
ARC
  5
4A10
330
18
100
AcDbEntity
  8
0
100
AcDbCircle
 10
1370.8480485562
 20
2081.334707271583
 30
0.0
 40
4.0
100
AcDbArc
 50
122.6192430711875
 51
180.0
  0
LINE
  5
4A11
330
18
100
AcDbEntity
  8
0
100
AcDbLine
 10
1381.348048556199
 20
2089.923770337072
 30
0.0
 11
1376.8480485562
 21
2089.923770337072
 31
0.0
  0
LINE
  5
4A12
330
18
100
AcDbEntity
  8
0
100
AcDbLine
 10
1376.8480485562
 20
2089.923770337072
 30
0.0
 11
1368.691833770506
 21
2084.703792874229
 31
0.0
  0
ARC
  5
4A13
330
18
100
AcDbEntity
  8
0
100
AcDbCircle
 10
1370.8480485562
 20
2125.712833402563
 30
0.0
 40
4.0
100
AcDbArc
 50
180.0
 51
237.3807569288124
  0
LINE
  5
4A14
330
18
100
AcDbEntity
  8
0
100
AcDbLine
 10
1364.8480485562
 20
2153.523770337072
 30
0.0
 11
1350.8480485562
 21
2153.523770337072
 31
0.0
  0
LINE
  5
4A15
330
18
100
AcDbEntity
  8
0
100
AcDbLine
 10
1366.8480485562
 20
2151.523770337072
 30
0.0
 11
1364.8480485562
 21
2153.523770337072
 31
0.0
  0
LINE
  5
4A16
330
18
100
AcDbEntity
  8
0
100
AcDbLine
 10
1381.348048556199
 20
2117.123770337072
 30
0.0
 11
1376.8480485562
 21
2117.123770337072
 31
0.0
  0
LINE
  5
4A17
330
18
100
AcDbEntity
  8
0
100
AcDbLine
 10
1376.8480485562
 20
2117.123770337072
 30
0.0
 11
1368.691833770506
 21
2122.343747799916
 31
0.0
  0
LINE
  5
4A36
330
18
100
AcDbEntity
  8
0
100
AcDbLine
 10
1527.8480485562
 20
1855.908358075619
 30
0.0
 11
1527.848048556201
 21
1755.908358075619
 31
0.0
  0
LINE
  5
4A37
330
18
100
AcDbEntity
  8
0
100
AcDbLine
 10
1525.8480485562
 20
1853.908358075619
 30
0.0
 11
1525.848048556201
 21
1757.908358075619
 31
0.0
  0
LINE
  5
4A38
330
18
100
AcDbEntity
  8
0
100
AcDbLine
 10
1541.8480485562
 20
1855.908358075619
 30
0.0
 11
1541.8480485562
 21
1805.908358075619
 31
0.0
  0
LINE
  5
4A39
330
18
100
AcDbEntity
  8
0
100
AcDbLine
 10
1527.848048556201
 20
1755.908358075619
 30
0.0
 11
1541.8480485562
 21
1755.908358075619
 31
0.0
  0
LINE
  5
4A3A
330
18
100
AcDbEntity
  8
0
100
AcDbLine
 10
1525.848048556201
 20
1757.908358075619
 30
0.0
 11
1527.848048556201
 21
1755.908358075619
 31
0.0
  0
LINE
  5
4A3B
330
18
100
AcDbEntity
  8
0
100
AcDbLine
 10
1511.3480485562
 20
1819.508358075619
 30
0.0
 11
1515.8480485562
 21
1819.508358075619
 31
0.0
  0
LINE
  5
4A3C
330
18
100
AcDbEntity
  8
0
100
AcDbLine
 10
1511.3480485562
 20
1792.308358075619
 30
0.0
 11
1515.8480485562
 21
1792.308358075619
 31
0.0
  0
ARC
  5
4A3D
330
18
100
AcDbEntity
  8
0
100
AcDbCircle
 10
1521.8480485562
 20
1783.719295010129
 30
0.0
 40
4.0
100
AcDbArc
 50
0.0
 51
57.38075692881245
  0
LINE
  5
4A3E
330
18
100
AcDbEntity
  8
0
100
AcDbLine
 10
1515.8480485562
 20
1792.308358075619
 30
0.0
 11
1524.004263341893
 21
1787.088380612775
 31
0.0
  0
LINE
  5
4A3F
330
18
100
AcDbEntity
  8
0
100
AcDbLine
 10
1527.8480485562
 20
1855.908358075619
 30
0.0
 11
1541.8480485562
 21
1855.908358075619
 31
0.0
  0
LINE
  5
4A40
330
18
100
AcDbEntity
  8
0
100
AcDbLine
 10
1525.8480485562
 20
1853.908358075619
 30
0.0
 11
1527.8480485562
 21
1855.908358075619
 31
0.0
  0
ARC
  5
4A41
330
18
100
AcDbEntity
  8
0
100
AcDbCircle
 10
1521.8480485562
 20
1828.097421141109
 30
0.0
 40
4.0
100
AcDbArc
 50
302.6192430711875
 51
0.0
  0
LINE
  5
4A42
330
18
100
AcDbEntity
  8
0
100
AcDbLine
 10
1515.8480485562
 20
1819.508358075619
 30
0.0
 11
1524.004263341893
 21
1824.728335538463
 31
0.0
  0
LINE
  5
4A43
330
18
100
AcDbEntity
  8
0
100
AcDbLine
 10
1350.8480485562
 20
1855.908358075619
 30
0.0
 11
1350.8480485562
 21
1805.908358075619
 31
0.0
  0
LINE
  5
4A44
330
18
100
AcDbEntity
  8
0
100
AcDbLine
 10
1366.8480485562
 20
1853.908358075619
 30
0.0
 11
1366.848048556199
 21
1757.908358075619
 31
0.0
  0
LINE
  5
4A45
330
18
100
AcDbEntity
  8
0
100
AcDbLine
 10
1364.8480485562
 20
1855.908358075619
 30
0.0
 11
1364.848048556199
 21
1755.908358075619
 31
0.0
  0
LINE
  5
4A46
330
18
100
AcDbEntity
  8
0
100
AcDbLine
 10
1364.848048556199
 20
1755.908358075619
 30
0.0
 11
1350.8480485562
 21
1755.908358075619
 31
0.0
  0
LINE
  5
4A47
330
18
100
AcDbEntity
  8
0
100
AcDbLine
 10
1366.848048556199
 20
1757.908358075619
 30
0.0
 11
1364.848048556199
 21
1755.908358075619
 31
0.0
  0
ARC
  5
4A48
330
18
100
AcDbEntity
  8
0
100
AcDbCircle
 10
1370.8480485562
 20
1783.719295010129
 30
0.0
 40
4.0
100
AcDbArc
 50
122.6192430711875
 51
180.0
  0
LINE
  5
4A49
330
18
100
AcDbEntity
  8
0
100
AcDbLine
 10
1381.348048556199
 20
1792.308358075619
 30
0.0
 11
1376.8480485562
 21
1792.308358075619
 31
0.0
  0
LINE
  5
4A4A
330
18
100
AcDbEntity
  8
0
100
AcDbLine
 10
1376.8480485562
 20
1792.308358075619
 30
0.0
 11
1368.691833770506
 21
1787.088380612775
 31
0.0
  0
ARC
  5
4A4B
330
18
100
AcDbEntity
  8
0
100
AcDbCircle
 10
1370.8480485562
 20
1828.097421141109
 30
0.0
 40
4.0
100
AcDbArc
 50
180.0
 51
237.3807569288124
  0
LINE
  5
4A4C
330
18
100
AcDbEntity
  8
0
100
AcDbLine
 10
1364.8480485562
 20
1855.908358075619
 30
0.0
 11
1350.8480485562
 21
1855.908358075619
 31
0.0
  0
LINE
  5
4A4D
330
18
100
AcDbEntity
  8
0
100
AcDbLine
 10
1366.8480485562
 20
1853.908358075619
 30
0.0
 11
1364.8480485562
 21
1855.908358075619
 31
0.0
  0
LINE
  5
4A4E
330
18
100
AcDbEntity
  8
0
100
AcDbLine
 10
1381.348048556199
 20
1819.508358075619
 30
0.0
 11
1376.8480485562
 21
1819.508358075619
 31
0.0
  0
LINE
  5
4A4F
330
18
100
AcDbEntity
  8
0
100
AcDbLine
 10
1376.8480485562
 20
1819.508358075619
 30
0.0
 11
1368.691833770506
 21
1824.728335538463
 31
0.0
  0
LINE
  5
4A6E
330
18
100
AcDbEntity
  8
0
100
AcDbLine
 10
1527.911410453553
 20
1747.512352080902
 30
0.0
 11
1527.911410453554
 21
1647.512352080902
 31
0.0
  0
LINE
  5
4A6F
330
18
100
AcDbEntity
  8
0
100
AcDbLine
 10
1525.911410453553
 20
1745.512352080902
 30
0.0
 11
1525.911410453554
 21
1649.512352080902
 31
0.0
  0
LINE
  5
4A70
330
18
100
AcDbEntity
  8
0
100
AcDbLine
 10
1541.911410453553
 20
1747.512352080902
 30
0.0
 11
1541.911410453553
 21
1697.512352080902
 31
0.0
  0
LINE
  5
4A71
330
18
100
AcDbEntity
  8
0
100
AcDbLine
 10
1527.911410453554
 20
1647.512352080902
 30
0.0
 11
1541.911410453553
 21
1647.512352080902
 31
0.0
  0
LINE
  5
4A72
330
18
100
AcDbEntity
  8
0
100
AcDbLine
 10
1525.911410453554
 20
1649.512352080902
 30
0.0
 11
1527.911410453554
 21
1647.512352080902
 31
0.0
  0
LINE
  5
4A73
330
18
100
AcDbEntity
  8
0
100
AcDbLine
 10
1511.411410453553
 20
1711.112352080902
 30
0.0
 11
1515.911410453553
 21
1711.112352080902
 31
0.0
  0
LINE
  5
4A74
330
18
100
AcDbEntity
  8
0
100
AcDbLine
 10
1511.411410453553
 20
1683.912352080902
 30
0.0
 11
1515.911410453553
 21
1683.912352080902
 31
0.0
  0
ARC
  5
4A75
330
18
100
AcDbEntity
  8
0
100
AcDbCircle
 10
1521.911410453553
 20
1675.323289015412
 30
0.0
 40
4.0
100
AcDbArc
 50
0.0
 51
57.38075692881245
  0
LINE
  5
4A76
330
18
100
AcDbEntity
  8
0
100
AcDbLine
 10
1515.911410453553
 20
1683.912352080902
 30
0.0
 11
1524.067625239246
 21
1678.692374618058
 31
0.0
  0
LINE
  5
4A77
330
18
100
AcDbEntity
  8
0
100
AcDbLine
 10
1527.911410453553
 20
1747.512352080902
 30
0.0
 11
1541.911410453553
 21
1747.512352080902
 31
0.0
  0
LINE
  5
4A78
330
18
100
AcDbEntity
  8
0
100
AcDbLine
 10
1525.911410453553
 20
1745.512352080902
 30
0.0
 11
1527.911410453553
 21
1747.512352080902
 31
0.0
  0
ARC
  5
4A79
330
18
100
AcDbEntity
  8
0
100
AcDbCircle
 10
1521.911410453553
 20
1719.701415146392
 30
0.0
 40
4.0
100
AcDbArc
 50
302.6192430711875
 51
0.0
  0
LINE
  5
4A7A
330
18
100
AcDbEntity
  8
0
100
AcDbLine
 10
1515.911410453553
 20
1711.112352080902
 30
0.0
 11
1524.067625239246
 21
1716.332329543746
 31
0.0
  0
LINE
  5
4A7B
330
18
100
AcDbEntity
  8
0
100
AcDbLine
 10
1350.911410453553
 20
1747.512352080902
 30
0.0
 11
1350.911410453553
 21
1697.512352080902
 31
0.0
  0
LINE
  5
4A7C
330
18
100
AcDbEntity
  8
0
100
AcDbLine
 10
1366.911410453553
 20
1745.512352080902
 30
0.0
 11
1366.911410453552
 21
1649.512352080902
 31
0.0
  0
LINE
  5
4A7D
330
18
100
AcDbEntity
  8
0
100
AcDbLine
 10
1364.911410453553
 20
1747.512352080902
 30
0.0
 11
1364.911410453552
 21
1647.512352080902
 31
0.0
  0
LINE
  5
4A7E
330
18
100
AcDbEntity
  8
0
100
AcDbLine
 10
1364.911410453552
 20
1647.512352080902
 30
0.0
 11
1350.911410453553
 21
1647.512352080902
 31
0.0
  0
LINE
  5
4A7F
330
18
100
AcDbEntity
  8
0
100
AcDbLine
 10
1366.911410453552
 20
1649.512352080902
 30
0.0
 11
1364.911410453552
 21
1647.512352080902
 31
0.0
  0
ARC
  5
4A80
330
18
100
AcDbEntity
  8
0
100
AcDbCircle
 10
1370.911410453553
 20
1675.323289015412
 30
0.0
 40
4.0
100
AcDbArc
 50
122.6192430711875
 51
180.0
  0
LINE
  5
4A81
330
18
100
AcDbEntity
  8
0
100
AcDbLine
 10
1381.411410453552
 20
1683.912352080902
 30
0.0
 11
1376.911410453553
 21
1683.912352080902
 31
0.0
  0
LINE
  5
4A82
330
18
100
AcDbEntity
  8
0
100
AcDbLine
 10
1376.911410453553
 20
1683.912352080902
 30
0.0
 11
1368.755195667859
 21
1678.692374618058
 31
0.0
  0
ARC
  5
4A83
330
18
100
AcDbEntity
  8
0
100
AcDbCircle
 10
1370.911410453553
 20
1719.701415146392
 30
0.0
 40
4.0
100
AcDbArc
 50
180.0
 51
237.3807569288124
  0
LINE
  5
4A84
330
18
100
AcDbEntity
  8
0
100
AcDbLine
 10
1364.911410453553
 20
1747.512352080902
 30
0.0
 11
1350.911410453553
 21
1747.512352080902
 31
0.0
  0
LINE
  5
4A85
330
18
100
AcDbEntity
  8
0
100
AcDbLine
 10
1366.911410453553
 20
1745.512352080902
 30
0.0
 11
1364.911410453553
 21
1747.512352080902
 31
0.0
  0
LINE
  5
4A86
330
18
100
AcDbEntity
  8
0
100
AcDbLine
 10
1381.411410453552
 20
1711.112352080902
 30
0.0
 11
1376.911410453553
 21
1711.112352080902
 31
0.0
  0
LINE
  5
4A87
330
18
100
AcDbEntity
  8
0
100
AcDbLine
 10
1376.911410453553
 20
1711.112352080902
 30
0.0
 11
1368.755195667859
 21
1716.332329543746
 31
0.0
  0
CIRCLE
  5
4AAE
330
18
100
AcDbEntity
  8
0
100
AcDbCircle
 10
1864.940983631622
 20
1681.336946794242
 30
0.0
 40
62.5
  0
CIRCLE
  5
4AAF
330
18
100
AcDbEntity
  8
0
100
AcDbCircle
 10
1833.121178478227
 20
1713.156751947637
 30
0.0
 40
9.5
  0
CIRCLE
  5
4AB0
330
18
100
AcDbEntity
  8
0
100
AcDbCircle
 10
1896.760788785016
 20
1713.156751947637
 30
0.0
 40
9.5
  0
CIRCLE
  5
4AB1
330
18
100
AcDbEntity
  8
0
100
AcDbCircle
 10
1833.121178478227
 20
1649.517141640847
 30
0.0
 40
9.5
  0
CIRCLE
  5
4AB2
330
18
100
AcDbEntity
  8
0
100
AcDbCircle
 10
1896.760788785017
 20
1649.517141640848
 30
0.0
 40
9.5
  0
LINE
  5
4AB3
330
18
100
AcDbEntity
  8
0
100
AcDbLine
 10
1905.561175654801
 20
1633.836946794242
 30
0.0
 11
1915.740983631622
 21
1633.836946794242
 31
0.0
  0
CIRCLE
  5
4AB4
330
18
100
AcDbEntity
  8
0
100
AcDbCircle
 10
2443.029285650474
 20
1681.336946794242
 30
0.0
 40
62.5
  0
CIRCLE
  5
4AB5
330
18
100
AcDbEntity
  8
0
100
AcDbCircle
 10
2474.849090803869
 20
1713.156751947637
 30
0.0
 40
9.5
  0
CIRCLE
  5
4AB6
330
18
100
AcDbEntity
  8
0
100
AcDbCircle
 10
2411.209480497079
 20
1713.156751947637
 30
0.0
 40
9.5
  0
CIRCLE
  5
4AB7
330
18
100
AcDbEntity
  8
0
100
AcDbCircle
 10
2474.849090803869
 20
1649.517141640848
 30
0.0
 40
9.5
  0
CIRCLE
  5
4AB8
330
18
100
AcDbEntity
  8
0
100
AcDbCircle
 10
2411.209480497079
 20
1649.517141640847
 30
0.0
 40
9.5
  0
LINE
  5
4AB9
330
18
100
AcDbEntity
  8
0
100
AcDbLine
 10
2483.649477673654
 20
1633.836946794242
 30
0.0
 11
2493.829285650474
 21
1633.836946794242
 31
0.0
  0
LINE
  5
4AD4
330
18
100
AcDbEntity
  8
0
100
AcDbLine
 10
2270.62043882012
 20
2211.381162132915
 30
0.0
 11
2270.62043882012
 21
2148.881162132915
 31
0.0
  0
LINE
  5
4AD5
330
18
100
AcDbEntity
  8
0
100
AcDbLine
 10
2254.62043882012
 20
2209.381162132915
 30
0.0
 11
2254.62043882012
 21
2088.381162132915
 31
0.0
  0
LINE
  5
4AD6
330
18
100
AcDbEntity
  8
0
100
AcDbLine
 10
2256.62043882012
 20
2211.381162132915
 30
0.0
 11
2256.620438820121
 21
2086.381162132915
 31
0.0
  0
LINE
  5
4AD7
330
18
100
AcDbEntity
  8
0
100
AcDbLine
 10
2256.62043882012
 20
2086.381162132915
 30
0.0
 11
2270.620438820121
 21
2086.381162132915
 31
0.0
  0
LINE
  5
4AD8
330
18
100
AcDbEntity
  8
0
100
AcDbLine
 10
2254.62043882012
 20
2088.381162132915
 30
0.0
 11
2256.62043882012
 21
2086.381162132915
 31
0.0
  0
LINE
  5
4AD9
330
18
100
AcDbEntity
  8
0
100
AcDbLine
 10
2244.62043882012
 20
2131.881162132915
 30
0.0
 11
2254.62043882012
 21
2123.881162132915
 31
0.0
  0
LINE
  5
4ADA
330
18
100
AcDbEntity
  8
0
100
AcDbLine
 10
2232.12043882012
 20
2131.881162132915
 30
0.0
 11
2244.62043882012
 21
2131.881162132915
 31
0.0
  0
LINE
  5
4ADB
330
18
100
AcDbEntity
  8
0
100
AcDbLine
 10
2244.620438820121
 20
2165.881162132915
 30
0.0
 11
2254.620438820121
 21
2173.881162132915
 31
0.0
  0
LINE
  5
4ADC
330
18
100
AcDbEntity
  8
0
100
AcDbLine
 10
2232.120438820121
 20
2165.881162132915
 30
0.0
 11
2244.620438820121
 21
2165.881162132915
 31
0.0
  0
LINE
  5
4ADD
330
18
100
AcDbEntity
  8
0
100
AcDbLine
 10
2256.62043882012
 20
2211.381162132915
 30
0.0
 11
2270.62043882012
 21
2211.381162132915
 31
0.0
  0
LINE
  5
4ADE
330
18
100
AcDbEntity
  8
0
100
AcDbLine
 10
2256.62043882012
 20
2211.381162132915
 30
0.0
 11
2254.62043882012
 21
2209.381162132915
 31
0.0
  0
LINE
  5
4ADF
330
18
100
AcDbEntity
  8
0
100
AcDbLine
 10
2043.620438820119
 20
2211.381162132912
 30
0.0
 11
2043.62043882012
 21
2148.881162132913
 31
0.0
  0
LINE
  5
4AE0
330
18
100
AcDbEntity
  8
0
100
AcDbLine
 10
2059.620438820118
 20
2209.381162132913
 30
0.0
 11
2059.62043882012
 21
2088.381162132913
 31
0.0
  0
LINE
  5
4AE1
330
18
100
AcDbEntity
  8
0
100
AcDbLine
 10
2057.620438820118
 20
2211.381162132913
 30
0.0
 11
2057.62043882012
 21
2086.381162132913
 31
0.0
  0
LINE
  5
4AE2
330
18
100
AcDbEntity
  8
0
100
AcDbLine
 10
2059.62043882012
 20
2088.381162132913
 30
0.0
 11
2057.620438820121
 21
2086.381162132913
 31
0.0
  0
LINE
  5
4AE3
330
18
100
AcDbEntity
  8
0
100
AcDbLine
 10
2057.620438820121
 20
2086.381162132913
 30
0.0
 11
2043.62043882012
 21
2086.381162132913
 31
0.0
  0
LINE
  5
4AE4
330
18
100
AcDbEntity
  8
0
100
AcDbLine
 10
2069.620438820119
 20
2131.881162132913
 30
0.0
 11
2059.62043882012
 21
2123.881162132913
 31
0.0
  0
LINE
  5
4AE5
330
18
100
AcDbEntity
  8
0
100
AcDbLine
 10
2082.12043882012
 20
2131.881162132914
 30
0.0
 11
2069.620438820119
 21
2131.881162132913
 31
0.0
  0
LINE
  5
4AE6
330
18
100
AcDbEntity
  8
0
100
AcDbLine
 10
2069.620438820119
 20
2165.881162132913
 30
0.0
 11
2059.620438820119
 21
2173.881162132913
 31
0.0
  0
LINE
  5
4AE7
330
18
100
AcDbEntity
  8
0
100
AcDbLine
 10
2082.120438820119
 20
2165.881162132913
 30
0.0
 11
2069.620438820119
 21
2165.881162132913
 31
0.0
  0
LINE
  5
4AE8
330
18
100
AcDbEntity
  8
0
100
AcDbLine
 10
2057.620438820118
 20
2211.381162132913
 30
0.0
 11
2059.620438820118
 21
2209.381162132913
 31
0.0
  0
LINE
  5
4AE9
330
18
100
AcDbEntity
  8
0
100
AcDbLine
 10
2057.620438820118
 20
2211.381162132913
 30
0.0
 11
2043.620438820119
 21
2211.381162132913
 31
0.0
  0
LINE
  5
4B2C
330
18
100
AcDbEntity
  8
0
100
AcDbLine
 10
2069.620438820119
 20
1811.422484165937
 30
0.0
 11
2059.62043882012
 21
1803.422484165938
 31
0.0
  0
LINE
  5
4B2D
330
18
100
AcDbEntity
  8
0
100
AcDbLine
 10
2069.620438820119
 20
1845.422484165937
 30
0.0
 11
2059.620438820119
 21
1853.422484165938
 31
0.0
  0
LINE
  5
4B2E
330
18
100
AcDbEntity
  8
0
100
AcDbLine
 10
2057.620438820118
 20
1890.922484165938
 30
0.0
 11
2057.62043882012
 21
1765.922484165938
 31
0.0
  0
LINE
  5
4B2F
330
18
100
AcDbEntity
  8
0
100
AcDbLine
 10
2059.620438820118
 20
1888.922484165938
 30
0.0
 11
2059.62043882012
 21
1767.922484165938
 31
0.0
  0
LINE
  5
4B30
330
18
100
AcDbEntity
  8
0
100
AcDbLine
 10
2043.620438820119
 20
1890.922484165937
 30
0.0
 11
2043.62043882012
 21
1828.422484165937
 31
0.0
  0
LINE
  5
4B31
330
18
100
AcDbEntity
  8
0
100
AcDbLine
 10
2057.620438820121
 20
1765.922484165938
 30
0.0
 11
2043.62043882012
 21
1765.922484165938
 31
0.0
  0
LINE
  5
4B32
330
18
100
AcDbEntity
  8
0
100
AcDbLine
 10
2059.62043882012
 20
1767.922484165938
 30
0.0
 11
2057.620438820121
 21
1765.922484165938
 31
0.0
  0
LINE
  5
4B33
330
18
100
AcDbEntity
  8
0
100
AcDbLine
 10
2057.620438820118
 20
1890.922484165938
 30
0.0
 11
2043.620438820119
 21
1890.922484165938
 31
0.0
  0
LINE
  5
4B34
330
18
100
AcDbEntity
  8
0
100
AcDbLine
 10
2057.620438820118
 20
1890.922484165938
 30
0.0
 11
2059.620438820118
 21
1888.922484165938
 31
0.0
  0
LINE
  5
4B35
330
18
100
AcDbEntity
  8
0
100
AcDbLine
 10
2082.12043882012
 20
1811.422484165938
 30
0.0
 11
2069.620438820119
 21
1811.422484165937
 31
0.0
  0
LINE
  5
4B36
330
18
100
AcDbEntity
  8
0
100
AcDbLine
 10
2082.120438820119
 20
1845.422484165937
 30
0.0
 11
2069.620438820119
 21
1845.422484165937
 31
0.0
  0
LINE
  5
4B37
330
18
100
AcDbEntity
  8
0
100
AcDbLine
 10
2256.62043882012
 20
1890.922484165939
 30
0.0
 11
2256.620438820121
 21
1765.922484165939
 31
0.0
  0
LINE
  5
4B38
330
18
100
AcDbEntity
  8
0
100
AcDbLine
 10
2254.62043882012
 20
1888.92248416594
 30
0.0
 11
2254.62043882012
 21
1767.922484165939
 31
0.0
  0
LINE
  5
4B39
330
18
100
AcDbEntity
  8
0
100
AcDbLine
 10
2270.62043882012
 20
1890.922484165939
 30
0.0
 11
2270.62043882012
 21
1828.422484165939
 31
0.0
  0
LINE
  5
4B3A
330
18
100
AcDbEntity
  8
0
100
AcDbLine
 10
2256.62043882012
 20
1765.922484165939
 30
0.0
 11
2270.620438820121
 21
1765.922484165939
 31
0.0
  0
LINE
  5
4B3B
330
18
100
AcDbEntity
  8
0
100
AcDbLine
 10
2232.12043882012
 20
1811.422484165939
 30
0.0
 11
2244.62043882012
 21
1811.422484165939
 31
0.0
  0
LINE
  5
4B3C
330
18
100
AcDbEntity
  8
0
100
AcDbLine
 10
2244.62043882012
 20
1811.422484165939
 30
0.0
 11
2254.62043882012
 21
1803.422484165939
 31
0.0
  0
LINE
  5
4B3D
330
18
100
AcDbEntity
  8
0
100
AcDbLine
 10
2254.62043882012
 20
1767.922484165939
 30
0.0
 11
2256.62043882012
 21
1765.922484165939
 31
0.0
  0
LINE
  5
4B3E
330
18
100
AcDbEntity
  8
0
100
AcDbLine
 10
2256.62043882012
 20
1890.922484165939
 30
0.0
 11
2270.62043882012
 21
1890.922484165939
 31
0.0
  0
LINE
  5
4B3F
330
18
100
AcDbEntity
  8
0
100
AcDbLine
 10
2232.120438820121
 20
1845.422484165939
 30
0.0
 11
2244.620438820121
 21
1845.422484165939
 31
0.0
  0
LINE
  5
4B40
330
18
100
AcDbEntity
  8
0
100
AcDbLine
 10
2244.620438820121
 20
1845.422484165939
 30
0.0
 11
2254.620438820121
 21
1853.422484165939
 31
0.0
  0
LINE
  5
4B41
330
18
100
AcDbEntity
  8
0
100
AcDbLine
 10
2256.62043882012
 20
1890.922484165939
 30
0.0
 11
2254.62043882012
 21
1888.92248416594
 31
0.0
  0
LINE
  5
4B42
330
18
100
AcDbEntity
  8
0
100
AcDbLine
 10
2069.620438820119
 20
1664.336946794241
 30
0.0
 11
2059.62043882012
 21
1656.33694679424
 31
0.0
  0
LINE
  5
4B43
330
18
100
AcDbEntity
  8
0
100
AcDbLine
 10
2069.620438820119
 20
1698.336946794241
 30
0.0
 11
2059.620438820119
 21
1706.33694679424
 31
0.0
  0
LINE
  5
4B44
330
18
100
AcDbEntity
  8
0
100
AcDbLine
 10
2057.620438820118
 20
1743.83694679424
 30
0.0
 11
2057.62043882012
 21
1618.83694679424
 31
0.0
  0
LINE
  5
4B45
330
18
100
AcDbEntity
  8
0
100
AcDbLine
 10
2059.620438820118
 20
1741.83694679424
 30
0.0
 11
2059.62043882012
 21
1620.836946794241
 31
0.0
  0
LINE
  5
4B46
330
18
100
AcDbEntity
  8
0
100
AcDbLine
 10
2043.620438820119
 20
1743.83694679424
 30
0.0
 11
2043.62043882012
 21
1681.33694679424
 31
0.0
  0
LINE
  5
4B47
330
18
100
AcDbEntity
  8
0
100
AcDbLine
 10
2057.620438820121
 20
1618.83694679424
 30
0.0
 11
2043.62043882012
 21
1618.83694679424
 31
0.0
  0
LINE
  5
4B48
330
18
100
AcDbEntity
  8
0
100
AcDbLine
 10
2059.62043882012
 20
1620.836946794241
 30
0.0
 11
2057.620438820121
 21
1618.83694679424
 31
0.0
  0
LINE
  5
4B49
330
18
100
AcDbEntity
  8
0
100
AcDbLine
 10
2057.620438820118
 20
1743.83694679424
 30
0.0
 11
2043.620438820119
 21
1743.83694679424
 31
0.0
  0
LINE
  5
4B4A
330
18
100
AcDbEntity
  8
0
100
AcDbLine
 10
2057.620438820118
 20
1743.83694679424
 30
0.0
 11
2059.620438820118
 21
1741.83694679424
 31
0.0
  0
LINE
  5
4B4B
330
18
100
AcDbEntity
  8
0
100
AcDbLine
 10
2082.12043882012
 20
1664.336946794241
 30
0.0
 11
2069.620438820119
 21
1664.336946794241
 31
0.0
  0
LINE
  5
4B4C
330
18
100
AcDbEntity
  8
0
100
AcDbLine
 10
2082.120438820119
 20
1698.336946794241
 30
0.0
 11
2069.620438820119
 21
1698.336946794241
 31
0.0
  0
LINE
  5
4B4D
330
18
100
AcDbEntity
  8
0
100
AcDbLine
 10
2256.62043882012
 20
1743.836946794242
 30
0.0
 11
2256.620438820121
 21
1618.836946794242
 31
0.0
  0
LINE
  5
4B4E
330
18
100
AcDbEntity
  8
0
100
AcDbLine
 10
2254.62043882012
 20
1741.836946794242
 30
0.0
 11
2254.62043882012
 21
1620.836946794242
 31
0.0
  0
LINE
  5
4B4F
330
18
100
AcDbEntity
  8
0
100
AcDbLine
 10
2270.62043882012
 20
1743.836946794242
 30
0.0
 11
2270.62043882012
 21
1681.336946794242
 31
0.0
  0
LINE
  5
4B50
330
18
100
AcDbEntity
  8
0
100
AcDbLine
 10
2256.62043882012
 20
1618.836946794242
 30
0.0
 11
2270.620438820121
 21
1618.836946794242
 31
0.0
  0
LINE
  5
4B51
330
18
100
AcDbEntity
  8
0
100
AcDbLine
 10
2232.12043882012
 20
1664.336946794242
 30
0.0
 11
2244.62043882012
 21
1664.336946794242
 31
0.0
  0
LINE
  5
4B52
330
18
100
AcDbEntity
  8
0
100
AcDbLine
 10
2244.62043882012
 20
1664.336946794242
 30
0.0
 11
2254.62043882012
 21
1656.336946794243
 31
0.0
  0
LINE
  5
4B53
330
18
100
AcDbEntity
  8
0
100
AcDbLine
 10
2254.62043882012
 20
1620.836946794242
 30
0.0
 11
2256.62043882012
 21
1618.836946794242
 31
0.0
  0
LINE
  5
4B54
330
18
100
AcDbEntity
  8
0
100
AcDbLine
 10
2256.62043882012
 20
1743.836946794242
 30
0.0
 11
2270.62043882012
 21
1743.836946794242
 31
0.0
  0
LINE
  5
4B55
330
18
100
AcDbEntity
  8
0
100
AcDbLine
 10
2232.120438820121
 20
1698.336946794242
 30
0.0
 11
2244.620438820121
 21
1698.336946794242
 31
0.0
  0
LINE
  5
4B56
330
18
100
AcDbEntity
  8
0
100
AcDbLine
 10
2244.620438820121
 20
1698.336946794242
 30
0.0
 11
2254.620438820121
 21
1706.336946794243
 31
0.0
  0
LINE
  5
4B57
330
18
100
AcDbEntity
  8
0
100
AcDbLine
 10
2256.62043882012
 20
1743.836946794242
 30
0.0
 11
2254.62043882012
 21
1741.836946794242
 31
0.0
  0
CIRCLE
  5
4B61
330
18
100
AcDbEntity
  8
0
100
AcDbCircle
 10
2682.689476491517
 20
1489.17550773528
 30
0.0
 40
70.0
  0
CIRCLE
  5
4B62
330
18
100
AcDbEntity
  8
0
100
AcDbCircle
 10
2719.81258250381
 20
1526.298613747574
 30
0.0
 40
9.5
  0
CIRCLE
  5
4B63
330
18
100
AcDbEntity
  8
0
100
AcDbCircle
 10
2645.566370479222
 20
1526.298613747574
 30
0.0
 40
9.5
  0
CIRCLE
  5
4B64
330
18
100
AcDbEntity
  8
0
100
AcDbCircle
 10
2645.566370479222
 20
1452.052401722986
 30
0.0
 40
9.5
  0
CIRCLE
  5
4B65
330
18
100
AcDbEntity
  8
0
100
AcDbCircle
 10
2719.81258250381
 20
1452.052401722986
 30
0.0
 40
9.5
  0
LINE
  5
4B66
330
18
100
AcDbEntity
  8
0
100
AcDbLine
 10
2724.689476491517
 20
1433.17550773528
 30
0.0
 11
2739.689476491517
 21
1433.17550773528
 31
0.0
  0
LINE
  5
4B67
330
18
100
AcDbEntity
  8
0
100
AcDbLine
 10
2724.689476491517
 20
1433.17550773528
 30
0.0
 11
2739.689476491517
 21
1433.17550773528
 31
0.0
  0
CIRCLE
  5
4B68
330
18
100
AcDbEntity
  8
0
100
AcDbCircle
 10
3206.206807413693
 20
1489.17550773528
 30
0.0
 40
70.0
  0
CIRCLE
  5
4B69
330
18
100
AcDbEntity
  8
0
100
AcDbCircle
 10
3169.083701401399
 20
1526.298613747574
 30
0.0
 40
9.5
  0
CIRCLE
  5
4B6A
330
18
100
AcDbEntity
  8
0
100
AcDbCircle
 10
3243.329913425986
 20
1526.298613747574
 30
0.0
 40
9.5
  0
CIRCLE
  5
4B6B
330
18
100
AcDbEntity
  8
0
100
AcDbCircle
 10
3169.083701401399
 20
1452.052401722986
 30
0.0
 40
9.5
  0
CIRCLE
  5
4B6C
330
18
100
AcDbEntity
  8
0
100
AcDbCircle
 10
3243.329913425986
 20
1452.052401722986
 30
0.0
 40
9.5
  0
LINE
  5
4B6D
330
18
100
AcDbEntity
  8
0
100
AcDbLine
 10
3248.206807413693
 20
1433.17550773528
 30
0.0
 11
3263.206807413693
 21
1433.17550773528
 31
0.0
  0
LINE
  5
4B6E
330
18
100
AcDbEntity
  8
0
100
AcDbLine
 10
3248.206807413693
 20
1433.17550773528
 30
0.0
 11
3263.206807413693
 21
1433.17550773528
 31
0.0
  0
LINE
  5
4B83
330
18
100
AcDbEntity
  8
0
100
AcDbLine
 10
2856.874681188005
 20
2180.136239454644
 30
0.0
 11
2856.874681188004
 21
2110.136239454644
 31
0.0
  0
LINE
  5
4B84
330
18
100
AcDbEntity
  8
0
100
AcDbLine
 10
2874.874681188004
 20
2178.136239454644
 30
0.0
 11
2874.874681188003
 21
2042.136239454644
 31
0.0
  0
LINE
  5
4B85
330
18
100
AcDbEntity
  8
0
100
AcDbLine
 10
2897.874681188003
 20
2085.636239454644
 30
0.0
 11
2874.874681188003
 21
2085.636239454644
 31
0.0
  0
LINE
  5
4B86
330
18
100
AcDbEntity
  8
0
100
AcDbLine
 10
2872.874681188003
 20
2040.136239454644
 30
0.0
 11
2856.874681188003
 21
2040.136239454644
 31
0.0
  0
LINE
  5
4B87
330
18
100
AcDbEntity
  8
0
100
AcDbLine
 10
2874.874681188003
 20
2042.136239454644
 30
0.0
 11
2872.874681188003
 21
2040.136239454644
 31
0.0
  0
LINE
  5
4B88
330
18
100
AcDbEntity
  8
0
100
AcDbLine
 10
2897.874681188004
 20
2134.636239454644
 30
0.0
 11
2874.874681188004
 21
2134.636239454644
 31
0.0
  0
LINE
  5
4B89
330
18
100
AcDbEntity
  8
0
100
AcDbLine
 10
2872.874681188005
 20
2180.136239454644
 30
0.0
 11
2856.874681188005
 21
2180.136239454644
 31
0.0
  0
LINE
  5
4B8A
330
18
100
AcDbEntity
  8
0
100
AcDbLine
 10
2872.874681188005
 20
2180.136239454644
 30
0.0
 11
2874.874681188004
 21
2178.136239454644
 31
0.0
  0
LINE
  5
4B8B
330
18
100
AcDbEntity
  8
0
100
AcDbLine
 10
3108.874681188005
 20
2180.136239454643
 30
0.0
 11
3108.874681188005
 21
2110.136239454643
 31
0.0
  0
LINE
  5
4B8C
330
18
100
AcDbEntity
  8
0
100
AcDbLine
 10
3090.874681188006
 20
2178.136239454643
 30
0.0
 11
3090.874681188006
 21
2042.136239454643
 31
0.0
  0
LINE
  5
4B8D
330
18
100
AcDbEntity
  8
0
100
AcDbLine
 10
3090.874681188006
 20
2042.136239454643
 30
0.0
 11
3092.874681188006
 21
2040.136239454643
 31
0.0
  0
LINE
  5
4B8E
330
18
100
AcDbEntity
  8
0
100
AcDbLine
 10
3067.874681188006
 20
2085.636239454643
 30
0.0
 11
3090.874681188006
 21
2085.636239454643
 31
0.0
  0
LINE
  5
4B8F
330
18
100
AcDbEntity
  8
0
100
AcDbLine
 10
3092.874681188006
 20
2040.136239454643
 30
0.0
 11
3108.874681188005
 21
2040.136239454643
 31
0.0
  0
LINE
  5
4B90
330
18
100
AcDbEntity
  8
0
100
AcDbLine
 10
3092.874681188006
 20
2180.136239454643
 30
0.0
 11
3090.874681188006
 21
2178.136239454643
 31
0.0
  0
LINE
  5
4B91
330
18
100
AcDbEntity
  8
0
100
AcDbLine
 10
3067.874681188006
 20
2134.636239454643
 30
0.0
 11
3090.874681188006
 21
2134.636239454643
 31
0.0
  0
LINE
  5
4B92
330
18
100
AcDbEntity
  8
0
100
AcDbLine
 10
3092.874681188006
 20
2180.136239454643
 30
0.0
 11
3108.874681188005
 21
2180.136239454643
 31
0.0
  0
LINE
  5
4B93
330
18
100
AcDbEntity
  8
0
100
AcDbLine
 10
2897.874681188005
 20
1716.84023267361
 30
0.0
 11
2874.874681188005
 21
1716.84023267361
 31
0.0
  0
LINE
  5
4B94
330
18
100
AcDbEntity
  8
0
100
AcDbLine
 10
2897.874681188005
 20
1667.84023267361
 30
0.0
 11
2874.874681188004
 21
1667.84023267361
 31
0.0
  0
LINE
  5
4B95
330
18
100
AcDbEntity
  8
0
100
AcDbLine
 10
2874.874681188005
 20
1760.34023267361
 30
0.0
 11
2874.874681188004
 21
1624.34023267361
 31
0.0
  0
LINE
  5
4B96
330
18
100
AcDbEntity
  8
0
100
AcDbLine
 10
2856.874681188006
 20
1762.340232673611
 30
0.0
 11
2856.874681188005
 21
1692.34023267361
 31
0.0
  0
LINE
  5
4B97
330
18
100
AcDbEntity
  8
0
100
AcDbLine
 10
2872.874681188004
 20
1622.34023267361
 30
0.0
 11
2856.874681188005
 21
1622.34023267361
 31
0.0
  0
LINE
  5
4B98
330
18
100
AcDbEntity
  8
0
100
AcDbLine
 10
2874.874681188004
 20
1624.34023267361
 30
0.0
 11
2872.874681188004
 21
1622.34023267361
 31
0.0
  0
LINE
  5
4B99
330
18
100
AcDbEntity
  8
0
100
AcDbLine
 10
2872.874681188005
 20
1762.34023267361
 30
0.0
 11
2856.874681188006
 21
1762.340232673611
 31
0.0
  0
LINE
  5
4B9A
330
18
100
AcDbEntity
  8
0
100
AcDbLine
 10
2872.874681188005
 20
1762.34023267361
 30
0.0
 11
2874.874681188005
 21
1760.34023267361
 31
0.0
  0
LINE
  5
4B9B
330
18
100
AcDbEntity
  8
0
100
AcDbLine
 10
3090.874681188006
 20
1760.340232673609
 30
0.0
 11
3090.874681188006
 21
1624.340232673609
 31
0.0
  0
LINE
  5
4B9C
330
18
100
AcDbEntity
  8
0
100
AcDbLine
 10
3108.874681188006
 20
1762.340232673609
 30
0.0
 11
3108.874681188007
 21
1692.340232673609
 31
0.0
  0
LINE
  5
4B9D
330
18
100
AcDbEntity
  8
0
100
AcDbLine
 10
3092.874681188007
 20
1622.340232673609
 30
0.0
 11
3108.874681188006
 21
1622.340232673609
 31
0.0
  0
LINE
  5
4B9E
330
18
100
AcDbEntity
  8
0
100
AcDbLine
 10
3090.874681188006
 20
1624.340232673609
 30
0.0
 11
3092.874681188007
 21
1622.340232673609
 31
0.0
  0
LINE
  5
4B9F
330
18
100
AcDbEntity
  8
0
100
AcDbLine
 10
3067.874681188007
 20
1716.840232673609
 30
0.0
 11
3090.874681188006
 21
1716.840232673609
 31
0.0
  0
LINE
  5
4BA0
330
18
100
AcDbEntity
  8
0
100
AcDbLine
 10
3067.874681188007
 20
1667.840232673609
 30
0.0
 11
3090.874681188006
 21
1667.840232673609
 31
0.0
  0
LINE
  5
4BA1
330
18
100
AcDbEntity
  8
0
100
AcDbLine
 10
3092.874681188007
 20
1762.340232673609
 30
0.0
 11
3108.874681188006
 21
1762.340232673609
 31
0.0
  0
LINE
  5
4BA2
330
18
100
AcDbEntity
  8
0
100
AcDbLine
 10
3092.874681188007
 20
1762.340232673609
 30
0.0
 11
3090.874681188006
 21
1760.340232673609
 31
0.0
  0
LINE
  5
4BA3
330
18
100
AcDbEntity
  8
0
100
AcDbLine
 10
2897.874681188005
 20
1513.675507735281
 30
0.0
 11
2874.874681188005
 21
1513.675507735281
 31
0.0
  0
LINE
  5
4BA4
330
18
100
AcDbEntity
  8
0
100
AcDbLine
 10
2897.874681188005
 20
1464.675507735281
 30
0.0
 11
2874.874681188004
 21
1464.675507735281
 31
0.0
  0
LINE
  5
4BA5
330
18
100
AcDbEntity
  8
0
100
AcDbLine
 10
2874.874681188005
 20
1557.175507735281
 30
0.0
 11
2874.874681188004
 21
1421.175507735281
 31
0.0
  0
LINE
  5
4BA6
330
18
100
AcDbEntity
  8
0
100
AcDbLine
 10
2856.874681188006
 20
1559.175507735282
 30
0.0
 11
2856.874681188005
 21
1489.175507735281
 31
0.0
  0
LINE
  5
4BA7
330
18
100
AcDbEntity
  8
0
100
AcDbLine
 10
2872.874681188004
 20
1419.175507735281
 30
0.0
 11
2856.874681188005
 21
1419.175507735281
 31
0.0
  0
LINE
  5
4BA8
330
18
100
AcDbEntity
  8
0
100
AcDbLine
 10
2874.874681188004
 20
1421.175507735281
 30
0.0
 11
2872.874681188004
 21
1419.175507735281
 31
0.0
  0
LINE
  5
4BA9
330
18
100
AcDbEntity
  8
0
100
AcDbLine
 10
2872.874681188005
 20
1559.175507735281
 30
0.0
 11
2856.874681188006
 21
1559.175507735282
 31
0.0
  0
LINE
  5
4BAA
330
18
100
AcDbEntity
  8
0
100
AcDbLine
 10
2872.874681188005
 20
1559.175507735281
 30
0.0
 11
2874.874681188005
 21
1557.175507735281
 31
0.0
  0
LINE
  5
4BAB
330
18
100
AcDbEntity
  8
0
100
AcDbLine
 10
3090.874681188006
 20
1557.17550773528
 30
0.0
 11
3090.874681188006
 21
1421.17550773528
 31
0.0
  0
LINE
  5
4BAC
330
18
100
AcDbEntity
  8
0
100
AcDbLine
 10
3108.874681188006
 20
1559.17550773528
 30
0.0
 11
3108.874681188007
 21
1489.17550773528
 31
0.0
  0
LINE
  5
4BAD
330
18
100
AcDbEntity
  8
0
100
AcDbLine
 10
3092.874681188007
 20
1419.17550773528
 30
0.0
 11
3108.874681188006
 21
1419.17550773528
 31
0.0
  0
LINE
  5
4BAE
330
18
100
AcDbEntity
  8
0
100
AcDbLine
 10
3090.874681188006
 20
1421.17550773528
 30
0.0
 11
3092.874681188007
 21
1419.17550773528
 31
0.0
  0
LINE
  5
4BAF
330
18
100
AcDbEntity
  8
0
100
AcDbLine
 10
3067.874681188007
 20
1513.67550773528
 30
0.0
 11
3090.874681188006
 21
1513.67550773528
 31
0.0
  0
LINE
  5
4BB0
330
18
100
AcDbEntity
  8
0
100
AcDbLine
 10
3067.874681188007
 20
1464.67550773528
 30
0.0
 11
3090.874681188006
 21
1464.67550773528
 31
0.0
  0
LINE
  5
4BB1
330
18
100
AcDbEntity
  8
0
100
AcDbLine
 10
3092.874681188007
 20
1559.17550773528
 30
0.0
 11
3108.874681188006
 21
1559.17550773528
 31
0.0
  0
LINE
  5
4BB2
330
18
100
AcDbEntity
  8
0
100
AcDbLine
 10
3092.874681188007
 20
1559.17550773528
 30
0.0
 11
3090.874681188006
 21
1557.17550773528
 31
0.0
  0
CIRCLE
  5
4BD5
330
18
100
AcDbEntity
  8
0
100
AcDbCircle
 10
675.6746399458598
 20
611.3766349548723
 30
0.0
 40
9.5
  0
CIRCLE
  5
4BD6
330
18
100
AcDbEntity
  8
0
100
AcDbCircle
 10
786.5401838472134
 20
611.3766349548711
 30
0.0
 40
9.5
  0
CIRCLE
  5
4BD7
330
18
100
AcDbEntity
  8
0
100
AcDbCircle
 10
731.1074118965371
 20
588.4156290129667
 30
0.0
 40
77.5
  0
CIRCLE
  5
4BD8
330
18
100
AcDbEntity
  8
0
100
AcDbCircle
 10
708.1464059546314
 20
643.8484009636438
 30
0.0
 40
9.5
  0
CIRCLE
  5
4BD9
330
18
100
AcDbEntity
  8
0
100
AcDbCircle
 10
754.0684178384426
 20
643.848400963644
 30
0.0
 40
9.5
  0
CIRCLE
  5
4BDA
330
18
100
AcDbEntity
  8
0
100
AcDbCircle
 10
708.1464059546314
 20
532.9828570622899
 30
0.0
 40
9.5
  0
CIRCLE
  5
4BDB
330
18
100
AcDbEntity
  8
0
100
AcDbCircle
 10
675.6746399458598
 20
565.4546230710621
 30
0.0
 40
9.5
  0
CIRCLE
  5
4BDC
330
18
100
AcDbEntity
  8
0
100
AcDbCircle
 10
754.0684178384426
 20
532.9828570622894
 30
0.0
 40
9.5
  0
CIRCLE
  5
4BDD
330
18
100
AcDbEntity
  8
0
100
AcDbCircle
 10
786.5401838472144
 20
565.4546230710616
 30
0.0
 40
9.5
  0
LINE
  5
4BDE
330
18
100
AcDbEntity
  8
0
100
AcDbLine
 10
777.6074118965371
 20
526.4156290129667
 30
0.0
 11
813.7074118965369
 21
526.4156290129667
 31
0.0
  0
CIRCLE
  5
4BEC
330
18
100
AcDbEntity
  8
0
100
AcDbCircle
 10
1408.97018315003
 20
611.3766349548723
 30
0.0
 40
9.5
  0
CIRCLE
  5
4BED
330
18
100
AcDbEntity
  8
0
100
AcDbCircle
 10
1519.835727051384
 20
611.3766349548711
 30
0.0
 40
9.5
  0
CIRCLE
  5
4BEE
330
18
100
AcDbEntity
  8
0
100
AcDbCircle
 10
1464.402955100708
 20
588.4156290129667
 30
0.0
 40
77.5
  0
CIRCLE
  5
4BEF
330
18
100
AcDbEntity
  8
0
100
AcDbCircle
 10
1441.441949158802
 20
643.8484009636438
 30
0.0
 40
9.5
  0
CIRCLE
  5
4BF0
330
18
100
AcDbEntity
  8
0
100
AcDbCircle
 10
1487.363961042613
 20
643.848400963644
 30
0.0
 40
9.5
  0
CIRCLE
  5
4BF1
330
18
100
AcDbEntity
  8
0
100
AcDbCircle
 10
1441.441949158802
 20
532.9828570622899
 30
0.0
 40
9.5
  0
CIRCLE
  5
4BF2
330
18
100
AcDbEntity
  8
0
100
AcDbCircle
 10
1408.97018315003
 20
565.4546230710621
 30
0.0
 40
9.5
  0
CIRCLE
  5
4BF3
330
18
100
AcDbEntity
  8
0
100
AcDbCircle
 10
1487.363961042613
 20
532.9828570622894
 30
0.0
 40
9.5
  0
CIRCLE
  5
4BF4
330
18
100
AcDbEntity
  8
0
100
AcDbCircle
 10
1519.835727051385
 20
565.4546230710616
 30
0.0
 40
9.5
  0
LINE
  5
4BF5
330
18
100
AcDbEntity
  8
0
100
AcDbLine
 10
1510.902955100708
 20
526.4156290129667
 30
0.0
 11
1547.002955100707
 21
526.4156290129667
 31
0.0
  0
LINE
  5
4C0C
330
18
100
AcDbEntity
  8
0
100
AcDbLine
 10
947.5784485555932
 20
665.9156290129667
 30
0.0
 11
947.5784485555932
 21
588.4156290129667
 31
0.0
  0
LINE
  5
4C0D
330
18
100
AcDbEntity
  8
0
100
AcDbLine
 10
970.0784485555931
 20
663.9156290129669
 30
0.0
 11
970.0784485555931
 21
512.9156290129669
 31
0.0
  0
LINE
  5
4C0E
330
18
100
AcDbEntity
  8
0
100
AcDbLine
 10
968.0784485555932
 20
665.9156290129669
 30
0.0
 11
968.0784485555932
 21
510.915629012967
 31
0.0
  0
LINE
  5
4C0F
330
18
100
AcDbEntity
  8
0
100
AcDbLine
 10
947.5784485555932
 20
510.9156290129667
 30
0.0
 11
968.0784485555932
 21
510.915629012967
 31
0.0
  0
LINE
  5
4C10
330
18
100
AcDbEntity
  8
0
100
AcDbLine
 10
970.0784485555931
 20
512.9156290129669
 30
0.0
 11
968.0784485555932
 21
510.915629012967
 31
0.0
  0
LINE
  5
4C11
330
18
100
AcDbEntity
  8
0
100
AcDbLine
 10
970.0784485555931
 20
557.9156290129665
 30
0.0
 11
1001.578448555593
 21
557.9156290129667
 31
0.0
  0
LINE
  5
4C12
330
18
100
AcDbEntity
  8
0
100
AcDbLine
 10
947.5784485555932
 20
665.9156290129667
 30
0.0
 11
968.0784485555932
 21
665.9156290129669
 31
0.0
  0
LINE
  5
4C13
330
18
100
AcDbEntity
  8
0
100
AcDbLine
 10
970.0784485555931
 20
618.9156290129665
 30
0.0
 11
1001.578448555593
 21
618.9156290129666
 31
0.0
  0
LINE
  5
4C14
330
18
100
AcDbEntity
  8
0
100
AcDbLine
 10
968.0784485555932
 20
665.9156290129669
 30
0.0
 11
970.0784485555931
 21
663.9156290129669
 31
0.0
  0
LINE
  5
4C15
330
18
100
AcDbEntity
  8
0
100
AcDbLine
 10
1255.078448555593
 20
665.9156290129669
 30
0.0
 11
1255.078448555593
 21
510.915629012967
 31
0.0
  0
LINE
  5
4C16
330
18
100
AcDbEntity
  8
0
100
AcDbLine
 10
1253.078448555593
 20
663.9156290129669
 30
0.0
 11
1253.078448555593
 21
512.9156290129669
 31
0.0
  0
LINE
  5
4C17
330
18
100
AcDbEntity
  8
0
100
AcDbLine
 10
1275.578448555593
 20
665.9156290129667
 30
0.0
 11
1275.578448555593
 21
588.4156290129667
 31
0.0
  0
LINE
  5
4C18
330
18
100
AcDbEntity
  8
0
100
AcDbLine
 10
1253.078448555593
 20
557.9156290129665
 30
0.0
 11
1221.578448555593
 21
557.9156290129667
 31
0.0
  0
LINE
  5
4C19
330
18
100
AcDbEntity
  8
0
100
AcDbLine
 10
1253.078448555593
 20
512.9156290129669
 30
0.0
 11
1255.078448555593
 21
510.915629012967
 31
0.0
  0
LINE
  5
4C1A
330
18
100
AcDbEntity
  8
0
100
AcDbLine
 10
1275.578448555593
 20
510.9156290129667
 30
0.0
 11
1255.078448555593
 21
510.915629012967
 31
0.0
  0
LINE
  5
4C1B
330
18
100
AcDbEntity
  8
0
100
AcDbLine
 10
1253.078448555593
 20
618.9156290129665
 30
0.0
 11
1221.578448555593
 21
618.9156290129666
 31
0.0
  0
LINE
  5
4C1C
330
18
100
AcDbEntity
  8
0
100
AcDbLine
 10
1255.078448555593
 20
665.9156290129669
 30
0.0
 11
1253.078448555593
 21
663.9156290129669
 31
0.0
  0
LINE
  5
4C1D
330
18
100
AcDbEntity
  8
0
100
AcDbLine
 10
1275.578448555593
 20
665.9156290129667
 30
0.0
 11
1255.078448555593
 21
665.9156290129669
 31
0.0
  0
LINE
  5
4C34
330
18
100
AcDbEntity
  8
0
100
AcDbLine
 10
947.5784485555932
 20
855.963853056288
 30
0.0
 11
947.5784485555932
 21
778.463853056288
 31
0.0
  0
LINE
  5
4C35
330
18
100
AcDbEntity
  8
0
100
AcDbLine
 10
970.0784485555931
 20
853.9638530562882
 30
0.0
 11
970.0784485555931
 21
702.9638530562882
 31
0.0
  0
LINE
  5
4C36
330
18
100
AcDbEntity
  8
0
100
AcDbLine
 10
968.0784485555932
 20
855.9638530562882
 30
0.0
 11
968.0784485555932
 21
700.9638530562882
 31
0.0
  0
LINE
  5
4C37
330
18
100
AcDbEntity
  8
0
100
AcDbLine
 10
947.5784485555932
 20
700.963853056288
 30
0.0
 11
968.0784485555932
 21
700.9638530562882
 31
0.0
  0
LINE
  5
4C38
330
18
100
AcDbEntity
  8
0
100
AcDbLine
 10
970.0784485555931
 20
702.9638530562882
 30
0.0
 11
968.0784485555932
 21
700.9638530562882
 31
0.0
  0
LINE
  5
4C39
330
18
100
AcDbEntity
  8
0
100
AcDbLine
 10
970.0784485555931
 20
747.9638530562878
 30
0.0
 11
1001.578448555593
 21
747.963853056288
 31
0.0
  0
LINE
  5
4C3A
330
18
100
AcDbEntity
  8
0
100
AcDbLine
 10
947.5784485555932
 20
855.963853056288
 30
0.0
 11
968.0784485555932
 21
855.9638530562882
 31
0.0
  0
LINE
  5
4C3B
330
18
100
AcDbEntity
  8
0
100
AcDbLine
 10
970.0784485555931
 20
808.9638530562877
 30
0.0
 11
1001.578448555593
 21
808.9638530562879
 31
0.0
  0
LINE
  5
4C3C
330
18
100
AcDbEntity
  8
0
100
AcDbLine
 10
968.0784485555932
 20
855.9638530562882
 30
0.0
 11
970.0784485555931
 21
853.9638530562882
 31
0.0
  0
LINE
  5
4C3D
330
18
100
AcDbEntity
  8
0
100
AcDbLine
 10
1255.078448555593
 20
855.9638530562882
 30
0.0
 11
1255.078448555593
 21
700.9638530562882
 31
0.0
  0
LINE
  5
4C3E
330
18
100
AcDbEntity
  8
0
100
AcDbLine
 10
1253.078448555593
 20
853.9638530562882
 30
0.0
 11
1253.078448555593
 21
702.9638530562882
 31
0.0
  0
LINE
  5
4C3F
330
18
100
AcDbEntity
  8
0
100
AcDbLine
 10
1275.578448555593
 20
855.963853056288
 30
0.0
 11
1275.578448555593
 21
778.463853056288
 31
0.0
  0
LINE
  5
4C40
330
18
100
AcDbEntity
  8
0
100
AcDbLine
 10
1253.078448555593
 20
747.9638530562878
 30
0.0
 11
1221.578448555593
 21
747.963853056288
 31
0.0
  0
LINE
  5
4C41
330
18
100
AcDbEntity
  8
0
100
AcDbLine
 10
1253.078448555593
 20
702.9638530562882
 30
0.0
 11
1255.078448555593
 21
700.9638530562882
 31
0.0
  0
LINE
  5
4C42
330
18
100
AcDbEntity
  8
0
100
AcDbLine
 10
1275.578448555593
 20
700.963853056288
 30
0.0
 11
1255.078448555593
 21
700.9638530562882
 31
0.0
  0
LINE
  5
4C43
330
18
100
AcDbEntity
  8
0
100
AcDbLine
 10
1253.078448555593
 20
808.9638530562877
 30
0.0
 11
1221.578448555593
 21
808.9638530562879
 31
0.0
  0
LINE
  5
4C44
330
18
100
AcDbEntity
  8
0
100
AcDbLine
 10
1255.078448555593
 20
855.9638530562882
 30
0.0
 11
1253.078448555593
 21
853.9638530562882
 31
0.0
  0
LINE
  5
4C45
330
18
100
AcDbEntity
  8
0
100
AcDbLine
 10
1275.578448555593
 20
855.963853056288
 30
0.0
 11
1255.078448555593
 21
855.9638530562882
 31
0.0
  0
LINE
  5
4C5C
330
18
100
AcDbEntity
  8
0
100
AcDbLine
 10
947.5784485555932
 20
1361.900199967099
 30
0.0
 11
947.5784485555932
 21
1284.400199967099
 31
0.0
  0
LINE
  5
4C5D
330
18
100
AcDbEntity
  8
0
100
AcDbLine
 10
970.0784485555931
 20
1359.900199967099
 30
0.0
 11
970.0784485555931
 21
1208.900199967099
 31
0.0
  0
LINE
  5
4C5E
330
18
100
AcDbEntity
  8
0
100
AcDbLine
 10
968.0784485555932
 20
1361.900199967099
 30
0.0
 11
968.0784485555932
 21
1206.900199967099
 31
0.0
  0
LINE
  5
4C5F
330
18
100
AcDbEntity
  8
0
100
AcDbLine
 10
947.5784485555932
 20
1206.900199967099
 30
0.0
 11
968.0784485555932
 21
1206.900199967099
 31
0.0
  0
LINE
  5
4C60
330
18
100
AcDbEntity
  8
0
100
AcDbLine
 10
970.0784485555931
 20
1208.900199967099
 30
0.0
 11
968.0784485555932
 21
1206.900199967099
 31
0.0
  0
LINE
  5
4C61
330
18
100
AcDbEntity
  8
0
100
AcDbLine
 10
970.0784485555931
 20
1253.900199967098
 30
0.0
 11
1001.578448555593
 21
1253.900199967099
 31
0.0
  0
LINE
  5
4C62
330
18
100
AcDbEntity
  8
0
100
AcDbLine
 10
947.5784485555932
 20
1361.900199967099
 30
0.0
 11
968.0784485555932
 21
1361.900199967099
 31
0.0
  0
LINE
  5
4C63
330
18
100
AcDbEntity
  8
0
100
AcDbLine
 10
970.0784485555931
 20
1314.900199967098
 30
0.0
 11
1001.578448555593
 21
1314.900199967099
 31
0.0
  0
LINE
  5
4C64
330
18
100
AcDbEntity
  8
0
100
AcDbLine
 10
968.0784485555932
 20
1361.900199967099
 30
0.0
 11
970.0784485555931
 21
1359.900199967099
 31
0.0
  0
LINE
  5
4C65
330
18
100
AcDbEntity
  8
0
100
AcDbLine
 10
1255.078448555593
 20
1361.900199967099
 30
0.0
 11
1255.078448555593
 21
1206.900199967099
 31
0.0
  0
LINE
  5
4C66
330
18
100
AcDbEntity
  8
0
100
AcDbLine
 10
1253.078448555593
 20
1359.900199967099
 30
0.0
 11
1253.078448555593
 21
1208.900199967099
 31
0.0
  0
LINE
  5
4C67
330
18
100
AcDbEntity
  8
0
100
AcDbLine
 10
1275.578448555593
 20
1361.900199967099
 30
0.0
 11
1275.578448555593
 21
1284.400199967099
 31
0.0
  0
LINE
  5
4C68
330
18
100
AcDbEntity
  8
0
100
AcDbLine
 10
1253.078448555593
 20
1253.900199967098
 30
0.0
 11
1221.578448555593
 21
1253.900199967099
 31
0.0
  0
LINE
  5
4C69
330
18
100
AcDbEntity
  8
0
100
AcDbLine
 10
1253.078448555593
 20
1208.900199967099
 30
0.0
 11
1255.078448555593
 21
1206.900199967099
 31
0.0
  0
LINE
  5
4C6A
330
18
100
AcDbEntity
  8
0
100
AcDbLine
 10
1275.578448555593
 20
1206.900199967099
 30
0.0
 11
1255.078448555593
 21
1206.900199967099
 31
0.0
  0
LINE
  5
4C6B
330
18
100
AcDbEntity
  8
0
100
AcDbLine
 10
1253.078448555593
 20
1314.900199967098
 30
0.0
 11
1221.578448555593
 21
1314.900199967099
 31
0.0
  0
LINE
  5
4C6C
330
18
100
AcDbEntity
  8
0
100
AcDbLine
 10
1255.078448555593
 20
1361.900199967099
 30
0.0
 11
1253.078448555593
 21
1359.900199967099
 31
0.0
  0
LINE
  5
4C6D
330
18
100
AcDbEntity
  8
0
100
AcDbLine
 10
1275.578448555593
 20
1361.900199967099
 30
0.0
 11
1255.078448555593
 21
1361.900199967099
 31
0.0
  0
LINE
  5
4C6E
330
18
100
AcDbEntity
  8
0
100
AcDbLine
 10
2306.059938750168
 20
2149.954225570203
 30
0.0
 11
2290.089438750167
 21
2149.954225570203
 31
0.0
  0
LINE
  5
4C6F
330
18
100
AcDbEntity
  8
0
100
AcDbLine
 10
2279.050295893024
 20
2144.552296998775
 30
0.0
 11
2333.07151017874
 21
2144.552296998775
 31
0.0
  0
LINE
  5
4C70
330
18
100
AcDbEntity
  8
0
100
AcDbLine
 10
2290.089438750167
 20
2155.356154141632
 30
0.0
 11
2279.050295893024
 21
2144.552296998775
 31
0.0
  0
LINE
  5
4C71
330
18
100
AcDbEntity
  8
0
100
AcDbLine
 10
2290.089438750167
 20
2149.954225570203
 30
0.0
 11
2290.089438750167
 21
2155.356154141632
 31
0.0
  0
LINE
  5
4C72
330
18
100
AcDbEntity
  8
0
100
AcDbLine
 10
2343.875367321596
 20
2155.356154141632
 30
0.0
 11
2311.463795893025
 21
2155.356154141632
 31
0.0
  0
LINE
  5
4C73
330
18
100
AcDbEntity
  8
0
100
AcDbLine
 10
2311.463795893025
 20
2155.356154141632
 30
0.0
 11
2306.059938750168
 21
2149.954225570203
 31
0.0
  0
LINE
  5
4C74
330
18
100
AcDbEntity
  8
0
100
AcDbLine
 10
2333.07151017874
 20
2144.552296998775
 30
0.0
 11
2343.875367321596
 21
2155.356154141632
 31
0.0
  0
TEXT
  5
4C75
330
18
100
AcDbEntity
  8
0
100
AcDbText
 10
2118.545874438281
 20
1323.5512897492
 30
0.0
 40
30.00000000000003
  1
25A
 41
0.8
 11
2118.545874438281
 21
1323.5512897492
 31
0.0
100
AcDbText
 73
     1
  0
TEXT
  5
4C76
330
18
100
AcDbEntity
  8
0
100
AcDbText
 10
2966.700459246744
 20
1109.177759564448
 30
0.0
 40
30.00000000000003
  1
40A
 41
0.8
 11
2966.700459246744
 21
1109.177759564448
 31
0.0
100
AcDbText
 73
     1
  0
TEXT
  5
4C77
330
18
100
AcDbEntity
  8
0
100
AcDbText
 10
1074.312541129382
 20
137.655167600087
 30
0.0
 40
30.00000000000003
  1
50A
 41
0.8
 11
1074.312541129382
 21
137.655167600087
 31
0.0
100
AcDbText
 73
     1
  0
LINE
  5
4C78
330
18
100
AcDbEntity
  8
0
100
AcDbLine
 10
805.451701235694
 20
1816.758358075619
 30
0.0
 11
807.4517012356942
 21
1816.758358075619
 31
0.0
  0
LINE
  5
4C79
330
18
100
AcDbEntity
  8
0
100
AcDbLine
 10
805.451701235694
 20
1795.058358075619
 30
0.0
 11
807.4517012356942
 21
1795.058358075619
 31
0.0
  0
LINE
  5
4C7A
330
18
100
AcDbEntity
  8
0
100
AcDbLine
 10
805.451701235694
 20
2114.373770337072
 30
0.0
 11
807.4517012356942
 21
2114.373770337072
 31
0.0
  0
LINE
  5
4C7B
330
18
100
AcDbEntity
  8
0
100
AcDbLine
 10
805.451701235694
 20
2092.673770337072
 30
0.0
 11
807.4517012356942
 21
2092.673770337072
 31
0.0
  0
LINE
  5
4C7C
330
18
100
AcDbEntity
  8
0
100
AcDbLine
 10
829.4517012356946
 20
2103.523770337072
 30
0.0
 11
829.4517012356946
 21
2056.023770337072
 31
0.0
  0
LINE
  5
4C7D
330
18
100
AcDbEntity
  8
0
100
AcDbLine
 10
651.4517012356946
 20
2103.523770337072
 30
0.0
 11
651.4517012356946
 21
2056.023770337072
 31
0.0
  0
LINE
  5
4C7E
330
18
100
AcDbEntity
  8
0
100
AcDbLine
 10
829.4517012356946
 20
1805.908358075619
 30
0.0
 11
829.4517012356946
 21
1758.408358075619
 31
0.0
  0
LINE
  5
4C7F
330
18
100
AcDbEntity
  8
0
100
AcDbLine
 10
651.4517012356946
 20
1805.908358075619
 30
0.0
 11
651.4517012356946
 21
1758.408358075619
 31
0.0
  0
LINE
  5
4C80
330
18
100
AcDbEntity
  8
0
100
AcDbLine
 10
651.5150631330477
 20
1697.512352080902
 30
0.0
 11
651.5150631330477
 21
1650.012352080902
 31
0.0
  0
LINE
  5
4C81
330
18
100
AcDbEntity
  8
0
100
AcDbLine
 10
829.5150631330477
 20
1697.512352080902
 30
0.0
 11
829.5150631330477
 21
1650.012352080902
 31
0.0
  0
LINE
  5
4C82
330
18
100
AcDbEntity
  8
0
100
AcDbLine
 10
1541.8480485562
 20
2103.523770337072
 30
0.0
 11
1541.8480485562
 21
2053.523770337072
 31
0.0
  0
LINE
  5
4C83
330
18
100
AcDbEntity
  8
0
100
AcDbLine
 10
1350.8480485562
 20
2103.523770337072
 30
0.0
 11
1350.8480485562
 21
2053.523770337072
 31
0.0
  0
LINE
  5
4C84
330
18
100
AcDbEntity
  8
0
100
AcDbLine
 10
1541.8480485562
 20
1805.908358075619
 30
0.0
 11
1541.8480485562
 21
1755.908358075619
 31
0.0
  0
LINE
  5
4C85
330
18
100
AcDbEntity
  8
0
100
AcDbLine
 10
1541.911410453553
 20
1697.512352080902
 30
0.0
 11
1541.911410453553
 21
1647.512352080902
 31
0.0
  0
LINE
  5
4C86
330
18
100
AcDbEntity
  8
0
100
AcDbLine
 10
1350.8480485562
 20
1805.908358075619
 30
0.0
 11
1350.8480485562
 21
1755.908358075619
 31
0.0
  0
LINE
  5
4C87
330
18
100
AcDbEntity
  8
0
100
AcDbLine
 10
1350.911410453553
 20
1697.512352080902
 30
0.0
 11
1350.911410453553
 21
1647.512352080902
 31
0.0
  0
LINE
  5
4C88
330
18
100
AcDbEntity
  8
0
100
AcDbLine
 10
2270.62043882012
 20
2148.881162132915
 30
0.0
 11
2270.62043882012
 21
2086.381162132915
 31
0.0
  0
LINE
  5
4C89
330
18
100
AcDbEntity
  8
0
100
AcDbLine
 10
2043.62043882012
 20
2148.881162132913
 30
0.0
 11
2043.62043882012
 21
2086.381162132913
 31
0.0
  0
LINE
  5
4C8A
330
18
100
AcDbEntity
  8
0
100
AcDbLine
 10
2270.62043882012
 20
1828.422484165939
 30
0.0
 11
2270.62043882012
 21
1765.922484165939
 31
0.0
  0
LINE
  5
4C8B
330
18
100
AcDbEntity
  8
0
100
AcDbLine
 10
2043.62043882012
 20
1828.422484165937
 30
0.0
 11
2043.62043882012
 21
1765.922484165938
 31
0.0
  0
LINE
  5
4C8C
330
18
100
AcDbEntity
  8
0
100
AcDbLine
 10
2270.62043882012
 20
1681.336946794242
 30
0.0
 11
2270.62043882012
 21
1618.836946794242
 31
0.0
  0
LINE
  5
4C8D
330
18
100
AcDbEntity
  8
0
100
AcDbLine
 10
2043.62043882012
 20
1681.33694679424
 30
0.0
 11
2043.62043882012
 21
1618.83694679424
 31
0.0
  0
LINE
  5
4C8E
330
18
100
AcDbEntity
  8
0
100
AcDbLine
 10
3108.874681188005
 20
2110.136239454643
 30
0.0
 11
3108.874681188006
 21
2040.136239454643
 31
0.0
  0
LINE
  5
4C8F
330
18
100
AcDbEntity
  8
0
100
AcDbLine
 10
2856.874681188004
 20
2110.136239454644
 30
0.0
 11
2856.874681188003
 21
2040.136239454644
 31
0.0
  0
LINE
  5
4C90
330
18
100
AcDbEntity
  8
0
100
AcDbLine
 10
3108.874681188007
 20
1692.340232673609
 30
0.0
 11
3108.874681188007
 21
1622.340232673609
 31
0.0
  0
LINE
  5
4C91
330
18
100
AcDbEntity
  8
0
100
AcDbLine
 10
2856.874681188005
 20
1692.34023267361
 30
0.0
 11
2856.874681188004
 21
1622.34023267361
 31
0.0
  0
LINE
  5
4C92
330
18
100
AcDbEntity
  8
0
100
AcDbLine
 10
2856.874681188005
 20
1489.175507735281
 30
0.0
 11
2856.874681188004
 21
1419.175507735281
 31
0.0
  0
LINE
  5
4C93
330
18
100
AcDbEntity
  8
0
100
AcDbLine
 10
3108.874681188007
 20
1489.17550773528
 30
0.0
 11
3108.874681188007
 21
1419.17550773528
 31
0.0
  0
LINE
  5
4C94
330
18
100
AcDbEntity
  8
0
100
AcDbLine
 10
947.5784485555932
 20
1284.400199967099
 30
0.0
 11
947.5784485555932
 21
1206.900199967099
 31
0.0
  0
LINE
  5
4C95
330
18
100
AcDbEntity
  8
0
100
AcDbLine
 10
1275.578448555593
 20
778.463853056288
 30
0.0
 11
1275.578448555593
 21
700.963853056288
 31
0.0
  0
LINE
  5
4C96
330
18
100
AcDbEntity
  8
0
100
AcDbLine
 10
947.5784485555932
 20
778.463853056288
 30
0.0
 11
947.5784485555932
 21
700.963853056288
 31
0.0
  0
LINE
  5
4C97
330
18
100
AcDbEntity
  8
0
100
AcDbLine
 10
947.5784485555932
 20
588.4156290129667
 30
0.0
 11
947.5784485555932
 21
510.9156290129667
 31
0.0
  0
LINE
  5
4C98
330
18
100
AcDbEntity
  8
0
100
AcDbLine
 10
1275.578448555593
 20
588.4156290129667
 30
0.0
 11
1275.578448555593
 21
510.9156290129667
 31
0.0
  0
LINE
  5
4C99
330
18
100
AcDbEntity
  8
0
100
AcDbLine
 10
1275.578448555593
 20
1284.400199967099
 30
0.0
 11
1275.578448555593
 21
1206.900199967099
 31
0.0
  0
LINE
  5
4D0D
330
18
100
AcDbEntity
  8
0
100
AcDbLine
 10
724.4517012356947
 20
1853.408358075619
 30
0.0
 11
756.4517012356946
 21
1853.408358075619
 31
0.0
  0
LINE
  5
4D10
330
18
100
AcDbEntity
  8
0
100
AcDbLine
 10
723.4517012356948
 20
1848.992577924654
 30
0.0
 11
723.4517012356946
 21
1852.408358075619
 31
0.0
  0
LINE
  5
4D11
330
18
100
AcDbEntity
  8
0
100
AcDbLine
 10
757.4517012356947
 20
1848.992577924652
 30
0.0
 11
757.4517012356947
 21
1852.408358075619
 31
0.0
  0
ARC
  5
4D12
330
18
100
AcDbEntity
  8
0
100
AcDbCircle
 10
756.4517012356946
 20
1852.408358075619
 30
0.0
 40
1.0
100
AcDbArc
 50
0.0000000000010178
 51
90.0
  0
ARC
  5
4D13
330
18
100
AcDbEntity
  8
0
100
AcDbCircle
 10
724.4517012356947
 20
1852.408358075619
 30
0.0
 40
1.0
100
AcDbArc
 50
90.0000000000004
 51
180.0000000000009
  0
ARC
  5
4D14
330
18
100
AcDbEntity
  8
0
100
AcDbCircle
 10
720.4517012356948
 20
1848.992577924654
 30
0.0
 40
3.0
100
AcDbArc
 50
294.9010623703676
 51
0.0
  0
ARC
  5
4D15
330
18
100
AcDbEntity
  8
0
100
AcDbCircle
 10
760.4517012356942
 20
1848.992577924652
 30
0.0
 40
3.0
100
AcDbArc
 50
179.9999999999956
 51
245.0989376296279
  0
LINE
  5
4D16
330
18
100
AcDbEntity
  8
0
100
AcDbLine
 10
1463.3480485562
 20
1848.992577924652
 30
0.0
 11
1463.3480485562
 21
1852.408358075619
 31
0.0
  0
LINE
  5
4D17
330
18
100
AcDbEntity
  8
0
100
AcDbLine
 10
1429.3480485562
 20
1848.992577924654
 30
0.0
 11
1429.3480485562
 21
1852.408358075619
 31
0.0
  0
ARC
  5
4D18
330
18
100
AcDbEntity
  8
0
100
AcDbCircle
 10
1426.3480485562
 20
1848.992577924654
 30
0.0
 40
3.0
100
AcDbArc
 50
294.9010623703676
 51
0.0
  0
ARC
  5
4D19
330
18
100
AcDbEntity
  8
0
100
AcDbCircle
 10
1466.348048556199
 20
1848.992577924652
 30
0.0
 40
3.0
100
AcDbArc
 50
179.9999999999956
 51
245.0989376296279
  0
LINE
  5
4D1A
330
18
100
AcDbEntity
  8
0
100
AcDbLine
 10
1430.3480485562
 20
1853.408358075619
 30
0.0
 11
1462.3480485562
 21
1853.408358075619
 31
0.0
  0
ARC
  5
4D1B
330
18
100
AcDbEntity
  8
0
100
AcDbCircle
 10
1430.3480485562
 20
1852.408358075619
 30
0.0
 40
1.0
100
AcDbArc
 50
90.0000000000004
 51
180.0000000000009
  0
ARC
  5
4D1C
330
18
100
AcDbEntity
  8
0
100
AcDbCircle
 10
1462.3480485562
 20
1852.408358075619
 30
0.0
 40
1.0
100
AcDbArc
 50
0.0000000000010178
 51
90.0
  0
LINE
  5
4D1E
330
18
100
AcDbEntity
  8
0
100
AcDbLine
 10
2140.12043882012
 20
1880.922484165939
 30
0.0
 11
2140.12043882012
 21
1878.043548241592
 31
0.0
  0
LINE
  5
4D1F
330
18
100
AcDbEntity
  8
0
100
AcDbLine
 10
2174.12043882012
 20
1880.922484165939
 30
0.0
 11
2174.12043882012
 21
1878.043548241592
 31
0.0
  0
LINE
  5
4D21
330
18
100
AcDbEntity
  8
0
100
AcDbLine
 10
2141.12043882012
 20
1881.922484165939
 30
0.0
 11
2173.12043882012
 21
1881.922484165939
 31
0.0
  0
ARC
  5
4D22
330
18
100
AcDbEntity
  8
0
100
AcDbCircle
 10
2141.12043882012
 20
1880.922484165939
 30
0.0
 40
1.0
100
AcDbArc
 50
90.0
 51
180.0
  0
ARC
  5
4D23
330
18
100
AcDbEntity
  8
0
100
AcDbCircle
 10
2173.12043882012
 20
1880.922484165939
 30
0.0
 40
1.0
100
AcDbArc
 50
0.0
 51
90.0000000000004
  0
ARC
  5
4D24
330
18
100
AcDbEntity
  8
0
100
AcDbCircle
 10
2137.12043882012
 20
1878.043548241592
 30
0.0
 40
3.0
100
AcDbArc
 50
291.9521278352092
 51
0.0
  0
ARC
  5
4D25
330
18
100
AcDbEntity
  8
0
100
AcDbCircle
 10
2177.12043882012
 20
1878.043548241592
 30
0.0
 40
3.0
100
AcDbArc
 50
180.0
 51
248.0478721647907
  0
LINE
  5
4D27
330
18
100
AcDbEntity
  8
0
100
AcDbLine
 10
2965.874681188005
 20
1751.34023267361
 30
0.0
 11
2965.874681188005
 21
1748.908775168533
 31
0.0
  0
LINE
  5
4D28
330
18
100
AcDbEntity
  8
0
100
AcDbLine
 10
2999.874681188005
 20
1751.34023267361
 30
0.0
 11
2999.874681188005
 21
1748.908775168533
 31
0.0
  0
LINE
  5
4D2A
330
18
100
AcDbEntity
  8
0
100
AcDbLine
 10
2966.874681188005
 20
1752.34023267361
 30
0.0
 11
2998.874681188005
 21
1752.34023267361
 31
0.0
  0
ARC
  5
4D2B
330
18
100
AcDbEntity
  8
0
100
AcDbCircle
 10
2962.874681188005
 20
1748.908775168533
 30
0.0
 40
3.0
100
AcDbArc
 50
289.4712206344905
 51
0.0
  0
ARC
  5
4D2C
330
18
100
AcDbEntity
  8
0
100
AcDbCircle
 10
3002.874681188005
 20
1748.908775168533
 30
0.0
 40
3.0
100
AcDbArc
 50
180.0
 51
250.5287793655095
  0
ARC
  5
4D2D
330
18
100
AcDbEntity
  8
0
100
AcDbCircle
 10
2966.874681188005
 20
1751.34023267361
 30
0.0
 40
1.0
100
AcDbArc
 50
90.0
 51
179.9999999999924
  0
ARC
  5
4D2E
330
18
100
AcDbEntity
  8
0
100
AcDbCircle
 10
2998.874681188005
 20
1751.34023267361
 30
0.0
 40
1.0
100
AcDbArc
 50
0.0
 51
90.0
  0
LINE
  5
4D30
330
18
100
AcDbEntity
  8
0
100
AcDbLine
 10
1094.578448555593
 20
862.9638530562882
 30
0.0
 11
1094.578448555593
 21
861.5917665390648
 31
0.0
  0
LINE
  5
4D31
330
18
100
AcDbEntity
  8
0
100
AcDbLine
 10
1128.578448555593
 20
862.9638530562878
 30
0.0
 11
1128.578448555593
 21
861.5917665390648
 31
0.0
  0
LINE
  5
4D33
330
18
100
AcDbEntity
  8
0
100
AcDbLine
 10
1095.578448555593
 20
863.9638530562882
 30
0.0
 11
1127.578448555593
 21
863.9638530562878
 31
0.0
  0
ARC
  5
4D34
330
18
100
AcDbEntity
  8
0
100
AcDbCircle
 10
1095.578448555593
 20
862.9638530562882
 30
0.0
 40
1.0
100
AcDbArc
 50
89.99999999999982
 51
180.0
  0
ARC
  5
4D35
330
18
100
AcDbEntity
  8
0
100
AcDbCircle
 10
1127.578448555593
 20
862.9638530562878
 30
0.0
 40
1.0
100
AcDbArc
 50
0.0
 51
89.99999999999959
  0
ARC
  5
4D36
330
18
100
AcDbEntity
  8
0
100
AcDbCircle
 10
1091.578448555593
 20
861.5917665390648
 30
0.0
 40
3.0
100
AcDbArc
 50
283.5278587493048
 51
0.0
  0
ARC
  5
4D37
330
18
100
AcDbEntity
  8
0
100
AcDbCircle
 10
1131.578448555593
 20
861.5917665390648
 30
0.0
 40
3.0
100
AcDbArc
 50
180.0
 51
256.4721412506951
  0
VIEWPORT
  5
41
330
15
100
AcDbEntity
 67
     1
  8
0
100
AcDbViewport
 10
117.358407079646
 20
73.5
 30
0.0
 40
234.716814159292
 41
147.0
 68
     1
 69
     1
1001
ACAD
1000
MVIEW
1002
{
1070
    16
1010
0.0
1020
0.0
1030
0.0
1010
0.0
1020
0.0
1030
1.0
1040
0.0
1040
147.0
1040
117.358407079646
1040
73.5
1040
50.0
1040
0.0
1040
0.0
1070
     0
1070
   100
1070
     1
1070
     1
1070
     0
1070
     0
1070
     0
1070
     0
1040
0.0
1040
0.0
1040
0.0
1040
1.0
1040
1.0
1040
0.0
1040
0.0
1070
     0
1002
{
1002
}
1002
}
  0
ENDSEC
  0
SECTION
  2
OBJECTS
  0
DICTIONARY
  5
C
330
0
100
AcDbDictionary
  3
ACAD_GROUP
350
D
  3
ACAD_LAYOUT
350
3829
  3
ACAD_MLINESTYLE
350
E
  3
ACAD_PLOTSETTINGS
350
382A
1001
ACAD
1000
TREAT_AS_HARD
1070
     0
  0
DICTIONARY
  5
4CC2
330
18
100
AcDbDictionary
  3
ACAD_LAYOUTSELFREF
350
4D6B
1001
ACAD
1000
TREAT_AS_HARD
1070
     1
  0
DICTIONARY
  5
4CC0
330
15
100
AcDbDictionary
  3
ACAD_LAYOUTSELFREF
350
4D6A
1001
ACAD
1000
TREAT_AS_HARD
1070
     1
  0
DICTIONARY
  5
D
102
{ACAD_REACTORS
330
C
102
}
330
C
100
AcDbDictionary
1001
ACAD
1000
TREAT_AS_HARD
1070
     0
  0
DICTIONARY
  5
3829
102
{ACAD_REACTORS
330
C
102
}
330
C
100
AcDbDictionary
1001
ACAD
1000
TREAT_AS_HARD
1070
     0
  0
DICTIONARY
  5
E
102
{ACAD_REACTORS
330
C
102
}
330
C
100
AcDbDictionary
  3
STANDARD
350
1B
1001
ACAD
1000
TREAT_AS_HARD
1070
     0
  0
DICTIONARY
  5
382A
102
{ACAD_REACTORS
330
C
102
}
330
C
100
AcDbDictionary
1001
ACAD
1000
TREAT_AS_HARD
1070
     0
  0
XRECORD
  5
4D6B
102
{ACAD_REACTORS
330
4CC2
102
}
330
4CC2
100
AcDbXrecord
340
18
  0
XRECORD
  5
4D6A
102
{ACAD_REACTORS
330
4CC0
102
}
330
4CC0
100
AcDbXrecord
340
15
  0
MLINESTYLE
  5
1B
102
{ACAD_REACTORS
330
E
102
}
330
E
100
AcDbMlineStyle
  2
STANDARD
 70
     0
  3

 62
     0
 51
90.0
 52
90.0
 71
     2
 49
0.5
 62
   256
  6
BYLAYER
 49
-0.5
 62
   256
  6
BYLAYER
  0
ENDSEC
  0
EOF
