  0
SECTION
  2
HEADER
  9
$ACADVER
  1
AC1012
  9
$DWGCODEPAGE
  3
dos932
  9
$INSBASE
 10
0.0
 20
0.0
 30
0.0
  9
$EXTMIN
 10
33.0
 20
15.0
 30
0.0
  9
$EXTMAX
 10
858.0
 20
573.0
 30
0.0
  9
$LIMMIN
 10
0.0
 20
0.0
  9
$LIMMAX
 10
891.0
 20
630.0
  9
$ORTHOMODE
 70
     0
  9
$REGENMODE
 70
     1
  9
$FILLMODE
 70
     1
  9
$QTEXTMODE
 70
     0
  9
$MIRRTEXT
 70
     1
  9
$DRAGMODE
 70
     2
  9
$LTSCALE
 40
12.0
  9
$OSMODE
 70
   163
  9
$ATTMODE
 70
     1
  9
$TEXTSIZE
 40
12.0
  9
$TRACEWID
 40
0.05
  9
$TEXTSTYLE
  7
STANDARD
  9
$CLAYER
  8
0
  9
$CELTYPE
  6
BYLAYER
  9
$CECOLOR
 62
   256
  9
$CELTSCALE
 40
1.0
  9
$DELOBJ
 70
     1
  9
$DISPSILH
 70
     0
  9
$DIMSCALE
 40
3.0
  9
$DIMASZ
 40
2.8
  9
$DIMEXO
 40
1.0
  9
$DIMDLI
 40
5.0
  9
$DIMRND
 40
0.1
  9
$DIMDLE
 40
0.0
  9
$DIMEXE
 40
1.0
  9
$DIMTP
 40
0.0
  9
$DIMTM
 40
0.0
  9
$DIMTXT
 40
2.5
  9
$DIMCEN
 40
0.0
  9
$DIMTSZ
 40
0.0
  9
$DIMTOL
 70
     0
  9
$DIMLIM
 70
     0
  9
$DIMTIH
 70
     0
  9
$DIMTOH
 70
     0
  9
$DIMSE1
 70
     0
  9
$DIMSE2
 70
     0
  9
$DIMTAD
 70
     3
  9
$DIMZIN
 70
     8
  9
$DIMBLK
  1

  9
$DIMASO
 70
     1
  9
$DIMSHO
 70
     1
  9
$DIMPOST
  1

  9
$DIMAPOST
  1

  9
$DIMALT
 70
     0
  9
$DIMALTD
 70
     2
  9
$DIMALTF
 40
1.0
  9
$DIMLFAC
 40
1.0
  9
$DIMTOFL
 70
     1
  9
$DIMTVP
 40
0.0
  9
$DIMTIX
 70
     0
  9
$DIMSOXD
 70
     0
  9
$DIMSAH
 70
     1
  9
$DIMBLK1
  1
_OPEN
  9
$DIMBLK2
  1
_OPEN
  9
$DIMSTYLE
  2
DIM1
  9
$DIMCLRD
 70
     2
  9
$DIMCLRE
 70
     2
  9
$DIMCLRT
 70
     2
  9
$DIMTFAC
 40
0.7
  9
$DIMGAP
 40
0.85
  9
$DIMJUST
 70
     0
  9
$DIMSD1
 70
     0
  9
$DIMSD2
 70
     0
  9
$DIMTOLJ
 70
     1
  9
$DIMTZIN
 70
     8
  9
$DIMALTZ
 70
     8
  9
$DIMALTTZ
 70
     8
  9
$DIMFIT
 70
     3
  9
$DIMUPT
 70
     0
  9
$DIMUNIT
 70
     2
  9
$DIMDEC
 70
     2
  9
$DIMTDEC
 70
     3
  9
$DIMALTU
 70
     2
  9
$DIMALTTD
 70
     3
  9
$DIMTXSTY
  7
DIM
  9
$DIMAUNIT
 70
     0
  9
$LUNITS
 70
     2
  9
$LUPREC
 70
     4
  9
$SKETCHINC
 40
0.1
  9
$FILLETRAD
 40
0.0
  9
$AUNITS
 70
     0
  9
$AUPREC
 70
     0
  9
$MENU
  1
C:\ACADR13\WIN\SUPPORT\ACAD.mnc
  9
$ELEVATION
 40
0.0
  9
$PELEVATION
 40
0.0
  9
$THICKNESS
 40
0.0
  9
$LIMCHECK
 70
     0
  9
$BLIPMODE
 70
     1
  9
$CHAMFERA
 40
0.0
  9
$CHAMFERB
 40
0.0
  9
$CHAMFERC
 40
0.0
  9
$CHAMFERD
 40
0.0
  9
$SKPOLY
 70
     0
  9
$TDCREATE
 40
2451564.580906829
  9
$TDUPDATE
 40
2451981.559201921
  9
$TDINDWG
 40
0.0030479977
  9
$TDUSRTIMER
 40
0.0030479977
  9
$USRTIMER
 70
     1
  9
$ANGBASE
 50
0.0
  9
$ANGDIR
 70
     0
  9
$PDMODE
 70
     0
  9
$PDSIZE
 40
0.0
  9
$PLINEWID
 40
0.0
  9
$COORDS
 70
     1
  9
$SPLFRAME
 70
     0
  9
$SPLINETYPE
 70
     6
  9
$SPLINESEGS
 70
     8
  9
$ATTDIA
 70
     0
  9
$ATTREQ
 70
     1
  9
$HANDLING
 70
     1
  9
$HANDSEED
  5
35C0
  9
$SURFTAB1
 70
     6
  9
$SURFTAB2
 70
     6
  9
$SURFTYPE
 70
     6
  9
$SURFU
 70
     6
  9
$SURFV
 70
     6
  9
$UCSNAME
  2

  9
$UCSORG
 10
0.0
 20
0.0
 30
0.0
  9
$UCSXDIR
 10
1.0
 20
0.0
 30
0.0
  9
$UCSYDIR
 10
0.0
 20
1.0
 30
0.0
  9
$PUCSNAME
  2

  9
$PUCSORG
 10
0.0
 20
0.0
 30
0.0
  9
$PUCSXDIR
 10
1.0
 20
0.0
 30
0.0
  9
$PUCSYDIR
 10
0.0
 20
1.0
 30
0.0
  9
$USERI1
 70
     0
  9
$USERI2
 70
     0
  9
$USERI3
 70
     0
  9
$USERI4
 70
     0
  9
$USERI5
 70
     0
  9
$USERR1
 40
0.0
  9
$USERR2
 40
0.0
  9
$USERR3
 40
0.0
  9
$USERR4
 40
0.0
  9
$USERR5
 40
0.0
  9
$WORLDVIEW
 70
     1
  9
$SHADEDGE
 70
     3
  9
$SHADEDIF
 70
    70
  9
$TILEMODE
 70
     1
  9
$MAXACTVP
 70
    16
  9
$PINSBASE
 10
0.0
 20
0.0
 30
0.0
  9
$PLIMCHECK
 70
     0
  9
$PEXTMIN
 10
1.000000E+20
 20
1.000000E+20
 30
1.000000E+20
  9
$PEXTMAX
 10
-1.000000E+20
 20
-1.000000E+20
 30
-1.000000E+20
  9
$PLIMMIN
 10
0.0
 20
0.0
  9
$PLIMMAX
 10
20.0
 20
147.0
  9
$UNITMODE
 70
     0
  9
$VISRETAIN
 70
     0
  9
$PLINEGEN
 70
     0
  9
$PSLTSCALE
 70
     1
  9
$TREEDEPTH
 70
  3020
  9
$PICKSTYLE
 70
     1
  9
$CMLSTYLE
  2
STANDARD
  9
$CMLJUST
 70
     0
  9
$CMLSCALE
 40
1.0
  9
$SAVEIMAGES
 70
     1
  0
ENDSEC
  0
SECTION
  2
CLASSES
  0
CLASS
  1
LWPOLYLINE
  2
AcDbPolyline
  3
"AutoCAD"
 90
    32768
280
     0
281
     1
  0
ENDSEC
  0
SECTION
  2
TABLES
  0
TABLE
  2
VPORT
  5
8
100
AcDbSymbolTable
 70
     2
  0
VPORT
  5
35BF
100
AcDbSymbolTableRecord
100
AcDbViewportTableRecord
  2
*ACTIVE
 70
     0
 10
0.0
 20
0.0
 11
1.0
 21
1.0
 12
460.541198
 22
326.633723
 13
0.0
 23
0.0
 14
1.0
 24
1.0
 15
0.0
 25
0.0
 16
0.0
 26
0.0
 36
1.0
 17
0.0
 27
0.0
 37
0.0
 40
653.267447
 41
1.762063
 42
50.0
 43
0.0
 44
0.0
 50
0.0
 51
0.0
 71
     0
 72
   100
 73
     1
 74
     1
 75
     0
 76
     0
 77
     0
 78
     0
  0
ENDTAB
  0
TABLE
  2
LTYPE
  5
5
100
AcDbSymbolTable
 70
     1
  0
LTYPE
  5
12
100
AcDbSymbolTableRecord
100
AcDbLinetypeTableRecord
  2
BYBLOCK
 70
     0
  3

 72
    65
 73
     0
 40
0.0
  0
LTYPE
  5
13
100
AcDbSymbolTableRecord
100
AcDbLinetypeTableRecord
  2
BYLAYER
 70
     0
  3

 72
    65
 73
     0
 40
0.0
  0
LTYPE
  5
14
100
AcDbSymbolTableRecord
100
AcDbLinetypeTableRecord
  2
CONTINUOUS
 70
     0
  3
Solid line
 72
    65
 73
     0
 40
0.0
  0
ENDTAB
  0
TABLE
  2
LAYER
  5
2
100
AcDbSymbolTable
 70
     1
  0
LAYER
  5
F
100
AcDbSymbolTableRecord
100
AcDbLayerTableRecord
  2
0
 70
     0
 62
     7
  6
CONTINUOUS
  0
ENDTAB
  0
TABLE
  2
STYLE
  5
3
100
AcDbSymbolTable
 70
     3
  0
STYLE
  5
10
100
AcDbSymbolTableRecord
100
AcDbTextStyleTableRecord
  2
STANDARD
 70
     0
 40
0.0
 41
0.8
 50
0.0
 71
     0
 42
12.0
  3
simplex
  4
extfont
  0
STYLE
  5
237C
100
AcDbSymbolTableRecord
100
AcDbTextStyleTableRecord
  2
PTSH
 70
     0
 40
0.0
 41
0.9
 50
0.0
 71
     0
 42
4.0
  3
SIMPLEX
  4
EXTFONT
  0
STYLE
  5
2592
100
AcDbSymbolTableRecord
100
AcDbTextStyleTableRecord
  2
DIM
 70
     0
 40
0.0
 41
0.8
 50
0.0
 71
     0
 42
4.0
  3
simplex
  4
extfont
  0
ENDTAB
  0
TABLE
  2
VIEW
  5
6
100
AcDbSymbolTable
 70
     0
  0
ENDTAB
  0
TABLE
  2
UCS
  5
7
100
AcDbSymbolTable
 70
     0
  0
ENDTAB
  0
TABLE
  2
APPID
  5
9
100
AcDbSymbolTable
 70
     1
  0
APPID
  5
11
100
AcDbSymbolTableRecord
100
AcDbRegAppTableRecord
  2
ACAD
 70
     0
  0
ENDTAB
  0
TABLE
  2
DIMSTYLE
  5
A
100
AcDbSymbolTable
 70
     1
  0
DIMSTYLE
105
2237
100
AcDbSymbolTableRecord
100
AcDbDimStyleTableRecord
  2
DIM1
 70
     0
  3

  4

  5

  6
_OPEN
  7
_OPEN
 40
3.0
 41
2.8
 42
1.0
 43
5.0
 44
1.0
 45
0.1
 46
0.0
 47
0.0
 48
0.0
140
2.5
141
0.0
142
0.0
143
1.0
144
1.0
145
0.0
146
0.7
147
0.85
 71
     0
 72
     0
 73
     0
 74
     0
 75
     0
 76
     0
 77
     3
 78
     8
170
     0
171
     2
172
     1
173
     1
174
     0
175
     0
176
     2
177
     2
178
     2
270
     2
271
     2
272
     3
273
     2
274
     3
340
2592
275
     0
280
     0
281
     0
282
     0
283
     1
284
     8
285
     8
286
     8
287
     3
288
     0
  0
ENDTAB
  0
TABLE
  2
BLOCK_RECORD
  5
1
100
AcDbSymbolTable
 70
     1
  0
BLOCK_RECORD
  5
18
100
AcDbSymbolTableRecord
100
AcDbBlockTableRecord
  2
*MODEL_SPACE
  0
BLOCK_RECORD
  5
15
100
AcDbSymbolTableRecord
100
AcDbBlockTableRecord
  2
*PAPER_SPACE
  0
BLOCK_RECORD
  5
2448
100
AcDbSymbolTableRecord
100
AcDbBlockTableRecord
  2
_OPEN
  0
ENDTAB
  0
ENDSEC
  0
SECTION
  2
BLOCKS
  0
BLOCK
  5
3C
100
AcDbEntity
  8
0
100
AcDbBlockBegin
  2
*MODEL_SPACE
 70
     0
 10
0.0
 20
0.0
 30
0.0
  3
*MODEL_SPACE
  1

  0
ENDBLK
  5
3D
100
AcDbEntity
  8
0
100
AcDbBlockEnd
  0
BLOCK
  5
3A
100
AcDbEntity
 67
     1
  8
0
100
AcDbBlockBegin
  2
*PAPER_SPACE
 70
     0
 10
0.0
 20
0.0
 30
0.0
  3
*PAPER_SPACE
  1

  0
ENDBLK
  5
3B
100
AcDbEntity
 67
     1
  8
0
100
AcDbBlockEnd
  0
BLOCK
  5
2449
100
AcDbEntity
  8
0
 48
4.0
100
AcDbBlockBegin
  2
_OPEN
 70
     0
 10
0.0
 20
0.0
 30
0.0
  3
_OPEN
  1
H1111.DWG
  0
LINE
  5
244A
100
AcDbEntity
  8
0
  6
BYBLOCK
 62
     0
 48
4.0
100
AcDbLine
 10
-1.0
 20
0.166667
 30
0.0
 11
0.0
 21
0.0
 31
0.0
  0
LINE
  5
244B
100
AcDbEntity
  8
0
  6
BYBLOCK
 62
     0
 48
4.0
100
AcDbLine
 10
0.0
 20
0.0
 30
0.0
 11
-1.0
 21
-0.166667
 31
0.0
  0
LINE
  5
244C
100
AcDbEntity
  8
0
  6
BYBLOCK
 62
     0
 48
4.0
100
AcDbLine
 10
0.0
 20
0.0
 30
0.0
 11
-1.0
 21
0.0
 31
0.0
  0
ENDBLK
  5
244D
100
AcDbEntity
  8
0
 48
4.0
100
AcDbBlockEnd
  0
ENDSEC
  0
SECTION
  2
ENTITIES
  0
MTEXT
  5
ADA
100
AcDbEntity
  8
0
100
AcDbMText
 10
1140.417839
 20
149.538933
 30
0.0
 40
0.6
 41
141.679395
 71
     1
 72
     1
  1

  0
MTEXT
  5
ADB
100
AcDbEntity
  8
0
100
AcDbMText
 10
1167.1498
 20
173.552381
 30
0.0
 40
0.6
 41
136.333003
 71
     1
 72
     1
  1

  0
MTEXT
  5
ADC
100
AcDbEntity
  8
0
100
AcDbMText
 10
1151.110623
 20
-143.958739
 30
0.0
 40
0.6
 41
155.045375
 71
     1
 72
     1
  1

  0
TEXT
  5
2529
100
AcDbEntity
  8
0
  6
CONTINUOUS
100
AcDbText
 10
822.915005
 20
25.774194
 30
0.0
 40
10.0
  1
L5S
 41
0.9
  7
PTSH
 72
     1
 11
833.843576
 21
30.774194
 31
0.0
100
AcDbText
 73
     2
  0
POLYLINE
  5
2563
100
AcDbEntity
  8
0
100
AcDb2dPolyline
 66
     1
 10
0.0
 20
0.0
 30
0.0
 70
     1
  0
VERTEX
  5
353A
100
AcDbEntity
  8
0
100
AcDbVertex
100
AcDb2dVertex
 10
33.0
 20
15.0
 30
0.0
  0
VERTEX
  5
353B
100
AcDbEntity
  8
0
100
AcDbVertex
100
AcDb2dVertex
 10
858.0
 20
15.0
 30
0.0
  0
VERTEX
  5
353C
100
AcDbEntity
  8
0
100
AcDbVertex
100
AcDb2dVertex
 10
858.0
 20
573.0
 30
0.0
  0
VERTEX
  5
353D
100
AcDbEntity
  8
0
100
AcDbVertex
100
AcDb2dVertex
 10
33.0
 20
573.0
 30
0.0
  0
SEQEND
  5
353E
100
AcDbEntity
  8
0
  0
TEXT
  5
2F27
100
AcDbEntity
  8
0
100
AcDbText
 10
231.786448
 20
64.447031
 30
0.0
 40
20.0
  1
TLV  L5S,L21S,L32S (PT･SW)
 72
     4
 11
438.929305
 21
73.018459
 31
0.0
100
AcDbText
  0
LINE
  5
2F28
100
AcDbEntity
  8
0
100
AcDbLine
 10
310.453357
 20
362.781706
 30
0.0
 11
310.453357
 21
326.781706
 31
0.0
  0
ARC
  5
2F29
100
AcDbEntity
  8
0
100
AcDbCircle
 10
283.477247
 20
335.531706
 30
0.0
 40
26.687435
100
AcDbArc
 50
339.720195
 51
20.279805
  0
LINE
  5
2F2A
100
AcDbEntity
  8
0
100
AcDbLine
 10
301.698017
 20
321.761894
 30
0.0
 11
303.753357
 21
344.781706
 31
0.0
  0
LINE
  5
2F2B
100
AcDbEntity
  8
0
100
AcDbLine
 10
310.453357
 20
333.181706
 30
0.0
 11
310.453357
 21
344.781706
 31
0.0
  0
LINE
  5
2F2C
100
AcDbEntity
  8
0
100
AcDbLine
 10
230.453357
 20
344.781706
 30
0.0
 11
230.453357
 21
326.781706
 31
0.0
  0
ARC
  5
2F2D
100
AcDbEntity
  8
0
100
AcDbCircle
 10
257.429468
 20
335.531706
 30
0.0
 40
26.687435
100
AcDbArc
 50
159.720195
 51
200.279805
  0
LINE
  5
2F2E
100
AcDbEntity
  8
0
100
AcDbLine
 10
244.208698
 20
321.761894
 30
0.0
 11
242.153357
 21
344.781706
 31
0.0
  0
CIRCLE
  5
2F2F
100
AcDbEntity
  8
0
100
AcDbCircle
 10
272.953357
 20
344.781706
 30
0.0
 40
17.0
  0
TEXT
  5
2F30
100
AcDbEntity
  8
0
100
AcDbText
 10
67.65011
 20
330.557311
 30
0.0
 40
15.0
  1
平面
100
AcDbText
  0
LINE
  5
2F31
100
AcDbEntity
  8
0
100
AcDbLine
 10
182.759112
 20
207.074307
 30
0.0
 11
201.665862
 21
207.074307
 31
0.0
  0
LINE
  5
2F32
100
AcDbEntity
  8
0
100
AcDbLine
 10
189.061362
 20
200.772057
 30
0.0
 11
182.759112
 21
207.074307
 31
0.0
  0
ARC
  5
2F33
100
AcDbEntity
  8
0
100
AcDbCircle
 10
162.664083
 20
225.489575
 30
0.0
 40
17.881484
100
AcDbArc
 50
98.004736
 51
113.60754
  0
LINE
  5
2F34
100
AcDbEntity
  8
0
100
AcDbLine
 10
160.173998
 20
240.16396
 30
0.0
 11
160.173998
 21
245.97296
 31
0.0
  0
LINE
  5
2F35
100
AcDbEntity
  8
0
100
AcDbLine
 10
173.173998
 20
245.97296
 30
0.0
 11
173.173998
 21
240.16396
 31
0.0
  0
LINE
  5
2F36
100
AcDbEntity
  8
0
100
AcDbLine
 10
166.674998
 20
245.97296
 30
0.0
 11
166.674998
 21
240.16396
 31
0.0
  0
ARC
  5
2F37
100
AcDbEntity
  8
0
100
AcDbCircle
 10
129.671719
 20
225.489575
 30
0.0
 40
17.881484
100
AcDbArc
 50
66.39246
 51
81.995264
  0
LINE
  5
2F38
100
AcDbEntity
  8
0
100
AcDbLine
 10
119.161804
 20
240.16396
 30
0.0
 11
119.161804
 21
245.97296
 31
0.0
  0
LINE
  5
2F39
100
AcDbEntity
  8
0
100
AcDbLine
 10
132.161804
 20
245.97296
 30
0.0
 11
132.161804
 21
240.16396
 31
0.0
  0
LINE
  5
2F3A
100
AcDbEntity
  8
0
100
AcDbLine
 10
125.662804
 20
245.97296
 30
0.0
 11
125.662804
 21
240.16396
 31
0.0
  0
ARC
  5
2F3B
100
AcDbEntity
  8
0
100
AcDbCircle
 10
146.167901
 20
213.36396
 30
0.0
 40
30.0
100
AcDbArc
 50
63.295148
 51
116.704852
  0
ARC
  5
2F3C
100
AcDbEntity
  8
0
100
AcDbCircle
 10
120.167901
 20
224.66396
 30
0.0
 40
2.0
100
AcDbArc
 50
90.0
 51
180.0
  0
ARC
  5
2F3D
100
AcDbEntity
  8
0
100
AcDbCircle
 10
120.167901
 20
238.16396
 30
0.0
 40
2.0
100
AcDbArc
 50
90.0
 51
180.0
  0
ARC
  5
2F3E
100
AcDbEntity
  8
0
100
AcDbCircle
 10
120.167901
 20
233.16396
 30
0.0
 40
2.0
100
AcDbArc
 50
180.0
 51
270.0
  0
ARC
  5
2F3F
100
AcDbEntity
  8
0
100
AcDbCircle
 10
120.167901
 20
218.66396
 30
0.0
 40
2.0
100
AcDbArc
 50
180.0
 51
270.0
  0
TEXT
  5
2F40
100
AcDbEntity
  8
0
100
AcDbText
 10
67.65011
 20
181.319799
 30
0.0
 40
15.0
  1
正面
100
AcDbText
  0
POLYLINE
  5
2F41
100
AcDbEntity
  8
0
100
AcDb2dPolyline
 66
     1
 10
0.0
 20
0.0
 30
0.0
  0
VERTEX
  5
353F
100
AcDbEntity
  8
0
100
AcDbVertex
100
AcDb2dVertex
 10
161.756358
 20
213.66396
 30
0.0
  0
VERTEX
  5
3540
100
AcDbEntity
  8
0
100
AcDbVertex
100
AcDb2dVertex
 10
168.684561
 20
201.66396
 30
0.0
  0
VERTEX
  5
3541
100
AcDbEntity
  8
0
100
AcDbVertex
100
AcDb2dVertex
 10
157.426231
 20
182.16396
 30
0.0
  0
VERTEX
  5
3542
100
AcDbEntity
  8
0
100
AcDbVertex
100
AcDb2dVertex
 10
134.909571
 20
182.16396
 30
0.0
  0
VERTEX
  5
3543
100
AcDbEntity
  8
0
100
AcDbVertex
100
AcDb2dVertex
 10
123.65124
 20
201.66396
 30
0.0
  0
VERTEX
  5
3544
100
AcDbEntity
  8
0
100
AcDbVertex
100
AcDb2dVertex
 10
130.579444
 20
213.66396
 30
0.0
  0
SEQEND
  5
3545
100
AcDbEntity
  8
0
  0
POLYLINE
  5
2F42
100
AcDbEntity
  8
0
100
AcDb2dPolyline
 66
     1
 10
0.0
 20
0.0
 30
0.0
 70
     1
  0
VERTEX
  5
3546
100
AcDbEntity
  8
0
100
AcDbVertex
100
AcDb2dVertex
 10
135.486921
 20
183.16396
 30
0.0
  0
VERTEX
  5
3547
100
AcDbEntity
  8
0
100
AcDbVertex
100
AcDb2dVertex
 10
124.805941
 20
201.66396
 30
0.0
  0
VERTEX
  5
3548
100
AcDbEntity
  8
0
100
AcDbVertex
100
AcDb2dVertex
 10
135.486921
 20
220.16396
 30
0.0
  0
VERTEX
  5
3549
100
AcDbEntity
  8
0
100
AcDbVertex
100
AcDb2dVertex
 10
156.848881
 20
220.16396
 30
0.0
  0
VERTEX
  5
354A
100
AcDbEntity
  8
0
100
AcDbVertex
100
AcDb2dVertex
 10
167.529861
 20
201.66396
 30
0.0
  0
VERTEX
  5
354B
100
AcDbEntity
  8
0
100
AcDbVertex
100
AcDb2dVertex
 10
156.848881
 20
183.16396
 30
0.0
  0
SEQEND
  5
354C
100
AcDbEntity
  8
0
  0
CIRCLE
  5
2F43
100
AcDbEntity
  8
0
100
AcDbCircle
 10
146.167901
 20
201.66396
 30
0.0
 40
18.0
  0
POLYLINE
  5
2F44
100
AcDbEntity
  8
0
100
AcDb2dPolyline
 66
     1
 10
0.0
 20
0.0
 30
0.0
  0
VERTEX
  5
354D
100
AcDbEntity
  8
0
100
AcDbVertex
100
AcDb2dVertex
 10
155.519498
 20
153.2701
 30
0.0
  0
VERTEX
  5
354E
100
AcDbEntity
  8
0
100
AcDbVertex
100
AcDb2dVertex
 10
147.816304
 20
150.237277
 30
0.0
  0
SEQEND
  5
354F
100
AcDbEntity
  8
0
  0
LINE
  5
2F45
100
AcDbEntity
  8
0
100
AcDbLine
 10
156.167901
 20
154.594672
 30
0.0
 11
136.167901
 21
154.594672
 31
0.0
  0
LINE
  5
2F46
100
AcDbEntity
  8
0
100
AcDbLine
 10
135.167901
 20
182.16396
 30
0.0
 11
135.167901
 21
155.594672
 31
0.0
  0
LINE
  5
2F47
100
AcDbEntity
  8
0
100
AcDbLine
 10
132.917901
 20
164.045879
 30
0.0
 11
132.917901
 21
168.545879
 31
0.0
  0
ELLIPSE
  5
2F48
100
AcDbEntity
  8
0
100
AcDbEllipse
 10
146.167901
 20
168.545879
 30
0.0
 11
-13.25
 21
0.0
 31
0.0
210
0.0
220
0.0
230
1.0
 40
0.713299
 41
5.691835028233774
 42
6.87453558612562
  0
ARC
  5
2F49
100
AcDbEntity
  8
0
100
AcDbCircle
 10
136.167901
 20
155.594672
 30
0.0
 40
1.0
100
AcDbArc
 50
180.0
 51
270.0
  0
ELLIPSE
  5
2F4A
100
AcDbEntity
  8
0
100
AcDbEllipse
 10
146.167901
 20
164.045879
 30
0.0
 11
-13.25
 21
0.0
 31
0.0
210
0.0
220
0.0
230
1.0
 40
0.713299
 41
6.283185307179586
 42
6.87453558612562
  0
POLYLINE
  5
2F4B
100
AcDbEntity
  8
0
100
AcDb2dPolyline
 66
     1
 10
0.0
 20
0.0
 30
0.0
  0
VERTEX
  5
3550
100
AcDbEntity
  8
0
100
AcDbVertex
100
AcDb2dVertex
 10
144.519498
 20
150.237277
 30
0.0
  0
VERTEX
  5
3551
100
AcDbEntity
  8
0
100
AcDbVertex
100
AcDb2dVertex
 10
136.816304
 20
153.2701
 30
0.0
  0
SEQEND
  5
3552
100
AcDbEntity
  8
0
  0
POLYLINE
  5
2F4C
100
AcDbEntity
  8
0
100
AcDb2dPolyline
 66
     1
 10
0.0
 20
0.0
 30
0.0
  0
VERTEX
  5
3553
100
AcDbEntity
  8
0
100
AcDbVertex
100
AcDb2dVertex
 10
144.519498
 20
153.459297
 30
0.0
  0
VERTEX
  5
3554
100
AcDbEntity
  8
0
100
AcDbVertex
100
AcDb2dVertex
 10
141.635712
 20
154.594672
 30
0.0
  0
SEQEND
  5
3555
100
AcDbEntity
  8
0
  0
ELLIPSE
  5
2F4D
100
AcDbEntity
  8
0
100
AcDbEllipse
 10
146.167901
 20
162.985219
 30
0.0
 11
-12.49999999993089
 21
0.0
 31
0.0
210
0.0
220
0.0
230
1.0
 40
0.707107
 41
1.250944545496622
 42
1.89064810809317
  0
LINE
  5
2F4E
100
AcDbEntity
  8
0
100
AcDbLine
 10
135.853634
 20
154.645337
 30
0.0
 11
136.816304
 21
153.2701
 31
0.0
  0
LINE
  5
2F4F
100
AcDbEntity
  8
0
100
AcDbLine
 10
136.816304
 20
154.594672
 30
0.0
 11
136.816304
 21
153.2701
 31
0.0
  0
LINE
  5
2F50
100
AcDbEntity
  8
0
100
AcDbLine
 10
144.519498
 20
150.237277
 30
0.0
 11
147.816304
 21
150.237277
 31
0.0
  0
LINE
  5
2F51
100
AcDbEntity
  8
0
100
AcDbLine
 10
144.519498
 20
153.459297
 30
0.0
 11
147.816304
 21
153.459297
 31
0.0
  0
LINE
  5
2F52
100
AcDbEntity
  8
0
100
AcDbLine
 10
147.816304
 20
153.459297
 30
0.0
 11
147.816304
 21
150.237277
 31
0.0
  0
LINE
  5
2F53
100
AcDbEntity
  8
0
100
AcDbLine
 10
144.519498
 20
153.459297
 30
0.0
 11
144.519498
 21
150.237277
 31
0.0
  0
POLYLINE
  5
2F54
100
AcDbEntity
  8
0
100
AcDb2dPolyline
 66
     1
 10
0.0
 20
0.0
 30
0.0
  0
VERTEX
  5
3556
100
AcDbEntity
  8
0
100
AcDbVertex
100
AcDb2dVertex
 10
150.70009
 20
154.594672
 30
0.0
  0
VERTEX
  5
3557
100
AcDbEntity
  8
0
100
AcDbVertex
100
AcDb2dVertex
 10
147.816304
 20
153.459297
 30
0.0
  0
SEQEND
  5
3558
100
AcDbEntity
  8
0
  0
LINE
  5
2F55
100
AcDbEntity
  8
0
100
AcDbLine
 10
157.167901
 20
182.16396
 30
0.0
 11
157.167901
 21
155.594672
 31
0.0
  0
LINE
  5
2F56
100
AcDbEntity
  8
0
100
AcDbLine
 10
159.417901
 20
164.045879
 30
0.0
 11
159.417901
 21
168.545879
 31
0.0
  0
ELLIPSE
  5
2F57
100
AcDbEntity
  8
0
100
AcDbEllipse
 10
146.167901
 20
168.545879
 30
0.0
 11
-13.25
 21
0.0
 31
0.0
210
0.0
220
0.0
230
1.0
 40
0.713299
 41
8.833427681823717
 42
10.01612823971539
  0
LINE
  5
2F58
100
AcDbEntity
  8
0
100
AcDbLine
 10
155.519498
 20
153.2701
 30
0.0
 11
156.482168
 21
154.645337
 31
0.0
  0
LINE
  5
2F59
100
AcDbEntity
  8
0
100
AcDbLine
 10
155.519498
 20
154.594672
 30
0.0
 11
155.519498
 21
153.2701
 31
0.0
  0
ARC
  5
2F5A
100
AcDbEntity
  8
0
100
AcDbCircle
 10
156.167901
 20
155.594672
 30
0.0
 40
1.0
100
AcDbArc
 50
270.0
 51
0.0
  0
LINE
  5
2F5B
100
AcDbEntity
  8
0
100
AcDbLine
 10
159.417901
 20
165.805803
 30
0.0
 11
159.417901
 21
164.045879
 31
0.0
  0
ELLIPSE
  5
2F5C
100
AcDbEntity
  8
0
100
AcDbEllipse
 10
146.167901
 20
164.045879
 30
0.0
 11
-13.25
 21
0.0
 31
0.0
210
0.0
220
0.0
230
1.0
 40
0.713299
 41
8.83342768182379
 42
9.424777960769379
  0
LINE
  5
2F5D
100
AcDbEntity
  8
0
100
AcDbLine
 10
172.167901
 20
226.66396
 30
0.0
 11
120.167901
 21
226.66396
 31
0.0
  0
LINE
  5
2F5E
100
AcDbEntity
  8
0
100
AcDbLine
 10
173.173998
 20
240.16396
 30
0.0
 11
119.161804
 21
240.16396
 31
0.0
  0
LINE
  5
2F5F
100
AcDbEntity
  8
0
100
AcDbLine
 10
172.167901
 20
231.16396
 30
0.0
 11
120.167901
 21
231.16396
 31
0.0
  0
LINE
  5
2F60
100
AcDbEntity
  8
0
100
AcDbLine
 10
118.167901
 20
224.66396
 30
0.0
 11
118.167901
 21
216.66396
 31
0.0
  0
ARC
  5
2F61
100
AcDbEntity
  8
0
100
AcDbCircle
 10
125.148089
 20
218.66396
 30
0.0
 40
2.0
100
AcDbArc
 50
180.0
 51
270.0
  0
LINE
  5
2F62
100
AcDbEntity
  8
0
100
AcDbLine
 10
118.167901
 20
211.161382
 30
0.0
 11
123.65124
 21
201.66396
 31
0.0
  0
LINE
  5
2F63
100
AcDbEntity
  8
0
100
AcDbLine
 10
130.002093
 20
216.66396
 30
0.0
 11
120.167901
 21
216.66396
 31
0.0
  0
LINE
  5
2F64
100
AcDbEntity
  8
0
100
AcDbLine
 10
126.826667
 20
213.16396
 30
0.0
 11
125.148089
 21
213.16396
 31
0.0
  0
ARC
  5
2F65
100
AcDbEntity
  8
0
100
AcDbCircle
 10
125.148089
 20
215.16396
 30
0.0
 40
2.0
100
AcDbArc
 50
180.0
 51
270.0
  0
LINE
  5
2F66
100
AcDbEntity
  8
0
100
AcDbLine
 10
123.148089
 20
215.66396
 30
0.0
 11
123.148089
 21
215.16396
 31
0.0
  0
ARC
  5
2F67
100
AcDbEntity
  8
0
100
AcDbCircle
 10
122.148089
 20
215.66396
 30
0.0
 40
1.0
100
AcDbArc
 50
0.0
 51
90.0
  0
LINE
  5
2F68
100
AcDbEntity
  8
0
100
AcDbLine
 10
118.167901
 20
216.66396
 30
0.0
 11
118.167901
 21
211.161382
 31
0.0
  0
ARC
  5
2F69
100
AcDbEntity
  8
0
100
AcDbCircle
 10
130.002093
 20
214.66396
 30
0.0
 40
2.0
100
AcDbArc
 50
330.0
 51
90.0
  0
ARC
  5
2F6A
100
AcDbEntity
  8
0
100
AcDbCircle
 10
128.847393
 20
214.66396
 30
0.0
 40
2.0
100
AcDbArc
 50
330.0
 51
90.0
  0
ARC
  5
2F6B
100
AcDbEntity
  8
0
100
AcDbCircle
 10
126.826667
 20
211.16396
 30
0.0
 40
2.0
100
AcDbArc
 50
330.0
 51
90.0
  0
LINE
  5
2F6C
100
AcDbEntity
  8
0
100
AcDbLine
 10
121.661804
 20
231.16396
 30
0.0
 11
121.661804
 21
226.66396
 31
0.0
  0
LINE
  5
2F6D
100
AcDbEntity
  8
0
100
AcDbLine
 10
129.661804
 20
226.66396
 30
0.0
 11
129.661804
 21
231.16396
 31
0.0
  0
ARC
  5
2F6E
100
AcDbEntity
  8
0
100
AcDbCircle
 10
125.148089
 20
224.66396
 30
0.0
 40
2.0
100
AcDbArc
 50
90.0
 51
180.0
  0
LINE
  5
2F6F
100
AcDbEntity
  8
0
100
AcDbLine
 10
123.148089
 20
224.66396
 30
0.0
 11
123.148089
 21
218.66396
 31
0.0
  0
ARC
  5
2F70
100
AcDbEntity
  8
0
100
AcDbCircle
 10
120.167901
 20
239.76396
 30
0.0
 40
2.0
100
AcDbArc
 50
120.201881
 51
180.0
  0
LINE
  5
2F71
100
AcDbEntity
  8
0
100
AcDbLine
 10
118.167901
 20
239.76396
 30
0.0
 11
118.167901
 21
233.16396
 31
0.0
  0
ARC
  5
2F72
100
AcDbEntity
  8
0
100
AcDbCircle
 10
125.167901
 20
238.16396
 30
0.0
 40
2.0
100
AcDbArc
 50
90.0
 51
180.0
  0
ARC
  5
2F73
100
AcDbEntity
  8
0
100
AcDbCircle
 10
125.167901
 20
233.16396
 30
0.0
 40
2.0
100
AcDbArc
 50
180.0
 51
270.0
  0
LINE
  5
2F74
100
AcDbEntity
  8
0
100
AcDbLine
 10
123.167901
 20
238.16396
 30
0.0
 11
123.167901
 21
233.16396
 31
0.0
  0
LINE
  5
2F75
100
AcDbEntity
  8
0
100
AcDbLine
 10
174.167901
 20
224.66396
 30
0.0
 11
174.167901
 21
216.66396
 31
0.0
  0
ARC
  5
2F76
100
AcDbEntity
  8
0
100
AcDbCircle
 10
167.187712
 20
218.66396
 30
0.0
 40
2.0
100
AcDbArc
 50
270.0
 51
0.0
  0
ARC
  5
2F77
100
AcDbEntity
  8
0
100
AcDbCircle
 10
172.167901
 20
218.66396
 30
0.0
 40
2.0
100
AcDbArc
 50
270.0
 51
0.0
  0
LINE
  5
2F78
100
AcDbEntity
  8
0
100
AcDbLine
 10
170.187712
 20
216.66396
 30
0.0
 11
162.333708
 21
216.66396
 31
0.0
  0
ARC
  5
2F79
100
AcDbEntity
  8
0
100
AcDbCircle
 10
170.187712
 20
215.66396
 30
0.0
 40
1.0
100
AcDbArc
 50
90.0
 51
180.0
  0
LINE
  5
2F7A
100
AcDbEntity
  8
0
100
AcDbLine
 10
174.167901
 20
211.161382
 30
0.0
 11
168.684561
 21
201.66396
 31
0.0
  0
ARC
  5
2F7B
100
AcDbEntity
  8
0
100
AcDbCircle
 10
162.333708
 20
214.66396
 30
0.0
 40
2.0
100
AcDbArc
 50
90.0
 51
210.0
  0
ARC
  5
2F7C
100
AcDbEntity
  8
0
100
AcDbCircle
 10
163.488409
 20
214.66396
 30
0.0
 40
2.0
100
AcDbArc
 50
90.0
 51
210.0
  0
LINE
  5
2F7D
100
AcDbEntity
  8
0
100
AcDbLine
 10
167.187712
 20
213.16396
 30
0.0
 11
165.509135
 21
213.16396
 31
0.0
  0
ARC
  5
2F7E
100
AcDbEntity
  8
0
100
AcDbCircle
 10
165.509135
 20
211.16396
 30
0.0
 40
2.0
100
AcDbArc
 50
90.0
 51
210.0
  0
LINE
  5
2F7F
100
AcDbEntity
  8
0
100
AcDbLine
 10
169.187712
 20
215.66396
 30
0.0
 11
169.187712
 21
215.16396
 31
0.0
  0
ARC
  5
2F80
100
AcDbEntity
  8
0
100
AcDbCircle
 10
167.187712
 20
215.16396
 30
0.0
 40
2.0
100
AcDbArc
 50
270.0
 51
0.0
  0
LINE
  5
2F81
100
AcDbEntity
  8
0
100
AcDbLine
 10
172.167901
 20
216.66396
 30
0.0
 11
170.187712
 21
216.66396
 31
0.0
  0
LINE
  5
2F82
100
AcDbEntity
  8
0
100
AcDbLine
 10
174.167901
 20
216.66396
 30
0.0
 11
174.167901
 21
211.161382
 31
0.0
  0
LINE
  5
2F83
100
AcDbEntity
  8
0
100
AcDbLine
 10
162.673998
 20
231.16396
 30
0.0
 11
162.673998
 21
226.66396
 31
0.0
  0
ARC
  5
2F84
100
AcDbEntity
  8
0
100
AcDbCircle
 10
167.187712
 20
224.66396
 30
0.0
 40
2.0
100
AcDbArc
 50
0.0
 51
90.0
  0
LINE
  5
2F85
100
AcDbEntity
  8
0
100
AcDbLine
 10
169.187712
 20
224.66396
 30
0.0
 11
169.187712
 21
218.66396
 31
0.0
  0
ARC
  5
2F86
100
AcDbEntity
  8
0
100
AcDbCircle
 10
167.167901
 20
238.16396
 30
0.0
 40
2.0
100
AcDbArc
 50
0.0
 51
90.0
  0
ARC
  5
2F87
100
AcDbEntity
  8
0
100
AcDbCircle
 10
167.167901
 20
233.16396
 30
0.0
 40
2.0
100
AcDbArc
 50
270.0
 51
0.0
  0
LINE
  5
2F88
100
AcDbEntity
  8
0
100
AcDbLine
 10
169.167901
 20
238.16396
 30
0.0
 11
169.167901
 21
233.16396
 31
0.0
  0
LINE
  5
2F89
100
AcDbEntity
  8
0
100
AcDbLine
 10
170.673998
 20
226.66396
 30
0.0
 11
170.673998
 21
231.16396
 31
0.0
  0
ARC
  5
2F8A
100
AcDbEntity
  8
0
100
AcDbCircle
 10
172.167901
 20
224.66396
 30
0.0
 40
2.0
100
AcDbArc
 50
0.0
 51
90.0
  0
ARC
  5
2F8B
100
AcDbEntity
  8
0
100
AcDbCircle
 10
172.167901
 20
239.76396
 30
0.0
 40
2.0
100
AcDbArc
 50
0.0
 51
59.798119
  0
ARC
  5
2F8C
100
AcDbEntity
  8
0
100
AcDbCircle
 10
172.167901
 20
233.16396
 30
0.0
 40
2.0
100
AcDbArc
 50
270.0
 51
0.0
  0
LINE
  5
2F8D
100
AcDbEntity
  8
0
100
AcDbLine
 10
174.167901
 20
239.76396
 30
0.0
 11
174.167901
 21
233.16396
 31
0.0
  0
ARC
  5
2F8E
100
AcDbEntity
  8
0
100
AcDbCircle
 10
172.167901
 20
238.16396
 30
0.0
 40
2.0
100
AcDbArc
 50
0.0
 51
90.0
  0
LINE
  5
2F8F
100
AcDbEntity
  8
0
100
AcDbLine
 10
160.173998
 20
245.66396
 30
0.0
 11
132.161804
 21
245.66396
 31
0.0
  0
ARC
  5
2F90
100
AcDbEntity
  8
0
100
AcDbCircle
 10
128.912304
 20
238.677902
 30
0.0
 40
7.986057
100
AcDbArc
 50
65.989964
 51
114.010036
  0
LINE
  5
2F91
100
AcDbEntity
  8
0
100
AcDbLine
 10
120.358804
 20
246.66396
 30
0.0
 11
130.965804
 21
246.66396
 31
0.0
  0
ARC
  5
2F92
100
AcDbEntity
  8
0
100
AcDbCircle
 10
122.412304
 20
238.673199
 30
0.0
 40
7.990761
100
AcDbArc
 50
65.997136
 51
114.002864
  0
LINE
  5
2F93
100
AcDbEntity
  8
0
100
AcDbLine
 10
119.161804
 20
245.97296
 30
0.0
 11
120.358804
 21
246.66396
 31
0.0
  0
LINE
  5
2F94
100
AcDbEntity
  8
0
100
AcDbLine
 10
130.965804
 20
246.66396
 30
0.0
 11
132.161804
 21
245.97296
 31
0.0
  0
ARC
  5
2F95
100
AcDbEntity
  8
0
100
AcDbCircle
 10
169.924498
 20
238.677902
 30
0.0
 40
7.986057
100
AcDbArc
 50
65.989964
 51
114.010036
  0
LINE
  5
2F96
100
AcDbEntity
  8
0
100
AcDbLine
 10
161.370998
 20
246.66396
 30
0.0
 11
171.977998
 21
246.66396
 31
0.0
  0
ARC
  5
2F97
100
AcDbEntity
  8
0
100
AcDbCircle
 10
163.424498
 20
238.673199
 30
0.0
 40
7.990761
100
AcDbArc
 50
65.997136
 51
114.002864
  0
LINE
  5
2F98
100
AcDbEntity
  8
0
100
AcDbLine
 10
160.173998
 20
245.97296
 30
0.0
 11
161.370998
 21
246.66396
 31
0.0
  0
LINE
  5
2F99
100
AcDbEntity
  8
0
100
AcDbLine
 10
171.977998
 20
246.66396
 30
0.0
 11
173.173998
 21
245.97296
 31
0.0
  0
TEXT
  5
2F9A
100
AcDbEntity
  8
0
100
AcDbText
 10
239.308824
 20
118.547191
 30
0.0
 40
13.0
  1
15A,20A
 41
0.8
 11
239.308824
 21
118.547191
 31
0.0
100
AcDbText
 73
     1
  0
LINE
  5
2F9B
100
AcDbEntity
  8
0
100
AcDbLine
 10
300.964954
 20
240.16396
 30
0.0
 11
300.964954
 21
245.97296
 31
0.0
  0
LINE
  5
2F9C
100
AcDbEntity
  8
0
100
AcDbLine
 10
297.210954
 20
245.97296
 30
0.0
 11
297.210954
 21
240.16396
 31
0.0
  0
LINE
  5
2F9D
100
AcDbEntity
  8
0
100
AcDbLine
 10
289.706954
 20
245.97296
 30
0.0
 11
289.706954
 21
240.16396
 31
0.0
  0
LINE
  5
2F9E
100
AcDbEntity
  8
0
100
AcDbLine
 10
285.953954
 20
245.97296
 30
0.0
 11
285.953954
 21
240.16396
 31
0.0
  0
ARC
  5
2F9F
100
AcDbEntity
  8
0
100
AcDbCircle
 10
289.449539
 20
225.489575
 30
0.0
 40
17.881484
100
AcDbArc
 50
101.273133
 51
113.60754
  0
ARC
  5
2FA0
100
AcDbEntity
  8
0
100
AcDbCircle
 10
301.753357
 20
239.76396
 30
0.0
 40
2.0
100
AcDbArc
 50
0.0
 51
90.0
  0
LINE
  5
2FA1
100
AcDbEntity
  8
0
100
AcDbLine
 10
248.694761
 20
245.97296
 30
0.0
 11
248.694761
 21
240.16396
 31
0.0
  0
LINE
  5
2FA2
100
AcDbEntity
  8
0
100
AcDbLine
 10
244.941761
 20
245.97296
 30
0.0
 11
244.941761
 21
240.16396
 31
0.0
  0
ARC
  5
2FA3
100
AcDbEntity
  8
0
100
AcDbCircle
 10
244.153357
 20
239.76396
 30
0.0
 40
2.0
100
AcDbArc
 50
90.0
 51
180.0
  0
LINE
  5
2FA4
100
AcDbEntity
  8
0
100
AcDbLine
 10
256.198761
 20
245.97296
 30
0.0
 11
256.198761
 21
240.16396
 31
0.0
  0
LINE
  5
2FA5
100
AcDbEntity
  8
0
100
AcDbLine
 10
259.952761
 20
240.16396
 30
0.0
 11
259.952761
 21
245.97296
 31
0.0
  0
ARC
  5
2FA6
100
AcDbEntity
  8
0
100
AcDbCircle
 10
256.457176
 20
225.489575
 30
0.0
 40
17.881484
100
AcDbArc
 50
66.39246
 51
78.726867
  0
ARC
  5
2FA7
100
AcDbEntity
  8
0
100
AcDbCircle
 10
272.953357
 20
213.36396
 30
0.0
 40
30.0
100
AcDbArc
 50
64.319447
 51
115.680553
  0
LINE
  5
2FA8
100
AcDbEntity
  8
0
100
AcDbLine
 10
267.953357
 20
201.66396
 30
0.0
 11
244.953357
 21
201.66396
 31
0.0
  0
LINE
  5
2FA9
100
AcDbEntity
  8
0
100
AcDbLine
 10
265.953357
 20
213.16396
 30
0.0
 11
256.153357
 21
213.16396
 31
0.0
  0
LINE
  5
2FAA
100
AcDbEntity
  8
0
100
AcDbLine
 10
242.153357
 20
226.66396
 30
0.0
 11
303.753357
 21
226.66396
 31
0.0
  0
LINE
  5
2FAB
100
AcDbEntity
  8
0
100
AcDbLine
 10
242.153357
 20
216.66396
 30
0.0
 11
303.753357
 21
216.66396
 31
0.0
  0
LINE
  5
2FAC
100
AcDbEntity
  8
0
100
AcDbLine
 10
244.153357
 20
231.16396
 30
0.0
 11
301.753357
 21
231.16396
 31
0.0
  0
LINE
  5
2FAD
100
AcDbEntity
  8
0
100
AcDbLine
 10
244.153357
 20
240.16396
 30
0.0
 11
301.753357
 21
240.16396
 31
0.0
  0
LINE
  5
2FAE
100
AcDbEntity
  8
0
100
AcDbLine
 10
244.953357
 20
182.16396
 30
0.0
 11
300.953357
 21
182.16396
 31
0.0
  0
LINE
  5
2FAF
100
AcDbEntity
  8
0
100
AcDbLine
 10
245.250943
 20
182.16396
 30
0.0
 11
272.820231
 21
154.594672
 31
0.0
  0
LINE
  5
2FB0
100
AcDbEntity
  8
0
100
AcDbLine
 10
243.953357
 20
183.16396
 30
0.0
 11
243.953357
 21
216.66396
 31
0.0
  0
LINE
  5
2FB1
100
AcDbEntity
  8
0
100
AcDbLine
 10
244.953357
 20
182.16396
 30
0.0
 11
244.953357
 21
216.66396
 31
0.0
  0
LINE
  5
2FB2
100
AcDbEntity
  8
0
100
AcDbLine
 10
230.453357
 20
201.66396
 30
0.0
 11
230.453357
 21
183.66396
 31
0.0
  0
ARC
  5
2FB3
100
AcDbEntity
  8
0
100
AcDbCircle
 10
257.429468
 20
192.41396
 30
0.0
 40
26.687435
100
AcDbArc
 50
159.720195
 51
200.279805
  0
LINE
  5
2FB4
100
AcDbEntity
  8
0
100
AcDbLine
 10
230.742033
 20
183.16396
 30
0.0
 11
243.953357
 21
183.16396
 31
0.0
  0
LINE
  5
2FB5
100
AcDbEntity
  8
0
100
AcDbLine
 10
230.742033
 20
183.16396
 30
0.0
 11
230.453357
 21
183.66396
 31
0.0
  0
LINE
  5
2FB6
100
AcDbEntity
  8
0
100
AcDbLine
 10
243.953357
 20
183.16396
 30
0.0
 11
244.953357
 21
182.16396
 31
0.0
  0
LINE
  5
2FB7
100
AcDbEntity
  8
0
100
AcDbLine
 10
220.573737
 20
200.772057
 30
0.0
 11
189.061362
 21
200.772057
 31
0.0
  0
LINE
  5
2FB8
100
AcDbEntity
  8
0
100
AcDbLine
 10
201.665862
 20
207.074307
 30
0.0
 11
204.818112
 21
203.923182
 31
0.0
  0
LINE
  5
2FB9
100
AcDbEntity
  8
0
100
AcDbLine
 10
214.134237
 20
207.074307
 30
0.0
 11
220.573737
 21
200.772057
 31
0.0
  0
LINE
  5
2FBA
100
AcDbEntity
  8
0
100
AcDbLine
 10
214.134237
 20
203.923182
 30
0.0
 11
214.134237
 21
207.074307
 31
0.0
  0
LINE
  5
2FBB
100
AcDbEntity
  8
0
100
AcDbLine
 10
204.818112
 20
203.923182
 30
0.0
 11
214.134237
 21
203.923182
 31
0.0
  0
LINE
  5
2FBC
100
AcDbEntity
  8
0
100
AcDbLine
 10
230.453357
 20
219.66396
 30
0.0
 11
230.453357
 21
201.66396
 31
0.0
  0
ARC
  5
2FBD
100
AcDbEntity
  8
0
100
AcDbCircle
 10
257.429468
 20
210.91396
 30
0.0
 40
26.687435
100
AcDbArc
 50
159.720195
 51
200.279805
  0
LINE
  5
2FBE
100
AcDbEntity
  8
0
100
AcDbLine
 10
242.153357
 20
226.66396
 30
0.0
 11
242.153357
 21
216.66396
 31
0.0
  0
LINE
  5
2FBF
100
AcDbEntity
  8
0
100
AcDbLine
 10
232.396356
 20
201.66396
 30
0.0
 11
243.953357
 21
201.66396
 31
0.0
  0
ARC
  5
2FC0
100
AcDbEntity
  8
0
100
AcDbCircle
 10
251.553357
 20
211.16396
 30
0.0
 40
2.0
100
AcDbArc
 50
180.0
 51
270.0
  0
LINE
  5
2FC1
100
AcDbEntity
  8
0
100
AcDbLine
 10
249.553357
 20
216.66396
 30
0.0
 11
249.553357
 21
211.16396
 31
0.0
  0
ARC
  5
2FC2
100
AcDbEntity
  8
0
100
AcDbCircle
 10
254.153357
 20
211.16396
 30
0.0
 40
2.0
100
AcDbArc
 50
270.0
 51
0.0
  0
LINE
  5
2FC3
100
AcDbEntity
  8
0
100
AcDbLine
 10
254.153357
 20
209.16396
 30
0.0
 11
251.553357
 21
209.16396
 31
0.0
  0
LINE
  5
2FC4
100
AcDbEntity
  8
0
100
AcDbLine
 10
256.153357
 20
213.16396
 30
0.0
 11
256.153357
 21
211.16396
 31
0.0
  0
LINE
  5
2FC5
100
AcDbEntity
  8
0
100
AcDbLine
 10
230.742033
 20
220.16396
 30
0.0
 11
242.153357
 21
220.16396
 31
0.0
  0
LINE
  5
2FC6
100
AcDbEntity
  8
0
100
AcDbLine
 10
230.742033
 20
220.16396
 30
0.0
 11
230.453357
 21
219.66396
 31
0.0
  0
LINE
  5
2FC7
100
AcDbEntity
  8
0
100
AcDbLine
 10
248.447261
 20
226.66396
 30
0.0
 11
248.447261
 21
231.16396
 31
0.0
  0
LINE
  5
2FC8
100
AcDbEntity
  8
0
100
AcDbLine
 10
256.447261
 20
231.16396
 30
0.0
 11
256.447261
 21
226.66396
 31
0.0
  0
LINE
  5
2FC9
100
AcDbEntity
  8
0
100
AcDbLine
 10
244.153357
 20
241.76396
 30
0.0
 11
244.941761
 21
241.76396
 31
0.0
  0
ARC
  5
2FCA
100
AcDbEntity
  8
0
100
AcDbCircle
 10
244.153357
 20
238.16396
 30
0.0
 40
2.0
100
AcDbArc
 50
90.0
 51
180.0
  0
ARC
  5
2FCB
100
AcDbEntity
  8
0
100
AcDbCircle
 10
244.153357
 20
233.16396
 30
0.0
 40
2.0
100
AcDbArc
 50
180.0
 51
270.0
  0
LINE
  5
2FCC
100
AcDbEntity
  8
0
100
AcDbLine
 10
242.153357
 20
239.76396
 30
0.0
 11
242.153357
 21
233.16396
 31
0.0
  0
ARC
  5
2FCD
100
AcDbEntity
  8
0
100
AcDbCircle
 10
251.953357
 20
238.16396
 30
0.0
 40
2.0
100
AcDbArc
 50
90.0
 51
180.0
  0
ARC
  5
2FCE
100
AcDbEntity
  8
0
100
AcDbCircle
 10
251.953357
 20
233.16396
 30
0.0
 40
2.0
100
AcDbArc
 50
180.0
 51
270.0
  0
LINE
  5
2FCF
100
AcDbEntity
  8
0
100
AcDbLine
 10
249.953357
 20
238.16396
 30
0.0
 11
249.953357
 21
233.16396
 31
0.0
  0
LINE
  5
2FD0
100
AcDbEntity
  8
0
100
AcDbLine
 10
310.453357
 20
190.06396
 30
0.0
 11
310.453357
 21
213.26396
 31
0.0
  0
LINE
  5
2FD1
100
AcDbEntity
  8
0
100
AcDbLine
 10
301.953357
 20
183.16396
 30
0.0
 11
301.953357
 21
216.66396
 31
0.0
  0
LINE
  5
2FD2
100
AcDbEntity
  8
0
100
AcDbLine
 10
300.953357
 20
182.16396
 30
0.0
 11
300.953357
 21
216.66396
 31
0.0
  0
LINE
  5
2FD3
100
AcDbEntity
  8
0
100
AcDbLine
 10
310.453357
 20
201.66396
 30
0.0
 11
310.453357
 21
183.66396
 31
0.0
  0
ARC
  5
2FD4
100
AcDbEntity
  8
0
100
AcDbCircle
 10
283.477247
 20
192.41396
 30
0.0
 40
26.687435
100
AcDbArc
 50
339.720195
 51
20.279805
  0
LINE
  5
2FD5
100
AcDbEntity
  8
0
100
AcDbLine
 10
272.820231
 20
154.594672
 30
0.0
 11
300.389519
 21
182.16396
 31
0.0
  0
LINE
  5
2FD6
100
AcDbEntity
  8
0
100
AcDbLine
 10
280.857225
 20
150.61085
 30
0.0
 11
295.706467
 21
165.460092
 31
0.0
  0
LINE
  5
2FD7
100
AcDbEntity
  8
0
100
AcDbLine
 10
274.493264
 20
154.146384
 30
0.0
 11
292.170933
 21
171.824053
 31
0.0
  0
LINE
  5
2FD8
100
AcDbEntity
  8
0
100
AcDbLine
 10
291.722645
 20
173.497086
 30
0.0
 11
292.170933
 21
171.824053
 31
0.0
  0
ARC
  5
2FD9
100
AcDbEntity
  8
0
100
AcDbCircle
 10
293.336426
 20
166.565077
 30
0.0
 40
3.54367
100
AcDbArc
 50
112.241215
 51
172.241215
  0
LINE
  5
2FDA
100
AcDbEntity
  8
0
100
AcDbLine
 10
289.825197
 20
167.043483
 30
0.0
 11
293.047217
 21
163.821463
 31
0.0
  0
LINE
  5
2FDB
100
AcDbEntity
  8
0
100
AcDbLine
 10
291.463826
 20
169.702733
 30
0.0
 11
292.85802
 21
170.076306
 31
0.0
  0
LINE
  5
2FDC
100
AcDbEntity
  8
0
100
AcDbLine
 10
290.692366
 20
161.466612
 30
0.0
 11
293.047217
 21
163.821463
 31
0.0
  0
LINE
  5
2FDD
100
AcDbEntity
  8
0
100
AcDbLine
 10
276.614584
 20
154.853491
 30
0.0
 11
291.463826
 21
169.702733
 31
0.0
  0
LINE
  5
2FDE
100
AcDbEntity
  8
0
100
AcDbLine
 10
272.820231
 20
154.594672
 30
0.0
 11
274.493264
 21
154.146384
 31
0.0
  0
LINE
  5
2FDF
100
AcDbEntity
  8
0
100
AcDbLine
 10
281.628685
 20
158.846971
 30
0.0
 11
284.850705
 21
155.624951
 31
0.0
  0
ARC
  5
2FE0
100
AcDbEntity
  8
0
100
AcDbCircle
 10
279.667807
 20
166.64951
 30
0.0
 40
12.182091
100
AcDbArc
 50
295.179294
 51
334.820706
  0
LINE
  5
2FE1
100
AcDbEntity
  8
0
100
AcDbLine
 10
279.273834
 20
156.49212
 30
0.0
 11
282.495854
 21
153.2701
 31
0.0
  0
ARC
  5
2FE2
100
AcDbEntity
  8
0
100
AcDbCircle
 10
279.752239
 20
152.980891
 30
0.0
 40
3.54367
100
AcDbArc
 50
97.758785
 51
157.758785
  0
LINE
  5
2FE3
100
AcDbEntity
  8
0
100
AcDbLine
 10
282.495854
 20
153.2701
 30
0.0
 11
284.850705
 21
155.624951
 31
0.0
  0
ARC
  5
2FE4
100
AcDbEntity
  8
0
100
AcDbCircle
 10
278.984625
 20
153.748505
 30
0.0
 40
3.54367
100
AcDbArc
 50
292.241215
 51
352.241215
  0
LINE
  5
2FE5
100
AcDbEntity
  8
0
100
AcDbLine
 10
280.857225
 20
150.61085
 30
0.0
 11
279.463031
 21
150.237277
 31
0.0
  0
LINE
  5
2FE6
100
AcDbEntity
  8
0
100
AcDbLine
 10
276.614584
 20
154.853491
 30
0.0
 11
276.241011
 21
153.459297
 31
0.0
  0
LINE
  5
2FE7
100
AcDbEntity
  8
0
100
AcDbLine
 10
275.907477
 20
155.560597
 30
0.0
 11
276.614584
 21
154.853491
 31
0.0
  0
LINE
  5
2FE8
100
AcDbEntity
  8
0
100
AcDbLine
 10
276.241011
 20
153.459297
 30
0.0
 11
279.463031
 21
150.237277
 31
0.0
  0
ARC
  5
2FE9
100
AcDbEntity
  8
0
100
AcDbCircle
 10
292.653244
 20
153.664073
 30
0.0
 40
12.182091
100
AcDbArc
 50
115.179294
 51
154.820706
  0
LINE
  5
2FEA
100
AcDbEntity
  8
0
100
AcDbLine
 10
279.273834
 20
156.49212
 30
0.0
 11
281.628685
 21
158.846971
 31
0.0
  0
LINE
  5
2FEB
100
AcDbEntity
  8
0
100
AcDbLine
 10
287.470346
 20
164.688632
 30
0.0
 11
290.692366
 21
161.466612
 31
0.0
  0
LINE
  5
2FEC
100
AcDbEntity
  8
0
100
AcDbLine
 10
287.470346
 20
164.688632
 30
0.0
 11
289.825197
 21
167.043483
 31
0.0
  0
LINE
  5
2FED
100
AcDbEntity
  8
0
100
AcDbLine
 10
290.75672
 20
170.40984
 30
0.0
 11
291.463826
 21
169.702733
 31
0.0
  0
LINE
  5
2FEE
100
AcDbEntity
  8
0
100
AcDbLine
 10
292.85802
 20
170.076306
 30
0.0
 11
296.08004
 21
166.854286
 31
0.0
  0
ARC
  5
2FEF
100
AcDbEntity
  8
0
100
AcDbCircle
 10
292.568812
 20
167.332692
 30
0.0
 40
3.54367
100
AcDbArc
 50
277.758785
 51
337.758785
  0
LINE
  5
2FF0
100
AcDbEntity
  8
0
100
AcDbLine
 10
295.706467
 20
165.460092
 30
0.0
 11
296.08004
 21
166.854286
 31
0.0
  0
LINE
  5
2FF1
100
AcDbEntity
  8
0
100
AcDbLine
 10
301.953357
 20
183.16396
 30
0.0
 11
310.164682
 21
183.16396
 31
0.0
  0
LINE
  5
2FF2
100
AcDbEntity
  8
0
100
AcDbLine
 10
300.953357
 20
182.16396
 30
0.0
 11
301.953357
 21
183.16396
 31
0.0
  0
LINE
  5
2FF3
100
AcDbEntity
  8
0
100
AcDbLine
 10
310.164682
 20
183.16396
 30
0.0
 11
310.453357
 21
183.66396
 31
0.0
  0
LINE
  5
2FF4
100
AcDbEntity
  8
0
100
AcDbLine
 10
300.953357
 20
201.66396
 30
0.0
 11
277.953357
 21
201.66396
 31
0.0
  0
LINE
  5
2FF5
100
AcDbEntity
  8
0
100
AcDbLine
 10
291.753357
 20
209.16396
 30
0.0
 11
294.353357
 21
209.16396
 31
0.0
  0
LINE
  5
2FF6
100
AcDbEntity
  8
0
100
AcDbLine
 10
277.953357
 20
211.161382
 30
0.0
 11
267.953357
 21
211.161382
 31
0.0
  0
LINE
  5
2FF7
100
AcDbEntity
  8
0
100
AcDbLine
 10
267.953357
 20
201.66396
 30
0.0
 11
265.953357
 21
213.16396
 31
0.0
  0
LINE
  5
2FF8
100
AcDbEntity
  8
0
100
AcDbLine
 10
267.953357
 20
201.66396
 30
0.0
 11
267.953357
 21
216.66396
 31
0.0
  0
ARC
  5
2FF9
100
AcDbEntity
  8
0
100
AcDbCircle
 10
265.953357
 20
215.16396
 30
0.0
 40
2.0
100
AcDbArc
 50
270.0
 51
352.819244
  0
ARC
  5
2FFA
100
AcDbEntity
  8
0
100
AcDbCircle
 10
265.953357
 20
214.66396
 30
0.0
 40
2.0
100
AcDbArc
 50
7.180756
 51
90.0
  0
LINE
  5
2FFB
100
AcDbEntity
  8
0
100
AcDbLine
 10
277.953357
 20
216.66396
 30
0.0
 11
277.953357
 21
201.66396
 31
0.0
  0
LINE
  5
2FFC
100
AcDbEntity
  8
0
100
AcDbLine
 10
279.953357
 20
213.16396
 30
0.0
 11
277.953357
 21
201.66396
 31
0.0
  0
LINE
  5
2FFD
100
AcDbEntity
  8
0
100
AcDbLine
 10
279.953357
 20
213.16396
 30
0.0
 11
289.753357
 21
213.16396
 31
0.0
  0
ARC
  5
2FFE
100
AcDbEntity
  8
0
100
AcDbCircle
 10
279.953357
 20
214.66396
 30
0.0
 40
2.0
100
AcDbArc
 50
90.0
 51
172.819244
  0
ARC
  5
2FFF
100
AcDbEntity
  8
0
100
AcDbCircle
 10
279.953357
 20
215.16396
 30
0.0
 40
2.0
100
AcDbArc
 50
187.180756
 51
270.0
  0
ARC
  5
3000
100
AcDbEntity
  8
0
100
AcDbCircle
 10
291.753357
 20
211.16396
 30
0.0
 40
2.0
100
AcDbArc
 50
180.0
 51
270.0
  0
LINE
  5
3001
100
AcDbEntity
  8
0
100
AcDbLine
 10
289.753357
 20
213.16396
 30
0.0
 11
289.753357
 21
211.16396
 31
0.0
  0
LINE
  5
3002
100
AcDbEntity
  8
0
100
AcDbLine
 10
289.459454
 20
226.66396
 30
0.0
 11
289.459454
 21
231.16396
 31
0.0
  0
LINE
  5
3003
100
AcDbEntity
  8
0
100
AcDbLine
 10
310.453357
 20
219.66396
 30
0.0
 11
310.453357
 21
201.66396
 31
0.0
  0
ARC
  5
3004
100
AcDbEntity
  8
0
100
AcDbCircle
 10
283.477247
 20
210.91396
 30
0.0
 40
26.687435
100
AcDbArc
 50
339.720195
 51
20.279805
  0
LINE
  5
3005
100
AcDbEntity
  8
0
100
AcDbLine
 10
303.753357
 20
226.66396
 30
0.0
 11
303.753357
 21
216.66396
 31
0.0
  0
LINE
  5
3006
100
AcDbEntity
  8
0
100
AcDbLine
 10
308.510359
 20
201.66396
 30
0.0
 11
301.953357
 21
201.66396
 31
0.0
  0
ARC
  5
3007
100
AcDbEntity
  8
0
100
AcDbCircle
 10
294.353357
 20
211.16396
 30
0.0
 40
2.0
100
AcDbArc
 50
270.0
 51
0.0
  0
LINE
  5
3008
100
AcDbEntity
  8
0
100
AcDbLine
 10
296.353357
 20
216.66396
 30
0.0
 11
296.353357
 21
211.16396
 31
0.0
  0
LINE
  5
3009
100
AcDbEntity
  8
0
100
AcDbLine
 10
303.753357
 20
220.16396
 30
0.0
 11
310.164682
 21
220.16396
 31
0.0
  0
LINE
  5
300A
100
AcDbEntity
  8
0
100
AcDbLine
 10
297.459454
 20
231.16396
 30
0.0
 11
297.459454
 21
226.66396
 31
0.0
  0
ARC
  5
300B
100
AcDbEntity
  8
0
100
AcDbCircle
 10
293.953357
 20
238.16396
 30
0.0
 40
2.0
100
AcDbArc
 50
0.0
 51
90.0
  0
ARC
  5
300C
100
AcDbEntity
  8
0
100
AcDbCircle
 10
293.953357
 20
233.16396
 30
0.0
 40
2.0
100
AcDbArc
 50
270.0
 51
0.0
  0
LINE
  5
300D
100
AcDbEntity
  8
0
100
AcDbLine
 10
295.953357
 20
238.16396
 30
0.0
 11
295.953357
 21
233.16396
 31
0.0
  0
ARC
  5
300E
100
AcDbEntity
  8
0
100
AcDbCircle
 10
301.753357
 20
238.16396
 30
0.0
 40
2.0
100
AcDbArc
 50
360.0
 51
90.0
  0
ARC
  5
300F
100
AcDbEntity
  8
0
100
AcDbCircle
 10
301.753357
 20
233.16396
 30
0.0
 40
2.0
100
AcDbArc
 50
270.0
 51
0.0
  0
LINE
  5
3010
100
AcDbEntity
  8
0
100
AcDbLine
 10
300.964954
 20
241.76396
 30
0.0
 11
301.753357
 21
241.76396
 31
0.0
  0
LINE
  5
3011
100
AcDbEntity
  8
0
100
AcDbLine
 10
303.753357
 20
239.76396
 30
0.0
 11
303.753357
 21
233.16396
 31
0.0
  0
LINE
  5
3012
100
AcDbEntity
  8
0
100
AcDbLine
 10
310.164682
 20
220.16396
 30
0.0
 11
310.453357
 21
219.66396
 31
0.0
  0
LINE
  5
3013
100
AcDbEntity
  8
0
100
AcDbLine
 10
258.755761
 20
246.66396
 30
0.0
 11
246.137761
 21
246.66396
 31
0.0
  0
ARC
  5
3014
100
AcDbEntity
  8
0
100
AcDbCircle
 10
258.075261
 20
242.970001
 30
0.0
 40
3.541047
100
AcDbArc
 50
57.999406
 51
122.000594
  0
CIRCLE
  5
3015
100
AcDbEntity
  8
0
100
AcDbCircle
 10
252.447261
 20
324.275609
 30
0.0
 40
6.30876
  0
LINE
  5
3016
100
AcDbEntity
  8
0
100
AcDbLine
 10
259.953261
 20
324.275609
 30
0.0
 11
256.200261
 21
330.775609
 31
0.0
  0
ARC
  5
3017
100
AcDbEntity
  8
0
100
AcDbCircle
 10
252.316535
 20
324.407174
 30
0.0
 40
11.5
100
AcDbArc
 50
10.657381
 51
82.15933
  0
LINE
  5
3018
100
AcDbEntity
  8
0
100
AcDbLine
 10
256.200261
 20
317.775609
 30
0.0
 11
259.953261
 21
324.275609
 31
0.0
  0
LINE
  5
3019
100
AcDbEntity
  8
0
100
AcDbLine
 10
249.653357
 20
316.781706
 30
0.0
 11
296.253357
 21
316.781706
 31
0.0
  0
ARC
  5
301A
100
AcDbEntity
  8
0
100
AcDbCircle
 10
246.818261
 20
242.970001
 30
0.0
 40
3.541047
100
AcDbArc
 50
57.999406
 51
122.000594
  0
LINE
  5
301B
100
AcDbEntity
  8
0
100
AcDbLine
 10
246.137761
 20
246.66396
 30
0.0
 11
244.941761
 21
245.97296
 31
0.0
  0
ARC
  5
301C
100
AcDbEntity
  8
0
100
AcDbCircle
 10
252.446761
 20
233.15848
 30
0.0
 40
13.352467
100
AcDbArc
 50
73.680297
 51
106.319703
  0
LINE
  5
301D
100
AcDbEntity
  8
0
100
AcDbLine
 10
230.742033
 20
326.281706
 30
0.0
 11
243.953357
 21
326.281706
 31
0.0
  0
LINE
  5
301E
100
AcDbEntity
  8
0
100
AcDbLine
 10
230.742033
 20
326.281706
 30
0.0
 11
230.453357
 21
326.781706
 31
0.0
  0
LINE
  5
301F
100
AcDbEntity
  8
0
100
AcDbLine
 10
248.694261
 20
330.775609
 30
0.0
 11
244.941261
 21
324.275609
 31
0.0
  0
LINE
  5
3020
100
AcDbEntity
  8
0
100
AcDbLine
 10
244.941261
 20
324.275609
 30
0.0
 11
248.694261
 21
317.775609
 31
0.0
  0
LINE
  5
3021
100
AcDbEntity
  8
0
100
AcDbLine
 10
244.208698
 20
321.761894
 30
0.0
 11
249.653357
 21
316.781706
 31
0.0
  0
LINE
  5
3022
100
AcDbEntity
  8
0
100
AcDbLine
 10
248.694261
 20
317.775609
 30
0.0
 11
256.200261
 21
317.775609
 31
0.0
  0
LINE
  5
3023
100
AcDbEntity
  8
0
100
AcDbLine
 10
243.123
 20
337.281706
 30
0.0
 11
253.885351
 21
335.799664
 31
0.0
  0
LINE
  5
3024
100
AcDbEntity
  8
0
100
AcDbLine
 10
256.200261
 20
330.775609
 30
0.0
 11
248.694261
 21
330.775609
 31
0.0
  0
ARC
  5
3025
100
AcDbEntity
  8
0
100
AcDbCircle
 10
293.458954
 20
233.15848
 30
0.0
 40
13.352467
100
AcDbArc
 50
73.680297
 51
106.319703
  0
LINE
  5
3026
100
AcDbEntity
  8
0
100
AcDbLine
 10
299.767954
 20
246.66396
 30
0.0
 11
287.149954
 21
246.66396
 31
0.0
  0
LINE
  5
3027
100
AcDbEntity
  8
0
100
AcDbLine
 10
259.952761
 20
245.66396
 30
0.0
 11
285.953954
 21
245.66396
 31
0.0
  0
LINE
  5
3028
100
AcDbEntity
  8
0
100
AcDbLine
 10
259.952761
 20
245.97296
 30
0.0
 11
258.755761
 21
246.66396
 31
0.0
  0
LINE
  5
3029
100
AcDbEntity
  8
0
100
AcDbLine
 10
287.149954
 20
246.66396
 30
0.0
 11
285.953954
 21
245.97296
 31
0.0
  0
ARC
  5
302A
100
AcDbEntity
  8
0
100
AcDbCircle
 10
287.830454
 20
242.970001
 30
0.0
 40
3.541047
100
AcDbArc
 50
57.999406
 51
122.000594
  0
LINE
  5
302B
100
AcDbEntity
  8
0
100
AcDbLine
 10
300.964954
 20
245.97296
 30
0.0
 11
299.767954
 21
246.66396
 31
0.0
  0
ARC
  5
302C
100
AcDbEntity
  8
0
100
AcDbCircle
 10
299.087454
 20
242.970001
 30
0.0
 40
3.541047
100
AcDbArc
 50
57.999406
 51
122.000594
  0
LINE
  5
302D
100
AcDbEntity
  8
0
100
AcDbLine
 10
289.706454
 20
330.775609
 30
0.0
 11
297.212454
 21
330.775609
 31
0.0
  0
LINE
  5
302E
100
AcDbEntity
  8
0
100
AcDbLine
 10
297.212454
 20
317.775609
 30
0.0
 11
289.706454
 21
317.775609
 31
0.0
  0
CIRCLE
  5
302F
100
AcDbEntity
  8
0
100
AcDbCircle
 10
293.459454
 20
324.275609
 30
0.0
 40
6.30876
  0
ARC
  5
3030
100
AcDbEntity
  8
0
100
AcDbCircle
 10
293.59018
 20
324.407174
 30
0.0
 40
11.5
100
AcDbArc
 50
97.84067
 51
169.342619
  0
LINE
  5
3031
100
AcDbEntity
  8
0
100
AcDbLine
 10
265.453357
 20
316.781706
 30
0.0
 11
263.618167
 21
326.533934
 31
0.0
  0
LINE
  5
3032
100
AcDbEntity
  8
0
100
AcDbLine
 10
285.953454
 20
324.275609
 30
0.0
 11
289.706454
 21
330.775609
 31
0.0
  0
LINE
  5
3033
100
AcDbEntity
  8
0
100
AcDbLine
 10
280.453357
 20
316.781706
 30
0.0
 11
282.288548
 21
326.533934
 31
0.0
  0
LINE
  5
3034
100
AcDbEntity
  8
0
100
AcDbLine
 10
289.706454
 20
317.775609
 30
0.0
 11
285.953454
 21
324.275609
 31
0.0
  0
LINE
  5
3035
100
AcDbEntity
  8
0
100
AcDbLine
 10
301.953357
 20
326.281706
 30
0.0
 11
310.164682
 21
326.281706
 31
0.0
  0
LINE
  5
3036
100
AcDbEntity
  8
0
100
AcDbLine
 10
297.212454
 20
330.775609
 30
0.0
 11
300.965454
 21
324.275609
 31
0.0
  0
LINE
  5
3037
100
AcDbEntity
  8
0
100
AcDbLine
 10
300.965454
 20
324.275609
 30
0.0
 11
297.212454
 21
317.775609
 31
0.0
  0
LINE
  5
3038
100
AcDbEntity
  8
0
100
AcDbLine
 10
301.698017
 20
321.761894
 30
0.0
 11
296.253357
 21
316.781706
 31
0.0
  0
LINE
  5
3039
100
AcDbEntity
  8
0
100
AcDbLine
 10
302.783715
 20
337.281706
 30
0.0
 11
292.021364
 21
335.799664
 31
0.0
  0
LINE
  5
303A
100
AcDbEntity
  8
0
100
AcDbLine
 10
310.164682
 20
326.281706
 30
0.0
 11
310.453357
 21
326.781706
 31
0.0
  0
ARC
  5
303B
100
AcDbEntity
  8
0
100
AcDbCircle
 10
399.075251
 20
225.489575
 30
0.0
 40
17.881484
100
AcDbArc
 50
98.004736
 51
113.60754
  0
LINE
  5
303C
100
AcDbEntity
  8
0
100
AcDbLine
 10
403.084166
 20
245.97296
 30
0.0
 11
403.084166
 21
240.16396
 31
0.0
  0
LINE
  5
303D
100
AcDbEntity
  8
0
100
AcDbLine
 10
396.585166
 20
245.97296
 30
0.0
 11
396.585166
 21
240.16396
 31
0.0
  0
LINE
  5
303E
100
AcDbEntity
  8
0
100
AcDbLine
 10
409.585166
 20
240.16396
 30
0.0
 11
409.585166
 21
245.97296
 31
0.0
  0
ARC
  5
303F
100
AcDbEntity
  8
0
100
AcDbCircle
 10
366.082887
 20
225.489575
 30
0.0
 40
17.881484
100
AcDbArc
 50
66.39246
 51
81.995264
  0
LINE
  5
3040
100
AcDbEntity
  8
0
100
AcDbLine
 10
362.071973
 20
245.97296
 30
0.0
 11
362.071973
 21
240.16396
 31
0.0
  0
LINE
  5
3041
100
AcDbEntity
  8
0
100
AcDbLine
 10
355.572973
 20
245.97296
 30
0.0
 11
355.572973
 21
240.16396
 31
0.0
  0
LINE
  5
3042
100
AcDbEntity
  8
0
100
AcDbLine
 10
368.572973
 20
240.16396
 30
0.0
 11
368.572973
 21
245.97296
 31
0.0
  0
ARC
  5
3043
100
AcDbEntity
  8
0
100
AcDbCircle
 10
382.579069
 20
213.36396
 30
0.0
 40
30.0
100
AcDbArc
 50
63.295148
 51
116.704852
  0
ARC
  5
3044
100
AcDbEntity
  8
0
100
AcDbCircle
 10
398.744877
 20
214.66396
 30
0.0
 40
2.0
100
AcDbArc
 50
90.0
 51
210.0
  0
LINE
  5
3045
100
AcDbEntity
  8
0
100
AcDbLine
 10
356.579069
 20
226.66396
 30
0.0
 11
408.579069
 21
226.66396
 31
0.0
  0
LINE
  5
3046
100
AcDbEntity
  8
0
100
AcDbLine
 10
355.572973
 20
240.16396
 30
0.0
 11
409.585166
 21
240.16396
 31
0.0
  0
LINE
  5
3047
100
AcDbEntity
  8
0
100
AcDbLine
 10
356.579069
 20
231.16396
 30
0.0
 11
408.579069
 21
231.16396
 31
0.0
  0
POLYLINE
  5
3048
100
AcDbEntity
  8
0
100
AcDb2dPolyline
 66
     1
 10
0.0
 20
0.0
 30
0.0
 70
     1
  0
VERTEX
  5
3559
100
AcDbEntity
  8
0
100
AcDbVertex
100
AcDb2dVertex
 10
393.260049
 20
183.16396
 30
0.0
  0
VERTEX
  5
355A
100
AcDbEntity
  8
0
100
AcDbVertex
100
AcDb2dVertex
 10
403.941029
 20
201.66396
 30
0.0
  0
VERTEX
  5
355B
100
AcDbEntity
  8
0
100
AcDbVertex
100
AcDb2dVertex
 10
393.260049
 20
220.16396
 30
0.0
  0
VERTEX
  5
355C
100
AcDbEntity
  8
0
100
AcDbVertex
100
AcDb2dVertex
 10
371.898089
 20
220.16396
 30
0.0
  0
VERTEX
  5
355D
100
AcDbEntity
  8
0
100
AcDbVertex
100
AcDb2dVertex
 10
361.217109
 20
201.66396
 30
0.0
  0
VERTEX
  5
355E
100
AcDbEntity
  8
0
100
AcDbVertex
100
AcDb2dVertex
 10
371.898089
 20
183.16396
 30
0.0
  0
SEQEND
  5
355F
100
AcDbEntity
  8
0
  0
CIRCLE
  5
3049
100
AcDbEntity
  8
0
100
AcDbCircle
 10
382.579069
 20
201.66396
 30
0.0
 40
18.0
  0
POLYLINE
  5
304A
100
AcDbEntity
  8
0
100
AcDb2dPolyline
 66
     1
 10
0.0
 20
0.0
 30
0.0
  0
VERTEX
  5
3560
100
AcDbEntity
  8
0
100
AcDbVertex
100
AcDb2dVertex
 10
366.990612
 20
213.66396
 30
0.0
  0
VERTEX
  5
3561
100
AcDbEntity
  8
0
100
AcDbVertex
100
AcDb2dVertex
 10
360.062409
 20
201.66396
 30
0.0
  0
VERTEX
  5
3562
100
AcDbEntity
  8
0
100
AcDbVertex
100
AcDb2dVertex
 10
371.320739
 20
182.16396
 30
0.0
  0
VERTEX
  5
3563
100
AcDbEntity
  8
0
100
AcDbVertex
100
AcDb2dVertex
 10
393.8374
 20
182.16396
 30
0.0
  0
VERTEX
  5
3564
100
AcDbEntity
  8
0
100
AcDbVertex
100
AcDb2dVertex
 10
405.09573
 20
201.66396
 30
0.0
  0
VERTEX
  5
3565
100
AcDbEntity
  8
0
100
AcDbVertex
100
AcDb2dVertex
 10
398.167527
 20
213.66396
 30
0.0
  0
SEQEND
  5
3566
100
AcDbEntity
  8
0
  0
LINE
  5
304B
100
AcDbEntity
  8
0
100
AcDbLine
 10
384.227472
 20
170.076306
 30
0.0
 11
384.227472
 21
166.854286
 31
0.0
  0
POLYLINE
  5
304C
100
AcDbEntity
  8
0
100
AcDb2dPolyline
 66
     1
 10
0.0
 20
0.0
 30
0.0
  0
VERTEX
  5
3567
100
AcDbEntity
  8
0
100
AcDbVertex
100
AcDb2dVertex
 10
391.930666
 20
167.043483
 30
0.0
  0
VERTEX
  5
3568
100
AcDbEntity
  8
0
100
AcDbVertex
100
AcDb2dVertex
 10
384.227472
 20
170.076306
 30
0.0
  0
SEQEND
  5
3569
100
AcDbEntity
  8
0
  0
ELLIPSE
  5
304D
100
AcDbEntity
  8
0
100
AcDbEllipse
 10
382.579069
 20
165.796784
 30
0.0
 11
-13.24999999999999
 21
0.0
 31
0.0
210
0.0
220
0.0
230
1.0
 40
0.713299
 41
3.204759323198742
 42
3.732942932535823
  0
LINE
  5
304E
100
AcDbEntity
  8
0
100
AcDbLine
 10
380.930666
 20
170.076306
 30
0.0
 11
380.930666
 21
166.854286
 31
0.0
  0
POLYLINE
  5
304F
100
AcDbEntity
  8
0
100
AcDb2dPolyline
 66
     1
 10
0.0
 20
0.0
 30
0.0
  0
VERTEX
  5
356A
100
AcDbEntity
  8
0
100
AcDbVertex
100
AcDb2dVertex
 10
380.930666
 20
170.076306
 30
0.0
  0
VERTEX
  5
356B
100
AcDbEntity
  8
0
100
AcDbVertex
100
AcDb2dVertex
 10
373.227472
 20
167.043483
 30
0.0
  0
SEQEND
  5
356C
100
AcDbEntity
  8
0
  0
ELLIPSE
  5
3050
100
AcDbEntity
  8
0
100
AcDbEllipse
 10
382.579069
 20
165.796784
 30
0.0
 11
-13.24999999999999
 21
0.0
 31
0.0
210
0.0
220
0.0
230
1.0
 40
0.713299
 41
5.691835028233652
 42
6.283185307179586
  0
ELLIPSE
  5
3051
100
AcDbEntity
  8
0
100
AcDbEllipse
 10
382.579069
 20
164.045879
 30
0.0
 11
-13.24999999999999
 21
0.0
 31
0.0
210
0.0
220
0.0
230
1.0
 40
0.713299
 41
2.550242374643728
 42
6.87453558612572
  0
ELLIPSE
  5
3052
100
AcDbEntity
  8
0
100
AcDbEllipse
 10
382.579069
 20
162.985219
 30
0.0
 11
-12.5
 21
0.0
 31
0.0
210
0.0
220
0.0
230
1.0
 40
0.707107
 41
2.646658527248866
 42
6.778119433520586
  0
ELLIPSE
  5
3053
100
AcDbEntity
  8
0
100
AcDbEllipse
 10
382.579069
 20
162.985219
 30
0.0
 11
-10.5
 21
0.0
 31
0.0
210
0.0
220
0.0
230
1.0
 40
0.707107
 41
3.77882011854746
 42
5.645957842221769
  0
POLYLINE
  5
3054
100
AcDbEntity
  8
0
100
AcDb2dPolyline
 66
     1
 10
0.0
 20
0.0
 30
0.0
  0
VERTEX
  5
356D
100
AcDbEntity
  8
0
100
AcDbVertex
100
AcDb2dVertex
 10
380.930666
 20
166.854286
 30
0.0
  0
VERTEX
  5
356E
100
AcDbEntity
  8
0
100
AcDbVertex
100
AcDb2dVertex
 10
373.227472
 20
163.821463
 30
0.0
  0
SEQEND
  5
356F
100
AcDbEntity
  8
0
  0
POLYLINE
  5
3055
100
AcDbEntity
  8
0
100
AcDb2dPolyline
 66
     1
 10
0.0
 20
0.0
 30
0.0
  0
VERTEX
  5
3570
100
AcDbEntity
  8
0
100
AcDbVertex
100
AcDb2dVertex
 10
373.227472
 20
153.2701
 30
0.0
  0
VERTEX
  5
3571
100
AcDbEntity
  8
0
100
AcDbVertex
100
AcDb2dVertex
 10
380.930666
 20
150.237277
 30
0.0
  0
SEQEND
  5
3572
100
AcDbEntity
  8
0
  0
ELLIPSE
  5
3056
100
AcDbEntity
  8
0
100
AcDbEllipse
 10
382.579069
 20
158.335145
 30
0.0
 11
-10.49290910814761
 21
0.0
 31
0.0
210
0.0
220
0.0
230
1.0
 40
0.706971
 41
0.0
 42
6.283185307179586
  0
POLYLINE
  5
3057
100
AcDbEntity
  8
0
100
AcDb2dPolyline
 66
     1
 10
0.0
 20
0.0
 30
0.0
  0
VERTEX
  5
3573
100
AcDbEntity
  8
0
100
AcDbVertex
100
AcDb2dVertex
 10
371.579069
 20
164.688632
 30
0.0
  0
VERTEX
  5
3574
100
AcDbEntity
  8
0
100
AcDbVertex
100
AcDb2dVertex
 10
371.579069
 20
155.624951
 30
0.0
  0
SEQEND
  5
3575
100
AcDbEntity
  8
0
  0
LINE
  5
3058
100
AcDbEntity
  8
0
100
AcDbLine
 10
373.227472
 20
153.2701
 30
0.0
 11
371.579069
 21
155.624951
 31
0.0
  0
LINE
  5
3059
100
AcDbEntity
  8
0
100
AcDbLine
 10
369.329069
 20
165.796784
 30
0.0
 11
369.329069
 21
164.045879
 31
0.0
  0
LINE
  5
305A
100
AcDbEntity
  8
0
100
AcDbLine
 10
373.227472
 20
167.043483
 30
0.0
 11
373.227472
 21
163.821463
 31
0.0
  0
LINE
  5
305B
100
AcDbEntity
  8
0
100
AcDbLine
 10
371.579069
 20
164.688632
 30
0.0
 11
373.227472
 21
167.043483
 31
0.0
  0
LINE
  5
305C
100
AcDbEntity
  8
0
100
AcDbLine
 10
371.579069
 20
161.466612
 30
0.0
 11
373.227472
 21
163.821463
 31
0.0
  0
POLYLINE
  5
305D
100
AcDbEntity
  8
0
100
AcDb2dPolyline
 66
     1
 10
0.0
 20
0.0
 30
0.0
  0
VERTEX
  5
3576
100
AcDbEntity
  8
0
100
AcDbVertex
100
AcDb2dVertex
 10
393.579069
 20
155.624951
 30
0.0
  0
VERTEX
  5
3577
100
AcDbEntity
  8
0
100
AcDbVertex
100
AcDb2dVertex
 10
393.579069
 20
164.688632
 30
0.0
  0
SEQEND
  5
3578
100
AcDbEntity
  8
0
  0
POLYLINE
  5
305E
100
AcDbEntity
  8
0
100
AcDb2dPolyline
 66
     1
 10
0.0
 20
0.0
 30
0.0
  0
VERTEX
  5
3579
100
AcDbEntity
  8
0
100
AcDbVertex
100
AcDb2dVertex
 10
384.227472
 20
150.237277
 30
0.0
  0
VERTEX
  5
357A
100
AcDbEntity
  8
0
100
AcDbVertex
100
AcDb2dVertex
 10
391.930666
 20
153.2701
 30
0.0
  0
SEQEND
  5
357B
100
AcDbEntity
  8
0
  0
LINE
  5
305F
100
AcDbEntity
  8
0
100
AcDbLine
 10
384.227472
 20
150.237277
 30
0.0
 11
380.930666
 21
150.237277
 31
0.0
  0
LINE
  5
3060
100
AcDbEntity
  8
0
100
AcDbLine
 10
393.579069
 20
155.624951
 30
0.0
 11
391.930666
 21
153.2701
 31
0.0
  0
POLYLINE
  5
3061
100
AcDbEntity
  8
0
100
AcDb2dPolyline
 66
     1
 10
0.0
 20
0.0
 30
0.0
  0
VERTEX
  5
357C
100
AcDbEntity
  8
0
100
AcDbVertex
100
AcDb2dVertex
 10
391.930666
 20
163.821463
 30
0.0
  0
VERTEX
  5
357D
100
AcDbEntity
  8
0
100
AcDbVertex
100
AcDb2dVertex
 10
384.227472
 20
166.854286
 30
0.0
  0
SEQEND
  5
357E
100
AcDbEntity
  8
0
  0
LINE
  5
3062
100
AcDbEntity
  8
0
100
AcDbLine
 10
380.930666
 20
166.854286
 30
0.0
 11
384.227472
 21
166.854286
 31
0.0
  0
LINE
  5
3063
100
AcDbEntity
  8
0
100
AcDbLine
 10
391.930666
 20
167.043483
 30
0.0
 11
391.930666
 21
163.821463
 31
0.0
  0
LINE
  5
3064
100
AcDbEntity
  8
0
100
AcDbLine
 10
391.930666
 20
167.043483
 30
0.0
 11
393.579069
 21
164.688632
 31
0.0
  0
LINE
  5
3065
100
AcDbEntity
  8
0
100
AcDbLine
 10
391.930666
 20
163.821463
 30
0.0
 11
393.579069
 21
161.466612
 31
0.0
  0
LINE
  5
3066
100
AcDbEntity
  8
0
100
AcDbLine
 10
395.802644
 20
166.393388
 30
0.0
 11
395.829069
 21
164.045879
 31
0.0
  0
LINE
  5
3067
100
AcDbEntity
  8
0
100
AcDbLine
 10
371.579069
 20
182.16396
 30
0.0
 11
371.579069
 21
169.314762
 31
0.0
  0
LINE
  5
3068
100
AcDbEntity
  8
0
100
AcDbLine
 10
393.579069
 20
182.16396
 30
0.0
 11
393.579069
 21
169.314762
 31
0.0
  0
LINE
  5
3069
100
AcDbEntity
  8
0
100
AcDbLine
 10
380.930666
 20
170.076306
 30
0.0
 11
384.227472
 21
170.076306
 31
0.0
  0
ARC
  5
306A
100
AcDbEntity
  8
0
100
AcDbCircle
 10
361.559258
 20
215.16396
 30
0.0
 40
2.0
100
AcDbArc
 50
180.0
 51
270.0
  0
LINE
  5
306B
100
AcDbEntity
  8
0
100
AcDbLine
 10
358.559258
 20
216.66396
 30
0.0
 11
366.413262
 21
216.66396
 31
0.0
  0
ARC
  5
306C
100
AcDbEntity
  8
0
100
AcDbCircle
 10
361.559258
 20
218.66396
 30
0.0
 40
2.0
100
AcDbArc
 50
180.0
 51
270.0
  0
ARC
  5
306D
100
AcDbEntity
  8
0
100
AcDbCircle
 10
361.579069
 20
233.16396
 30
0.0
 40
2.0
100
AcDbArc
 50
180.0
 51
270.0
  0
ARC
  5
306E
100
AcDbEntity
  8
0
100
AcDbCircle
 10
361.579069
 20
238.16396
 30
0.0
 40
2.0
100
AcDbArc
 50
90.0
 51
180.0
  0
ARC
  5
306F
100
AcDbEntity
  8
0
100
AcDbCircle
 10
361.559258
 20
224.66396
 30
0.0
 40
2.0
100
AcDbArc
 50
90.0
 51
180.0
  0
LINE
  5
3070
100
AcDbEntity
  8
0
100
AcDbLine
 10
354.579069
 20
224.66396
 30
0.0
 11
354.579069
 21
216.66396
 31
0.0
  0
ARC
  5
3071
100
AcDbEntity
  8
0
100
AcDbCircle
 10
356.579069
 20
218.66396
 30
0.0
 40
2.0
100
AcDbArc
 50
180.0
 51
270.0
  0
LINE
  5
3072
100
AcDbEntity
  8
0
100
AcDbLine
 10
354.579069
 20
211.161382
 30
0.0
 11
360.062409
 21
201.66396
 31
0.0
  0
LINE
  5
3073
100
AcDbEntity
  8
0
100
AcDbLine
 10
356.579069
 20
216.66396
 30
0.0
 11
358.559258
 21
216.66396
 31
0.0
  0
LINE
  5
3074
100
AcDbEntity
  8
0
100
AcDbLine
 10
354.579069
 20
216.66396
 30
0.0
 11
354.579069
 21
211.161382
 31
0.0
  0
LINE
  5
3075
100
AcDbEntity
  8
0
100
AcDbLine
 10
359.559258
 20
215.66396
 30
0.0
 11
359.559258
 21
215.16396
 31
0.0
  0
ARC
  5
3076
100
AcDbEntity
  8
0
100
AcDbCircle
 10
358.559258
 20
215.66396
 30
0.0
 40
1.0
100
AcDbArc
 50
0.0
 51
90.0
  0
LINE
  5
3077
100
AcDbEntity
  8
0
100
AcDbLine
 10
358.072973
 20
226.66396
 30
0.0
 11
358.072973
 21
231.16396
 31
0.0
  0
LINE
  5
3078
100
AcDbEntity
  8
0
100
AcDbLine
 10
359.559258
 20
224.66396
 30
0.0
 11
359.559258
 21
218.66396
 31
0.0
  0
ARC
  5
3079
100
AcDbEntity
  8
0
100
AcDbCircle
 10
356.579069
 20
224.66396
 30
0.0
 40
2.0
100
AcDbArc
 50
90.0
 51
180.0
  0
LINE
  5
307A
100
AcDbEntity
  8
0
100
AcDbLine
 10
359.579069
 20
238.16396
 30
0.0
 11
359.579069
 21
233.16396
 31
0.0
  0
LINE
  5
307B
100
AcDbEntity
  8
0
100
AcDbLine
 10
354.579069
 20
239.76396
 30
0.0
 11
354.579069
 21
233.16396
 31
0.0
  0
ARC
  5
307C
100
AcDbEntity
  8
0
100
AcDbCircle
 10
356.579069
 20
233.16396
 30
0.0
 40
2.0
100
AcDbArc
 50
180.0
 51
270.0
  0
ARC
  5
307D
100
AcDbEntity
  8
0
100
AcDbCircle
 10
356.579069
 20
238.16396
 30
0.0
 40
2.0
100
AcDbArc
 50
90.0
 51
180.0
  0
ARC
  5
307E
100
AcDbEntity
  8
0
100
AcDbCircle
 10
356.579069
 20
239.76396
 30
0.0
 40
2.0
100
AcDbArc
 50
120.201881
 51
180.0
  0
LINE
  5
307F
100
AcDbEntity
  8
0
100
AcDbLine
 10
361.559258
 20
213.16396
 30
0.0
 11
363.237835
 21
213.16396
 31
0.0
  0
ARC
  5
3080
100
AcDbEntity
  8
0
100
AcDbCircle
 10
365.258561
 20
214.66396
 30
0.0
 40
2.0
100
AcDbArc
 50
330.0
 51
90.0
  0
ARC
  5
3081
100
AcDbEntity
  8
0
100
AcDbCircle
 10
363.237835
 20
211.16396
 30
0.0
 40
2.0
100
AcDbArc
 50
330.0
 51
90.0
  0
ARC
  5
3082
100
AcDbEntity
  8
0
100
AcDbCircle
 10
366.413262
 20
214.66396
 30
0.0
 40
2.0
100
AcDbArc
 50
330.0
 51
90.0
  0
LINE
  5
3083
100
AcDbEntity
  8
0
100
AcDbLine
 10
366.072973
 20
231.16396
 30
0.0
 11
366.072973
 21
226.66396
 31
0.0
  0
LINE
  5
3084
100
AcDbEntity
  8
0
100
AcDbLine
 10
410.579069
 20
224.66396
 30
0.0
 11
410.579069
 21
216.66396
 31
0.0
  0
ARC
  5
3085
100
AcDbEntity
  8
0
100
AcDbCircle
 10
408.579069
 20
218.66396
 30
0.0
 40
2.0
100
AcDbArc
 50
270.0
 51
0.0
  0
ARC
  5
3086
100
AcDbEntity
  8
0
100
AcDbCircle
 10
403.598881
 20
218.66396
 30
0.0
 40
2.0
100
AcDbArc
 50
270.0
 51
0.0
  0
LINE
  5
3087
100
AcDbEntity
  8
0
100
AcDbLine
 10
410.579069
 20
211.161382
 30
0.0
 11
405.09573
 21
201.66396
 31
0.0
  0
ARC
  5
3088
100
AcDbEntity
  8
0
100
AcDbCircle
 10
403.598881
 20
215.16396
 30
0.0
 40
2.0
100
AcDbArc
 50
270.0
 51
0.0
  0
LINE
  5
3089
100
AcDbEntity
  8
0
100
AcDbLine
 10
398.744877
 20
216.66396
 30
0.0
 11
408.579069
 21
216.66396
 31
0.0
  0
ARC
  5
308A
100
AcDbEntity
  8
0
100
AcDbCircle
 10
401.920303
 20
211.16396
 30
0.0
 40
2.0
100
AcDbArc
 50
90.0
 51
210.0
  0
LINE
  5
308B
100
AcDbEntity
  8
0
100
AcDbLine
 10
401.920303
 20
213.16396
 30
0.0
 11
403.598881
 21
213.16396
 31
0.0
  0
ARC
  5
308C
100
AcDbEntity
  8
0
100
AcDbCircle
 10
399.899577
 20
214.66396
 30
0.0
 40
2.0
100
AcDbArc
 50
90.0
 51
210.0
  0
LINE
  5
308D
100
AcDbEntity
  8
0
100
AcDbLine
 10
410.579069
 20
216.66396
 30
0.0
 11
410.579069
 21
211.161382
 31
0.0
  0
ARC
  5
308E
100
AcDbEntity
  8
0
100
AcDbCircle
 10
406.598881
 20
215.66396
 30
0.0
 40
1.0
100
AcDbArc
 50
90.0
 51
180.0
  0
LINE
  5
308F
100
AcDbEntity
  8
0
100
AcDbLine
 10
405.598881
 20
215.66396
 30
0.0
 11
405.598881
 21
215.16396
 31
0.0
  0
LINE
  5
3090
100
AcDbEntity
  8
0
100
AcDbLine
 10
399.085166
 20
226.66396
 30
0.0
 11
399.085166
 21
231.16396
 31
0.0
  0
LINE
  5
3091
100
AcDbEntity
  8
0
100
AcDbLine
 10
407.085166
 20
231.16396
 30
0.0
 11
407.085166
 21
226.66396
 31
0.0
  0
ARC
  5
3092
100
AcDbEntity
  8
0
100
AcDbCircle
 10
403.598881
 20
224.66396
 30
0.0
 40
2.0
100
AcDbArc
 50
0.0
 51
90.0
  0
LINE
  5
3093
100
AcDbEntity
  8
0
100
AcDbLine
 10
405.598881
 20
224.66396
 30
0.0
 11
405.598881
 21
218.66396
 31
0.0
  0
ARC
  5
3094
100
AcDbEntity
  8
0
100
AcDbCircle
 10
408.579069
 20
224.66396
 30
0.0
 40
2.0
100
AcDbArc
 50
0.0
 51
90.0
  0
ARC
  5
3095
100
AcDbEntity
  8
0
100
AcDbCircle
 10
403.579069
 20
233.16396
 30
0.0
 40
2.0
100
AcDbArc
 50
270.0
 51
0.0
  0
ARC
  5
3096
100
AcDbEntity
  8
0
100
AcDbCircle
 10
403.579069
 20
238.16396
 30
0.0
 40
2.0
100
AcDbArc
 50
0.0
 51
90.0
  0
LINE
  5
3097
100
AcDbEntity
  8
0
100
AcDbLine
 10
405.579069
 20
238.16396
 30
0.0
 11
405.579069
 21
233.16396
 31
0.0
  0
LINE
  5
3098
100
AcDbEntity
  8
0
100
AcDbLine
 10
410.579069
 20
239.76396
 30
0.0
 11
410.579069
 21
233.16396
 31
0.0
  0
ARC
  5
3099
100
AcDbEntity
  8
0
100
AcDbCircle
 10
408.579069
 20
233.16396
 30
0.0
 40
2.0
100
AcDbArc
 50
270.0
 51
0.0
  0
ARC
  5
309A
100
AcDbEntity
  8
0
100
AcDbCircle
 10
408.579069
 20
239.76396
 30
0.0
 40
2.0
100
AcDbArc
 50
0.0
 51
59.798119
  0
ARC
  5
309B
100
AcDbEntity
  8
0
100
AcDbCircle
 10
408.579069
 20
238.16396
 30
0.0
 40
2.0
100
AcDbArc
 50
360.0
 51
90.0
  0
LINE
  5
309C
100
AcDbEntity
  8
0
100
AcDbLine
 10
368.572973
 20
245.66396
 30
0.0
 11
396.585166
 21
245.66396
 31
0.0
  0
LINE
  5
309D
100
AcDbEntity
  8
0
100
AcDbLine
 10
367.375973
 20
246.66396
 30
0.0
 11
356.768973
 21
246.66396
 31
0.0
  0
ARC
  5
309E
100
AcDbEntity
  8
0
100
AcDbCircle
 10
358.822473
 20
238.677902
 30
0.0
 40
7.986057
100
AcDbArc
 50
65.989964
 51
114.010036
  0
LINE
  5
309F
100
AcDbEntity
  8
0
100
AcDbLine
 10
356.768973
 20
246.66396
 30
0.0
 11
355.572973
 21
245.97296
 31
0.0
  0
LINE
  5
30A0
100
AcDbEntity
  8
0
100
AcDbLine
 10
368.572973
 20
245.97296
 30
0.0
 11
367.375973
 21
246.66396
 31
0.0
  0
ARC
  5
30A1
100
AcDbEntity
  8
0
100
AcDbCircle
 10
365.322473
 20
238.673199
 30
0.0
 40
7.990761
100
AcDbArc
 50
65.997136
 51
114.002864
  0
LINE
  5
30A2
100
AcDbEntity
  8
0
100
AcDbLine
 10
408.388166
 20
246.66396
 30
0.0
 11
397.781166
 21
246.66396
 31
0.0
  0
ARC
  5
30A3
100
AcDbEntity
  8
0
100
AcDbCircle
 10
406.334666
 20
238.673199
 30
0.0
 40
7.990761
100
AcDbArc
 50
65.997136
 51
114.002864
  0
LINE
  5
30A4
100
AcDbEntity
  8
0
100
AcDbLine
 10
397.781166
 20
246.66396
 30
0.0
 11
396.585166
 21
245.97296
 31
0.0
  0
ARC
  5
30A5
100
AcDbEntity
  8
0
100
AcDbCircle
 10
399.834666
 20
238.677902
 30
0.0
 40
7.986057
100
AcDbArc
 50
65.989964
 51
114.010036
  0
LINE
  5
30A6
100
AcDbEntity
  8
0
100
AcDbLine
 10
409.585166
 20
245.97296
 30
0.0
 11
408.388166
 21
246.66396
 31
0.0
  0
LINE
  5
30A7
100
AcDbEntity
  8
0
100
AcDbLine
 10
183.908404
 20
348.333993
 30
0.0
 11
202.815154
 21
348.333993
 31
0.0
  0
LINE
  5
30A8
100
AcDbEntity
  8
0
100
AcDbLine
 10
190.210654
 20
342.031743
 30
0.0
 11
183.908404
 21
348.333993
 31
0.0
  0
TEXT
  5
30A9
100
AcDbEntity
  8
0
100
AcDbText
 10
67.65011
 20
475.897854
 30
0.0
 40
15.0
  1
背面
100
AcDbText
  0
LINE
  5
30AA
100
AcDbEntity
  8
0
100
AcDbLine
 10
326.859869
 20
495.159202
 30
0.0
 11
320.420369
 21
488.856952
 31
0.0
  0
LINE
  5
30AB
100
AcDbEntity
  8
0
100
AcDbLine
 10
320.420369
 20
488.856952
 30
0.0
 11
351.932744
 21
488.856952
 31
0.0
  0
LINE
  5
30AC
100
AcDbEntity
  8
0
100
AcDbLine
 10
260.04949
 20
438.683723
 30
0.0
 11
245.200248
 21
453.532966
 31
0.0
  0
ARC
  5
30AD
100
AcDbEntity
  8
0
100
AcDbCircle
 10
261.92209
 20
441.821379
 30
0.0
 40
3.54367
100
AcDbArc
 50
187.758785
 51
247.758785
  0
LINE
  5
30AE
100
AcDbEntity
  8
0
100
AcDbLine
 10
264.665704
 20
441.53217
 30
0.0
 11
261.443684
 21
438.31015
 31
0.0
  0
CIRCLE
  5
30AF
100
AcDbEntity
  8
0
100
AcDbCircle
 10
252.447261
 20
365.287803
 30
0.0
 40
6.30876
  0
LINE
  5
30B0
100
AcDbEntity
  8
0
100
AcDbLine
 10
256.200261
 20
358.787803
 30
0.0
 11
259.953261
 21
365.287803
 31
0.0
  0
ARC
  5
30B1
100
AcDbEntity
  8
0
100
AcDbCircle
 10
252.316535
 20
365.156238
 30
0.0
 40
11.5
100
AcDbArc
 50
277.84067
 51
349.342619
  0
LINE
  5
30B2
100
AcDbEntity
  8
0
100
AcDbLine
 10
259.953261
 20
365.287803
 30
0.0
 11
256.200261
 21
371.787803
 31
0.0
  0
LINE
  5
30B3
100
AcDbEntity
  8
0
100
AcDbLine
 10
249.653357
 20
372.781706
 30
0.0
 11
296.253357
 21
372.781706
 31
0.0
  0
LINE
  5
30B4
100
AcDbEntity
  8
0
100
AcDbLine
 10
221.723029
 20
342.031743
 30
0.0
 11
190.210654
 21
342.031743
 31
0.0
  0
LINE
  5
30B5
100
AcDbEntity
  8
0
100
AcDbLine
 10
202.815154
 20
348.333993
 30
0.0
 11
205.967404
 21
345.182868
 31
0.0
  0
LINE
  5
30B6
100
AcDbEntity
  8
0
100
AcDbLine
 10
205.967404
 20
345.182868
 30
0.0
 11
215.283529
 21
345.182868
 31
0.0
  0
LINE
  5
30B7
100
AcDbEntity
  8
0
100
AcDbLine
 10
215.283529
 20
348.333993
 30
0.0
 11
221.723029
 21
342.031743
 31
0.0
  0
LINE
  5
30B8
100
AcDbEntity
  8
0
100
AcDbLine
 10
215.283529
 20
345.182868
 30
0.0
 11
215.283529
 21
348.333993
 31
0.0
  0
LINE
  5
30B9
100
AcDbEntity
  8
0
100
AcDbLine
 10
242.153357
 20
344.781706
 30
0.0
 11
244.208698
 21
367.801517
 31
0.0
  0
LINE
  5
30BA
100
AcDbEntity
  8
0
100
AcDbLine
 10
244.941261
 20
365.287803
 30
0.0
 11
248.694261
 21
358.787803
 31
0.0
  0
LINE
  5
30BB
100
AcDbEntity
  8
0
100
AcDbLine
 10
232.396356
 20
344.781706
 30
0.0
 11
242.153357
 21
344.781706
 31
0.0
  0
LINE
  5
30BC
100
AcDbEntity
  8
0
100
AcDbLine
 10
230.742033
 20
363.281706
 30
0.0
 11
243.805143
 21
363.281706
 31
0.0
  0
LINE
  5
30BD
100
AcDbEntity
  8
0
100
AcDbLine
 10
230.453357
 20
362.781706
 30
0.0
 11
230.453357
 21
344.781706
 31
0.0
  0
ARC
  5
30BE
100
AcDbEntity
  8
0
100
AcDbCircle
 10
257.429468
 20
354.031706
 30
0.0
 40
26.687435
100
AcDbArc
 50
159.720195
 51
200.279805
  0
LINE
  5
30BF
100
AcDbEntity
  8
0
100
AcDbLine
 10
230.742033
 20
363.281706
 30
0.0
 11
230.453357
 21
362.781706
 31
0.0
  0
LINE
  5
30C0
100
AcDbEntity
  8
0
100
AcDbLine
 10
243.123
 20
352.281706
 30
0.0
 11
253.885351
 21
353.763748
 31
0.0
  0
LINE
  5
30C1
100
AcDbEntity
  8
0
100
AcDbLine
 10
248.694261
 20
358.787803
 30
0.0
 11
256.200261
 21
358.787803
 31
0.0
  0
LINE
  5
30C2
100
AcDbEntity
  8
0
100
AcDbLine
 10
244.208698
 20
367.801517
 30
0.0
 11
249.653357
 21
372.781706
 31
0.0
  0
LINE
  5
30C3
100
AcDbEntity
  8
0
100
AcDbLine
 10
248.694261
 20
371.787803
 30
0.0
 11
244.941261
 21
365.287803
 31
0.0
  0
LINE
  5
30C4
100
AcDbEntity
  8
0
100
AcDbLine
 10
256.200261
 20
371.787803
 30
0.0
 11
248.694261
 21
371.787803
 31
0.0
  0
LINE
  5
30C5
100
AcDbEntity
  8
0
100
AcDbLine
 10
289.706454
 20
371.787803
 30
0.0
 11
297.212454
 21
371.787803
 31
0.0
  0
LINE
  5
30C6
100
AcDbEntity
  8
0
100
AcDbLine
 10
297.212454
 20
358.787803
 30
0.0
 11
289.706454
 21
358.787803
 31
0.0
  0
CIRCLE
  5
30C7
100
AcDbEntity
  8
0
100
AcDbCircle
 10
293.459454
 20
365.287803
 30
0.0
 40
6.30876
  0
ARC
  5
30C8
100
AcDbEntity
  8
0
100
AcDbCircle
 10
293.59018
 20
365.156238
 30
0.0
 40
11.5
100
AcDbArc
 50
190.657381
 51
262.15933
  0
LINE
  5
30C9
100
AcDbEntity
  8
0
100
AcDbLine
 10
280.453357
 20
372.781706
 30
0.0
 11
282.288548
 21
363.029478
 31
0.0
  0
LINE
  5
30CA
100
AcDbEntity
  8
0
100
AcDbLine
 10
289.706454
 20
358.787803
 30
0.0
 11
285.953454
 21
365.287803
 31
0.0
  0
LINE
  5
30CB
100
AcDbEntity
  8
0
100
AcDbLine
 10
265.453357
 20
372.781706
 30
0.0
 11
263.618167
 21
363.029478
 31
0.0
  0
LINE
  5
30CC
100
AcDbEntity
  8
0
100
AcDbLine
 10
285.953454
 20
365.287803
 30
0.0
 11
289.706454
 21
371.787803
 31
0.0
  0
LINE
  5
30CD
100
AcDbEntity
  8
0
100
AcDbLine
 10
303.753357
 20
344.781706
 30
0.0
 11
301.698017
 21
367.801517
 31
0.0
  0
LINE
  5
30CE
100
AcDbEntity
  8
0
100
AcDbLine
 10
300.965454
 20
365.287803
 30
0.0
 11
297.212454
 21
358.787803
 31
0.0
  0
ARC
  5
30CF
100
AcDbEntity
  8
0
100
AcDbCircle
 10
283.477247
 20
354.031706
 30
0.0
 40
26.687435
100
AcDbArc
 50
339.720195
 51
20.279805
  0
LINE
  5
30D0
100
AcDbEntity
  8
0
100
AcDbLine
 10
302.101572
 20
363.281706
 30
0.0
 11
310.164682
 21
363.281706
 31
0.0
  0
LINE
  5
30D1
100
AcDbEntity
  8
0
100
AcDbLine
 10
302.783715
 20
352.281706
 30
0.0
 11
292.021364
 21
353.763748
 31
0.0
  0
LINE
  5
30D2
100
AcDbEntity
  8
0
100
AcDbLine
 10
308.510359
 20
344.781706
 30
0.0
 11
303.753357
 21
344.781706
 31
0.0
  0
LINE
  5
30D3
100
AcDbEntity
  8
0
100
AcDbLine
 10
310.453357
 20
344.781706
 30
0.0
 11
310.453357
 21
356.381706
 31
0.0
  0
LINE
  5
30D4
100
AcDbEntity
  8
0
100
AcDbLine
 10
310.164682
 20
363.281706
 30
0.0
 11
310.453357
 21
362.781706
 31
0.0
  0
LINE
  5
30D5
100
AcDbEntity
  8
0
100
AcDbLine
 10
301.698017
 20
367.801517
 30
0.0
 11
296.253357
 21
372.781706
 31
0.0
  0
LINE
  5
30D6
100
AcDbEntity
  8
0
100
AcDbLine
 10
297.212454
 20
371.787803
 30
0.0
 11
300.965454
 21
365.287803
 31
0.0
  0
LINE
  5
30D7
100
AcDbEntity
  8
0
100
AcDbLine
 10
260.04949
 20
438.683723
 30
0.0
 11
261.443684
 21
438.31015
 31
0.0
  0
LINE
  5
30D8
100
AcDbEntity
  8
0
100
AcDbLine
 10
268.086484
 20
442.667545
 30
0.0
 11
240.517196
 21
470.236833
 31
0.0
  0
LINE
  5
30D9
100
AcDbEntity
  8
0
100
AcDbLine
 10
239.953357
 20
489.736833
 30
0.0
 11
262.953357
 21
489.736833
 31
0.0
  0
LINE
  5
30DA
100
AcDbEntity
  8
0
100
AcDbLine
 10
258.410861
 20
441.342973
 30
0.0
 11
256.05601
 21
443.697824
 31
0.0
  0
LINE
  5
30DB
100
AcDbEntity
  8
0
100
AcDbLine
 10
264.292131
 20
442.926364
 30
0.0
 11
249.442889
 21
457.775606
 31
0.0
  0
LINE
  5
30DC
100
AcDbEntity
  8
0
100
AcDbLine
 10
266.413451
 20
442.219257
 30
0.0
 11
248.735782
 21
459.896927
 31
0.0
  0
LINE
  5
30DD
100
AcDbEntity
  8
0
100
AcDbLine
 10
259.27803
 20
446.919844
 30
0.0
 11
256.05601
 21
443.697824
 31
0.0
  0
ARC
  5
30DE
100
AcDbEntity
  8
0
100
AcDbCircle
 10
248.253471
 20
441.736946
 30
0.0
 40
12.182091
100
AcDbArc
 50
25.179294
 51
64.820706
  0
LINE
  5
30DF
100
AcDbEntity
  8
0
100
AcDbLine
 10
260.953357
 20
501.236833
 30
0.0
 11
251.153357
 21
501.236833
 31
0.0
  0
ARC
  5
30E0
100
AcDbEntity
  8
0
100
AcDbCircle
 10
251.457176
 20
513.562448
 30
0.0
 40
17.881484
100
AcDbArc
 50
66.39246
 51
78.726867
  0
LINE
  5
30E1
100
AcDbEntity
  8
0
100
AcDbLine
 10
296.753357
 20
528.236833
 30
0.0
 11
239.153357
 21
528.236833
 31
0.0
  0
LINE
  5
30E2
100
AcDbEntity
  8
0
100
AcDbLine
 10
296.753357
 20
519.236833
 30
0.0
 11
239.153357
 21
519.236833
 31
0.0
  0
LINE
  5
30E3
100
AcDbEntity
  8
0
100
AcDbLine
 10
295.953357
 20
470.236833
 30
0.0
 11
239.953357
 21
470.236833
 31
0.0
  0
LINE
  5
30E4
100
AcDbEntity
  8
0
100
AcDbLine
 10
298.753357
 20
504.736833
 30
0.0
 11
237.153357
 21
504.736833
 31
0.0
  0
LINE
  5
30E5
100
AcDbEntity
  8
0
100
AcDbLine
 10
298.753357
 20
514.736833
 30
0.0
 11
237.153357
 21
514.736833
 31
0.0
  0
LINE
  5
30E6
100
AcDbEntity
  8
0
100
AcDbLine
 10
280.953954
 20
533.736833
 30
0.0
 11
254.952761
 21
533.736833
 31
0.0
  0
ARC
  5
30E7
100
AcDbEntity
  8
0
100
AcDbCircle
 10
267.953357
 20
501.436833
 30
0.0
 40
30.0
100
AcDbArc
 50
64.319447
 51
115.680553
  0
LINE
  5
30E8
100
AcDbEntity
  8
0
100
AcDbLine
 10
239.953357
 20
470.236833
 30
0.0
 11
239.953357
 21
504.736833
 31
0.0
  0
LINE
  5
30E9
100
AcDbEntity
  8
0
100
AcDbLine
 10
238.953357
 20
471.236833
 30
0.0
 11
238.953357
 21
504.736833
 31
0.0
  0
LINE
  5
30EA
100
AcDbEntity
  8
0
100
AcDbLine
 10
230.453357
 20
507.736833
 30
0.0
 11
230.453357
 21
471.736833
 31
0.0
  0
ARC
  5
30EB
100
AcDbEntity
  8
0
100
AcDbCircle
 10
257.429468
 20
480.486833
 30
0.0
 40
26.687435
100
AcDbArc
 50
159.720195
 51
200.279805
  0
LINE
  5
30EC
100
AcDbEntity
  8
0
100
AcDbLine
 10
230.453357
 20
478.136833
 30
0.0
 11
230.453357
 21
489.736833
 31
0.0
  0
LINE
  5
30ED
100
AcDbEntity
  8
0
100
AcDbLine
 10
250.214349
 20
449.539485
 30
0.0
 11
247.859498
 21
451.894336
 31
0.0
  0
LINE
  5
30EE
100
AcDbEntity
  8
0
100
AcDbLine
 10
253.436369
 20
452.761505
 30
0.0
 11
250.214349
 21
449.539485
 31
0.0
  0
ARC
  5
30EF
100
AcDbEntity
  8
0
100
AcDbCircle
 10
261.238908
 20
454.722383
 30
0.0
 40
12.182091
100
AcDbArc
 50
205.179294
 51
244.820706
  0
LINE
  5
30F0
100
AcDbEntity
  8
0
100
AcDbLine
 10
249.442889
 20
457.775606
 30
0.0
 11
248.048695
 21
458.149179
 31
0.0
  0
LINE
  5
30F1
100
AcDbEntity
  8
0
100
AcDbLine
 10
251.081518
 20
455.116356
 30
0.0
 11
247.859498
 21
451.894336
 31
0.0
  0
ARC
  5
30F2
100
AcDbEntity
  8
0
100
AcDbCircle
 10
248.337903
 20
455.405565
 30
0.0
 40
3.54367
100
AcDbArc
 50
202.241215
 51
262.241215
  0
LINE
  5
30F3
100
AcDbEntity
  8
0
100
AcDbLine
 10
248.048695
 20
458.149179
 30
0.0
 11
244.826675
 21
454.927159
 31
0.0
  0
LINE
  5
30F4
100
AcDbEntity
  8
0
100
AcDbLine
 10
245.200248
 20
453.532966
 30
0.0
 11
244.826675
 21
454.927159
 31
0.0
  0
LINE
  5
30F5
100
AcDbEntity
  8
0
100
AcDbLine
 10
249.184069
 20
461.569959
 30
0.0
 11
248.735782
 21
459.896927
 31
0.0
  0
LINE
  5
30F6
100
AcDbEntity
  8
0
100
AcDbLine
 10
250.149995
 20
458.482713
 30
0.0
 11
249.442889
 21
457.775606
 31
0.0
  0
LINE
  5
30F7
100
AcDbEntity
  8
0
100
AcDbLine
 10
253.436369
 20
452.761505
 30
0.0
 11
251.081518
 21
455.116356
 31
0.0
  0
ARC
  5
30F8
100
AcDbEntity
  8
0
100
AcDbCircle
 10
247.570289
 20
454.637951
 30
0.0
 40
3.54367
100
AcDbArc
 50
7.758785
 51
67.758785
  0
LINE
  5
30F9
100
AcDbEntity
  8
0
100
AcDbLine
 10
239.953357
 20
470.236833
 30
0.0
 11
238.953357
 21
471.236833
 31
0.0
  0
LINE
  5
30FA
100
AcDbEntity
  8
0
100
AcDbLine
 10
238.953357
 20
471.236833
 30
0.0
 11
230.742033
 21
471.236833
 31
0.0
  0
LINE
  5
30FB
100
AcDbEntity
  8
0
100
AcDbLine
 10
230.742033
 20
471.236833
 30
0.0
 11
230.453357
 21
471.736833
 31
0.0
  0
LINE
  5
30FC
100
AcDbEntity
  8
0
100
AcDbLine
 10
237.153357
 20
514.736833
 30
0.0
 11
237.153357
 21
504.736833
 31
0.0
  0
LINE
  5
30FD
100
AcDbEntity
  8
0
100
AcDbLine
 10
230.453357
 20
489.736833
 30
0.0
 11
230.453357
 21
501.336833
 31
0.0
  0
ARC
  5
30FE
100
AcDbEntity
  8
0
100
AcDbCircle
 10
257.429468
 20
498.986833
 30
0.0
 40
26.687435
100
AcDbArc
 50
159.720195
 51
200.279805
  0
LINE
  5
30FF
100
AcDbEntity
  8
0
100
AcDbLine
 10
232.396356
 20
489.736833
 30
0.0
 11
238.953357
 21
489.736833
 31
0.0
  0
LINE
  5
3100
100
AcDbEntity
  8
0
100
AcDbLine
 10
237.153357
 20
508.236833
 30
0.0
 11
230.742033
 21
508.236833
 31
0.0
  0
LINE
  5
3101
100
AcDbEntity
  8
0
100
AcDbLine
 10
230.742033
 20
508.236833
 30
0.0
 11
230.453357
 21
507.736833
 31
0.0
  0
LINE
  5
3102
100
AcDbEntity
  8
0
100
AcDbLine
 10
244.553357
 20
504.736833
 30
0.0
 11
244.553357
 21
499.236833
 31
0.0
  0
LINE
  5
3103
100
AcDbEntity
  8
0
100
AcDbLine
 10
251.153357
 20
501.236833
 30
0.0
 11
251.153357
 21
499.236833
 31
0.0
  0
LINE
  5
3104
100
AcDbEntity
  8
0
100
AcDbLine
 10
249.153357
 20
497.236833
 30
0.0
 11
246.553357
 21
497.236833
 31
0.0
  0
ARC
  5
3105
100
AcDbEntity
  8
0
100
AcDbCircle
 10
246.553357
 20
499.236833
 30
0.0
 40
2.0
100
AcDbArc
 50
180.0
 51
270.0
  0
ARC
  5
3106
100
AcDbEntity
  8
0
100
AcDbCircle
 10
249.153357
 20
499.236833
 30
0.0
 40
2.0
100
AcDbArc
 50
270.0
 51
0.0
  0
LINE
  5
3107
100
AcDbEntity
  8
0
100
AcDbLine
 10
239.941761
 20
529.836833
 30
0.0
 11
239.153357
 21
529.836833
 31
0.0
  0
LINE
  5
3108
100
AcDbEntity
  8
0
100
AcDbLine
 10
237.153357
 20
527.836833
 30
0.0
 11
237.153357
 21
521.236833
 31
0.0
  0
ARC
  5
3109
100
AcDbEntity
  8
0
100
AcDbCircle
 10
239.153357
 20
521.236833
 30
0.0
 40
2.0
100
AcDbArc
 50
180.0
 51
270.0
  0
ARC
  5
310A
100
AcDbEntity
  8
0
100
AcDbCircle
 10
239.153357
 20
527.836833
 30
0.0
 40
2.0
100
AcDbArc
 50
90.0
 51
180.0
  0
ARC
  5
310B
100
AcDbEntity
  8
0
100
AcDbCircle
 10
239.153357
 20
526.236833
 30
0.0
 40
2.0
100
AcDbArc
 50
90.0
 51
180.0
  0
LINE
  5
310C
100
AcDbEntity
  8
0
100
AcDbLine
 10
244.953357
 20
526.236833
 30
0.0
 11
244.953357
 21
521.236833
 31
0.0
  0
ARC
  5
310D
100
AcDbEntity
  8
0
100
AcDbCircle
 10
246.953357
 20
521.236833
 30
0.0
 40
2.0
100
AcDbArc
 50
180.0
 51
270.0
  0
LINE
  5
310E
100
AcDbEntity
  8
0
100
AcDbLine
 10
243.447261
 20
519.236833
 30
0.0
 11
243.447261
 21
514.736833
 31
0.0
  0
LINE
  5
310F
100
AcDbEntity
  8
0
100
AcDbLine
 10
251.447261
 20
514.736833
 30
0.0
 11
251.447261
 21
519.236833
 31
0.0
  0
ARC
  5
3110
100
AcDbEntity
  8
0
100
AcDbCircle
 10
247.447761
 20
521.231353
 30
0.0
 40
13.352467
100
AcDbArc
 50
73.680297
 51
106.319703
  0
LINE
  5
3111
100
AcDbEntity
  8
0
100
AcDbLine
 10
241.138761
 20
534.736833
 30
0.0
 11
253.756761
 21
534.736833
 31
0.0
  0
ARC
  5
3112
100
AcDbEntity
  8
0
100
AcDbCircle
 10
246.953357
 20
526.236833
 30
0.0
 40
2.0
100
AcDbArc
 50
90.0
 51
180.0
  0
LINE
  5
3113
100
AcDbEntity
  8
0
100
AcDbLine
 10
243.695761
 20
534.045833
 30
0.0
 11
243.695761
 21
528.236833
 31
0.0
  0
LINE
  5
3114
100
AcDbEntity
  8
0
100
AcDbLine
 10
239.941761
 20
534.045833
 30
0.0
 11
241.138761
 21
534.736833
 31
0.0
  0
LINE
  5
3115
100
AcDbEntity
  8
0
100
AcDbLine
 10
239.941761
 20
528.236833
 30
0.0
 11
239.941761
 21
534.045833
 31
0.0
  0
ARC
  5
3116
100
AcDbEntity
  8
0
100
AcDbCircle
 10
241.819261
 20
531.042874
 30
0.0
 40
3.541047
100
AcDbArc
 50
57.999406
 51
122.000594
  0
LINE
  5
3117
100
AcDbEntity
  8
0
100
AcDbLine
 10
254.952761
 20
534.045833
 30
0.0
 11
254.952761
 21
528.236833
 31
0.0
  0
LINE
  5
3118
100
AcDbEntity
  8
0
100
AcDbLine
 10
251.199761
 20
534.045833
 30
0.0
 11
251.199761
 21
528.236833
 31
0.0
  0
ARC
  5
3119
100
AcDbEntity
  8
0
100
AcDbCircle
 10
253.076261
 20
531.042874
 30
0.0
 40
3.541047
100
AcDbArc
 50
57.999406
 51
122.000594
  0
LINE
  5
311A
100
AcDbEntity
  8
0
100
AcDbLine
 10
253.756761
 20
534.736833
 30
0.0
 11
254.952761
 21
534.045833
 31
0.0
  0
LINE
  5
311B
100
AcDbEntity
  8
0
100
AcDbLine
 10
295.953357
 20
470.236833
 30
0.0
 11
295.953357
 21
504.736833
 31
0.0
  0
LINE
  5
311C
100
AcDbEntity
  8
0
100
AcDbLine
 10
296.953357
 20
471.236833
 30
0.0
 11
296.953357
 21
504.736833
 31
0.0
  0
LINE
  5
311D
100
AcDbEntity
  8
0
100
AcDbLine
 10
310.453357
 20
489.736833
 30
0.0
 11
310.453357
 21
471.736833
 31
0.0
  0
ARC
  5
311E
100
AcDbEntity
  8
0
100
AcDbCircle
 10
283.477247
 20
480.486833
 30
0.0
 40
26.687435
100
AcDbArc
 50
339.720195
 51
20.279805
  0
LINE
  5
311F
100
AcDbEntity
  8
0
100
AcDbLine
 10
295.655772
 20
470.236833
 30
0.0
 11
268.086484
 21
442.667545
 31
0.0
  0
ARC
  5
3120
100
AcDbEntity
  8
0
100
AcDbCircle
 10
261.154475
 20
441.053764
 30
0.0
 40
3.54367
100
AcDbArc
 50
22.241215
 51
82.241215
  0
LINE
  5
3121
100
AcDbEntity
  8
0
100
AcDbLine
 10
264.999238
 20
443.633471
 30
0.0
 11
264.292131
 21
442.926364
 31
0.0
  0
LINE
  5
3122
100
AcDbEntity
  8
0
100
AcDbLine
 10
261.632881
 20
444.564993
 30
0.0
 11
258.410861
 21
441.342973
 31
0.0
  0
LINE
  5
3123
100
AcDbEntity
  8
0
100
AcDbLine
 10
264.292131
 20
442.926364
 30
0.0
 11
264.665704
 21
441.53217
 31
0.0
  0
LINE
  5
3124
100
AcDbEntity
  8
0
100
AcDbLine
 10
261.632881
 20
444.564993
 30
0.0
 11
259.27803
 21
446.919844
 31
0.0
  0
LINE
  5
3125
100
AcDbEntity
  8
0
100
AcDbLine
 10
268.086484
 20
442.667545
 30
0.0
 11
266.413451
 21
442.219257
 31
0.0
  0
LINE
  5
3126
100
AcDbEntity
  8
0
100
AcDbLine
 10
310.164682
 20
471.236833
 30
0.0
 11
296.953357
 21
471.236833
 31
0.0
  0
LINE
  5
3127
100
AcDbEntity
  8
0
100
AcDbLine
 10
296.953357
 20
471.236833
 30
0.0
 11
295.953357
 21
470.236833
 31
0.0
  0
LINE
  5
3128
100
AcDbEntity
  8
0
100
AcDbLine
 10
310.164682
 20
471.236833
 30
0.0
 11
310.453357
 21
471.736833
 31
0.0
  0
LINE
  5
3129
100
AcDbEntity
  8
0
100
AcDbLine
 10
272.953357
 20
489.736833
 30
0.0
 11
295.953357
 21
489.736833
 31
0.0
  0
ARC
  5
312A
100
AcDbEntity
  8
0
100
AcDbCircle
 10
288.459954
 20
521.231353
 30
0.0
 40
13.352467
100
AcDbArc
 50
73.680297
 51
106.319703
  0
LINE
  5
312B
100
AcDbEntity
  8
0
100
AcDbLine
 10
282.150954
 20
534.736833
 30
0.0
 11
294.768954
 21
534.736833
 31
0.0
  0
LINE
  5
312C
100
AcDbEntity
  8
0
100
AcDbLine
 10
272.953357
 20
489.736833
 30
0.0
 11
274.953357
 21
501.236833
 31
0.0
  0
ARC
  5
312D
100
AcDbEntity
  8
0
100
AcDbCircle
 10
274.953357
 20
502.736833
 30
0.0
 40
2.0
100
AcDbArc
 50
90.0
 51
172.819244
  0
ARC
  5
312E
100
AcDbEntity
  8
0
100
AcDbCircle
 10
274.953357
 20
503.236833
 30
0.0
 40
2.0
100
AcDbArc
 50
187.180756
 51
270.0
  0
LINE
  5
312F
100
AcDbEntity
  8
0
100
AcDbLine
 10
272.953357
 20
489.736833
 30
0.0
 11
272.953357
 21
504.736833
 31
0.0
  0
LINE
  5
3130
100
AcDbEntity
  8
0
100
AcDbLine
 10
260.953357
 20
501.236833
 30
0.0
 11
262.953357
 21
489.736833
 31
0.0
  0
LINE
  5
3131
100
AcDbEntity
  8
0
100
AcDbLine
 10
262.953357
 20
504.736833
 30
0.0
 11
262.953357
 21
489.736833
 31
0.0
  0
LINE
  5
3132
100
AcDbEntity
  8
0
100
AcDbLine
 10
262.953357
 20
499.234255
 30
0.0
 11
272.953357
 21
499.234255
 31
0.0
  0
ARC
  5
3133
100
AcDbEntity
  8
0
100
AcDbCircle
 10
260.953357
 20
503.236833
 30
0.0
 40
2.0
100
AcDbArc
 50
270.0
 51
352.819244
  0
ARC
  5
3134
100
AcDbEntity
  8
0
100
AcDbCircle
 10
260.953357
 20
502.736833
 30
0.0
 40
2.0
100
AcDbArc
 50
7.180756
 51
90.0
  0
LINE
  5
3135
100
AcDbEntity
  8
0
100
AcDbLine
 10
291.353357
 20
504.736833
 30
0.0
 11
291.353357
 21
499.236833
 31
0.0
  0
LINE
  5
3136
100
AcDbEntity
  8
0
100
AcDbLine
 10
284.753357
 20
501.236833
 30
0.0
 11
284.753357
 21
499.236833
 31
0.0
  0
ARC
  5
3137
100
AcDbEntity
  8
0
100
AcDbCircle
 10
289.353357
 20
499.236833
 30
0.0
 40
2.0
100
AcDbArc
 50
270.0
 51
0.0
  0
ARC
  5
3138
100
AcDbEntity
  8
0
100
AcDbCircle
 10
286.753357
 20
499.236833
 30
0.0
 40
2.0
100
AcDbArc
 50
180.0
 51
270.0
  0
LINE
  5
3139
100
AcDbEntity
  8
0
100
AcDbLine
 10
286.753357
 20
497.236833
 30
0.0
 11
289.353357
 21
497.236833
 31
0.0
  0
LINE
  5
313A
100
AcDbEntity
  8
0
100
AcDbLine
 10
274.953357
 20
501.236833
 30
0.0
 11
284.753357
 21
501.236833
 31
0.0
  0
LINE
  5
313B
100
AcDbEntity
  8
0
100
AcDbLine
 10
290.953357
 20
526.236833
 30
0.0
 11
290.953357
 21
521.236833
 31
0.0
  0
ARC
  5
313C
100
AcDbEntity
  8
0
100
AcDbCircle
 10
288.953357
 20
521.236833
 30
0.0
 40
2.0
100
AcDbArc
 50
270.0
 51
0.0
  0
LINE
  5
313D
100
AcDbEntity
  8
0
100
AcDbLine
 10
284.459454
 20
519.236833
 30
0.0
 11
284.459454
 21
514.736833
 31
0.0
  0
ARC
  5
313E
100
AcDbEntity
  8
0
100
AcDbCircle
 10
282.831454
 20
531.042874
 30
0.0
 40
3.541047
100
AcDbArc
 50
57.999406
 51
122.000594
  0
ARC
  5
313F
100
AcDbEntity
  8
0
100
AcDbCircle
 10
284.449539
 20
513.562448
 30
0.0
 40
17.881484
100
AcDbArc
 50
101.273133
 51
113.60754
  0
LINE
  5
3140
100
AcDbEntity
  8
0
100
AcDbLine
 10
280.953954
 20
534.045833
 30
0.0
 11
282.150954
 21
534.736833
 31
0.0
  0
LINE
  5
3141
100
AcDbEntity
  8
0
100
AcDbLine
 10
280.953954
 20
528.236833
 30
0.0
 11
280.953954
 21
534.045833
 31
0.0
  0
ARC
  5
3142
100
AcDbEntity
  8
0
100
AcDbCircle
 10
288.953357
 20
526.236833
 30
0.0
 40
2.0
100
AcDbArc
 50
0.0
 51
90.0
  0
LINE
  5
3143
100
AcDbEntity
  8
0
100
AcDbLine
 10
284.707954
 20
534.045833
 30
0.0
 11
284.707954
 21
528.236833
 31
0.0
  0
LINE
  5
3144
100
AcDbEntity
  8
0
100
AcDbLine
 10
298.753357
 20
514.736833
 30
0.0
 11
298.753357
 21
504.736833
 31
0.0
  0
ARC
  5
3145
100
AcDbEntity
  8
0
100
AcDbCircle
 10
283.477247
 20
498.986833
 30
0.0
 40
26.687435
100
AcDbArc
 50
339.720195
 51
20.279805
  0
LINE
  5
3146
100
AcDbEntity
  8
0
100
AcDbLine
 10
310.164682
 20
508.236833
 30
0.0
 11
298.753357
 21
508.236833
 31
0.0
  0
LINE
  5
3147
100
AcDbEntity
  8
0
100
AcDbLine
 10
308.510359
 20
489.736833
 30
0.0
 11
296.953357
 21
489.736833
 31
0.0
  0
LINE
  5
3148
100
AcDbEntity
  8
0
100
AcDbLine
 10
310.453357
 20
507.736833
 30
0.0
 11
310.453357
 21
489.736833
 31
0.0
  0
LINE
  5
3149
100
AcDbEntity
  8
0
100
AcDbLine
 10
310.164682
 20
508.236833
 30
0.0
 11
310.453357
 21
507.736833
 31
0.0
  0
LINE
  5
314A
100
AcDbEntity
  8
0
100
AcDbLine
 10
298.753357
 20
527.836833
 30
0.0
 11
298.753357
 21
521.236833
 31
0.0
  0
LINE
  5
314B
100
AcDbEntity
  8
0
100
AcDbLine
 10
292.459454
 20
514.736833
 30
0.0
 11
292.459454
 21
519.236833
 31
0.0
  0
ARC
  5
314C
100
AcDbEntity
  8
0
100
AcDbCircle
 10
296.753357
 20
521.236833
 30
0.0
 40
2.0
100
AcDbArc
 50
270.0
 51
0.0
  0
ARC
  5
314D
100
AcDbEntity
  8
0
100
AcDbCircle
 10
296.753357
 20
526.236833
 30
0.0
 40
2.0
100
AcDbArc
 50
0.0
 51
90.0
  0
ARC
  5
314E
100
AcDbEntity
  8
0
100
AcDbCircle
 10
296.753357
 20
527.836833
 30
0.0
 40
2.0
100
AcDbArc
 50
0.0
 51
90.0
  0
LINE
  5
314F
100
AcDbEntity
  8
0
100
AcDbLine
 10
294.768954
 20
534.736833
 30
0.0
 11
295.964954
 21
534.045833
 31
0.0
  0
ARC
  5
3150
100
AcDbEntity
  8
0
100
AcDbCircle
 10
294.088454
 20
531.042874
 30
0.0
 40
3.541047
100
AcDbArc
 50
57.999406
 51
122.000594
  0
LINE
  5
3151
100
AcDbEntity
  8
0
100
AcDbLine
 10
296.753357
 20
529.836833
 30
0.0
 11
295.964954
 21
529.836833
 31
0.0
  0
LINE
  5
3152
100
AcDbEntity
  8
0
100
AcDbLine
 10
295.964954
 20
534.045833
 30
0.0
 11
295.964954
 21
528.236833
 31
0.0
  0
LINE
  5
3153
100
AcDbEntity
  8
0
100
AcDbLine
 10
292.211954
 20
534.045833
 30
0.0
 11
292.211954
 21
528.236833
 31
0.0
  0
LINE
  5
3154
100
AcDbEntity
  8
0
100
AcDbLine
 10
358.234994
 20
495.159202
 30
0.0
 11
339.328244
 21
495.159202
 31
0.0
  0
LINE
  5
3155
100
AcDbEntity
  8
0
100
AcDbLine
 10
336.175994
 20
492.008077
 30
0.0
 11
326.859869
 21
492.008077
 31
0.0
  0
LINE
  5
3156
100
AcDbEntity
  8
0
100
AcDbLine
 10
326.859869
 20
492.008077
 30
0.0
 11
326.859869
 21
495.159202
 31
0.0
  0
LINE
  5
3157
100
AcDbEntity
  8
0
100
AcDbLine
 10
339.328244
 20
495.159202
 30
0.0
 11
336.175994
 21
492.008077
 31
0.0
  0
LINE
  5
3158
100
AcDbEntity
  8
0
100
AcDbLine
 10
351.932744
 20
488.856952
 30
0.0
 11
358.234994
 21
495.159202
 31
0.0
  0
ARC
  5
3159
100
AcDbEntity
  8
0
100
AcDbCircle
 10
665.417004
 20
337.810997
 30
0.0
 40
52.081914
100
AcDbArc
 50
344.89982
 51
15.10018
  0
LINE
  5
315A
100
AcDbEntity
  8
0
100
AcDbLine
 10
717.998918
 20
359.810997
 30
0.0
 11
717.998918
 21
337.810997
 31
0.0
  0
CIRCLE
  5
315B
100
AcDbEntity
  8
0
100
AcDbCircle
 10
676.498918
 20
337.810997
 30
0.0
 40
17.0
  0
ARC
  5
315C
100
AcDbEntity
  8
0
100
AcDbCircle
 10
682.580832
 20
337.810997
 30
0.0
 40
52.081914
100
AcDbArc
 50
164.89982
 51
195.10018
  0
LINE
  5
315D
100
AcDbEntity
  8
0
100
AcDbLine
 10
629.998918
 20
359.810997
 30
0.0
 11
629.998918
 21
337.810997
 31
0.0
  0
LINE
  5
315E
100
AcDbEntity
  8
0
100
AcDbLine
 10
645.698918
 20
337.810997
 30
0.0
 11
647.754258
 21
360.830808
 31
0.0
  0
LINE
  5
315F
100
AcDbEntity
  8
0
100
AcDbLine
 10
707.298918
 20
337.810997
 30
0.0
 11
705.243578
 21
360.830808
 31
0.0
  0
TEXT
  5
3160
100
AcDbEntity
  8
0
100
AcDbText
 10
671.449954
 20
111.774554
 30
0.0
 40
13.0
  1
25A
 41
0.8
 11
671.449954
 21
111.774554
 31
0.0
100
AcDbText
 73
     1
  0
LINE
  5
3161
100
AcDbEntity
  8
0
100
AcDbLine
 10
604.771704
 20
334.846793
 30
0.0
 11
614.087829
 21
334.846793
 31
0.0
  0
LINE
  5
3162
100
AcDbEntity
  8
0
100
AcDbLine
 10
620.527329
 20
331.695668
 30
0.0
 11
589.014954
 21
331.695668
 31
0.0
  0
LINE
  5
3163
100
AcDbEntity
  8
0
100
AcDbLine
 10
603.622412
 20
203.923182
 30
0.0
 11
612.938537
 21
203.923182
 31
0.0
  0
LINE
  5
3164
100
AcDbEntity
  8
0
100
AcDbLine
 10
619.378037
 20
200.772057
 30
0.0
 11
587.865662
 21
200.772057
 31
0.0
  0
LINE
  5
3165
100
AcDbEntity
  8
0
100
AcDbLine
 10
569.411444
 20
243.76396
 30
0.0
 11
569.411444
 21
237.16396
 31
0.0
  0
LINE
  5
3166
100
AcDbEntity
  8
0
100
AcDbLine
 10
564.411444
 20
242.16396
 30
0.0
 11
564.411444
 21
237.16396
 31
0.0
  0
LINE
  5
3167
100
AcDbEntity
  8
0
100
AcDbLine
 10
513.411444
 20
243.76396
 30
0.0
 11
513.411444
 21
237.16396
 31
0.0
  0
LINE
  5
3168
100
AcDbEntity
  8
0
100
AcDbLine
 10
518.411444
 20
242.16396
 30
0.0
 11
518.411444
 21
237.16396
 31
0.0
  0
LINE
  5
3169
100
AcDbEntity
  8
0
100
AcDbLine
 10
567.411444
 20
230.66396
 30
0.0
 11
515.411444
 21
230.66396
 31
0.0
  0
LINE
  5
316A
100
AcDbEntity
  8
0
100
AcDbLine
 10
567.411444
 20
235.16396
 30
0.0
 11
515.411444
 21
235.16396
 31
0.0
  0
POLYLINE
  5
316B
100
AcDbEntity
  8
0
100
AcDb2dPolyline
 66
     1
 10
0.0
 20
0.0
 30
0.0
  0
VERTEX
  5
357F
100
AcDbEntity
  8
0
100
AcDbVertex
100
AcDb2dVertex
 10
539.763041
 20
147.196718
 30
0.0
  0
VERTEX
  5
3580
100
AcDbEntity
  8
0
100
AcDbVertex
100
AcDb2dVertex
 10
532.059847
 20
150.229541
 30
0.0
  0
SEQEND
  5
3581
100
AcDbEntity
  8
0
  0
LINE
  5
316C
100
AcDbEntity
  8
0
100
AcDbLine
 10
551.411444
 20
151.352612
 30
0.0
 11
531.411444
 21
151.352612
 31
0.0
  0
POLYLINE
  5
316D
100
AcDbEntity
  8
0
100
AcDb2dPolyline
 66
     1
 10
0.0
 20
0.0
 30
0.0
  0
VERTEX
  5
3582
100
AcDbEntity
  8
0
100
AcDbVertex
100
AcDb2dVertex
 10
559.309302
 20
217.66396
 30
0.0
  0
VERTEX
  5
3583
100
AcDbEntity
  8
0
100
AcDbVertex
100
AcDb2dVertex
 10
568.546906
 20
201.66396
 30
0.0
  0
VERTEX
  5
3584
100
AcDbEntity
  8
0
100
AcDbVertex
100
AcDb2dVertex
 10
554.979175
 20
178.16396
 30
0.0
  0
VERTEX
  5
3585
100
AcDbEntity
  8
0
100
AcDbVertex
100
AcDb2dVertex
 10
527.843712
 20
178.16396
 30
0.0
  0
VERTEX
  5
3586
100
AcDbEntity
  8
0
100
AcDbVertex
100
AcDb2dVertex
 10
514.275981
 20
201.66396
 30
0.0
  0
VERTEX
  5
3587
100
AcDbEntity
  8
0
100
AcDbVertex
100
AcDb2dVertex
 10
523.513585
 20
217.66396
 30
0.0
  0
SEQEND
  5
3588
100
AcDbEntity
  8
0
  0
CIRCLE
  5
316E
100
AcDbEntity
  8
0
100
AcDbCircle
 10
541.411444
 20
201.66396
 30
0.0
 40
22.0
  0
POLYLINE
  5
316F
100
AcDbEntity
  8
0
100
AcDb2dPolyline
 66
     1
 10
0.0
 20
0.0
 30
0.0
 70
     1
  0
VERTEX
  5
3589
100
AcDbEntity
  8
0
100
AcDbVertex
100
AcDb2dVertex
 10
554.401825
 20
224.16396
 30
0.0
  0
VERTEX
  5
358A
100
AcDbEntity
  8
0
100
AcDbVertex
100
AcDb2dVertex
 10
567.392206
 20
201.66396
 30
0.0
  0
VERTEX
  5
358B
100
AcDbEntity
  8
0
100
AcDbVertex
100
AcDb2dVertex
 10
554.401825
 20
179.16396
 30
0.0
  0
VERTEX
  5
358C
100
AcDbEntity
  8
0
100
AcDbVertex
100
AcDb2dVertex
 10
528.421063
 20
179.16396
 30
0.0
  0
VERTEX
  5
358D
100
AcDbEntity
  8
0
100
AcDbVertex
100
AcDb2dVertex
 10
515.430682
 20
201.66396
 30
0.0
  0
VERTEX
  5
358E
100
AcDbEntity
  8
0
100
AcDbVertex
100
AcDb2dVertex
 10
528.421063
 20
224.16396
 30
0.0
  0
SEQEND
  5
358F
100
AcDbEntity
  8
0
  0
LINE
  5
3170
100
AcDbEntity
  8
0
100
AcDbLine
 10
530.411444
 20
178.16396
 30
0.0
 11
530.411444
 21
152.352612
 31
0.0
  0
ELLIPSE
  5
3171
100
AcDbEntity
  8
0
100
AcDbEllipse
 10
541.411444
 20
165.50532
 30
0.0
 11
-13.65100000000075
 21
0.0
 31
0.0
210
0.0
220
0.0
230
1.0
 40
0.707106
 41
5.649417126081195
 42
6.91695348827818
  0
ELLIPSE
  5
3172
100
AcDbEntity
  8
0
100
AcDbEllipse
 10
541.411444
 20
161.00532
 30
0.0
 11
-13.65100000000075
 21
0.0
 31
0.0
210
0.0
220
0.0
230
1.0
 40
0.707106
 41
6.283185307179586
 42
6.91695348827818
  0
LINE
  5
3173
100
AcDbEntity
  8
0
100
AcDbLine
 10
532.059847
 20
151.352612
 30
0.0
 11
532.059847
 21
150.229541
 31
0.0
  0
LINE
  5
3174
100
AcDbEntity
  8
0
100
AcDbLine
 10
531.266279
 20
151.363204
 30
0.0
 11
532.059847
 21
150.229541
 31
0.0
  0
ARC
  5
3175
100
AcDbEntity
  8
0
100
AcDbCircle
 10
531.411444
 20
152.352612
 30
0.0
 40
1.0
100
AcDbArc
 50
180.0
 51
270.0
  0
LINE
  5
3176
100
AcDbEntity
  8
0
100
AcDbLine
 10
527.760444
 20
161.00532
 30
0.0
 11
527.760444
 21
165.50532
 31
0.0
  0
ARC
  5
3177
100
AcDbEntity
  8
0
100
AcDbCircle
 10
519.765189
 20
215.171547
 30
0.0
 40
2.0
100
AcDbArc
 50
330.0
 51
86.470432
  0
ARC
  5
3178
100
AcDbEntity
  8
0
100
AcDbCircle
 10
520.011444
 20
219.16396
 30
0.0
 40
2.0
100
AcDbArc
 50
180.0
 51
266.470432
  0
LINE
  5
3179
100
AcDbEntity
  8
0
100
AcDbLine
 10
513.411444
 20
228.66396
 30
0.0
 11
513.411444
 21
203.161382
 31
0.0
  0
LINE
  5
317A
100
AcDbEntity
  8
0
100
AcDbLine
 10
514.275981
 20
201.66396
 30
0.0
 11
513.411444
 21
203.161382
 31
0.0
  0
ARC
  5
317B
100
AcDbEntity
  8
0
100
AcDbCircle
 10
517.011444
 20
219.66396
 30
0.0
 40
1.0
100
AcDbArc
 50
0.0
 51
90.0
  0
ARC
  5
317C
100
AcDbEntity
  8
0
100
AcDbCircle
 10
520.011444
 20
222.66396
 30
0.0
 40
2.0
100
AcDbArc
 50
180.0
 51
270.0
  0
ARC
  5
317D
100
AcDbEntity
  8
0
100
AcDbCircle
 10
520.011444
 20
228.66396
 30
0.0
 40
2.0
100
AcDbArc
 50
90.0
 51
180.0
  0
LINE
  5
317E
100
AcDbEntity
  8
0
100
AcDbLine
 10
522.936235
 20
220.66396
 30
0.0
 11
515.411444
 21
220.66396
 31
0.0
  0
ARC
  5
317F
100
AcDbEntity
  8
0
100
AcDbCircle
 10
520.411444
 20
237.16396
 30
0.0
 40
2.0
100
AcDbArc
 50
180.0
 51
270.0
  0
ARC
  5
3180
100
AcDbEntity
  8
0
100
AcDbCircle
 10
515.411444
 20
228.66396
 30
0.0
 40
2.0
100
AcDbArc
 50
90.0
 51
180.0
  0
LINE
  5
3181
100
AcDbEntity
  8
0
100
AcDbLine
 10
518.011444
 20
219.66396
 30
0.0
 11
518.011444
 21
219.16396
 31
0.0
  0
LINE
  5
3182
100
AcDbEntity
  8
0
100
AcDbLine
 10
518.011444
 20
228.66396
 30
0.0
 11
518.011444
 21
222.66396
 31
0.0
  0
ARC
  5
3183
100
AcDbEntity
  8
0
100
AcDbCircle
 10
515.411444
 20
222.66396
 30
0.0
 40
2.0
100
AcDbArc
 50
180.0
 51
270.0
  0
ARC
  5
3184
100
AcDbEntity
  8
0
100
AcDbCircle
 10
515.411444
 20
237.16396
 30
0.0
 40
2.0
100
AcDbArc
 50
180.0
 51
270.0
  0
LINE
  5
3185
100
AcDbEntity
  8
0
100
AcDbLine
 10
516.905347
 20
235.16396
 30
0.0
 11
516.905347
 21
230.66396
 31
0.0
  0
ARC
  5
3186
100
AcDbEntity
  8
0
100
AcDbCircle
 10
521.781535
 20
218.66396
 30
0.0
 40
2.0
100
AcDbArc
 50
330.0
 51
90.0
  0
ARC
  5
3187
100
AcDbEntity
  8
0
100
AcDbCircle
 10
522.936235
 20
218.66396
 30
0.0
 40
2.0
100
AcDbArc
 50
330.0
 51
90.0
  0
LINE
  5
3188
100
AcDbEntity
  8
0
100
AcDbLine
 10
524.905347
 20
230.66396
 30
0.0
 11
524.905347
 21
235.16396
 31
0.0
  0
LINE
  5
3189
100
AcDbEntity
  8
0
100
AcDbLine
 10
552.411444
 20
178.16396
 30
0.0
 11
552.411444
 21
152.352612
 31
0.0
  0
ELLIPSE
  5
318A
100
AcDbEntity
  8
0
100
AcDbEllipse
 10
541.411444
 20
165.50532
 30
0.0
 11
-13.65100000000075
 21
0.0
 31
0.0
210
0.0
220
0.0
230
1.0
 40
0.707106
 41
8.791009779671009
 42
10.05854614186799
  0
ELLIPSE
  5
318B
100
AcDbEntity
  8
0
100
AcDbEllipse
 10
541.411444
 20
161.00532
 30
0.0
 11
-13.65100000000075
 21
0.0
 31
0.0
210
0.0
220
0.0
230
1.0
 40
0.707106
 41
8.791009779671089
 42
9.424777960769379
  0
ELLIPSE
  5
318C
100
AcDbEntity
  8
0
100
AcDbEllipse
 10
541.411444
 20
159.944659
 30
0.0
 11
-12.49999999993089
 21
0.0
 31
0.0
210
0.0
220
0.0
230
1.0
 40
0.707107
 41
1.333934908452443
 42
1.807657745137349
  0
POLYLINE
  5
318D
100
AcDbEntity
  8
0
100
AcDb2dPolyline
 66
     1
 10
0.0
 20
0.0
 30
0.0
  0
VERTEX
  5
3590
100
AcDbEntity
  8
0
100
AcDbVertex
100
AcDb2dVertex
 10
545.431832
 20
151.352612
 30
0.0
  0
VERTEX
  5
3591
100
AcDbEntity
  8
0
100
AcDbVertex
100
AcDb2dVertex
 10
543.059847
 20
150.418738
 30
0.0
  0
SEQEND
  5
3592
100
AcDbEntity
  8
0
  0
POLYLINE
  5
318E
100
AcDbEntity
  8
0
100
AcDb2dPolyline
 66
     1
 10
0.0
 20
0.0
 30
0.0
  0
VERTEX
  5
3593
100
AcDbEntity
  8
0
100
AcDbVertex
100
AcDb2dVertex
 10
550.763041
 20
150.229541
 30
0.0
  0
VERTEX
  5
3594
100
AcDbEntity
  8
0
100
AcDbVertex
100
AcDb2dVertex
 10
543.059847
 20
147.196718
 30
0.0
  0
SEQEND
  5
3595
100
AcDbEntity
  8
0
  0
LINE
  5
318F
100
AcDbEntity
  8
0
100
AcDbLine
 10
539.763041
 20
150.418738
 30
0.0
 11
539.763041
 21
147.196718
 31
0.0
  0
LINE
  5
3190
100
AcDbEntity
  8
0
100
AcDbLine
 10
543.059847
 20
150.418738
 30
0.0
 11
543.059847
 21
147.196718
 31
0.0
  0
LINE
  5
3191
100
AcDbEntity
  8
0
100
AcDbLine
 10
539.763041
 20
150.418738
 30
0.0
 11
543.059847
 21
150.418738
 31
0.0
  0
POLYLINE
  5
3192
100
AcDbEntity
  8
0
100
AcDb2dPolyline
 66
     1
 10
0.0
 20
0.0
 30
0.0
  0
VERTEX
  5
3596
100
AcDbEntity
  8
0
100
AcDbVertex
100
AcDb2dVertex
 10
539.763041
 20
150.418738
 30
0.0
  0
VERTEX
  5
3597
100
AcDbEntity
  8
0
100
AcDbVertex
100
AcDb2dVertex
 10
537.391055
 20
151.352612
 30
0.0
  0
SEQEND
  5
3598
100
AcDbEntity
  8
0
  0
LINE
  5
3193
100
AcDbEntity
  8
0
100
AcDbLine
 10
539.763041
 20
147.196718
 30
0.0
 11
543.059847
 21
147.196718
 31
0.0
  0
LINE
  5
3194
100
AcDbEntity
  8
0
100
AcDbLine
 10
550.763041
 20
151.352612
 30
0.0
 11
550.763041
 21
150.229541
 31
0.0
  0
LINE
  5
3195
100
AcDbEntity
  8
0
100
AcDbLine
 10
550.763041
 20
150.229541
 30
0.0
 11
551.556609
 21
151.363204
 31
0.0
  0
ARC
  5
3196
100
AcDbEntity
  8
0
100
AcDbCircle
 10
551.411444
 20
152.352612
 30
0.0
 40
1.0
100
AcDbArc
 50
270.0
 51
0.0
  0
LINE
  5
3197
100
AcDbEntity
  8
0
100
AcDbLine
 10
555.062444
 20
161.00532
 30
0.0
 11
555.062444
 21
165.50532
 31
0.0
  0
ARC
  5
3198
100
AcDbEntity
  8
0
100
AcDbCircle
 10
563.057698
 20
215.171547
 30
0.0
 40
2.0
100
AcDbArc
 50
93.529568
 51
210.0
  0
ARC
  5
3199
100
AcDbEntity
  8
0
100
AcDbCircle
 10
562.811444
 20
219.16396
 30
0.0
 40
2.0
100
AcDbArc
 50
273.529568
 51
0.0
  0
LINE
  5
319A
100
AcDbEntity
  8
0
100
AcDbLine
 10
569.411444
 20
228.66396
 30
0.0
 11
569.411444
 21
203.161382
 31
0.0
  0
LINE
  5
319B
100
AcDbEntity
  8
0
100
AcDbLine
 10
568.546906
 20
201.66396
 30
0.0
 11
569.411444
 21
203.161382
 31
0.0
  0
ARC
  5
319C
100
AcDbEntity
  8
0
100
AcDbCircle
 10
562.811444
 20
228.66396
 30
0.0
 40
2.0
100
AcDbArc
 50
0.0
 51
90.0
  0
ARC
  5
319D
100
AcDbEntity
  8
0
100
AcDbCircle
 10
567.411444
 20
228.66396
 30
0.0
 40
2.0
100
AcDbArc
 50
0.0
 51
90.0
  0
LINE
  5
319E
100
AcDbEntity
  8
0
100
AcDbLine
 10
565.431255
 20
220.66396
 30
0.0
 11
559.886652
 21
220.66396
 31
0.0
  0
ARC
  5
319F
100
AcDbEntity
  8
0
100
AcDbCircle
 10
561.041353
 20
218.66396
 30
0.0
 40
2.0
100
AcDbArc
 50
90.0
 51
210.0
  0
ARC
  5
31A0
100
AcDbEntity
  8
0
100
AcDbCircle
 10
559.886652
 20
218.66396
 30
0.0
 40
2.0
100
AcDbArc
 50
90.0
 51
210.0
  0
ARC
  5
31A1
100
AcDbEntity
  8
0
100
AcDbCircle
 10
565.811444
 20
219.66396
 30
0.0
 40
1.0
100
AcDbArc
 50
90.0
 51
180.0
  0
LINE
  5
31A2
100
AcDbEntity
  8
0
100
AcDbLine
 10
564.811444
 20
219.66396
 30
0.0
 11
564.811444
 21
219.16396
 31
0.0
  0
ARC
  5
31A3
100
AcDbEntity
  8
0
100
AcDbCircle
 10
562.811444
 20
222.66396
 30
0.0
 40
2.0
100
AcDbArc
 50
270.0
 51
0.0
  0
LINE
  5
31A4
100
AcDbEntity
  8
0
100
AcDbLine
 10
564.811444
 20
228.66396
 30
0.0
 11
564.811444
 21
222.66396
 31
0.0
  0
LINE
  5
31A5
100
AcDbEntity
  8
0
100
AcDbLine
 10
567.411444
 20
220.66396
 30
0.0
 11
565.431255
 21
220.66396
 31
0.0
  0
ARC
  5
31A6
100
AcDbEntity
  8
0
100
AcDbCircle
 10
567.411444
 20
222.66396
 30
0.0
 40
2.0
100
AcDbArc
 50
270.0
 51
0.0
  0
LINE
  5
31A7
100
AcDbEntity
  8
0
100
AcDbLine
 10
557.91754
 20
235.16396
 30
0.0
 11
557.91754
 21
230.66396
 31
0.0
  0
ARC
  5
31A8
100
AcDbEntity
  8
0
100
AcDbCircle
 10
567.411444
 20
237.16396
 30
0.0
 40
2.0
100
AcDbArc
 50
270.0
 51
0.0
  0
ARC
  5
31A9
100
AcDbEntity
  8
0
100
AcDbCircle
 10
562.411444
 20
237.16396
 30
0.0
 40
2.0
100
AcDbArc
 50
270.0
 51
0.0
  0
LINE
  5
31AA
100
AcDbEntity
  8
0
100
AcDbLine
 10
565.91754
 20
230.66396
 30
0.0
 11
565.91754
 21
235.16396
 31
0.0
  0
LINE
  5
31AB
100
AcDbEntity
  8
0
100
AcDbLine
 10
581.563412
 20
207.074307
 30
0.0
 11
600.470162
 21
207.074307
 31
0.0
  0
LINE
  5
31AC
100
AcDbEntity
  8
0
100
AcDbLine
 10
587.865662
 20
200.772057
 30
0.0
 11
581.563412
 21
207.074307
 31
0.0
  0
LINE
  5
31AD
100
AcDbEntity
  8
0
100
AcDbLine
 10
600.470162
 20
207.074307
 30
0.0
 11
603.622412
 21
203.923182
 31
0.0
  0
ARC
  5
31AE
100
AcDbEntity
  8
0
100
AcDbCircle
 10
541.411444
 20
217.36396
 30
0.0
 40
30.0
100
AcDbArc
 50
63.295148
 51
116.704852
  0
LINE
  5
31AF
100
AcDbEntity
  8
0
100
AcDbLine
 10
568.41754
 20
244.16396
 30
0.0
 11
514.405347
 21
244.16396
 31
0.0
  0
LINE
  5
31B0
100
AcDbEntity
  8
0
100
AcDbLine
 10
555.41754
 20
249.66396
 30
0.0
 11
527.405347
 21
249.66396
 31
0.0
  0
ARC
  5
31B1
100
AcDbEntity
  8
0
100
AcDbCircle
 10
517.655847
 20
242.673199
 30
0.0
 40
7.990761
100
AcDbArc
 50
65.997136
 51
114.002864
  0
LINE
  5
31B2
100
AcDbEntity
  8
0
100
AcDbLine
 10
515.602347
 20
250.66396
 30
0.0
 11
526.209347
 21
250.66396
 31
0.0
  0
ARC
  5
31B3
100
AcDbEntity
  8
0
100
AcDbCircle
 10
520.411444
 20
242.16396
 30
0.0
 40
2.0
100
AcDbArc
 50
90.0
 51
180.0
  0
ARC
  5
31B4
100
AcDbEntity
  8
0
100
AcDbCircle
 10
515.411444
 20
243.76396
 30
0.0
 40
2.0
100
AcDbArc
 50
120.201881
 51
180.0
  0
ARC
  5
31B5
100
AcDbEntity
  8
0
100
AcDbCircle
 10
515.411444
 20
242.16396
 30
0.0
 40
2.0
100
AcDbArc
 50
90.0
 51
180.0
  0
LINE
  5
31B6
100
AcDbEntity
  8
0
100
AcDbLine
 10
514.405347
 20
244.16396
 30
0.0
 11
514.405347
 21
249.97296
 31
0.0
  0
LINE
  5
31B7
100
AcDbEntity
  8
0
100
AcDbLine
 10
514.405347
 20
249.97296
 30
0.0
 11
515.602347
 21
250.66396
 31
0.0
  0
ARC
  5
31B8
100
AcDbEntity
  8
0
100
AcDbCircle
 10
524.155847
 20
242.677902
 30
0.0
 40
7.986057
100
AcDbArc
 50
65.989964
 51
114.010036
  0
LINE
  5
31B9
100
AcDbEntity
  8
0
100
AcDbLine
 10
526.209347
 20
250.66396
 30
0.0
 11
527.405347
 21
249.97296
 31
0.0
  0
LINE
  5
31BA
100
AcDbEntity
  8
0
100
AcDbLine
 10
520.906347
 20
249.97296
 30
0.0
 11
520.906347
 21
244.16396
 31
0.0
  0
ARC
  5
31BB
100
AcDbEntity
  8
0
100
AcDbCircle
 10
524.915262
 20
229.489575
 30
0.0
 40
17.881484
100
AcDbArc
 50
66.39246
 51
81.995264
  0
LINE
  5
31BC
100
AcDbEntity
  8
0
100
AcDbLine
 10
527.405347
 20
249.97296
 30
0.0
 11
527.405347
 21
244.16396
 31
0.0
  0
ARC
  5
31BD
100
AcDbEntity
  8
0
100
AcDbCircle
 10
557.907625
 20
229.489575
 30
0.0
 40
17.881484
100
AcDbArc
 50
98.004736
 51
113.60754
  0
ARC
  5
31BE
100
AcDbEntity
  8
0
100
AcDbCircle
 10
558.66804
 20
242.673199
 30
0.0
 40
7.990761
100
AcDbArc
 50
65.997136
 51
114.002864
  0
LINE
  5
31BF
100
AcDbEntity
  8
0
100
AcDbLine
 10
556.61454
 20
250.66396
 30
0.0
 11
567.22154
 21
250.66396
 31
0.0
  0
LINE
  5
31C0
100
AcDbEntity
  8
0
100
AcDbLine
 10
555.41754
 20
244.16396
 30
0.0
 11
555.41754
 21
249.97296
 31
0.0
  0
LINE
  5
31C1
100
AcDbEntity
  8
0
100
AcDbLine
 10
555.41754
 20
249.97296
 30
0.0
 11
556.61454
 21
250.66396
 31
0.0
  0
ARC
  5
31C2
100
AcDbEntity
  8
0
100
AcDbCircle
 10
567.411444
 20
243.76396
 30
0.0
 40
2.0
100
AcDbArc
 50
0.0
 51
59.798119
  0
ARC
  5
31C3
100
AcDbEntity
  8
0
100
AcDbCircle
 10
565.16804
 20
242.677902
 30
0.0
 40
7.986057
100
AcDbArc
 50
65.989964
 51
114.010036
  0
LINE
  5
31C4
100
AcDbEntity
  8
0
100
AcDbLine
 10
568.41754
 20
249.97296
 30
0.0
 11
568.41754
 21
244.16396
 31
0.0
  0
LINE
  5
31C5
100
AcDbEntity
  8
0
100
AcDbLine
 10
567.22154
 20
250.66396
 30
0.0
 11
568.41754
 21
249.97296
 31
0.0
  0
LINE
  5
31C6
100
AcDbEntity
  8
0
100
AcDbLine
 10
561.91854
 20
249.97296
 30
0.0
 11
561.91854
 21
244.16396
 31
0.0
  0
ARC
  5
31C7
100
AcDbEntity
  8
0
100
AcDbCircle
 10
567.411444
 20
242.16396
 30
0.0
 40
2.0
100
AcDbArc
 50
0.0
 51
90.0
  0
ARC
  5
31C8
100
AcDbEntity
  8
0
100
AcDbCircle
 10
562.411444
 20
242.16396
 30
0.0
 40
2.0
100
AcDbArc
 50
0.0
 51
90.0
  0
LINE
  5
31C9
100
AcDbEntity
  8
0
100
AcDbLine
 10
582.712704
 20
337.997918
 30
0.0
 11
601.619454
 21
337.997918
 31
0.0
  0
LINE
  5
31CA
100
AcDbEntity
  8
0
100
AcDbLine
 10
589.014954
 20
331.695668
 30
0.0
 11
582.712704
 21
337.997918
 31
0.0
  0
LINE
  5
31CB
100
AcDbEntity
  8
0
100
AcDbLine
 10
601.619454
 20
337.997918
 30
0.0
 11
604.771704
 21
334.846793
 31
0.0
  0
LINE
  5
31CC
100
AcDbEntity
  8
0
100
AcDbLine
 10
645.698918
 20
243.76396
 30
0.0
 11
645.698918
 21
237.16396
 31
0.0
  0
LINE
  5
31CD
100
AcDbEntity
  8
0
100
AcDbLine
 10
653.498918
 20
242.16396
 30
0.0
 11
653.498918
 21
237.16396
 31
0.0
  0
LINE
  5
31CE
100
AcDbEntity
  8
0
100
AcDbLine
 10
707.298918
 20
243.76396
 30
0.0
 11
707.298918
 21
237.16396
 31
0.0
  0
LINE
  5
31CF
100
AcDbEntity
  8
0
100
AcDbLine
 10
699.498918
 20
242.16396
 30
0.0
 11
699.498918
 21
237.16396
 31
0.0
  0
LINE
  5
31D0
100
AcDbEntity
  8
0
100
AcDbLine
 10
645.698918
 20
220.66396
 30
0.0
 11
707.298918
 21
220.66396
 31
0.0
  0
LINE
  5
31D1
100
AcDbEntity
  8
0
100
AcDbLine
 10
647.698918
 20
235.16396
 30
0.0
 11
705.298918
 21
235.16396
 31
0.0
  0
LINE
  5
31D2
100
AcDbEntity
  8
0
100
AcDbLine
 10
645.698918
 20
230.66396
 30
0.0
 11
707.298918
 21
230.66396
 31
0.0
  0
LINE
  5
31D3
100
AcDbEntity
  8
0
100
AcDbLine
 10
681.498918
 20
205.161382
 30
0.0
 11
671.498918
 21
205.161382
 31
0.0
  0
LINE
  5
31D4
100
AcDbEntity
  8
0
100
AcDbLine
 10
703.498918
 20
178.16396
 30
0.0
 11
648.498918
 21
178.16396
 31
0.0
  0
LINE
  5
31D5
100
AcDbEntity
  8
0
100
AcDbLine
 10
649.393502
 20
178.16396
 30
0.0
 11
676.20485
 21
151.352612
 31
0.0
  0
LINE
  5
31D6
100
AcDbEntity
  8
0
100
AcDbLine
 10
629.998918
 20
179.66396
 30
0.0
 11
629.998918
 21
201.66396
 31
0.0
  0
ARC
  5
31D7
100
AcDbEntity
  8
0
100
AcDbCircle
 10
673.703887
 20
190.41396
 30
0.0
 40
43.204969
100
AcDbArc
 50
164.90699
 51
195.09301
  0
LINE
  5
31D8
100
AcDbEntity
  8
0
100
AcDbLine
 10
647.498918
 20
179.16396
 30
0.0
 11
647.498918
 21
220.66396
 31
0.0
  0
LINE
  5
31D9
100
AcDbEntity
  8
0
100
AcDbLine
 10
648.498918
 20
178.16396
 30
0.0
 11
648.498918
 21
220.66396
 31
0.0
  0
LINE
  5
31DA
100
AcDbEntity
  8
0
100
AcDbLine
 10
630.287593
 20
179.16396
 30
0.0
 11
647.498918
 21
179.16396
 31
0.0
  0
LINE
  5
31DB
100
AcDbEntity
  8
0
100
AcDbLine
 10
629.998918
 20
179.66396
 30
0.0
 11
630.287593
 21
179.16396
 31
0.0
  0
LINE
  5
31DC
100
AcDbEntity
  8
0
100
AcDbLine
 10
647.498918
 20
179.16396
 30
0.0
 11
648.498918
 21
178.16396
 31
0.0
  0
LINE
  5
31DD
100
AcDbEntity
  8
0
100
AcDbLine
 10
630.287593
 20
224.16396
 30
0.0
 11
645.698918
 21
224.16396
 31
0.0
  0
LINE
  5
31DE
100
AcDbEntity
  8
0
100
AcDbLine
 10
647.498918
 20
201.66396
 30
0.0
 11
631.989299
 21
201.66396
 31
0.0
  0
ARC
  5
31DF
100
AcDbEntity
  8
0
100
AcDbCircle
 10
673.703887
 20
212.91396
 30
0.0
 40
43.204969
100
AcDbArc
 50
164.90699
 51
195.09301
  0
LINE
  5
31E0
100
AcDbEntity
  8
0
100
AcDbLine
 10
629.998918
 20
201.66396
 30
0.0
 11
629.998918
 21
223.66396
 31
0.0
  0
LINE
  5
31E1
100
AcDbEntity
  8
0
100
AcDbLine
 10
612.938537
 20
207.074307
 30
0.0
 11
619.378037
 21
200.772057
 31
0.0
  0
LINE
  5
31E2
100
AcDbEntity
  8
0
100
AcDbLine
 10
612.938537
 20
203.923182
 30
0.0
 11
612.938537
 21
207.074307
 31
0.0
  0
LINE
  5
31E3
100
AcDbEntity
  8
0
100
AcDbLine
 10
629.998918
 20
223.66396
 30
0.0
 11
630.287593
 21
224.16396
 31
0.0
  0
LINE
  5
31E4
100
AcDbEntity
  8
0
100
AcDbLine
 10
653.098918
 20
220.66396
 30
0.0
 11
653.098918
 21
215.16396
 31
0.0
  0
LINE
  5
31E5
100
AcDbEntity
  8
0
100
AcDbLine
 10
671.498918
 20
201.66396
 30
0.0
 11
671.498918
 21
218.16396
 31
0.0
  0
ARC
  5
31E6
100
AcDbEntity
  8
0
100
AcDbCircle
 10
669.498918
 20
219.16396
 30
0.0
 40
2.0
100
AcDbArc
 50
270.0
 51
352.819244
  0
LINE
  5
31E7
100
AcDbEntity
  8
0
100
AcDbLine
 10
671.498918
 20
201.66396
 30
0.0
 11
648.498918
 21
201.66396
 31
0.0
  0
LINE
  5
31E8
100
AcDbEntity
  8
0
100
AcDbLine
 10
657.698918
 20
213.16396
 30
0.0
 11
655.098918
 21
213.16396
 31
0.0
  0
ARC
  5
31E9
100
AcDbEntity
  8
0
100
AcDbCircle
 10
655.098918
 20
215.16396
 30
0.0
 40
2.0
100
AcDbArc
 50
180.0
 51
270.0
  0
LINE
  5
31EA
100
AcDbEntity
  8
0
100
AcDbLine
 10
671.498918
 20
201.66396
 30
0.0
 11
669.498918
 21
217.16396
 31
0.0
  0
LINE
  5
31EB
100
AcDbEntity
  8
0
100
AcDbLine
 10
669.498918
 20
217.16396
 30
0.0
 11
659.698918
 21
217.16396
 31
0.0
  0
LINE
  5
31EC
100
AcDbEntity
  8
0
100
AcDbLine
 10
659.698918
 20
217.16396
 30
0.0
 11
659.698918
 21
215.16396
 31
0.0
  0
ARC
  5
31ED
100
AcDbEntity
  8
0
100
AcDbCircle
 10
657.698918
 20
215.16396
 30
0.0
 40
2.0
100
AcDbArc
 50
270.0
 51
0.0
  0
LINE
  5
31EE
100
AcDbEntity
  8
0
100
AcDbLine
 10
645.698918
 20
220.66396
 30
0.0
 11
645.698918
 21
230.66396
 31
0.0
  0
ARC
  5
31EF
100
AcDbEntity
  8
0
100
AcDbCircle
 10
647.698918
 20
237.16396
 30
0.0
 40
2.0
100
AcDbArc
 50
180.0
 51
270.0
  0
ARC
  5
31F0
100
AcDbEntity
  8
0
100
AcDbCircle
 10
655.498918
 20
237.16396
 30
0.0
 40
2.0
100
AcDbArc
 50
180.0
 51
270.0
  0
LINE
  5
31F1
100
AcDbEntity
  8
0
100
AcDbLine
 10
651.992821
 20
230.66396
 30
0.0
 11
651.992821
 21
235.16396
 31
0.0
  0
ARC
  5
31F2
100
AcDbEntity
  8
0
100
AcDbCircle
 10
669.498918
 20
218.66396
 30
0.0
 40
2.0
100
AcDbArc
 50
7.180756
 51
90.0
  0
LINE
  5
31F3
100
AcDbEntity
  8
0
100
AcDbLine
 10
671.498918
 20
220.66396
 30
0.0
 11
671.498918
 21
217.66396
 31
0.0
  0
LINE
  5
31F4
100
AcDbEntity
  8
0
100
AcDbLine
 10
659.992821
 20
235.16396
 30
0.0
 11
659.992821
 21
230.66396
 31
0.0
  0
ARC
  5
31F5
100
AcDbEntity
  8
0
100
AcDbCircle
 10
674.293949
 20
190.41396
 30
0.0
 40
43.204969
100
AcDbArc
 50
344.90699
 51
15.09301
  0
LINE
  5
31F6
100
AcDbEntity
  8
0
100
AcDbLine
 10
703.498918
 20
178.16396
 30
0.0
 11
703.498918
 21
220.66396
 31
0.0
  0
LINE
  5
31F7
100
AcDbEntity
  8
0
100
AcDbLine
 10
704.498918
 20
179.16396
 30
0.0
 11
704.498918
 21
220.66396
 31
0.0
  0
LINE
  5
31F8
100
AcDbEntity
  8
0
100
AcDbLine
 10
717.998918
 20
179.66396
 30
0.0
 11
717.998918
 21
201.66396
 31
0.0
  0
LINE
  5
31F9
100
AcDbEntity
  8
0
100
AcDbLine
 10
704.498918
 20
179.16396
 30
0.0
 11
717.710243
 21
179.16396
 31
0.0
  0
LINE
  5
31FA
100
AcDbEntity
  8
0
100
AcDbLine
 10
678.079383
 20
151.105825
 30
0.0
 11
695.757053
 21
168.783494
 31
0.0
  0
LINE
  5
31FB
100
AcDbEntity
  8
0
100
AcDbLine
 10
684.443344
 20
147.570291
 30
0.0
 11
699.292587
 21
162.419533
 31
0.0
  0
LINE
  5
31FC
100
AcDbEntity
  8
0
100
AcDbLine
 10
680.200704
 20
151.812931
 30
0.0
 11
695.049946
 21
166.662174
 31
0.0
  0
ARC
  5
31FD
100
AcDbEntity
  8
0
100
AcDbCircle
 10
683.253927
 20
163.608951
 30
0.0
 40
12.182091
100
AcDbArc
 50
295.179294
 51
334.820706
  0
LINE
  5
31FE
100
AcDbEntity
  8
0
100
AcDbLine
 10
691.056465
 20
161.648073
 30
0.0
 11
693.411317
 21
164.002924
 31
0.0
  0
LINE
  5
31FF
100
AcDbEntity
  8
0
100
AcDbLine
 10
691.056465
 20
161.648073
 30
0.0
 11
694.278485
 21
158.426053
 31
0.0
  0
ARC
  5
3200
100
AcDbEntity
  8
0
100
AcDbCircle
 10
696.239364
 20
150.623514
 30
0.0
 40
12.182091
100
AcDbArc
 50
115.179294
 51
154.820706
  0
LINE
  5
3201
100
AcDbEntity
  8
0
100
AcDbLine
 10
682.859954
 20
153.451561
 30
0.0
 11
685.214805
 21
155.806412
 31
0.0
  0
LINE
  5
3202
100
AcDbEntity
  8
0
100
AcDbLine
 10
684.443344
 20
147.570291
 30
0.0
 11
683.04915
 21
147.196718
 31
0.0
  0
LINE
  5
3203
100
AcDbEntity
  8
0
100
AcDbLine
 10
682.859954
 20
153.451561
 30
0.0
 11
686.081973
 21
150.229541
 31
0.0
  0
ARC
  5
3204
100
AcDbEntity
  8
0
100
AcDbCircle
 10
683.338359
 20
149.940332
 30
0.0
 40
3.54367
100
AcDbArc
 50
97.758785
 51
157.758785
  0
LINE
  5
3205
100
AcDbEntity
  8
0
100
AcDbLine
 10
679.82713
 20
150.418738
 30
0.0
 11
683.04915
 21
147.196718
 31
0.0
  0
LINE
  5
3206
100
AcDbEntity
  8
0
100
AcDbLine
 10
679.493597
 20
152.520038
 30
0.0
 11
680.200704
 21
151.812931
 31
0.0
  0
LINE
  5
3207
100
AcDbEntity
  8
0
100
AcDbLine
 10
680.200704
 20
151.812931
 30
0.0
 11
679.82713
 21
150.418738
 31
0.0
  0
LINE
  5
3208
100
AcDbEntity
  8
0
100
AcDbLine
 10
676.20485
 20
151.352612
 30
0.0
 11
678.079383
 21
151.105825
 31
0.0
  0
LINE
  5
3209
100
AcDbEntity
  8
0
100
AcDbLine
 10
686.081973
 20
150.229541
 30
0.0
 11
688.436825
 21
152.584392
 31
0.0
  0
ARC
  5
320A
100
AcDbEntity
  8
0
100
AcDbCircle
 10
682.570745
 20
150.707946
 30
0.0
 40
3.54367
100
AcDbArc
 50
292.241215
 51
352.241215
  0
LINE
  5
320B
100
AcDbEntity
  8
0
100
AcDbLine
 10
685.214805
 20
155.806412
 30
0.0
 11
688.436825
 21
152.584392
 31
0.0
  0
LINE
  5
320C
100
AcDbEntity
  8
0
100
AcDbLine
 10
696.44414
 20
167.035747
 30
0.0
 11
699.66616
 21
163.813727
 31
0.0
  0
ARC
  5
320D
100
AcDbEntity
  8
0
100
AcDbCircle
 10
696.154931
 20
164.292133
 30
0.0
 40
3.54367
100
AcDbArc
 50
277.758785
 51
337.758785
  0
LINE
  5
320E
100
AcDbEntity
  8
0
100
AcDbLine
 10
695.049946
 20
166.662174
 30
0.0
 11
696.44414
 21
167.035747
 31
0.0
  0
ARC
  5
320F
100
AcDbEntity
  8
0
100
AcDbCircle
 10
696.922545
 20
163.524518
 30
0.0
 40
3.54367
100
AcDbArc
 50
112.241215
 51
172.241215
  0
LINE
  5
3210
100
AcDbEntity
  8
0
100
AcDbLine
 10
693.411317
 20
164.002924
 30
0.0
 11
696.633337
 21
160.780904
 31
0.0
  0
LINE
  5
3211
100
AcDbEntity
  8
0
100
AcDbLine
 10
694.342839
 20
167.369281
 30
0.0
 11
695.049946
 21
166.662174
 31
0.0
  0
LINE
  5
3212
100
AcDbEntity
  8
0
100
AcDbLine
 10
694.278485
 20
158.426053
 30
0.0
 11
696.633337
 21
160.780904
 31
0.0
  0
LINE
  5
3213
100
AcDbEntity
  8
0
100
AcDbLine
 10
699.292587
 20
162.419533
 30
0.0
 11
699.66616
 21
163.813727
 31
0.0
  0
LINE
  5
3214
100
AcDbEntity
  8
0
100
AcDbLine
 10
695.510266
 20
170.658028
 30
0.0
 11
703.016198
 21
178.16396
 31
0.0
  0
LINE
  5
3215
100
AcDbEntity
  8
0
100
AcDbLine
 10
695.510266
 20
170.658028
 30
0.0
 11
695.757053
 21
168.783494
 31
0.0
  0
LINE
  5
3216
100
AcDbEntity
  8
0
100
AcDbLine
 10
703.498918
 20
178.16396
 30
0.0
 11
704.498918
 21
179.16396
 31
0.0
  0
LINE
  5
3217
100
AcDbEntity
  8
0
100
AcDbLine
 10
703.498918
 20
178.16396
 30
0.0
 11
703.016198
 21
178.16396
 31
0.0
  0
LINE
  5
3218
100
AcDbEntity
  8
0
100
AcDbLine
 10
717.998918
 20
179.66396
 30
0.0
 11
717.710243
 21
179.16396
 31
0.0
  0
LINE
  5
3219
100
AcDbEntity
  8
0
100
AcDbLine
 10
704.498918
 20
201.66396
 30
0.0
 11
716.008537
 21
201.66396
 31
0.0
  0
LINE
  5
321A
100
AcDbEntity
  8
0
100
AcDbLine
 10
707.298918
 20
224.16396
 30
0.0
 11
717.710243
 21
224.16396
 31
0.0
  0
LINE
  5
321B
100
AcDbEntity
  8
0
100
AcDbLine
 10
681.498918
 20
220.66396
 30
0.0
 11
681.498918
 21
201.66396
 31
0.0
  0
ARC
  5
321C
100
AcDbEntity
  8
0
100
AcDbCircle
 10
683.498918
 20
219.16396
 30
0.0
 40
2.0
100
AcDbArc
 50
187.180756
 51
270.0
  0
LINE
  5
321D
100
AcDbEntity
  8
0
100
AcDbLine
 10
699.898918
 20
220.66396
 30
0.0
 11
699.898918
 21
215.16396
 31
0.0
  0
LINE
  5
321E
100
AcDbEntity
  8
0
100
AcDbLine
 10
703.498918
 20
201.66396
 30
0.0
 11
681.498918
 21
201.66396
 31
0.0
  0
LINE
  5
321F
100
AcDbEntity
  8
0
100
AcDbLine
 10
683.498918
 20
217.16396
 30
0.0
 11
693.298918
 21
217.16396
 31
0.0
  0
LINE
  5
3220
100
AcDbEntity
  8
0
100
AcDbLine
 10
683.498918
 20
217.16396
 30
0.0
 11
681.498918
 21
201.66396
 31
0.0
  0
ARC
  5
3221
100
AcDbEntity
  8
0
100
AcDbCircle
 10
697.898918
 20
215.16396
 30
0.0
 40
2.0
100
AcDbArc
 50
270.0
 51
0.0
  0
LINE
  5
3222
100
AcDbEntity
  8
0
100
AcDbLine
 10
695.298918
 20
213.16396
 30
0.0
 11
697.898918
 21
213.16396
 31
0.0
  0
LINE
  5
3223
100
AcDbEntity
  8
0
100
AcDbLine
 10
693.298918
 20
217.16396
 30
0.0
 11
693.298918
 21
215.16396
 31
0.0
  0
ARC
  5
3224
100
AcDbEntity
  8
0
100
AcDbCircle
 10
695.298918
 20
215.16396
 30
0.0
 40
2.0
100
AcDbArc
 50
180.0
 51
270.0
  0
ARC
  5
3225
100
AcDbEntity
  8
0
100
AcDbCircle
 10
683.498918
 20
218.66396
 30
0.0
 40
2.0
100
AcDbArc
 50
90.0
 51
172.819244
  0
LINE
  5
3226
100
AcDbEntity
  8
0
100
AcDbLine
 10
707.298918
 20
220.66396
 30
0.0
 11
707.298918
 21
230.66396
 31
0.0
  0
ARC
  5
3227
100
AcDbEntity
  8
0
100
AcDbCircle
 10
697.498918
 20
237.16396
 30
0.0
 40
2.0
100
AcDbArc
 50
270.0
 51
0.0
  0
LINE
  5
3228
100
AcDbEntity
  8
0
100
AcDbLine
 10
693.005015
 20
230.66396
 30
0.0
 11
693.005015
 21
235.16396
 31
0.0
  0
ARC
  5
3229
100
AcDbEntity
  8
0
100
AcDbCircle
 10
705.298918
 20
237.16396
 30
0.0
 40
2.0
100
AcDbArc
 50
270.0
 51
0.0
  0
LINE
  5
322A
100
AcDbEntity
  8
0
100
AcDbLine
 10
701.005015
 20
235.16396
 30
0.0
 11
701.005015
 21
230.66396
 31
0.0
  0
ARC
  5
322B
100
AcDbEntity
  8
0
100
AcDbCircle
 10
674.293949
 20
212.91396
 30
0.0
 40
43.204969
100
AcDbArc
 50
344.90699
 51
15.09301
  0
LINE
  5
322C
100
AcDbEntity
  8
0
100
AcDbLine
 10
717.998918
 20
201.66396
 30
0.0
 11
717.998918
 21
223.66396
 31
0.0
  0
LINE
  5
322D
100
AcDbEntity
  8
0
100
AcDbLine
 10
717.998918
 20
223.66396
 30
0.0
 11
717.710243
 21
224.16396
 31
0.0
  0
LINE
  5
322E
100
AcDbEntity
  8
0
100
AcDbLine
 10
653.198918
 20
309.810997
 30
0.0
 11
699.798918
 21
309.810997
 31
0.0
  0
LINE
  5
322F
100
AcDbEntity
  8
0
100
AcDbLine
 10
647.698918
 20
244.16396
 30
0.0
 11
705.298918
 21
244.16396
 31
0.0
  0
LINE
  5
3230
100
AcDbEntity
  8
0
100
AcDbLine
 10
663.498321
 20
249.66396
 30
0.0
 11
689.499515
 21
249.66396
 31
0.0
  0
ARC
  5
3231
100
AcDbEntity
  8
0
100
AcDbCircle
 10
676.498918
 20
217.36396
 30
0.0
 40
30.0
100
AcDbArc
 50
64.319447
 51
115.680553
  0
LINE
  5
3232
100
AcDbEntity
  8
0
100
AcDbLine
 10
662.301321
 20
250.66396
 30
0.0
 11
649.683321
 21
250.66396
 31
0.0
  0
ARC
  5
3233
100
AcDbEntity
  8
0
100
AcDbCircle
 10
655.992321
 20
237.15848
 30
0.0
 40
13.352467
100
AcDbArc
 50
73.680297
 51
106.319703
  0
LINE
  5
3234
100
AcDbEntity
  8
0
100
AcDbLine
 10
649.683321
 20
250.66396
 30
0.0
 11
648.487321
 21
249.97296
 31
0.0
  0
ARC
  5
3235
100
AcDbEntity
  8
0
100
AcDbCircle
 10
650.363821
 20
246.970001
 30
0.0
 40
3.541047
100
AcDbArc
 50
57.999406
 51
122.000594
  0
ARC
  5
3236
100
AcDbEntity
  8
0
100
AcDbCircle
 10
647.698918
 20
242.16396
 30
0.0
 40
2.0
100
AcDbArc
 50
90.0
 51
180.0
  0
LINE
  5
3237
100
AcDbEntity
  8
0
100
AcDbLine
 10
647.698918
 20
245.76396
 30
0.0
 11
648.487321
 21
245.76396
 31
0.0
  0
ARC
  5
3238
100
AcDbEntity
  8
0
100
AcDbCircle
 10
647.698918
 20
243.76396
 30
0.0
 40
2.0
100
AcDbArc
 50
90.0
 51
180.0
  0
LINE
  5
3239
100
AcDbEntity
  8
0
100
AcDbLine
 10
648.487321
 20
249.97296
 30
0.0
 11
648.487321
 21
244.16396
 31
0.0
  0
ARC
  5
323A
100
AcDbEntity
  8
0
100
AcDbCircle
 10
655.498918
 20
242.16396
 30
0.0
 40
2.0
100
AcDbArc
 50
90.0
 51
180.0
  0
LINE
  5
323B
100
AcDbEntity
  8
0
100
AcDbLine
 10
652.240321
 20
249.97296
 30
0.0
 11
652.240321
 21
244.16396
 31
0.0
  0
ARC
  5
323C
100
AcDbEntity
  8
0
100
AcDbCircle
 10
660.002736
 20
229.489575
 30
0.0
 40
17.881484
100
AcDbArc
 50
66.39246
 51
78.726867
  0
ARC
  5
323D
100
AcDbEntity
  8
0
100
AcDbCircle
 10
661.620821
 20
246.970001
 30
0.0
 40
3.541047
100
AcDbArc
 50
57.999406
 51
122.000594
  0
LINE
  5
323E
100
AcDbEntity
  8
0
100
AcDbLine
 10
659.744321
 20
249.97296
 30
0.0
 11
659.744321
 21
244.16396
 31
0.0
  0
LINE
  5
323F
100
AcDbEntity
  8
0
100
AcDbLine
 10
663.498321
 20
249.97296
 30
0.0
 11
662.301321
 21
250.66396
 31
0.0
  0
LINE
  5
3240
100
AcDbEntity
  8
0
100
AcDbLine
 10
663.498321
 20
244.16396
 30
0.0
 11
663.498321
 21
249.97296
 31
0.0
  0
LINE
  5
3241
100
AcDbEntity
  8
0
100
AcDbLine
 10
647.498918
 20
311.830235
 30
0.0
 11
632.297212
 21
311.830235
 31
0.0
  0
LINE
  5
3242
100
AcDbEntity
  8
0
100
AcDbLine
 10
646.910322
 20
324.243265
 30
0.0
 11
632.297212
 21
324.243265
 31
0.0
  0
ARC
  5
3243
100
AcDbEntity
  8
0
100
AcDbCircle
 10
642.108447
 20
318.03675
 30
0.0
 40
11.609529
100
AcDbArc
 50
147.682855
 51
212.317145
  0
LINE
  5
3244
100
AcDbEntity
  8
0
100
AcDbLine
 10
632.297212
 20
311.830235
 30
0.0
 11
629.998918
 21
315.810997
 31
0.0
  0
LINE
  5
3245
100
AcDbEntity
  8
0
100
AcDbLine
 10
614.087829
 20
337.997918
 30
0.0
 11
620.527329
 21
331.695668
 31
0.0
  0
LINE
  5
3246
100
AcDbEntity
  8
0
100
AcDbLine
 10
614.087829
 20
334.846793
 30
0.0
 11
614.087829
 21
337.997918
 31
0.0
  0
LINE
  5
3247
100
AcDbEntity
  8
0
100
AcDbLine
 10
629.998918
 20
337.810997
 30
0.0
 11
629.998918
 21
315.810997
 31
0.0
  0
LINE
  5
3248
100
AcDbEntity
  8
0
100
AcDbLine
 10
659.745821
 20
310.8049
 30
0.0
 11
663.498821
 21
317.3049
 31
0.0
  0
CIRCLE
  5
3249
100
AcDbEntity
  8
0
100
AcDbCircle
 10
655.992821
 20
317.3049
 30
0.0
 40
6.30876
  0
LINE
  5
324A
100
AcDbEntity
  8
0
100
AcDbLine
 10
647.498918
 20
311.830235
 30
0.0
 11
647.498918
 21
317.650997
 31
0.0
  0
LINE
  5
324B
100
AcDbEntity
  8
0
100
AcDbLine
 10
648.486821
 20
317.3049
 30
0.0
 11
652.239821
 21
310.8049
 31
0.0
  0
LINE
  5
324C
100
AcDbEntity
  8
0
100
AcDbLine
 10
647.754258
 20
314.791185
 30
0.0
 11
645.698918
 21
337.810997
 31
0.0
  0
LINE
  5
324D
100
AcDbEntity
  8
0
100
AcDbLine
 10
668.998918
 20
309.810997
 30
0.0
 11
667.163727
 21
319.563225
 31
0.0
  0
LINE
  5
324E
100
AcDbEntity
  8
0
100
AcDbLine
 10
652.239821
 20
310.8049
 30
0.0
 11
659.745821
 21
310.8049
 31
0.0
  0
LINE
  5
324F
100
AcDbEntity
  8
0
100
AcDbLine
 10
648.498918
 20
310.675534
 30
0.0
 11
652.253751
 21
310.675534
 31
0.0
  0
LINE
  5
3250
100
AcDbEntity
  8
0
100
AcDbLine
 10
647.754258
 20
314.791185
 30
0.0
 11
653.198918
 21
309.810997
 31
0.0
  0
LINE
  5
3251
100
AcDbEntity
  8
0
100
AcDbLine
 10
647.498918
 20
311.830235
 30
0.0
 11
648.498918
 21
310.675534
 31
0.0
  0
LINE
  5
3252
100
AcDbEntity
  8
0
100
AcDbLine
 10
648.498918
 20
310.675534
 30
0.0
 11
648.498918
 21
314.110051
 31
0.0
  0
LINE
  5
3253
100
AcDbEntity
  8
0
100
AcDbLine
 10
646.668561
 20
330.310997
 30
0.0
 11
657.430911
 21
328.828955
 31
0.0
  0
LINE
  5
3254
100
AcDbEntity
  8
0
100
AcDbLine
 10
659.745821
 20
323.8049
 30
0.0
 11
652.239821
 21
323.8049
 31
0.0
  0
LINE
  5
3255
100
AcDbEntity
  8
0
100
AcDbLine
 10
652.239821
 20
323.8049
 30
0.0
 11
648.486821
 21
317.3049
 31
0.0
  0
ARC
  5
3256
100
AcDbEntity
  8
0
100
AcDbCircle
 10
655.862095
 20
317.436465
 30
0.0
 40
11.5
100
AcDbArc
 50
10.657381
 51
82.15933
  0
LINE
  5
3257
100
AcDbEntity
  8
0
100
AcDbLine
 10
663.498821
 20
317.3049
 30
0.0
 11
659.745821
 21
323.8049
 31
0.0
  0
LINE
  5
3258
100
AcDbEntity
  8
0
100
AcDbLine
 10
703.313515
 20
250.66396
 30
0.0
 11
690.695515
 21
250.66396
 31
0.0
  0
ARC
  5
3259
100
AcDbEntity
  8
0
100
AcDbCircle
 10
691.376015
 20
246.970001
 30
0.0
 40
3.541047
100
AcDbArc
 50
57.999406
 51
122.000594
  0
ARC
  5
325A
100
AcDbEntity
  8
0
100
AcDbCircle
 10
692.9951
 20
229.489575
 30
0.0
 40
17.881484
100
AcDbArc
 50
101.273133
 51
113.60754
  0
LINE
  5
325B
100
AcDbEntity
  8
0
100
AcDbLine
 10
690.695515
 20
250.66396
 30
0.0
 11
689.499515
 21
249.97296
 31
0.0
  0
LINE
  5
325C
100
AcDbEntity
  8
0
100
AcDbLine
 10
689.499515
 20
249.97296
 30
0.0
 11
689.499515
 21
244.16396
 31
0.0
  0
ARC
  5
325D
100
AcDbEntity
  8
0
100
AcDbCircle
 10
702.633015
 20
246.970001
 30
0.0
 40
3.541047
100
AcDbArc
 50
57.999406
 51
122.000594
  0
ARC
  5
325E
100
AcDbEntity
  8
0
100
AcDbCircle
 10
697.498918
 20
242.16396
 30
0.0
 40
2.0
100
AcDbArc
 50
0.0
 51
90.0
  0
ARC
  5
325F
100
AcDbEntity
  8
0
100
AcDbCircle
 10
697.004515
 20
237.15848
 30
0.0
 40
13.352467
100
AcDbArc
 50
73.680297
 51
106.319703
  0
LINE
  5
3260
100
AcDbEntity
  8
0
100
AcDbLine
 10
693.252515
 20
249.97296
 30
0.0
 11
693.252515
 21
244.16396
 31
0.0
  0
LINE
  5
3261
100
AcDbEntity
  8
0
100
AcDbLine
 10
700.756515
 20
249.97296
 30
0.0
 11
700.756515
 21
244.16396
 31
0.0
  0
ARC
  5
3262
100
AcDbEntity
  8
0
100
AcDbCircle
 10
705.298918
 20
242.16396
 30
0.0
 40
2.0
100
AcDbArc
 50
360.0
 51
90.0
  0
ARC
  5
3263
100
AcDbEntity
  8
0
100
AcDbCircle
 10
705.298918
 20
243.76396
 30
0.0
 40
2.0
100
AcDbArc
 50
0.0
 51
90.0
  0
LINE
  5
3264
100
AcDbEntity
  8
0
100
AcDbLine
 10
704.510515
 20
245.76396
 30
0.0
 11
705.298918
 21
245.76396
 31
0.0
  0
LINE
  5
3265
100
AcDbEntity
  8
0
100
AcDbLine
 10
704.510515
 20
249.97296
 30
0.0
 11
703.313515
 21
250.66396
 31
0.0
  0
LINE
  5
3266
100
AcDbEntity
  8
0
100
AcDbLine
 10
704.510515
 20
244.16396
 30
0.0
 11
704.510515
 21
249.97296
 31
0.0
  0
LINE
  5
3267
100
AcDbEntity
  8
0
100
AcDbLine
 10
704.498918
 20
311.830235
 30
0.0
 11
715.700624
 21
311.830235
 31
0.0
  0
LINE
  5
3268
100
AcDbEntity
  8
0
100
AcDbLine
 10
706.087513
 20
324.243265
 30
0.0
 11
715.700624
 21
324.243265
 31
0.0
  0
CIRCLE
  5
3269
100
AcDbEntity
  8
0
100
AcDbCircle
 10
697.005015
 20
317.3049
 30
0.0
 40
6.30876
  0
LINE
  5
326A
100
AcDbEntity
  8
0
100
AcDbLine
 10
693.252015
 20
310.8049
 30
0.0
 11
689.499015
 21
317.3049
 31
0.0
  0
LINE
  5
326B
100
AcDbEntity
  8
0
100
AcDbLine
 10
683.998918
 20
309.810997
 30
0.0
 11
685.834109
 21
319.563225
 31
0.0
  0
LINE
  5
326C
100
AcDbEntity
  8
0
100
AcDbLine
 10
704.511015
 20
317.3049
 30
0.0
 11
700.758015
 21
310.8049
 31
0.0
  0
LINE
  5
326D
100
AcDbEntity
  8
0
100
AcDbLine
 10
705.243578
 20
314.791185
 30
0.0
 11
707.298918
 21
337.810997
 31
0.0
  0
LINE
  5
326E
100
AcDbEntity
  8
0
100
AcDbLine
 10
700.744085
 20
310.675534
 30
0.0
 11
703.498918
 21
310.675534
 31
0.0
  0
LINE
  5
326F
100
AcDbEntity
  8
0
100
AcDbLine
 10
705.243578
 20
314.791185
 30
0.0
 11
699.798918
 21
309.810997
 31
0.0
  0
LINE
  5
3270
100
AcDbEntity
  8
0
100
AcDbLine
 10
700.758015
 20
310.8049
 30
0.0
 11
693.252015
 21
310.8049
 31
0.0
  0
LINE
  5
3271
100
AcDbEntity
  8
0
100
AcDbLine
 10
704.498918
 20
314.110051
 30
0.0
 11
704.498918
 21
311.830235
 31
0.0
  0
LINE
  5
3272
100
AcDbEntity
  8
0
100
AcDbLine
 10
704.498918
 20
311.830235
 30
0.0
 11
703.498918
 21
310.675534
 31
0.0
  0
LINE
  5
3273
100
AcDbEntity
  8
0
100
AcDbLine
 10
703.498918
 20
310.675534
 30
0.0
 11
703.498918
 21
313.195358
 31
0.0
  0
ARC
  5
3274
100
AcDbEntity
  8
0
100
AcDbCircle
 10
697.135741
 20
317.436465
 30
0.0
 40
11.5
100
AcDbArc
 50
97.84067
 51
169.342619
  0
LINE
  5
3275
100
AcDbEntity
  8
0
100
AcDbLine
 10
689.499015
 20
317.3049
 30
0.0
 11
693.252015
 21
323.8049
 31
0.0
  0
LINE
  5
3276
100
AcDbEntity
  8
0
100
AcDbLine
 10
700.758015
 20
323.8049
 30
0.0
 11
704.511015
 21
317.3049
 31
0.0
  0
LINE
  5
3277
100
AcDbEntity
  8
0
100
AcDbLine
 10
693.252015
 20
323.8049
 30
0.0
 11
700.758015
 21
323.8049
 31
0.0
  0
LINE
  5
3278
100
AcDbEntity
  8
0
100
AcDbLine
 10
706.329275
 20
330.310997
 30
0.0
 11
695.566925
 21
328.828955
 31
0.0
  0
ARC
  5
3279
100
AcDbEntity
  8
0
100
AcDbCircle
 10
705.889389
 20
318.03675
 30
0.0
 40
11.609529
100
AcDbArc
 50
327.682855
 51
32.317145
  0
LINE
  5
327A
100
AcDbEntity
  8
0
100
AcDbLine
 10
715.700624
 20
311.830235
 30
0.0
 11
717.998918
 21
315.810997
 31
0.0
  0
LINE
  5
327B
100
AcDbEntity
  8
0
100
AcDbLine
 10
717.998918
 20
337.810997
 30
0.0
 11
717.998918
 21
315.810997
 31
0.0
  0
LINE
  5
327C
100
AcDbEntity
  8
0
100
AcDbLine
 10
761.058975
 20
243.76396
 30
0.0
 11
761.058975
 21
237.16396
 31
0.0
  0
LINE
  5
327D
100
AcDbEntity
  8
0
100
AcDbLine
 10
766.058975
 20
242.16396
 30
0.0
 11
766.058975
 21
237.16396
 31
0.0
  0
LINE
  5
327E
100
AcDbEntity
  8
0
100
AcDbLine
 10
817.058975
 20
243.76396
 30
0.0
 11
817.058975
 21
237.16396
 31
0.0
  0
LINE
  5
327F
100
AcDbEntity
  8
0
100
AcDbLine
 10
812.058975
 20
242.16396
 30
0.0
 11
812.058975
 21
237.16396
 31
0.0
  0
LINE
  5
3280
100
AcDbEntity
  8
0
100
AcDbLine
 10
763.058975
 20
230.66396
 30
0.0
 11
815.058975
 21
230.66396
 31
0.0
  0
LINE
  5
3281
100
AcDbEntity
  8
0
100
AcDbLine
 10
763.058975
 20
235.16396
 30
0.0
 11
815.058975
 21
235.16396
 31
0.0
  0
LINE
  5
3282
100
AcDbEntity
  8
0
100
AcDbLine
 10
807.534183
 20
220.66396
 30
0.0
 11
815.058975
 21
220.66396
 31
0.0
  0
POLYLINE
  5
3283
100
AcDbEntity
  8
0
100
AcDb2dPolyline
 66
     1
 10
0.0
 20
0.0
 30
0.0
 70
     1
  0
VERTEX
  5
3599
100
AcDbEntity
  8
0
100
AcDbVertex
100
AcDb2dVertex
 10
776.068594
 20
224.16396
 30
0.0
  0
VERTEX
  5
359A
100
AcDbEntity
  8
0
100
AcDbVertex
100
AcDb2dVertex
 10
763.078213
 20
201.66396
 30
0.0
  0
VERTEX
  5
359B
100
AcDbEntity
  8
0
100
AcDbVertex
100
AcDb2dVertex
 10
776.068594
 20
179.16396
 30
0.0
  0
VERTEX
  5
359C
100
AcDbEntity
  8
0
100
AcDbVertex
100
AcDb2dVertex
 10
802.049356
 20
179.16396
 30
0.0
  0
VERTEX
  5
359D
100
AcDbEntity
  8
0
100
AcDbVertex
100
AcDb2dVertex
 10
815.039737
 20
201.66396
 30
0.0
  0
VERTEX
  5
359E
100
AcDbEntity
  8
0
100
AcDbVertex
100
AcDb2dVertex
 10
802.049356
 20
224.16396
 30
0.0
  0
SEQEND
  5
359F
100
AcDbEntity
  8
0
  0
POLYLINE
  5
3284
100
AcDbEntity
  8
0
100
AcDb2dPolyline
 66
     1
 10
0.0
 20
0.0
 30
0.0
  0
VERTEX
  5
35A0
100
AcDbEntity
  8
0
100
AcDbVertex
100
AcDb2dVertex
 10
771.161117
 20
217.66396
 30
0.0
  0
VERTEX
  5
35A1
100
AcDbEntity
  8
0
100
AcDbVertex
100
AcDb2dVertex
 10
761.923512
 20
201.66396
 30
0.0
  0
VERTEX
  5
35A2
100
AcDbEntity
  8
0
100
AcDbVertex
100
AcDb2dVertex
 10
775.491244
 20
178.16396
 30
0.0
  0
VERTEX
  5
35A3
100
AcDbEntity
  8
0
100
AcDbVertex
100
AcDb2dVertex
 10
802.626706
 20
178.16396
 30
0.0
  0
VERTEX
  5
35A4
100
AcDbEntity
  8
0
100
AcDbVertex
100
AcDb2dVertex
 10
816.194438
 20
201.66396
 30
0.0
  0
VERTEX
  5
35A5
100
AcDbEntity
  8
0
100
AcDbVertex
100
AcDb2dVertex
 10
806.956833
 20
217.66396
 30
0.0
  0
SEQEND
  5
35A6
100
AcDbEntity
  8
0
  0
CIRCLE
  5
3285
100
AcDbEntity
  8
0
100
AcDbCircle
 10
789.058975
 20
201.66396
 30
0.0
 40
22.0
  0
ELLIPSE
  5
3286
100
AcDbEntity
  8
0
100
AcDbEllipse
 10
789.058975
 20
161.045879
 30
0.0
 11
-13.24999999999999
 21
0.0
 31
0.0
210
0.0
220
0.0
230
1.0
 40
0.713299
 41
2.550242374643728
 42
6.87453558612572
  0
ELLIPSE
  5
3287
100
AcDbEntity
  8
0
100
AcDbEllipse
 10
789.058975
 20
159.985219
 30
0.0
 11
-12.5
 21
0.0
 31
0.0
210
0.0
220
0.0
230
1.0
 40
0.707107
 41
2.646658527248866
 42
6.778119433520586
  0
ELLIPSE
  5
3288
100
AcDbEntity
  8
0
100
AcDbEllipse
 10
789.058975
 20
155.294586
 30
0.0
 11
-10.49290910814761
 21
0.0
 31
0.0
210
0.0
220
0.0
230
1.0
 40
0.706971
 41
0.0
 42
6.283185307179586
  0
LINE
  5
3289
100
AcDbEntity
  8
0
100
AcDbLine
 10
778.058975
 20
158.426053
 30
0.0
 11
779.707378
 21
160.780904
 31
0.0
  0
LINE
  5
328A
100
AcDbEntity
  8
0
100
AcDbLine
 10
779.707378
 20
150.229541
 30
0.0
 11
778.058975
 21
152.584392
 31
0.0
  0
LINE
  5
328B
100
AcDbEntity
  8
0
100
AcDbLine
 10
778.058975
 20
161.648073
 30
0.0
 11
779.707378
 21
164.002924
 31
0.0
  0
LINE
  5
328C
100
AcDbEntity
  8
0
100
AcDbLine
 10
778.058975
 20
178.16396
 30
0.0
 11
778.058975
 21
166.314762
 31
0.0
  0
POLYLINE
  5
328D
100
AcDbEntity
  8
0
100
AcDb2dPolyline
 66
     1
 10
0.0
 20
0.0
 30
0.0
  0
VERTEX
  5
35A7
100
AcDbEntity
  8
0
100
AcDbVertex
100
AcDb2dVertex
 10
778.058975
 20
161.648073
 30
0.0
  0
VERTEX
  5
35A8
100
AcDbEntity
  8
0
100
AcDbVertex
100
AcDb2dVertex
 10
778.058975
 20
152.584392
 30
0.0
  0
SEQEND
  5
35A9
100
AcDbEntity
  8
0
  0
ELLIPSE
  5
328E
100
AcDbEntity
  8
0
100
AcDbEllipse
 10
789.058975
 20
162.796784
 30
0.0
 11
-13.24999999999999
 21
0.0
 31
0.0
210
0.0
220
0.0
230
1.0
 40
0.713299
 41
5.691835028233652
 42
6.283185307179586
  0
LINE
  5
328F
100
AcDbEntity
  8
0
100
AcDbLine
 10
775.808975
 20
162.796784
 30
0.0
 11
775.808975
 21
161.045879
 31
0.0
  0
LINE
  5
3290
100
AcDbEntity
  8
0
100
AcDbLine
 10
800.058975
 20
178.16396
 30
0.0
 11
800.058975
 21
166.314762
 31
0.0
  0
ELLIPSE
  5
3291
100
AcDbEntity
  8
0
100
AcDbEllipse
 10
789.058975
 20
159.985219
 30
0.0
 11
-10.5
 21
0.0
 31
0.0
210
0.0
220
0.0
230
1.0
 40
0.707107
 41
3.77882011854746
 42
5.645957842221769
  0
POLYLINE
  5
3292
100
AcDbEntity
  8
0
100
AcDb2dPolyline
 66
     1
 10
0.0
 20
0.0
 30
0.0
  0
VERTEX
  5
35AA
100
AcDbEntity
  8
0
100
AcDbVertex
100
AcDb2dVertex
 10
790.707378
 20
147.196718
 30
0.0
  0
VERTEX
  5
35AB
100
AcDbEntity
  8
0
100
AcDbVertex
100
AcDb2dVertex
 10
798.410572
 20
150.229541
 30
0.0
  0
SEQEND
  5
35AC
100
AcDbEntity
  8
0
  0
POLYLINE
  5
3293
100
AcDbEntity
  8
0
100
AcDb2dPolyline
 66
     1
 10
0.0
 20
0.0
 30
0.0
  0
VERTEX
  5
35AD
100
AcDbEntity
  8
0
100
AcDbVertex
100
AcDb2dVertex
 10
798.410572
 20
160.780904
 30
0.0
  0
VERTEX
  5
35AE
100
AcDbEntity
  8
0
100
AcDbVertex
100
AcDb2dVertex
 10
790.707378
 20
163.813727
 30
0.0
  0
SEQEND
  5
35AF
100
AcDbEntity
  8
0
  0
POLYLINE
  5
3294
100
AcDbEntity
  8
0
100
AcDb2dPolyline
 66
     1
 10
0.0
 20
0.0
 30
0.0
  0
VERTEX
  5
35B0
100
AcDbEntity
  8
0
100
AcDbVertex
100
AcDb2dVertex
 10
798.410572
 20
164.002924
 30
0.0
  0
VERTEX
  5
35B1
100
AcDbEntity
  8
0
100
AcDbVertex
100
AcDb2dVertex
 10
790.707378
 20
167.035747
 30
0.0
  0
SEQEND
  5
35B2
100
AcDbEntity
  8
0
  0
LINE
  5
3295
100
AcDbEntity
  8
0
100
AcDbLine
 10
790.707378
 20
147.196718
 30
0.0
 11
787.410572
 21
147.196718
 31
0.0
  0
POLYLINE
  5
3296
100
AcDbEntity
  8
0
100
AcDb2dPolyline
 66
     1
 10
0.0
 20
0.0
 30
0.0
  0
VERTEX
  5
35B3
100
AcDbEntity
  8
0
100
AcDbVertex
100
AcDb2dVertex
 10
779.707378
 20
150.229541
 30
0.0
  0
VERTEX
  5
35B4
100
AcDbEntity
  8
0
100
AcDbVertex
100
AcDb2dVertex
 10
787.410572
 20
147.196718
 30
0.0
  0
SEQEND
  5
35B5
100
AcDbEntity
  8
0
  0
LINE
  5
3297
100
AcDbEntity
  8
0
100
AcDbLine
 10
787.410572
 20
163.813727
 30
0.0
 11
790.707378
 21
163.813727
 31
0.0
  0
LINE
  5
3298
100
AcDbEntity
  8
0
100
AcDbLine
 10
787.410572
 20
167.035747
 30
0.0
 11
790.707378
 21
167.035747
 31
0.0
  0
POLYLINE
  5
3299
100
AcDbEntity
  8
0
100
AcDb2dPolyline
 66
     1
 10
0.0
 20
0.0
 30
0.0
  0
VERTEX
  5
35B6
100
AcDbEntity
  8
0
100
AcDbVertex
100
AcDb2dVertex
 10
787.410572
 20
163.813727
 30
0.0
  0
VERTEX
  5
35B7
100
AcDbEntity
  8
0
100
AcDbVertex
100
AcDb2dVertex
 10
779.707378
 20
160.780904
 30
0.0
  0
SEQEND
  5
35B8
100
AcDbEntity
  8
0
  0
POLYLINE
  5
329A
100
AcDbEntity
  8
0
100
AcDb2dPolyline
 66
     1
 10
0.0
 20
0.0
 30
0.0
  0
VERTEX
  5
35B9
100
AcDbEntity
  8
0
100
AcDbVertex
100
AcDb2dVertex
 10
787.410572
 20
167.035747
 30
0.0
  0
VERTEX
  5
35BA
100
AcDbEntity
  8
0
100
AcDbVertex
100
AcDb2dVertex
 10
779.707378
 20
164.002924
 30
0.0
  0
SEQEND
  5
35BB
100
AcDbEntity
  8
0
  0
LINE
  5
329B
100
AcDbEntity
  8
0
100
AcDbLine
 10
787.410572
 20
167.035747
 30
0.0
 11
787.410572
 21
163.813727
 31
0.0
  0
LINE
  5
329C
100
AcDbEntity
  8
0
100
AcDbLine
 10
779.707378
 20
164.002924
 30
0.0
 11
779.707378
 21
160.780904
 31
0.0
  0
LINE
  5
329D
100
AcDbEntity
  8
0
100
AcDbLine
 10
790.707378
 20
167.035747
 30
0.0
 11
790.707378
 21
163.813727
 31
0.0
  0
POLYLINE
  5
329E
100
AcDbEntity
  8
0
100
AcDb2dPolyline
 66
     1
 10
0.0
 20
0.0
 30
0.0
  0
VERTEX
  5
35BC
100
AcDbEntity
  8
0
100
AcDbVertex
100
AcDb2dVertex
 10
800.058975
 20
152.584392
 30
0.0
  0
VERTEX
  5
35BD
100
AcDbEntity
  8
0
100
AcDbVertex
100
AcDb2dVertex
 10
800.058975
 20
161.648073
 30
0.0
  0
SEQEND
  5
35BE
100
AcDbEntity
  8
0
  0
LINE
  5
329F
100
AcDbEntity
  8
0
100
AcDbLine
 10
800.058975
 20
152.584392
 30
0.0
 11
798.410572
 21
150.229541
 31
0.0
  0
ELLIPSE
  5
32A0
100
AcDbEntity
  8
0
100
AcDbEllipse
 10
789.058975
 20
162.796784
 30
0.0
 11
-13.24999999999999
 21
0.0
 31
0.0
210
0.0
220
0.0
230
1.0
 40
0.713299
 41
3.204759323198742
 42
3.732942932535823
  0
LINE
  5
32A1
100
AcDbEntity
  8
0
100
AcDbLine
 10
802.28255
 20
163.393388
 30
0.0
 11
802.308975
 21
161.045879
 31
0.0
  0
LINE
  5
32A2
100
AcDbEntity
  8
0
100
AcDbLine
 10
798.410572
 20
160.780904
 30
0.0
 11
800.058975
 21
158.426053
 31
0.0
  0
LINE
  5
32A3
100
AcDbEntity
  8
0
100
AcDbLine
 10
798.410572
 20
164.002924
 30
0.0
 11
800.058975
 21
161.648073
 31
0.0
  0
LINE
  5
32A4
100
AcDbEntity
  8
0
100
AcDbLine
 10
798.410572
 20
164.002924
 30
0.0
 11
798.410572
 21
160.780904
 31
0.0
  0
LINE
  5
32A5
100
AcDbEntity
  8
0
100
AcDbLine
 10
761.058975
 20
228.66396
 30
0.0
 11
761.058975
 21
203.161382
 31
0.0
  0
ARC
  5
32A6
100
AcDbEntity
  8
0
100
AcDbCircle
 10
767.658975
 20
219.16396
 30
0.0
 40
2.0
100
AcDbArc
 50
180.0
 51
266.470432
  0
ARC
  5
32A7
100
AcDbEntity
  8
0
100
AcDbCircle
 10
767.41272
 20
215.171547
 30
0.0
 40
2.0
100
AcDbArc
 50
330.0
 51
86.470432
  0
LINE
  5
32A8
100
AcDbEntity
  8
0
100
AcDbLine
 10
761.923512
 20
201.66396
 30
0.0
 11
761.058975
 21
203.161382
 31
0.0
  0
ARC
  5
32A9
100
AcDbEntity
  8
0
100
AcDbCircle
 10
763.058975
 20
228.66396
 30
0.0
 40
2.0
100
AcDbArc
 50
90.0
 51
180.0
  0
ARC
  5
32AA
100
AcDbEntity
  8
0
100
AcDbCircle
 10
763.058975
 20
237.16396
 30
0.0
 40
2.0
100
AcDbArc
 50
180.0
 51
270.0
  0
ARC
  5
32AB
100
AcDbEntity
  8
0
100
AcDbCircle
 10
763.058975
 20
222.66396
 30
0.0
 40
2.0
100
AcDbArc
 50
180.0
 51
270.0
  0
ARC
  5
32AC
100
AcDbEntity
  8
0
100
AcDbCircle
 10
767.658975
 20
228.66396
 30
0.0
 40
2.0
100
AcDbArc
 50
90.0
 51
180.0
  0
LINE
  5
32AD
100
AcDbEntity
  8
0
100
AcDbLine
 10
765.039163
 20
220.66396
 30
0.0
 11
770.583766
 21
220.66396
 31
0.0
  0
ARC
  5
32AE
100
AcDbEntity
  8
0
100
AcDbCircle
 10
769.429066
 20
218.66396
 30
0.0
 40
2.0
100
AcDbArc
 50
330.0
 51
90.0
  0
LINE
  5
32AF
100
AcDbEntity
  8
0
100
AcDbLine
 10
765.658975
 20
228.66396
 30
0.0
 11
765.658975
 21
222.66396
 31
0.0
  0
ARC
  5
32B0
100
AcDbEntity
  8
0
100
AcDbCircle
 10
767.658975
 20
222.66396
 30
0.0
 40
2.0
100
AcDbArc
 50
180.0
 51
270.0
  0
LINE
  5
32B1
100
AcDbEntity
  8
0
100
AcDbLine
 10
765.658975
 20
219.66396
 30
0.0
 11
765.658975
 21
219.16396
 31
0.0
  0
ARC
  5
32B2
100
AcDbEntity
  8
0
100
AcDbCircle
 10
764.658975
 20
219.66396
 30
0.0
 40
1.0
100
AcDbArc
 50
0.0
 51
90.0
  0
LINE
  5
32B3
100
AcDbEntity
  8
0
100
AcDbLine
 10
763.058975
 20
220.66396
 30
0.0
 11
765.039163
 21
220.66396
 31
0.0
  0
ARC
  5
32B4
100
AcDbEntity
  8
0
100
AcDbCircle
 10
770.583766
 20
218.66396
 30
0.0
 40
2.0
100
AcDbArc
 50
330.0
 51
90.0
  0
ARC
  5
32B5
100
AcDbEntity
  8
0
100
AcDbCircle
 10
768.058975
 20
237.16396
 30
0.0
 40
2.0
100
AcDbArc
 50
180.0
 51
270.0
  0
LINE
  5
32B6
100
AcDbEntity
  8
0
100
AcDbLine
 10
764.552878
 20
230.66396
 30
0.0
 11
764.552878
 21
235.16396
 31
0.0
  0
LINE
  5
32B7
100
AcDbEntity
  8
0
100
AcDbLine
 10
772.552878
 20
235.16396
 30
0.0
 11
772.552878
 21
230.66396
 31
0.0
  0
ARC
  5
32B8
100
AcDbEntity
  8
0
100
AcDbCircle
 10
810.458975
 20
219.16396
 30
0.0
 40
2.0
100
AcDbArc
 50
273.529568
 51
0.0
  0
ARC
  5
32B9
100
AcDbEntity
  8
0
100
AcDbCircle
 10
810.705229
 20
215.171547
 30
0.0
 40
2.0
100
AcDbArc
 50
93.529568
 51
210.0
  0
ARC
  5
32BA
100
AcDbEntity
  8
0
100
AcDbCircle
 10
810.458975
 20
228.66396
 30
0.0
 40
2.0
100
AcDbArc
 50
0.0
 51
90.0
  0
ARC
  5
32BB
100
AcDbEntity
  8
0
100
AcDbCircle
 10
807.534183
 20
218.66396
 30
0.0
 40
2.0
100
AcDbArc
 50
90.0
 51
210.0
  0
LINE
  5
32BC
100
AcDbEntity
  8
0
100
AcDbLine
 10
812.458975
 20
228.66396
 30
0.0
 11
812.458975
 21
222.66396
 31
0.0
  0
ARC
  5
32BD
100
AcDbEntity
  8
0
100
AcDbCircle
 10
810.458975
 20
222.66396
 30
0.0
 40
2.0
100
AcDbArc
 50
270.0
 51
0.0
  0
LINE
  5
32BE
100
AcDbEntity
  8
0
100
AcDbLine
 10
812.458975
 20
219.66396
 30
0.0
 11
812.458975
 21
219.16396
 31
0.0
  0
ARC
  5
32BF
100
AcDbEntity
  8
0
100
AcDbCircle
 10
813.458975
 20
219.66396
 30
0.0
 40
1.0
100
AcDbArc
 50
90.0
 51
180.0
  0
ARC
  5
32C0
100
AcDbEntity
  8
0
100
AcDbCircle
 10
808.688884
 20
218.66396
 30
0.0
 40
2.0
100
AcDbArc
 50
90.0
 51
210.0
  0
ARC
  5
32C1
100
AcDbEntity
  8
0
100
AcDbCircle
 10
810.058975
 20
237.16396
 30
0.0
 40
2.0
100
AcDbArc
 50
270.0
 51
0.0
  0
LINE
  5
32C2
100
AcDbEntity
  8
0
100
AcDbLine
 10
813.565072
 20
235.16396
 30
0.0
 11
813.565072
 21
230.66396
 31
0.0
  0
LINE
  5
32C3
100
AcDbEntity
  8
0
100
AcDbLine
 10
805.565072
 20
230.66396
 30
0.0
 11
805.565072
 21
235.16396
 31
0.0
  0
LINE
  5
32C4
100
AcDbEntity
  8
0
100
AcDbLine
 10
817.058975
 20
228.66396
 30
0.0
 11
817.058975
 21
203.161382
 31
0.0
  0
LINE
  5
32C5
100
AcDbEntity
  8
0
100
AcDbLine
 10
816.194438
 20
201.66396
 30
0.0
 11
817.058975
 21
203.161382
 31
0.0
  0
ARC
  5
32C6
100
AcDbEntity
  8
0
100
AcDbCircle
 10
815.058975
 20
228.66396
 30
0.0
 40
2.0
100
AcDbArc
 50
0.0
 51
90.0
  0
ARC
  5
32C7
100
AcDbEntity
  8
0
100
AcDbCircle
 10
815.058975
 20
222.66396
 30
0.0
 40
2.0
100
AcDbArc
 50
270.0
 51
0.0
  0
ARC
  5
32C8
100
AcDbEntity
  8
0
100
AcDbCircle
 10
815.058975
 20
237.16396
 30
0.0
 40
2.0
100
AcDbArc
 50
270.0
 51
0.0
  0
LINE
  5
32C9
100
AcDbEntity
  8
0
100
AcDbLine
 10
762.052878
 20
244.16396
 30
0.0
 11
816.065072
 21
244.16396
 31
0.0
  0
ARC
  5
32CA
100
AcDbEntity
  8
0
100
AcDbCircle
 10
812.814572
 20
242.673199
 30
0.0
 40
7.990761
100
AcDbArc
 50
65.997136
 51
114.002864
  0
LINE
  5
32CB
100
AcDbEntity
  8
0
100
AcDbLine
 10
814.868072
 20
250.66396
 30
0.0
 11
804.261072
 21
250.66396
 31
0.0
  0
ARC
  5
32CC
100
AcDbEntity
  8
0
100
AcDbCircle
 10
789.058975
 20
217.36396
 30
0.0
 40
30.0
100
AcDbArc
 50
63.295148
 51
116.704852
  0
LINE
  5
32CD
100
AcDbEntity
  8
0
100
AcDbLine
 10
775.052878
 20
249.66396
 30
0.0
 11
803.065072
 21
249.66396
 31
0.0
  0
ARC
  5
32CE
100
AcDbEntity
  8
0
100
AcDbCircle
 10
772.562793
 20
229.489575
 30
0.0
 40
17.881484
100
AcDbArc
 50
66.39246
 51
81.995264
  0
ARC
  5
32CF
100
AcDbEntity
  8
0
100
AcDbCircle
 10
763.058975
 20
243.76396
 30
0.0
 40
2.0
100
AcDbArc
 50
120.201881
 51
180.0
  0
ARC
  5
32D0
100
AcDbEntity
  8
0
100
AcDbCircle
 10
763.058975
 20
242.16396
 30
0.0
 40
2.0
100
AcDbArc
 50
90.0
 51
180.0
  0
ARC
  5
32D1
100
AcDbEntity
  8
0
100
AcDbCircle
 10
771.802378
 20
242.673199
 30
0.0
 40
7.990761
100
AcDbArc
 50
65.997136
 51
114.002864
  0
LINE
  5
32D2
100
AcDbEntity
  8
0
100
AcDbLine
 10
773.855878
 20
250.66396
 30
0.0
 11
763.248878
 21
250.66396
 31
0.0
  0
ARC
  5
32D3
100
AcDbEntity
  8
0
100
AcDbCircle
 10
765.302378
 20
242.677902
 30
0.0
 40
7.986057
100
AcDbArc
 50
65.989964
 51
114.010036
  0
LINE
  5
32D4
100
AcDbEntity
  8
0
100
AcDbLine
 10
762.052878
 20
249.97296
 30
0.0
 11
762.052878
 21
244.16396
 31
0.0
  0
LINE
  5
32D5
100
AcDbEntity
  8
0
100
AcDbLine
 10
763.248878
 20
250.66396
 30
0.0
 11
762.052878
 21
249.97296
 31
0.0
  0
LINE
  5
32D6
100
AcDbEntity
  8
0
100
AcDbLine
 10
768.551878
 20
249.97296
 30
0.0
 11
768.551878
 21
244.16396
 31
0.0
  0
ARC
  5
32D7
100
AcDbEntity
  8
0
100
AcDbCircle
 10
768.058975
 20
242.16396
 30
0.0
 40
2.0
100
AcDbArc
 50
90.0
 51
180.0
  0
LINE
  5
32D8
100
AcDbEntity
  8
0
100
AcDbLine
 10
775.052878
 20
244.16396
 30
0.0
 11
775.052878
 21
249.97296
 31
0.0
  0
LINE
  5
32D9
100
AcDbEntity
  8
0
100
AcDbLine
 10
775.052878
 20
249.97296
 30
0.0
 11
773.855878
 21
250.66396
 31
0.0
  0
ARC
  5
32DA
100
AcDbEntity
  8
0
100
AcDbCircle
 10
806.314572
 20
242.677902
 30
0.0
 40
7.986057
100
AcDbArc
 50
65.989964
 51
114.010036
  0
ARC
  5
32DB
100
AcDbEntity
  8
0
100
AcDbCircle
 10
805.555157
 20
229.489575
 30
0.0
 40
17.881484
100
AcDbArc
 50
98.004736
 51
113.60754
  0
LINE
  5
32DC
100
AcDbEntity
  8
0
100
AcDbLine
 10
803.065072
 20
249.97296
 30
0.0
 11
803.065072
 21
244.16396
 31
0.0
  0
LINE
  5
32DD
100
AcDbEntity
  8
0
100
AcDbLine
 10
804.261072
 20
250.66396
 30
0.0
 11
803.065072
 21
249.97296
 31
0.0
  0
LINE
  5
32DE
100
AcDbEntity
  8
0
100
AcDbLine
 10
809.564072
 20
249.97296
 30
0.0
 11
809.564072
 21
244.16396
 31
0.0
  0
ARC
  5
32DF
100
AcDbEntity
  8
0
100
AcDbCircle
 10
810.058975
 20
242.16396
 30
0.0
 40
2.0
100
AcDbArc
 50
0.0
 51
90.0
  0
ARC
  5
32E0
100
AcDbEntity
  8
0
100
AcDbCircle
 10
815.058975
 20
243.76396
 30
0.0
 40
2.0
100
AcDbArc
 50
0.0
 51
59.798119
  0
ARC
  5
32E1
100
AcDbEntity
  8
0
100
AcDbCircle
 10
815.058975
 20
242.16396
 30
0.0
 40
2.0
100
AcDbArc
 50
360.0
 51
90.0
  0
LINE
  5
32E2
100
AcDbEntity
  8
0
100
AcDbLine
 10
816.065072
 20
244.16396
 30
0.0
 11
816.065072
 21
249.97296
 31
0.0
  0
LINE
  5
32E3
100
AcDbEntity
  8
0
100
AcDbLine
 10
816.065072
 20
249.97296
 30
0.0
 11
814.868072
 21
250.66396
 31
0.0
  0
LINE
  5
32E4
100
AcDbEntity
  8
0
100
AcDbLine
 10
746.177567
 20
497.456104
 30
0.0
 11
743.025317
 21
494.304979
 31
0.0
  0
LINE
  5
32E5
100
AcDbEntity
  8
0
100
AcDbLine
 10
727.269692
 20
491.153854
 30
0.0
 11
758.782067
 21
491.153854
 31
0.0
  0
ARC
  5
32E6
100
AcDbEntity
  8
0
100
AcDbCircle
 10
671.498918
 20
507.468527
 30
0.0
 40
30.0
100
AcDbArc
 50
64.319447
 51
115.680553
  0
LINE
  5
32E7
100
AcDbEntity
  8
0
100
AcDbLine
 10
643.487321
 20
534.268527
 30
0.0
 11
643.487321
 21
540.077527
 31
0.0
  0
LINE
  5
32E8
100
AcDbEntity
  8
0
100
AcDbLine
 10
647.241321
 20
540.077527
 30
0.0
 11
647.241321
 21
534.268527
 31
0.0
  0
LINE
  5
32E9
100
AcDbEntity
  8
0
100
AcDbLine
 10
684.499515
 20
534.268527
 30
0.0
 11
684.499515
 21
540.077527
 31
0.0
  0
LINE
  5
32EA
100
AcDbEntity
  8
0
100
AcDbLine
 10
658.498321
 20
540.077527
 30
0.0
 11
658.498321
 21
534.268527
 31
0.0
  0
LINE
  5
32EB
100
AcDbEntity
  8
0
100
AcDbLine
 10
654.745321
 20
540.077527
 30
0.0
 11
654.745321
 21
534.268527
 31
0.0
  0
LINE
  5
32EC
100
AcDbEntity
  8
0
100
AcDbLine
 10
699.510515
 20
540.077527
 30
0.0
 11
699.510515
 21
534.268527
 31
0.0
  0
LINE
  5
32ED
100
AcDbEntity
  8
0
100
AcDbLine
 10
688.253515
 20
540.077527
 30
0.0
 11
688.253515
 21
534.268527
 31
0.0
  0
LINE
  5
32EE
100
AcDbEntity
  8
0
100
AcDbLine
 10
695.757515
 20
540.077527
 30
0.0
 11
695.757515
 21
534.268527
 31
0.0
  0
ARC
  5
32EF
100
AcDbEntity
  8
0
100
AcDbCircle
 10
665.427091
 20
440.812514
 30
0.0
 40
3.54367
100
AcDbArc
 50
187.758785
 51
247.758785
  0
LINE
  5
32F0
100
AcDbEntity
  8
0
100
AcDbLine
 10
663.554492
 20
437.674858
 30
0.0
 11
648.705249
 21
452.524101
 31
0.0
  0
LINE
  5
32F1
100
AcDbEntity
  8
0
100
AcDbLine
 10
668.170705
 20
440.523305
 30
0.0
 11
664.948685
 21
437.301285
 31
0.0
  0
LINE
  5
32F2
100
AcDbEntity
  8
0
100
AcDbLine
 10
653.198918
 20
365.810997
 30
0.0
 11
699.798918
 21
365.810997
 31
0.0
  0
LINE
  5
32F3
100
AcDbEntity
  8
0
100
AcDbLine
 10
647.498918
 20
363.791759
 30
0.0
 11
632.297212
 21
363.791759
 31
0.0
  0
LINE
  5
32F4
100
AcDbEntity
  8
0
100
AcDbLine
 10
646.910322
 20
351.378728
 30
0.0
 11
632.297212
 21
351.378728
 31
0.0
  0
ARC
  5
32F5
100
AcDbEntity
  8
0
100
AcDbCircle
 10
642.108447
 20
357.585243
 30
0.0
 40
11.609529
100
AcDbArc
 50
147.682855
 51
212.317145
  0
LINE
  5
32F6
100
AcDbEntity
  8
0
100
AcDbLine
 10
632.297212
 20
363.791759
 30
0.0
 11
629.998918
 21
359.810997
 31
0.0
  0
LINE
  5
32F7
100
AcDbEntity
  8
0
100
AcDbLine
 10
647.754258
 20
360.830808
 30
0.0
 11
653.198918
 21
365.810997
 31
0.0
  0
LINE
  5
32F8
100
AcDbEntity
  8
0
100
AcDbLine
 10
668.998918
 20
365.810997
 30
0.0
 11
667.163727
 21
356.058768
 31
0.0
  0
CIRCLE
  5
32F9
100
AcDbEntity
  8
0
100
AcDbCircle
 10
655.992821
 20
358.317093
 30
0.0
 40
6.30876
  0
LINE
  5
32FA
100
AcDbEntity
  8
0
100
AcDbLine
 10
646.668561
 20
345.310997
 30
0.0
 11
657.430911
 21
346.793039
 31
0.0
  0
LINE
  5
32FB
100
AcDbEntity
  8
0
100
AcDbLine
 10
659.745821
 20
364.817093
 30
0.0
 11
652.239821
 21
364.817093
 31
0.0
  0
LINE
  5
32FC
100
AcDbEntity
  8
0
100
AcDbLine
 10
652.239821
 20
351.817093
 30
0.0
 11
659.745821
 21
351.817093
 31
0.0
  0
LINE
  5
32FD
100
AcDbEntity
  8
0
100
AcDbLine
 10
648.486821
 20
358.317093
 30
0.0
 11
652.239821
 21
351.817093
 31
0.0
  0
LINE
  5
32FE
100
AcDbEntity
  8
0
100
AcDbLine
 10
648.498918
 20
364.946459
 30
0.0
 11
652.253751
 21
364.946459
 31
0.0
  0
LINE
  5
32FF
100
AcDbEntity
  8
0
100
AcDbLine
 10
652.239821
 20
364.817093
 30
0.0
 11
648.486821
 21
358.317093
 31
0.0
  0
LINE
  5
3300
100
AcDbEntity
  8
0
100
AcDbLine
 10
647.498918
 20
357.970997
 30
0.0
 11
647.498918
 21
363.791759
 31
0.0
  0
LINE
  5
3301
100
AcDbEntity
  8
0
100
AcDbLine
 10
647.498918
 20
363.791759
 30
0.0
 11
648.498918
 21
364.946459
 31
0.0
  0
LINE
  5
3302
100
AcDbEntity
  8
0
100
AcDbLine
 10
648.498918
 20
361.511943
 30
0.0
 11
648.498918
 21
364.946459
 31
0.0
  0
LINE
  5
3303
100
AcDbEntity
  8
0
100
AcDbLine
 10
659.745821
 20
351.817093
 30
0.0
 11
663.498821
 21
358.317093
 31
0.0
  0
ARC
  5
3304
100
AcDbEntity
  8
0
100
AcDbCircle
 10
655.862095
 20
358.185528
 30
0.0
 40
11.5
100
AcDbArc
 50
277.84067
 51
349.342619
  0
LINE
  5
3305
100
AcDbEntity
  8
0
100
AcDbLine
 10
663.498821
 20
358.317093
 30
0.0
 11
659.745821
 21
364.817093
 31
0.0
  0
LINE
  5
3306
100
AcDbEntity
  8
0
100
AcDbLine
 10
663.554492
 20
437.674858
 30
0.0
 11
664.948685
 21
437.301285
 31
0.0
  0
LINE
  5
3307
100
AcDbEntity
  8
0
100
AcDbLine
 10
704.498918
 20
363.791759
 30
0.0
 11
715.700624
 21
363.791759
 31
0.0
  0
LINE
  5
3308
100
AcDbEntity
  8
0
100
AcDbLine
 10
706.087513
 20
351.378728
 30
0.0
 11
715.700624
 21
351.378728
 31
0.0
  0
LINE
  5
3309
100
AcDbEntity
  8
0
100
AcDbLine
 10
683.998918
 20
365.810997
 30
0.0
 11
685.834109
 21
356.058768
 31
0.0
  0
LINE
  5
330A
100
AcDbEntity
  8
0
100
AcDbLine
 10
705.243578
 20
360.830808
 30
0.0
 11
699.798918
 21
365.810997
 31
0.0
  0
ARC
  5
330B
100
AcDbEntity
  8
0
100
AcDbCircle
 10
697.135741
 20
358.185528
 30
0.0
 40
11.5
100
AcDbArc
 50
190.657381
 51
262.15933
  0
CIRCLE
  5
330C
100
AcDbEntity
  8
0
100
AcDbCircle
 10
697.005015
 20
358.317093
 30
0.0
 40
6.30876
  0
LINE
  5
330D
100
AcDbEntity
  8
0
100
AcDbLine
 10
689.499015
 20
358.317093
 30
0.0
 11
693.252015
 21
364.817093
 31
0.0
  0
LINE
  5
330E
100
AcDbEntity
  8
0
100
AcDbLine
 10
693.252015
 20
351.817093
 30
0.0
 11
689.499015
 21
358.317093
 31
0.0
  0
LINE
  5
330F
100
AcDbEntity
  8
0
100
AcDbLine
 10
704.511015
 20
358.317093
 30
0.0
 11
700.758015
 21
351.817093
 31
0.0
  0
LINE
  5
3310
100
AcDbEntity
  8
0
100
AcDbLine
 10
706.329275
 20
345.310997
 30
0.0
 11
695.566925
 21
346.793039
 31
0.0
  0
LINE
  5
3311
100
AcDbEntity
  8
0
100
AcDbLine
 10
700.758015
 20
351.817093
 30
0.0
 11
693.252015
 21
351.817093
 31
0.0
  0
LINE
  5
3312
100
AcDbEntity
  8
0
100
AcDbLine
 10
700.758015
 20
364.817093
 30
0.0
 11
704.511015
 21
358.317093
 31
0.0
  0
LINE
  5
3313
100
AcDbEntity
  8
0
100
AcDbLine
 10
700.744085
 20
364.946459
 30
0.0
 11
703.498918
 21
364.946459
 31
0.0
  0
LINE
  5
3314
100
AcDbEntity
  8
0
100
AcDbLine
 10
693.252015
 20
364.817093
 30
0.0
 11
700.758015
 21
364.817093
 31
0.0
  0
LINE
  5
3315
100
AcDbEntity
  8
0
100
AcDbLine
 10
704.498918
 20
361.511943
 30
0.0
 11
704.498918
 21
363.791759
 31
0.0
  0
LINE
  5
3316
100
AcDbEntity
  8
0
100
AcDbLine
 10
704.498918
 20
363.791759
 30
0.0
 11
704.498918
 21
361.511943
 31
0.0
  0
LINE
  5
3317
100
AcDbEntity
  8
0
100
AcDbLine
 10
704.498918
 20
363.791759
 30
0.0
 11
703.498918
 21
364.946459
 31
0.0
  0
LINE
  5
3318
100
AcDbEntity
  8
0
100
AcDbLine
 10
703.498918
 20
362.426635
 30
0.0
 11
703.498918
 21
364.946459
 31
0.0
  0
ARC
  5
3319
100
AcDbEntity
  8
0
100
AcDbCircle
 10
705.889389
 20
357.585243
 30
0.0
 40
11.609529
100
AcDbArc
 50
327.682855
 51
32.317145
  0
LINE
  5
331A
100
AcDbEntity
  8
0
100
AcDbLine
 10
715.700624
 20
363.791759
 30
0.0
 11
717.998918
 21
359.810997
 31
0.0
  0
LINE
  5
331B
100
AcDbEntity
  8
0
100
AcDbLine
 10
702.298918
 20
520.768527
 30
0.0
 11
640.698918
 21
520.768527
 31
0.0
  0
LINE
  5
331C
100
AcDbEntity
  8
0
100
AcDbLine
 10
644.498918
 20
468.268527
 30
0.0
 11
699.498918
 21
468.268527
 31
0.0
  0
LINE
  5
331D
100
AcDbEntity
  8
0
100
AcDbLine
 10
700.298918
 20
534.268527
 30
0.0
 11
642.698918
 21
534.268527
 31
0.0
  0
LINE
  5
331E
100
AcDbEntity
  8
0
100
AcDbLine
 10
700.298918
 20
525.268527
 30
0.0
 11
642.698918
 21
525.268527
 31
0.0
  0
LINE
  5
331F
100
AcDbEntity
  8
0
100
AcDbLine
 10
702.298918
 20
510.768527
 30
0.0
 11
640.698918
 21
510.768527
 31
0.0
  0
LINE
  5
3320
100
AcDbEntity
  8
0
100
AcDbLine
 10
698.604334
 20
468.268527
 30
0.0
 11
671.792986
 21
441.457179
 31
0.0
  0
LINE
  5
3321
100
AcDbEntity
  8
0
100
AcDbLine
 10
666.498918
 20
495.26595
 30
0.0
 11
676.498918
 21
495.26595
 31
0.0
  0
LINE
  5
3322
100
AcDbEntity
  8
0
100
AcDbLine
 10
644.498918
 20
468.268527
 30
0.0
 11
644.498918
 21
510.768527
 31
0.0
  0
LINE
  5
3323
100
AcDbEntity
  8
0
100
AcDbLine
 10
643.498918
 20
469.268527
 30
0.0
 11
643.498918
 21
510.768527
 31
0.0
  0
LINE
  5
3324
100
AcDbEntity
  8
0
100
AcDbLine
 10
629.998918
 20
472.715968
 30
0.0
 11
629.998918
 21
491.768527
 31
0.0
  0
ARC
  5
3325
100
AcDbEntity
  8
0
100
AcDbCircle
 10
673.703887
 20
480.518527
 30
0.0
 40
43.204969
100
AcDbArc
 50
164.90699
 51
195.09301
  0
LINE
  5
3326
100
AcDbEntity
  8
0
100
AcDbLine
 10
643.498918
 20
469.268527
 30
0.0
 11
631.989299
 21
469.268527
 31
0.0
  0
LINE
  5
3327
100
AcDbEntity
  8
0
100
AcDbLine
 10
631.989299
 20
469.268527
 30
0.0
 11
629.998918
 21
472.715968
 31
0.0
  0
LINE
  5
3328
100
AcDbEntity
  8
0
100
AcDbLine
 10
652.48757
 20
460.762595
 30
0.0
 11
644.981638
 21
468.268527
 31
0.0
  0
LINE
  5
3329
100
AcDbEntity
  8
0
100
AcDbLine
 10
669.918453
 20
441.210392
 30
0.0
 11
652.240783
 21
458.888062
 31
0.0
  0
LINE
  5
332A
100
AcDbEntity
  8
0
100
AcDbLine
 10
667.797132
 20
441.917499
 30
0.0
 11
652.94789
 21
456.766741
 31
0.0
  0
ARC
  5
332B
100
AcDbEntity
  8
0
100
AcDbCircle
 10
651.758472
 20
440.728081
 30
0.0
 40
12.182091
100
AcDbArc
 50
25.179294
 51
64.820706
  0
ARC
  5
332C
100
AcDbEntity
  8
0
100
AcDbCircle
 10
664.743909
 20
453.713518
 30
0.0
 40
12.182091
100
AcDbArc
 50
205.179294
 51
244.820706
  0
LINE
  5
332D
100
AcDbEntity
  8
0
100
AcDbLine
 10
654.586519
 20
454.107491
 30
0.0
 11
651.364499
 21
450.885471
 31
0.0
  0
ARC
  5
332E
100
AcDbEntity
  8
0
100
AcDbCircle
 10
651.842905
 20
454.3967
 30
0.0
 40
3.54367
100
AcDbArc
 50
202.241215
 51
262.241215
  0
LINE
  5
332F
100
AcDbEntity
  8
0
100
AcDbLine
 10
656.94137
 20
451.75264
 30
0.0
 11
653.71935
 21
448.53062
 31
0.0
  0
LINE
  5
3330
100
AcDbEntity
  8
0
100
AcDbLine
 10
653.71935
 20
448.53062
 30
0.0
 11
651.364499
 21
450.885471
 31
0.0
  0
LINE
  5
3331
100
AcDbEntity
  8
0
100
AcDbLine
 10
648.705249
 20
452.524101
 30
0.0
 11
648.331676
 21
453.918294
 31
0.0
  0
LINE
  5
3332
100
AcDbEntity
  8
0
100
AcDbLine
 10
651.553696
 20
457.140314
 30
0.0
 11
648.331676
 21
453.918294
 31
0.0
  0
LINE
  5
3333
100
AcDbEntity
  8
0
100
AcDbLine
 10
656.94137
 20
451.75264
 30
0.0
 11
654.586519
 21
454.107491
 31
0.0
  0
LINE
  5
3334
100
AcDbEntity
  8
0
100
AcDbLine
 10
653.654997
 20
457.473848
 30
0.0
 11
652.94789
 21
456.766741
 31
0.0
  0
ARC
  5
3335
100
AcDbEntity
  8
0
100
AcDbCircle
 10
651.07529
 20
453.629086
 30
0.0
 40
3.54367
100
AcDbArc
 50
7.758785
 51
67.758785
  0
LINE
  5
3336
100
AcDbEntity
  8
0
100
AcDbLine
 10
652.48757
 20
460.762595
 30
0.0
 11
652.240783
 21
458.888062
 31
0.0
  0
LINE
  5
3337
100
AcDbEntity
  8
0
100
AcDbLine
 10
652.94789
 20
456.766741
 30
0.0
 11
651.553696
 21
457.140314
 31
0.0
  0
ARC
  5
3338
100
AcDbEntity
  8
0
100
AcDbCircle
 10
664.659477
 20
440.044899
 30
0.0
 40
3.54367
100
AcDbArc
 50
22.241215
 51
82.241215
  0
LINE
  5
3339
100
AcDbEntity
  8
0
100
AcDbLine
 10
665.137882
 20
443.556128
 30
0.0
 11
661.915862
 21
440.334108
 31
0.0
  0
LINE
  5
333A
100
AcDbEntity
  8
0
100
AcDbLine
 10
662.783031
 20
445.910979
 30
0.0
 11
659.561011
 21
442.688959
 31
0.0
  0
LINE
  5
333B
100
AcDbEntity
  8
0
100
AcDbLine
 10
661.915862
 20
440.334108
 30
0.0
 11
659.561011
 21
442.688959
 31
0.0
  0
LINE
  5
333C
100
AcDbEntity
  8
0
100
AcDbLine
 10
665.137882
 20
443.556128
 30
0.0
 11
662.783031
 21
445.910979
 31
0.0
  0
LINE
  5
333D
100
AcDbEntity
  8
0
100
AcDbLine
 10
671.792986
 20
441.457179
 30
0.0
 11
669.918453
 21
441.210392
 31
0.0
  0
LINE
  5
333E
100
AcDbEntity
  8
0
100
AcDbLine
 10
667.797132
 20
441.917499
 30
0.0
 11
668.170705
 21
440.523305
 31
0.0
  0
LINE
  5
333F
100
AcDbEntity
  8
0
100
AcDbLine
 10
668.504239
 20
442.624606
 30
0.0
 11
667.797132
 21
441.917499
 31
0.0
  0
LINE
  5
3340
100
AcDbEntity
  8
0
100
AcDbLine
 10
644.498918
 20
468.268527
 30
0.0
 11
643.498918
 21
469.268527
 31
0.0
  0
LINE
  5
3341
100
AcDbEntity
  8
0
100
AcDbLine
 10
644.498918
 20
468.268527
 30
0.0
 11
644.981638
 21
468.268527
 31
0.0
  0
LINE
  5
3342
100
AcDbEntity
  8
0
100
AcDbLine
 10
643.498918
 20
491.768527
 30
0.0
 11
631.989299
 21
491.768527
 31
0.0
  0
LINE
  5
3343
100
AcDbEntity
  8
0
100
AcDbLine
 10
640.698918
 20
514.268527
 30
0.0
 11
631.989299
 21
514.268527
 31
0.0
  0
ARC
  5
3344
100
AcDbEntity
  8
0
100
AcDbCircle
 10
673.703887
 20
503.018527
 30
0.0
 40
43.204969
100
AcDbArc
 50
164.90699
 51
195.09301
  0
LINE
  5
3345
100
AcDbEntity
  8
0
100
AcDbLine
 10
631.989299
 20
514.268527
 30
0.0
 11
629.998918
 21
510.821086
 31
0.0
  0
LINE
  5
3346
100
AcDbEntity
  8
0
100
AcDbLine
 10
629.998918
 20
491.768527
 30
0.0
 11
629.998918
 21
510.821086
 31
0.0
  0
LINE
  5
3347
100
AcDbEntity
  8
0
100
AcDbLine
 10
629.998918
 20
491.768527
 30
0.0
 11
629.998918
 21
510.821086
 31
0.0
  0
LINE
  5
3348
100
AcDbEntity
  8
0
100
AcDbLine
 10
640.698918
 20
510.768527
 30
0.0
 11
640.698918
 21
520.768527
 31
0.0
  0
LINE
  5
3349
100
AcDbEntity
  8
0
100
AcDbLine
 10
644.498918
 20
491.768527
 30
0.0
 11
666.498918
 21
491.768527
 31
0.0
  0
LINE
  5
334A
100
AcDbEntity
  8
0
100
AcDbLine
 10
664.498918
 20
507.268527
 30
0.0
 11
654.698918
 21
507.268527
 31
0.0
  0
ARC
  5
334B
100
AcDbEntity
  8
0
100
AcDbCircle
 10
650.098918
 20
505.268527
 30
0.0
 40
2.0
100
AcDbArc
 50
180.0
 51
270.0
  0
LINE
  5
334C
100
AcDbEntity
  8
0
100
AcDbLine
 10
648.098918
 20
510.768527
 30
0.0
 11
648.098918
 21
505.268527
 31
0.0
  0
ARC
  5
334D
100
AcDbEntity
  8
0
100
AcDbCircle
 10
652.698918
 20
505.268527
 30
0.0
 40
2.0
100
AcDbArc
 50
270.0
 51
0.0
  0
LINE
  5
334E
100
AcDbEntity
  8
0
100
AcDbLine
 10
652.698918
 20
503.268527
 30
0.0
 11
650.098918
 21
503.268527
 31
0.0
  0
LINE
  5
334F
100
AcDbEntity
  8
0
100
AcDbLine
 10
654.698918
 20
507.268527
 30
0.0
 11
654.698918
 21
505.268527
 31
0.0
  0
LINE
  5
3350
100
AcDbEntity
  8
0
100
AcDbLine
 10
666.498918
 20
510.768527
 30
0.0
 11
666.498918
 21
491.768527
 31
0.0
  0
LINE
  5
3351
100
AcDbEntity
  8
0
100
AcDbLine
 10
664.498918
 20
507.268527
 30
0.0
 11
666.498918
 21
491.768527
 31
0.0
  0
ARC
  5
3352
100
AcDbEntity
  8
0
100
AcDbCircle
 10
664.498918
 20
509.268527
 30
0.0
 40
2.0
100
AcDbArc
 50
270.0
 51
352.819244
  0
ARC
  5
3353
100
AcDbEntity
  8
0
100
AcDbCircle
 10
664.498918
 20
508.768527
 30
0.0
 40
2.0
100
AcDbArc
 50
7.180756
 51
90.0
  0
ARC
  5
3354
100
AcDbEntity
  8
0
100
AcDbCircle
 10
642.698918
 20
527.268527
 30
0.0
 40
2.0
100
AcDbArc
 50
180.0
 51
270.0
  0
ARC
  5
3355
100
AcDbEntity
  8
0
100
AcDbCircle
 10
650.498918
 20
527.268527
 30
0.0
 40
2.0
100
AcDbArc
 50
180.0
 51
270.0
  0
LINE
  5
3356
100
AcDbEntity
  8
0
100
AcDbLine
 10
646.992821
 20
525.268527
 30
0.0
 11
646.992821
 21
520.768527
 31
0.0
  0
LINE
  5
3357
100
AcDbEntity
  8
0
100
AcDbLine
 10
654.992821
 20
520.768527
 30
0.0
 11
654.992821
 21
525.268527
 31
0.0
  0
ARC
  5
3358
100
AcDbEntity
  8
0
100
AcDbCircle
 10
650.498918
 20
532.268527
 30
0.0
 40
2.0
100
AcDbArc
 50
90.0
 51
180.0
  0
LINE
  5
3359
100
AcDbEntity
  8
0
100
AcDbLine
 10
640.698918
 20
533.868527
 30
0.0
 11
640.698918
 21
527.268527
 31
0.0
  0
LINE
  5
335A
100
AcDbEntity
  8
0
100
AcDbLine
 10
643.487321
 20
535.868527
 30
0.0
 11
642.698918
 21
535.868527
 31
0.0
  0
ARC
  5
335B
100
AcDbEntity
  8
0
100
AcDbCircle
 10
642.698918
 20
533.868527
 30
0.0
 40
2.0
100
AcDbArc
 50
90.0
 51
180.0
  0
ARC
  5
335C
100
AcDbEntity
  8
0
100
AcDbCircle
 10
642.698918
 20
532.268527
 30
0.0
 40
2.0
100
AcDbArc
 50
90.0
 51
180.0
  0
LINE
  5
335D
100
AcDbEntity
  8
0
100
AcDbLine
 10
648.498918
 20
532.268527
 30
0.0
 11
648.498918
 21
527.268527
 31
0.0
  0
ARC
  5
335E
100
AcDbEntity
  8
0
100
AcDbCircle
 10
655.002736
 20
519.594142
 30
0.0
 40
17.881484
100
AcDbArc
 50
66.39246
 51
78.726867
  0
ARC
  5
335F
100
AcDbEntity
  8
0
100
AcDbCircle
 10
674.293949
 20
480.518527
 30
0.0
 40
43.204969
100
AcDbArc
 50
344.90699
 51
15.09301
  0
LINE
  5
3360
100
AcDbEntity
  8
0
100
AcDbLine
 10
717.998918
 20
469.768527
 30
0.0
 11
717.998918
 21
491.768527
 31
0.0
  0
LINE
  5
3361
100
AcDbEntity
  8
0
100
AcDbLine
 10
699.498918
 20
468.268527
 30
0.0
 11
699.498918
 21
510.768527
 31
0.0
  0
LINE
  5
3362
100
AcDbEntity
  8
0
100
AcDbLine
 10
700.498918
 20
469.268527
 30
0.0
 11
700.498918
 21
510.768527
 31
0.0
  0
LINE
  5
3363
100
AcDbEntity
  8
0
100
AcDbLine
 10
717.710243
 20
469.268527
 30
0.0
 11
700.498918
 21
469.268527
 31
0.0
  0
LINE
  5
3364
100
AcDbEntity
  8
0
100
AcDbLine
 10
700.498918
 20
469.268527
 30
0.0
 11
699.498918
 21
468.268527
 31
0.0
  0
LINE
  5
3365
100
AcDbEntity
  8
0
100
AcDbLine
 10
717.998918
 20
469.768527
 30
0.0
 11
717.710243
 21
469.268527
 31
0.0
  0
LINE
  5
3366
100
AcDbEntity
  8
0
100
AcDbLine
 10
700.498918
 20
491.768527
 30
0.0
 11
716.008537
 21
491.768527
 31
0.0
  0
LINE
  5
3367
100
AcDbEntity
  8
0
100
AcDbLine
 10
717.710243
 20
514.268527
 30
0.0
 11
702.298918
 21
514.268527
 31
0.0
  0
LINE
  5
3368
100
AcDbEntity
  8
0
100
AcDbLine
 10
702.298918
 20
510.768527
 30
0.0
 11
702.298918
 21
520.768527
 31
0.0
  0
LINE
  5
3369
100
AcDbEntity
  8
0
100
AcDbLine
 10
676.498918
 20
491.768527
 30
0.0
 11
699.498918
 21
491.768527
 31
0.0
  0
LINE
  5
336A
100
AcDbEntity
  8
0
100
AcDbLine
 10
690.298918
 20
503.268527
 30
0.0
 11
692.898918
 21
503.268527
 31
0.0
  0
LINE
  5
336B
100
AcDbEntity
  8
0
100
AcDbLine
 10
676.498918
 20
491.768527
 30
0.0
 11
678.498918
 21
507.268527
 31
0.0
  0
LINE
  5
336C
100
AcDbEntity
  8
0
100
AcDbLine
 10
676.498918
 20
491.768527
 30
0.0
 11
676.498918
 21
508.268527
 31
0.0
  0
LINE
  5
336D
100
AcDbEntity
  8
0
100
AcDbLine
 10
678.498918
 20
507.268527
 30
0.0
 11
688.298918
 21
507.268527
 31
0.0
  0
LINE
  5
336E
100
AcDbEntity
  8
0
100
AcDbLine
 10
676.498918
 20
510.768527
 30
0.0
 11
676.498918
 21
507.768527
 31
0.0
  0
ARC
  5
336F
100
AcDbEntity
  8
0
100
AcDbCircle
 10
678.498918
 20
508.768527
 30
0.0
 40
2.0
100
AcDbArc
 50
90.0
 51
172.819244
  0
ARC
  5
3370
100
AcDbEntity
  8
0
100
AcDbCircle
 10
678.498918
 20
509.268527
 30
0.0
 40
2.0
100
AcDbArc
 50
187.180756
 51
270.0
  0
ARC
  5
3371
100
AcDbEntity
  8
0
100
AcDbCircle
 10
690.298918
 20
505.268527
 30
0.0
 40
2.0
100
AcDbArc
 50
180.0
 51
270.0
  0
LINE
  5
3372
100
AcDbEntity
  8
0
100
AcDbLine
 10
688.298918
 20
507.268527
 30
0.0
 11
688.298918
 21
505.268527
 31
0.0
  0
ARC
  5
3373
100
AcDbEntity
  8
0
100
AcDbCircle
 10
692.898918
 20
505.268527
 30
0.0
 40
2.0
100
AcDbArc
 50
270.0
 51
0.0
  0
LINE
  5
3374
100
AcDbEntity
  8
0
100
AcDbLine
 10
694.898918
 20
510.768527
 30
0.0
 11
694.898918
 21
505.268527
 31
0.0
  0
LINE
  5
3375
100
AcDbEntity
  8
0
100
AcDbLine
 10
688.005015
 20
525.268527
 30
0.0
 11
688.005015
 21
520.768527
 31
0.0
  0
ARC
  5
3376
100
AcDbEntity
  8
0
100
AcDbCircle
 10
687.9951
 20
519.594142
 30
0.0
 40
17.881484
100
AcDbArc
 50
101.273133
 51
113.60754
  0
LINE
  5
3377
100
AcDbEntity
  8
0
100
AcDbLine
 10
696.005015
 20
520.768527
 30
0.0
 11
696.005015
 21
525.268527
 31
0.0
  0
ARC
  5
3378
100
AcDbEntity
  8
0
100
AcDbCircle
 10
692.498918
 20
527.268527
 30
0.0
 40
2.0
100
AcDbArc
 50
270.0
 51
0.0
  0
ARC
  5
3379
100
AcDbEntity
  8
0
100
AcDbCircle
 10
700.298918
 20
527.268527
 30
0.0
 40
2.0
100
AcDbArc
 50
270.0
 51
0.0
  0
ARC
  5
337A
100
AcDbEntity
  8
0
100
AcDbCircle
 10
700.298918
 20
533.868527
 30
0.0
 40
2.0
100
AcDbArc
 50
0.0
 51
90.0
  0
ARC
  5
337B
100
AcDbEntity
  8
0
100
AcDbCircle
 10
700.298918
 20
532.268527
 30
0.0
 40
2.0
100
AcDbArc
 50
0.0
 51
90.0
  0
LINE
  5
337C
100
AcDbEntity
  8
0
100
AcDbLine
 10
694.498918
 20
532.268527
 30
0.0
 11
694.498918
 21
527.268527
 31
0.0
  0
ARC
  5
337D
100
AcDbEntity
  8
0
100
AcDbCircle
 10
692.498918
 20
532.268527
 30
0.0
 40
2.0
100
AcDbArc
 50
0.0
 51
90.0
  0
LINE
  5
337E
100
AcDbEntity
  8
0
100
AcDbLine
 10
700.298918
 20
535.868527
 30
0.0
 11
699.510515
 21
535.868527
 31
0.0
  0
LINE
  5
337F
100
AcDbEntity
  8
0
100
AcDbLine
 10
702.298918
 20
533.868527
 30
0.0
 11
702.298918
 21
527.268527
 31
0.0
  0
LINE
  5
3380
100
AcDbEntity
  8
0
100
AcDbLine
 10
717.998918
 20
491.768527
 30
0.0
 11
717.998918
 21
513.768527
 31
0.0
  0
ARC
  5
3381
100
AcDbEntity
  8
0
100
AcDbCircle
 10
674.293949
 20
503.018527
 30
0.0
 40
43.204969
100
AcDbArc
 50
344.90699
 51
15.09301
  0
LINE
  5
3382
100
AcDbEntity
  8
0
100
AcDbLine
 10
743.025317
 20
494.304979
 30
0.0
 11
733.709192
 21
494.304979
 31
0.0
  0
LINE
  5
3383
100
AcDbEntity
  8
0
100
AcDbLine
 10
733.709192
 20
494.304979
 30
0.0
 11
733.709192
 21
497.456104
 31
0.0
  0
LINE
  5
3384
100
AcDbEntity
  8
0
100
AcDbLine
 10
733.709192
 20
497.456104
 30
0.0
 11
727.269692
 21
491.153854
 31
0.0
  0
LINE
  5
3385
100
AcDbEntity
  8
0
100
AcDbLine
 10
717.998918
 20
513.768527
 30
0.0
 11
717.710243
 21
514.268527
 31
0.0
  0
LINE
  5
3386
100
AcDbEntity
  8
0
100
AcDbLine
 10
684.499515
 20
539.768527
 30
0.0
 11
658.498321
 21
539.768527
 31
0.0
  0
LINE
  5
3387
100
AcDbEntity
  8
0
100
AcDbLine
 10
644.684321
 20
540.768527
 30
0.0
 11
657.302321
 21
540.768527
 31
0.0
  0
ARC
  5
3388
100
AcDbEntity
  8
0
100
AcDbCircle
 10
656.621821
 20
537.074568
 30
0.0
 40
3.541047
100
AcDbArc
 50
57.999406
 51
122.000594
  0
ARC
  5
3389
100
AcDbEntity
  8
0
100
AcDbCircle
 10
650.993321
 20
527.263048
 30
0.0
 40
13.352467
100
AcDbArc
 50
73.680297
 51
106.319703
  0
ARC
  5
338A
100
AcDbEntity
  8
0
100
AcDbCircle
 10
645.364821
 20
537.074568
 30
0.0
 40
3.541047
100
AcDbArc
 50
57.999406
 51
122.000594
  0
LINE
  5
338B
100
AcDbEntity
  8
0
100
AcDbLine
 10
643.487321
 20
540.077527
 30
0.0
 11
644.684321
 21
540.768527
 31
0.0
  0
LINE
  5
338C
100
AcDbEntity
  8
0
100
AcDbLine
 10
657.302321
 20
540.768527
 30
0.0
 11
658.498321
 21
540.077527
 31
0.0
  0
ARC
  5
338D
100
AcDbEntity
  8
0
100
AcDbCircle
 10
692.005515
 20
527.263048
 30
0.0
 40
13.352467
100
AcDbArc
 50
73.680297
 51
106.319703
  0
LINE
  5
338E
100
AcDbEntity
  8
0
100
AcDbLine
 10
685.696515
 20
540.768527
 30
0.0
 11
698.314515
 21
540.768527
 31
0.0
  0
LINE
  5
338F
100
AcDbEntity
  8
0
100
AcDbLine
 10
684.499515
 20
540.077527
 30
0.0
 11
685.696515
 21
540.768527
 31
0.0
  0
ARC
  5
3390
100
AcDbEntity
  8
0
100
AcDbCircle
 10
686.377015
 20
537.074568
 30
0.0
 40
3.541047
100
AcDbArc
 50
57.999406
 51
122.000594
  0
LINE
  5
3391
100
AcDbEntity
  8
0
100
AcDbLine
 10
698.314515
 20
540.768527
 30
0.0
 11
699.510515
 21
540.077527
 31
0.0
  0
ARC
  5
3392
100
AcDbEntity
  8
0
100
AcDbCircle
 10
697.634015
 20
537.074568
 30
0.0
 40
3.541047
100
AcDbArc
 50
57.999406
 51
122.000594
  0
LINE
  5
3393
100
AcDbEntity
  8
0
100
AcDbLine
 10
758.782067
 20
491.153854
 30
0.0
 11
765.084317
 21
497.456104
 31
0.0
  0
LINE
  5
3394
100
AcDbEntity
  8
0
100
AcDbLine
 10
765.084317
 20
497.456104
 30
0.0
 11
746.177567
 21
497.456104
 31
0.0
  0
VIEWPORT
  5
41
100
AcDbEntity
 67
     1
  8
0
100
AcDbViewport
 10
117.358407
 20
73.5
 30
0.0
 40
234.716814
 41
147.0
 68
    -1
 69
     1
1001
ACAD
1000
MVIEW
1002
{
1070
    16
1010
0.0
1020
0.0
1030
0.0
1010
0.0
1020
0.0
1030
1.0
1040
0.0
1040
147.0
1040
117.358407
1040
73.5
1040
50.0
1040
0.0
1040
0.0
1070
     0
1070
   100
1070
     1
1070
     1
1070
     0
1070
     0
1070
     0
1070
     0
1040
0.0
1040
0.0
1040
0.0
1040
1.0
1040
1.0
1040
0.0
1040
0.0
1070
     0
1002
{
1002
}
1002
}
  0
ENDSEC
  0
SECTION
  2
OBJECTS
  0
DICTIONARY
  5
C
100
AcDbDictionary
  3
ACAD_GROUP
350
D
  3
ACAD_MLINESTYLE
350
E
  0
DICTIONARY
  5
D
102
{ACAD_REACTORS
330
C
102
}
100
AcDbDictionary
  0
DICTIONARY
  5
E
102
{ACAD_REACTORS
330
C
102
}
100
AcDbDictionary
  3
STANDARD
350
1B
  0
MLINESTYLE
  5
1B
102
{ACAD_REACTORS
330
E
102
}
100
AcDbMlineStyle
  2
STANDARD
 70
     0
  3

 62
     0
 51
90.0
 52
90.0
 71
     2
 49
0.5
 62
   256
  6
BYLAYER
 49
-0.5
 62
   256
  6
BYLAYER
  0
ENDSEC
  0
EOF
