  0
SECTION
  2
HEADER
  9
$ACADVER
  1
AC1009
  9
$INSBASE
 10
0.0
 20
0.0
 30
0.0
  9
$EXTMIN
 10
21.961396672252249
 20
9.9847422004500004
 30
-0.0000000349181948
  9
$EXTMAX
 10
572.0386060937758
 20
382.00927827741179
 30
0.0000000814935746
  9
$LIMMIN
 10
0.0
 20
0.0
  9
$LIMMAX
 10
594.0
 20
420.0
  9
$ORTHOMODE
 70
     1
  9
$REGENMODE
 70
     1
  9
$FILLMODE
 70
     1
  9
$QTEXTMODE
 70
     0
  9
$MIRRTEXT
 70
     1
  9
$DRAGMODE
 70
     2
  9
$LTSCALE
 40
8.0
  9
$OSMODE
 70
   163
  9
$ATTMODE
 70
     1
  9
$TEXTSIZE
 40
8.0
  9
$TRACEWID
 40
0.05
  9
$TEXTSTYLE
  7
STANDARD
  9
$CLAYER
  8
0
  9
$CELTYPE
  6
BYLAYER
  9
$CECOLOR
 62
   256
  9
$DIMSCALE
 40
2.0
  9
$DIMASZ
 40
2.7999999999999989
  9
$DIMEXO
 40
1.0
  9
$DIMDLI
 40
5.0
  9
$DIMRND
 40
0.1
  9
$DIMDLE
 40
0.0
  9
$DIMEXE
 40
1.0
  9
$DIMTP
 40
0.0
  9
$DIMTM
 40
0.0
  9
$DIMTXT
 40
2.5
  9
$DIMCEN
 40
0.0
  9
$DIMTSZ
 40
0.0
  9
$DIMTOL
 70
     0
  9
$DIMLIM
 70
     0
  9
$DIMTIH
 70
     0
  9
$DIMTOH
 70
     0
  9
$DIMSE1
 70
     0
  9
$DIMSE2
 70
     0
  9
$DIMTAD
 70
     3
  9
$DIMZIN
 70
     8
  9
$DIMBLK
  1

  9
$DIMASO
 70
     1
  9
$DIMSHO
 70
     1
  9
$DIMPOST
  1

  9
$DIMAPOST
  1

  9
$DIMALT
 70
     0
  9
$DIMALTD
 70
     2
  9
$DIMALTF
 40
1.0
  9
$DIMLFAC
 40
1.0
  9
$DIMTOFL
 70
     1
  9
$DIMTVP
 40
0.0
  9
$DIMTIX
 70
     0
  9
$DIMSOXD
 70
     0
  9
$DIMSAH
 70
     1
  9
$DIMBLK1
  1
OPEN
  9
$DIMBLK2
  1
OPEN
  9
$DIMSTYLE
  2
DIM1
  9
$DIMCLRD
 70
     2
  9
$DIMCLRE
 70
     2
  9
$DIMCLRT
 70
     2
  9
$DIMTFAC
 40
0.7
  9
$DIMGAP
 40
0.85
  9
$LUNITS
 70
     2
  9
$LUPREC
 70
     4
  9
$SKETCHINC
 40
0.1
  9
$FILLETRAD
 40
0.0
  9
$AUNITS
 70
     0
  9
$AUPREC
 70
     0
  9
$MENU
  1
C:\ACADR13\WIN\SUPPORT\ACAD.mnc
  9
$ELEVATION
 40
0.0
  9
$PELEVATION
 40
0.0
  9
$THICKNESS
 40
0.0
  9
$LIMCHECK
 70
     0
  9
$BLIPMODE
 70
     0
  9
$CHAMFERA
 40
0.0
  9
$CHAMFERB
 40
0.0
  9
$SKPOLY
 70
     0
  9
$TDCREATE
 40
2451564.5874118982
  9
$TDUPDATE
 40
2454657.4576897691
  9
$TDINDWG
 40
0.0441351389
  9
$TDUSRTIMER
 40
0.0441351389
  9
$USRTIMER
 70
     1
  9
$ANGBASE
 50
0.0
  9
$ANGDIR
 70
     0
  9
$PDMODE
 70
     0
  9
$PDSIZE
 40
0.0
  9
$PLINEWID
 40
0.0
  9
$COORDS
 70
     1
  9
$SPLFRAME
 70
     0
  9
$SPLINETYPE
 70
     6
  9
$SPLINESEGS
 70
     8
  9
$ATTDIA
 70
     0
  9
$ATTREQ
 70
     1
  9
$HANDLING
 70
     1
  9
$HANDSEED
  5
4264
  9
$SURFTAB1
 70
     6
  9
$SURFTAB2
 70
     6
  9
$SURFTYPE
 70
     6
  9
$SURFU
 70
     6
  9
$SURFV
 70
     6
  9
$UCSNAME
  2

  9
$UCSORG
 10
0.0
 20
0.0
 30
0.0
  9
$UCSXDIR
 10
1.0
 20
0.0
 30
0.0
  9
$UCSYDIR
 10
0.0
 20
1.0
 30
0.0
  9
$PUCSNAME
  2

  9
$PUCSORG
 10
0.0
 20
0.0
 30
0.0
  9
$PUCSXDIR
 10
1.0
 20
0.0
 30
0.0
  9
$PUCSYDIR
 10
0.0
 20
1.0
 30
0.0
  9
$USERI1
 70
     0
  9
$USERI2
 70
     0
  9
$USERI3
 70
     0
  9
$USERI4
 70
     0
  9
$USERI5
 70
     0
  9
$USERR1
 40
0.0
  9
$USERR2
 40
0.0
  9
$USERR3
 40
0.0
  9
$USERR4
 40
0.0
  9
$USERR5
 40
0.0
  9
$WORLDVIEW
 70
     1
  9
$SHADEDGE
 70
     3
  9
$SHADEDIF
 70
    70
  9
$TILEMODE
 70
     1
  9
$MAXACTVP
 70
    16
  9
$PLIMCHECK
 70
     0
  9
$PEXTMIN
 10
1.0000000000000000E+020
 20
1.0000000000000000E+020
 30
1.0000000000000000E+020
  9
$PEXTMAX
 10
-1.0000000000000000E+020
 20
-1.0000000000000000E+020
 30
-1.0000000000000000E+020
  9
$PLIMMIN
 10
0.0
 20
0.0
  9
$PLIMMAX
 10
20.0
 20
147.0
  9
$UNITMODE
 70
     0
  9
$VISRETAIN
 70
     0
  9
$PLINEGEN
 70
     0
  9
$PSLTSCALE
 70
     1
  0
ENDSEC
  0
SECTION
  2
TABLES
  0
TABLE
  2
VPORT
 70
     1
  0
VPORT
  2
*ACTIVE
 70
     0
 10
0.0
 20
0.0
 11
1.0
 21
1.0
 12
297.0
 22
210.0
 13
0.0
 23
0.0
 14
1.0
 24
1.0
 15
0.0
 25
0.0
 16
0.0
 26
0.0
 36
1.0
 17
0.0
 27
0.0
 37
0.0
 40
423.42391304347819
 41
1.825850340136054
 42
50.0
 43
0.0
 44
0.0
 50
0.0
 51
0.0
 71
     0
 72
   100
 73
     1
 74
     1
 75
     0
 76
     0
 77
     0
 78
     0
  0
ENDTAB
  0
TABLE
  2
LTYPE
 70
     1
  0
LTYPE
  2
CONTINUOUS
 70
     0
  3
Solid line
 72
    65
 73
     0
 40
0.0
  0
ENDTAB
  0
TABLE
  2
LAYER
 70
     1
  0
LAYER
  2
0
 70
     0
 62
     7
  6
CONTINUOUS
  0
ENDTAB
  0
TABLE
  2
STYLE
 70
     3
  0
STYLE
  2
STANDARD
 70
     0
 40
0.0
 41
0.8
 50
0.0
 71
     0
 42
8.0
  3
simplex
  4
extfont
  0
STYLE
  2
PTSH
 70
     0
 40
0.0
 41
0.9
 50
0.0
 71
     0
 42
4.0
  3
SIMPLEX
  4
EXTFONT
  0
STYLE
  2
DIM
 70
     0
 40
0.0
 41
0.8
 50
0.0
 71
     0
 42
4.0
  3
simplex
  4
extfont
  0
ENDTAB
  0
TABLE
  2
VIEW
 70
     0
  0
ENDTAB
  0
TABLE
  2
UCS
 70
     0
  0
ENDTAB
  0
TABLE
  2
APPID
 70
     2
  0
APPID
  2
ACAD
 70
     0
  0
APPID
  2
ACAD_MLEADERVER
 70
     0
  0
ENDTAB
  0
TABLE
  2
DIMSTYLE
 70
     1
  0
DIMSTYLE
  2
DIM1
 70
     0
  3

  4

  5

  6
OPEN
  7
OPEN
 40
2.0
 41
2.7999999999999989
 42
1.0
 43
5.0
 44
1.0
 45
0.1
 46
0.0
 47
0.0
 48
0.0
140
2.5
141
0.0
142
0.0
143
1.0
144
1.0
145
0.0
146
0.7
147
0.85
 71
     0
 72
     0
 73
     0
 74
     0
 75
     0
 76
     0
 77
     3
 78
     8
170
     0
171
     2
172
     1
173
     1
174
     0
175
     0
176
     2
177
     2
178
     2
  0
ENDTAB
  0
ENDSEC
  0
SECTION
  2
BLOCKS
  0
BLOCK
  8
0
  2
$MODEL_SPACE
 70
     0
 10
0.0
 20
0.0
 30
0.0
  3
$MODEL_SPACE
  1

  0
ENDBLK
  5
3D
  8
0
  0
BLOCK
 67
     1
  8
0
  2
$PAPER_SPACE
 70
     0
 10
0.0
 20
0.0
 30
0.0
  3
$PAPER_SPACE
  1

  0
ENDBLK
  5
3B
 67
     1
  8
0
  0
BLOCK
  8
0
  2
_OPEN
 70
     0
 10
0.0
 20
0.0
 30
0.0
  3
_OPEN
  1
H1111.DWG
  0
LINE
  5
244A
  8
0
  6
BYBLOCK
 62
     0
 10
-1.0
 20
0.1666666666666666
 30
0.0
 11
0.0
 21
0.0
 31
0.0
  0
LINE
  5
244B
  8
0
  6
BYBLOCK
 62
     0
 10
0.0
 20
0.0
 30
0.0
 11
-1.0
 21
-0.1666666666666666
 31
0.0
  0
LINE
  5
244C
  8
0
  6
BYBLOCK
 62
     0
 10
0.0
 20
0.0
 30
0.0
 11
-1.0
 21
0.0
 31
0.0
  0
ENDBLK
  5
244D
  8
0
  0
ENDSEC
  0
SECTION
  2
ENTITIES
  0
TEXT
  5
2529
  8
0
  6
CONTINUOUS
 10
543.91911750029385
 20
14.4623655026656
 30
0.0
 40
5.3333333333333277
  1
LA13L
 41
0.9
  7
PTSH
 72
     1
 11
553.86197464315114
 21
17.129032169332259
 31
0.0
 73
     2
  0
POLYLINE
  5
2563
  8
0
 66
     1
 10
0.0
 20
0.0
 30
0.0
 70
     1
  0
VERTEX
  5
326F
  8
0
 10
21.999999999999979
 20
9.9999999999999911
 30
0.0
  0
VERTEX
  5
3270
  8
0
 10
571.99999999999955
 20
9.9999999999999911
 30
0.0
  0
VERTEX
  5
3271
  8
0
 10
571.99999999999955
 20
381.99999999999972
 30
0.0
  0
VERTEX
  5
3272
  8
0
 10
21.999999999999979
 20
381.99999999999972
 30
0.0
  0
SEQEND
  5
3273
  8
0
  0
TEXT
  5
28A0
  8
0
 10
223.623555763833
 20
67.892763791597275
 30
0.0
 40
9.9999999999999911
  1
TLV  LA13L (PT)
  0
LINE
  5
3F7D
  8
0
 10
196.45658360038229
 20
301.04440874688299
 30
0.0
 11
182.92158360038229
 21
301.04440874688299
 31
0.0
  0
LINE
  5
3F7E
  8
0
 10
182.92158360038229
 20
302.38040874688301
 30
0.0
 11
196.82558360038229
 21
302.38040874688301
 31
0.0
  0
LINE
  5
3F7F
  8
0
 10
196.82558360038229
 20
284.86240874688298
 30
0.0
 11
182.92158360038229
 21
284.86240874688298
 31
0.0
  0
LINE
  5
3F80
  8
0
 10
182.92158360038229
 20
286.200408746883
 30
0.0
 11
196.45558360038231
 21
286.200408746883
 31
0.0
  0
LINE
  5
3F81
  8
0
 10
196.82558360038229
 20
309.80340874688312
 30
0.0
 11
182.92158360038229
 21
309.80340874688312
 31
0.0
  0
LINE
  5
3F82
  8
0
 10
182.92158360038229
 20
277.44040874688301
 30
0.0
 11
196.82558360038229
 21
277.44040874688301
 31
0.0
  0
LINE
  5
3F83
  8
0
 10
182.37358360038229
 20
205.75432664945481
 30
0.0
 11
195.45658360038229
 21
205.75432664945481
 31
0.0
  0
LINE
  5
3F84
  8
0
 10
201.39838360038229
 20
173.7536266494547
 30
0.0
 11
182.37358360038229
 21
173.7536266494547
 31
0.0
  0
LINE
  5
3F86
  8
0
 10
144.67158360038229
 20
213.5120266494547
 30
0.0
 11
144.67158360038229
 21
221.5120266494547
 31
0.0
  0
LINE
  5
3F87
  8
0
 10
92.671683600382309
 20
221.5120266494547
 30
0.0
 11
92.671683600382309
 21
213.5120266494547
 31
0.0
  0
LINE
  5
3F89
  8
0
 10
128.40918360038231
 20
204.8876266494548
 30
0.0
 11
126.90918360038231
 21
205.7540266494548
 31
0.0
  0
LINE
  5
3F8A
  8
0
 10
126.90918360038231
 20
173.7536266494547
 30
0.0
 11
128.40918360038231
 21
174.61962664945469
 31
0.0
  0
LINE
  5
3F8C
  8
0
 10
94.671583600382291
 20
211.42942664945471
 30
0.0
 11
142.58908360038231
 21
211.42942664945471
 31
0.0
  0
LINE
  5
3F8D
  8
0
 10
92.671683600382309
 20
213.5120266494547
 30
0.0
 11
144.67158360038229
 21
213.5120266494547
 31
0.0
  0
CIRCLE
  5
3F8E
  8
0
 10
118.67158360038231
 20
189.7536266494547
 30
0.0
 40
16.003499999999999
  0
CIRCLE
  5
3F8F
  8
0
 10
118.67158360038231
 20
189.7536266494547
 30
0.0
 40
12.0585
  0
ARC
  5
3F91
  8
0
 10
126.67158360038231
 20
192.63693950008991
 30
0.0
 40
29.614370241235189
 50
256.04578586375408
 51
283.95421413624592
  0
LINE
  5
3F92
  8
0
 10
103.67158360038231
 20
162.7536266494547
 30
0.0
 11
133.67158360038229
 21
162.7536266494547
 31
0.0
  0
LINE
  5
3F93
  8
0
 10
103.5301836003823
 20
163.8965266494547
 30
0.0
 11
103.5301836003823
 21
183.97942664945469
 31
0.0
  0
LINE
  5
3F94
  8
0
 10
103.5301836003823
 20
163.8965266494547
 30
0.0
 11
103.5301836003823
 21
183.97942664945469
 31
0.0
  0
LINE
  5
3F95
  8
0
 10
100.6963836003823
 20
188.88762664945469
 30
0.0
 11
108.93398360038231
 21
174.61962664945469
 31
0.0
  0
LINE
  5
3F96
  8
0
 10
102.6443836003823
 20
185.51352664945469
 30
0.0
 11
102.66988360038231
 21
163.7536266494547
 31
0.0
  0
ARC
  5
3F97
  8
0
 10
110.67163360038229
 20
192.63738271665909
 30
0.0
 40
29.614812435304319
 50
256.04589876445658
 51
283.95410123554342
  0
LINE
  5
3F98
  8
0
 10
110.43398360038231
 20
173.7536266494547
 30
0.0
 11
126.90918360038231
 21
173.7536266494547
 31
0.0
  0
LINE
  5
3F99
  8
0
 10
102.6696836003823
 20
163.8965266494547
 30
0.0
 11
103.5301836003823
 21
163.8965266494547
 31
0.0
  0
LINE
  5
3F9A
  8
0
 10
102.66988360038231
 20
163.7536266494547
 30
0.0
 11
103.67158360038231
 21
162.7536266494547
 31
0.0
  0
LINE
  5
3F9B
  8
0
 10
108.93398360038231
 20
174.61962664945469
 30
0.0
 11
110.43398360038231
 21
173.7536266494547
 31
0.0
  0
LINE
  5
3F9C
  8
0
 10
117.8130836003823
 20
163.8965266494547
 30
0.0
 11
117.8130836003823
 21
173.7536266494547
 31
0.0
  0
LINE
  5
3F9D
  8
0
 10
119.5302836003823
 20
163.8965266494547
 30
0.0
 11
119.5302836003823
 21
173.7536266494547
 31
0.0
  0
LINE
  5
3F9E
  8
0
 10
117.8130836003823
 20
163.8965266494547
 30
0.0
 11
117.8130836003823
 21
173.7536266494547
 31
0.0
  0
LINE
  5
3F9F
  8
0
 10
119.5302836003823
 20
163.8965266494547
 30
0.0
 11
119.5302836003823
 21
173.7536266494547
 31
0.0
  0
LINE
  5
3FA0
  8
0
 10
117.8130836003823
 20
163.8965266494547
 30
0.0
 11
119.5301836003823
 21
163.8965266494547
 31
0.0
  0
LINE
  5
3FA1
  8
0
 10
98.868983600382293
 20
193.0515266494547
 30
0.0
 11
99.018383600382336
 21
192.8750266494547
 31
0.0
  0
LINE
  5
3FA2
  8
0
 10
94.671583600382291
 20
202.3020266494548
 30
0.0
 11
107.44128360038231
 21
202.3020266494548
 31
0.0
  0
LINE
  5
3FA3
  8
0
 10
94.671583600382291
 20
202.3020266494548
 30
0.0
 11
98.641983600382332
 21
193.43622664945471
 31
0.0
  0
LINE
  5
3FA4
  8
0
 10
98.743183600382295
 20
193.24002664945471
 30
0.0
 11
98.868983600382293
 21
193.0515266494547
 31
0.0
  0
LINE
  5
3FA5
  8
0
 10
98.641983600382332
 20
193.43622664945471
 30
0.0
 11
98.641983600382332
 21
193.43622664945471
 31
0.0
  0
LINE
  5
3FA6
  8
0
 10
98.641983600382332
 20
193.43622664945471
 30
0.0
 11
98.743183600382295
 21
193.24002664945471
 31
0.0
  0
LINE
  5
3FA7
  8
0
 10
94.671583600382291
 20
211.42942664945471
 30
0.0
 11
94.671583600382291
 21
202.3020266494548
 31
0.0
  0
LINE
  5
3FA8
  8
0
 10
92.671683600382309
 20
213.5120266494547
 30
0.0
 11
94.671583600382291
 21
211.42942664945471
 31
0.0
  0
LINE
  5
3FAA
  8
0
 10
108.93398360038231
 20
204.8876266494548
 30
0.0
 11
100.6963836003823
 21
190.61962664945469
 31
0.0
  0
LINE
  5
3FAD
  8
0
 10
100.6963836003823
 20
190.61962664945469
 30
0.0
 11
100.6963836003823
 21
188.88762664945469
 31
0.0
  0
LINE
  5
3FAE
  8
0
 10
99.018383600382336
 20
192.8750266494547
 30
0.0
 11
99.189683600382295
 21
192.7149266494547
 31
0.0
  0
LINE
  5
3FAF
  8
0
 10
99.189683600382295
 20
192.7149266494547
 30
0.0
 11
99.379883600382314
 21
192.5751266494548
 31
0.0
  0
LINE
  5
3FB0
  8
0
 10
99.379883600382314
 20
192.5751266494548
 30
0.0
 11
99.585283600382283
 21
192.45862664945469
 31
0.0
  0
LINE
  5
3FB1
  8
0
 10
99.585283600382283
 20
192.45862664945469
 30
0.0
 11
99.801383600382337
 21
192.36772664945471
 31
0.0
  0
LINE
  5
3FB2
  8
0
 10
99.801383600382337
 20
192.36772664945471
 30
0.0
 11
100.02348360038231
 21
192.30352664945471
 31
0.0
  0
LINE
  5
3FB3
  8
0
 10
100.02348360038231
 20
192.30352664945471
 30
0.0
 11
100.46738360038221
 21
192.2536266494547
 31
0.0
  0
LINE
  5
3FB4
  8
0
 10
100.46738360038221
 20
192.2536266494547
 30
0.0
 11
101.6344836003822
 21
192.2536266494547
 31
0.0
  0
LINE
  5
3FC1
  8
0
 10
118.3358836003823
 20
205.75362664945479
 30
0.0
 11
110.43398360038231
 21
205.75362664945479
 31
0.0
  0
LINE
  5
3FC2
  8
0
 10
110.43398360038231
 20
205.75362664945479
 30
0.0
 11
108.93398360038231
 21
204.8876266494548
 31
0.0
  0
LINE
  5
3FC3
  8
0
 10
126.90918360038231
 20
205.7540266494548
 30
0.0
 11
118.67158360038231
 21
205.75712664945479
 31
0.0
  0
LINE
  5
3FC4
  8
0
 10
133.8129836003823
 20
163.8965266494547
 30
0.0
 11
133.8129836003823
 21
184.57182664945469
 31
0.0
  0
LINE
  5
3FC5
  8
0
 10
133.8129836003823
 20
163.8965266494547
 30
0.0
 11
133.8129836003823
 21
183.97932664945469
 31
0.0
  0
LINE
  5
3FC6
  8
0
 10
181.37358360038229
 20
174.7536266494547
 30
0.0
 11
181.37358360038229
 21
204.7543266494547
 31
0.0
  0
LINE
  5
3FC7
  8
0
 10
128.40918360038231
 20
174.61962664945469
 30
0.0
 11
136.64678360038229
 21
188.88762664945469
 31
0.0
  0
LINE
  5
3FC8
  8
0
 10
134.67328360038229
 20
163.7536266494547
 30
0.0
 11
134.6987836003822
 21
185.51352664945469
 31
0.0
  0
LINE
  5
3FC9
  8
0
 10
133.8129836003823
 20
163.8965266494547
 30
0.0
 11
134.67158360038229
 21
163.8965266494547
 31
0.0
  0
LINE
  5
3FCA
  8
0
 10
133.67158360038229
 20
162.7536266494547
 30
0.0
 11
134.67328360038229
 21
163.7536266494547
 31
0.0
  0
LINE
  5
3FCB
  8
0
 10
182.37358360038229
 20
173.7536266494547
 30
0.0
 11
181.37358360038229
 21
174.7536266494547
 31
0.0
  0
LINE
  5
3FCC
  8
0
 10
136.64678360038229
 20
190.61962664945469
 30
0.0
 11
128.40918360038231
 21
204.8876266494548
 31
0.0
  0
LINE
  5
3FCD
  8
0
 10
138.70118360038231
 20
193.43622664945471
 30
0.0
 11
142.67158360038229
 21
202.3020266494548
 31
0.0
  0
LINE
  5
3FCE
  8
0
 10
135.7086836003823
 20
192.2536266494547
 30
0.0
 11
136.8758836003822
 21
192.2536266494547
 31
0.0
  0
LINE
  5
3FCF
  8
0
 10
134.68158360038231
 20
192.2536266494547
 30
0.0
 11
134.68158360038231
 21
192.2536266494547
 31
0.0
  0
LINE
  5
3FD0
  8
0
 10
134.68158360038231
 20
192.2536266494547
 30
0.0
 11
134.68158360038231
 21
192.2536266494547
 31
0.0
  0
LINE
  5
3FD1
  8
0
 10
134.68158360038231
 20
192.2536266494547
 30
0.0
 11
134.67158360038229
 21
192.2536266494547
 31
0.0
  0
LINE
  5
3FD2
  8
0
 10
138.47428360038231
 20
193.0515266494547
 30
0.0
 11
138.70118360038231
 21
193.43622664945471
 31
0.0
  0
LINE
  5
3FD3
  8
0
 10
138.32488360038229
 20
192.8750266494547
 30
0.0
 11
138.47428360038231
 21
193.0515266494547
 31
0.0
  0
LINE
  5
3FD4
  8
0
 10
136.8758836003822
 20
192.2536266494547
 30
0.0
 11
136.8758836003822
 21
192.2536266494547
 31
0.0
  0
LINE
  5
3FD5
  8
0
 10
136.8758836003822
 20
192.2536266494547
 30
0.0
 11
137.09628360038229
 21
192.26582664945471
 31
0.0
  0
LINE
  5
3FD6
  8
0
 10
137.09628360038229
 20
192.26582664945471
 30
0.0
 11
137.31968360038229
 21
192.30352664945471
 31
0.0
  0
LINE
  5
3FD7
  8
0
 10
137.31968360038229
 20
192.30352664945471
 30
0.0
 11
137.54188360038231
 21
192.36772664945471
 31
0.0
  0
LINE
  5
3FD8
  8
0
 10
137.54188360038231
 20
192.36772664945471
 30
0.0
 11
137.75798360038229
 21
192.45862664945469
 31
0.0
  0
LINE
  5
3FD9
  8
0
 10
137.75798360038229
 20
192.45862664945469
 30
0.0
 11
137.96338360038229
 21
192.5751266494548
 31
0.0
  0
LINE
  5
3FDA
  8
0
 10
137.96338360038229
 20
192.5751266494548
 30
0.0
 11
138.15358360038229
 21
192.7149266494547
 31
0.0
  0
LINE
  5
3FDB
  8
0
 10
138.15358360038229
 20
192.7149266494547
 30
0.0
 11
138.32488360038229
 21
192.8750266494547
 31
0.0
  0
LINE
  5
3FDC
  8
0
 10
136.64678360038229
 20
188.88762664945469
 30
0.0
 11
136.64678360038229
 21
190.61962664945469
 31
0.0
  0
LINE
  5
3FDD
  8
0
 10
142.58908360038231
 20
211.42942664945471
 30
0.0
 11
144.67158360038229
 21
213.5120266494547
 31
0.0
  0
LINE
  5
3FDE
  8
0
 10
142.67158360038229
 20
202.3020266494548
 30
0.0
 11
142.58908360038231
 21
211.42942664945471
 31
0.0
  0
LINE
  5
3FDF
  8
0
 10
142.67158360038229
 20
202.3020266494548
 30
0.0
 11
129.90198360038229
 21
202.3020266494548
 31
0.0
  0
LINE
  5
3FE0
  8
0
 10
171.42308360038231
 20
192.860760857028
 30
0.0
 11
174.48758360038229
 21
189.86061085702801
 31
0.0
  0
LINE
  5
3FE1
  8
0
 10
174.48758360038229
 20
189.86061085702801
 30
0.0
 11
159.48863360038229
 21
189.86061085702801
 31
0.0
  0
LINE
  5
3FE2
  8
0
 10
156.48863360038229
 20
192.860760857028
 30
0.0
 11
165.48908360038229
 21
192.860760857028
 31
0.0
  0
LINE
  5
3FE3
  8
0
 10
159.48863360038229
 20
189.86061085702801
 30
0.0
 11
156.48863360038229
 21
192.860760857028
 31
0.0
  0
LINE
  5
3FE4
  8
0
 10
165.48908360038229
 20
192.860760857028
 30
0.0
 11
166.98908360038229
 21
191.36061085702801
 31
0.0
  0
LINE
  5
3FE5
  8
0
 10
171.42308360038231
 20
191.36061085702801
 30
0.0
 11
171.42308360038231
 21
192.860760857028
 31
0.0
  0
LINE
  5
3FE6
  8
0
 10
166.98908360038229
 20
191.36061085702801
 30
0.0
 11
171.42308360038231
 21
191.36061085702801
 31
0.0
  0
LINE
  5
3FE7
  8
0
 10
181.37358360038229
 20
204.7543266494547
 30
0.0
 11
182.37358360038229
 21
205.75432664945481
 31
0.0
  0
LINE
  5
3FE8
  8
0
 10
182.92158360038229
 20
302.38040874688301
 30
0.0
 11
182.54458360038231
 21
303.01940874688302
 31
0.0
  0
LINE
  5
3FE9
  8
0
 10
181.37358360038229
 20
307.12240874688302
 30
0.0
 11
181.37358360038229
 21
280.12240874688302
 31
0.0
  0
LINE
  5
3FEA
  8
0
 10
127.1008836003823
 20
238.44142664945471
 30
0.0
 11
128.64418360038229
 21
238.3974266494547
 31
0.0
  0
LINE
  5
3FEB
  8
0
 10
143.67158360038229
 20
224.51202664945481
 30
0.0
 11
127.7754836003823
 21
224.51202664945481
 31
0.0
  0
LINE
  5
3FEC
  8
0
 10
93.671583600382306
 20
228.51202664945481
 30
0.0
 11
143.67158360038229
 21
228.51202664945481
 31
0.0
  0
LINE
  5
3FED
  8
0
 10
99.692083600382318
 20
229.51202664945481
 30
0.0
 11
142.67158360038229
 21
229.51202664945481
 31
0.0
  0
LINE
  5
3FEE
  8
0
 10
133.67158360038229
 20
238.51242664945471
 30
0.0
 11
103.67158360038231
 21
238.51242664945471
 31
0.0
  0
LINE
  5
3FEF
  8
0
 10
103.67158360038231
 20
239.01242664945471
 30
0.0
 11
133.67158360038229
 21
239.01242664945471
 31
0.0
  0
LINE
  5
3FF0
  8
0
 10
107.9906836003823
 20
222.51202664945481
 30
0.0
 11
143.67158360038229
 21
222.51192664945469
 31
0.0
  0
LINE
  5
3FF1
  8
0
 10
107.4132836003823
 20
221.5120266494547
 30
0.0
 11
144.67158360038229
 21
221.5120266494547
 31
0.0
  0
LINE
  5
3FF2
  8
0
 10
143.67158360038229
 20
224.51202664945481
 30
0.0
 11
109.56798360038231
 21
224.51202664945481
 31
0.0
  0
LINE
  5
3FF3
  8
0
 10
118.67158360038231
 20
238.51242664945471
 30
0.0
 11
134.67158360038229
 21
238.51242664945471
 31
0.0
  0
LINE
  5
3FF4
  8
0
 10
94.671583600382291
 20
229.51202664945481
 30
0.0
 11
99.692083600382318
 21
229.51202664945481
 31
0.0
  0
LINE
  5
3FF5
  8
0
 10
93.671683600382323
 20
222.51202664945481
 30
0.0
 11
107.9906836003823
 21
222.51202664945481
 31
0.0
  0
LINE
  5
3FF6
  8
0
 10
92.671683600382309
 20
221.5120266494547
 30
0.0
 11
107.4132836003823
 21
221.5120266494547
 31
0.0
  0
LINE
  5
3FF7
  8
0
 10
109.56798360038231
 20
224.51202664945481
 30
0.0
 11
93.681583600382268
 21
224.51202664945481
 31
0.0
  0
LINE
  5
3FF8
  8
0
 10
106.83598360038231
 20
224.51202664945481
 30
0.0
 11
93.671583600382306
 21
224.51202664945481
 31
0.0
  0
LINE
  5
3FF9
  8
0
 10
93.671583600382306
 20
224.51202664945481
 30
0.0
 11
93.671583600382306
 21
222.51192664945469
 31
0.0
  0
LINE
  5
3FFA
  8
0
 10
93.671583600382306
 20
222.51192664945469
 30
0.0
 11
92.671683600382309
 21
221.5120266494547
 31
0.0
  0
LINE
  5
3FFB
  8
0
 10
93.671583600382306
 20
228.51202664945481
 30
0.0
 11
94.671583600382291
 21
229.51202664945481
 31
0.0
  0
LINE
  5
3FFC
  8
0
 10
93.681583600382268
 20
224.51202664945481
 30
0.0
 11
93.671583600382306
 21
224.51202664945481
 31
0.0
  0
LINE
  5
3FFD
  8
0
 10
93.671583600382306
 20
224.51202664945481
 30
0.0
 11
93.671583600382306
 21
228.51202664945481
 31
0.0
  0
LINE
  5
3FFE
  8
0
 10
113.4993836003823
 20
238.2664266494547
 30
0.0
 11
114.9782836003823
 21
238.04942664945469
 31
0.0
  0
LINE
  5
3FFF
  8
0
 10
102.67158360038231
 20
238.51242664945471
 30
0.0
 11
118.67158360038231
 21
238.51242664945471
 31
0.0
  0
LINE
  5
4000
  8
0
 10
102.67158360038231
 20
237.36942664945471
 30
0.0
 11
102.67158360038231
 21
229.51202664945481
 31
0.0
  0
LINE
  5
4001
  8
0
 10
100.2731836003823
 20
229.6982266494548
 30
0.0
 11
100.3991836003823
 21
229.8049266494547
 31
0.0
  0
LINE
  5
4002
  8
0
 10
99.692083600382318
 20
229.51202664945481
 30
0.0
 11
99.692083600382318
 21
229.51202664945481
 31
0.0
  0
LINE
  5
4003
  8
0
 10
99.692083600382318
 20
229.51202664945481
 30
0.0
 11
99.836983600382325
 21
229.52262664945479
 31
0.0
  0
LINE
  5
4004
  8
0
 10
99.836983600382325
 20
229.52262664945479
 30
0.0
 11
99.985883600382294
 21
229.5561266494548
 31
0.0
  0
LINE
  5
4005
  8
0
 10
99.985883600382294
 20
229.5561266494548
 30
0.0
 11
100.1333836003823
 21
229.61462664945481
 31
0.0
  0
LINE
  5
4006
  8
0
 10
100.1333836003823
 20
229.61462664945481
 30
0.0
 11
100.2731836003823
 21
229.6982266494548
 31
0.0
  0
LINE
  5
4007
  8
0
 10
105.7733836003823
 20
238.04942664945469
 30
0.0
 11
107.33728360038231
 21
238.2664266494547
 31
0.0
  0
LINE
  5
4008
  8
0
 10
100.6920836003823
 20
230.5120266494547
 30
0.0
 11
100.6920836003823
 21
237.36942664945471
 31
0.0
  0
LINE
  5
4009
  8
0
 10
100.5058836003823
 20
229.9309266494547
 30
0.0
 11
100.58948360038229
 21
230.07072664945471
 31
0.0
  0
LINE
  5
400A
  8
0
 10
100.58948360038229
 20
230.07072664945471
 30
0.0
 11
100.6479836003823
 21
230.21822664945469
 31
0.0
  0
LINE
  5
400B
  8
0
 10
100.6479836003823
 20
230.21822664945469
 30
0.0
 11
100.6920836003823
 21
230.5120266494547
 31
0.0
  0
LINE
  5
400C
  8
0
 10
100.3991836003823
 20
229.8049266494547
 30
0.0
 11
100.5058836003823
 21
229.9309266494547
 31
0.0
  0
LINE
  5
400D
  8
0
 10
102.67158360038231
 20
237.36942664945471
 30
0.0
 11
100.6920836003823
 21
237.36942664945471
 31
0.0
  0
LINE
  5
400E
  8
0
 10
100.6920836003823
 20
237.36942664945471
 30
0.0
 11
102.67158360038231
 21
238.51242664945471
 31
0.0
  0
LINE
  5
400F
  8
0
 10
103.67158360038231
 20
238.51242664945471
 30
0.0
 11
103.67158360038231
 21
239.01242664945471
 31
0.0
  0
LINE
  5
4010
  8
0
 10
104.21568360038231
 20
237.7494266494547
 30
0.0
 11
105.7733836003823
 21
238.04942664945469
 31
0.0
  0
LINE
  5
4011
  8
0
 10
102.67158360038231
 20
237.36942664945471
 30
0.0
 11
104.21568360038231
 21
237.7494266494547
 31
0.0
  0
LINE
  5
4012
  8
0
 10
108.8995836003823
 20
238.3974266494547
 30
0.0
 11
110.45248360038229
 21
238.44042664945479
 31
0.0
  0
LINE
  5
4013
  8
0
 10
107.33728360038231
 20
238.2664266494547
 30
0.0
 11
108.8995836003823
 21
238.3974266494547
 31
0.0
  0
LINE
  5
4014
  8
0
 10
110.45248360038229
 20
238.44042664945479
 30
0.0
 11
111.9882836003823
 21
238.3974266494547
 31
0.0
  0
LINE
  5
4015
  8
0
 10
111.9882836003823
 20
238.3974266494547
 30
0.0
 11
113.4993836003823
 21
238.2664266494547
 31
0.0
  0
LINE
  5
4016
  8
0
 10
117.8130836003823
 20
237.36942664945471
 30
0.0
 11
117.8130836003823
 21
229.51202664945481
 31
0.0
  0
LINE
  5
4017
  8
0
 10
119.5301836003823
 20
237.36942664945471
 30
0.0
 11
119.5301836003823
 21
229.51202664945481
 31
0.0
  0
LINE
  5
4018
  8
0
 10
121.0011836003823
 20
237.75042664945479
 30
0.0
 11
122.5005836003823
 21
238.05042664945469
 31
0.0
  0
LINE
  5
4019
  8
0
 10
114.9782836003823
 20
238.04942664945469
 30
0.0
 11
117.8130836003823
 21
237.36942664945471
 31
0.0
  0
LINE
  5
401A
  8
0
 10
119.5301836003823
 20
237.36942664945471
 30
0.0
 11
119.5301836003823
 21
237.36942664945471
 31
0.0
  0
LINE
  5
401B
  8
0
 10
119.5301836003823
 20
237.36942664945471
 30
0.0
 11
121.0011836003823
 21
237.75042664945479
 31
0.0
  0
LINE
  5
401C
  8
0
 10
117.8130836003823
 20
237.36942664945471
 30
0.0
 11
119.5301836003823
 21
237.36942664945471
 31
0.0
  0
ARC
  5
401D
  8
0
 10
118.67158360038231
 20
239.00966483565429
 30
0.0
 40
1.000003813800461
 50
0.1582398722377785
 51
179.8417601277622
  0
LINE
  5
401E
  8
0
 10
124.02178360038231
 20
238.26742664945471
 30
0.0
 11
125.5576836003823
 21
238.3974266494547
 31
0.0
  0
LINE
  5
401F
  8
0
 10
122.5005836003823
 20
238.05042664945469
 30
0.0
 11
124.02178360038231
 21
238.26742664945471
 31
0.0
  0
LINE
  5
4020
  8
0
 10
125.5576836003823
 20
238.3974266494547
 30
0.0
 11
127.1008836003823
 21
238.44142664945471
 31
0.0
  0
LINE
  5
4021
  8
0
 10
142.67158360038229
 20
229.51202664945481
 30
0.0
 11
143.67158360038229
 21
228.51202664945481
 31
0.0
  0
LINE
  5
4022
  8
0
 10
136.9439836003823
 20
229.8049266494547
 30
0.0
 11
137.0699836003823
 21
229.6982266494548
 31
0.0
  0
LINE
  5
4023
  8
0
 10
134.67158360038229
 20
237.36942664945471
 30
0.0
 11
134.67158360038229
 21
229.51202664945481
 31
0.0
  0
LINE
  5
4024
  8
0
 10
137.65108360038229
 20
229.51202664945481
 30
0.0
 11
142.67158360038229
 21
229.51202664945481
 31
0.0
  0
LINE
  5
4025
  8
0
 10
137.0699836003823
 20
229.6982266494548
 30
0.0
 11
137.20988360038231
 21
229.61462664945481
 31
0.0
  0
LINE
  5
4026
  8
0
 10
137.20988360038231
 20
229.61462664945481
 30
0.0
 11
137.35728360038229
 21
229.5561266494548
 31
0.0
  0
LINE
  5
4027
  8
0
 10
137.35728360038229
 20
229.5561266494548
 30
0.0
 11
137.65108360038229
 21
229.51202664945481
 31
0.0
  0
LINE
  5
4028
  8
0
 10
134.67158360038229
 20
237.36942664945471
 30
0.0
 11
136.65108360038229
 21
237.36942664945471
 31
0.0
  0
LINE
  5
4029
  8
0
 10
134.67158360038229
 20
238.51242664945471
 30
0.0
 11
136.65108360038229
 21
237.36942664945471
 31
0.0
  0
LINE
  5
402A
  8
0
 10
131.70128360038231
 20
238.05042664945469
 30
0.0
 11
134.67158360038229
 21
237.36942664945471
 31
0.0
  0
LINE
  5
402B
  8
0
 10
130.18008360038229
 20
238.26742664945471
 30
0.0
 11
131.70128360038231
 21
238.05042664945469
 31
0.0
  0
LINE
  5
402C
  8
0
 10
128.64418360038229
 20
238.3974266494547
 30
0.0
 11
130.18008360038229
 21
238.26742664945471
 31
0.0
  0
LINE
  5
402D
  8
0
 10
133.67158360038229
 20
239.01242664945471
 30
0.0
 11
133.67158360038229
 21
238.51242664945471
 31
0.0
  0
LINE
  5
402E
  8
0
 10
136.65108360038229
 20
237.36942664945471
 30
0.0
 11
136.65108360038229
 21
230.5120266494547
 31
0.0
  0
LINE
  5
402F
  8
0
 10
136.65108360038229
 20
230.5120266494547
 30
0.0
 11
136.65108360038229
 21
230.5120266494547
 31
0.0
  0
LINE
  5
4030
  8
0
 10
136.65108360038229
 20
230.5120266494547
 30
0.0
 11
136.6616836003823
 21
230.36712664945469
 31
0.0
  0
LINE
  5
4031
  8
0
 10
136.6616836003823
 20
230.36712664945469
 30
0.0
 11
136.69528360038231
 21
230.21822664945469
 31
0.0
  0
LINE
  5
4032
  8
0
 10
136.69528360038231
 20
230.21822664945469
 30
0.0
 11
136.75378360038229
 21
230.07072664945471
 31
0.0
  0
LINE
  5
4033
  8
0
 10
136.75378360038229
 20
230.07072664945471
 30
0.0
 11
136.83728360038231
 21
229.9309266494547
 31
0.0
  0
LINE
  5
4034
  8
0
 10
136.83728360038231
 20
229.9309266494547
 30
0.0
 11
136.9439836003823
 21
229.8049266494547
 31
0.0
  0
LINE
  5
4035
  8
0
 10
143.67158360038229
 20
222.51192664945469
 30
0.0
 11
143.6815836003822
 21
224.51202664945481
 31
0.0
  0
LINE
  5
4036
  8
0
 10
144.67158360038229
 20
221.5120266494547
 30
0.0
 11
143.67158360038229
 21
222.51192664945469
 31
0.0
  0
LINE
  5
4037
  8
0
 10
143.6815836003822
 20
224.51202664945481
 30
0.0
 11
143.67158360038229
 21
224.51202664945481
 31
0.0
  0
LINE
  5
4038
  8
0
 10
143.67158360038229
 20
228.51202664945481
 30
0.0
 11
143.67158360038229
 21
224.51202664945481
 31
0.0
  0
LINE
  5
4039
  8
0
 10
181.86158360038229
 20
281.99240874688297
 30
0.0
 11
181.81358360038229
 21
281.188408746883
 31
0.0
  0
LINE
  5
403A
  8
0
 10
181.86158360038229
 20
280.38140874688298
 30
0.0
 11
182.00458360038229
 21
279.587408746883
 31
0.0
  0
LINE
  5
403B
  8
0
 10
182.00458360038229
 20
279.587408746883
 30
0.0
 11
182.23458360038231
 21
278.82340874688299
 31
0.0
  0
LINE
  5
403C
  8
0
 10
182.23458360038231
 20
278.82340874688299
 30
0.0
 11
182.92158360038229
 21
277.438408746883
 31
0.0
  0
LINE
  5
403D
  8
0
 10
181.37358360038229
 20
280.12240874688302
 30
0.0
 11
182.92158360038229
 21
277.44040874688301
 31
0.0
  0
LINE
  5
403E
  8
0
 10
181.81358360038229
 20
281.188408746883
 30
0.0
 11
181.86158360038229
 21
280.38140874688298
 31
0.0
  0
LINE
  5
403F
  8
0
 10
181.4345836003823
 20
293.62140874688299
 30
0.0
 11
181.49658360038231
 21
292.08040874688299
 31
0.0
  0
LINE
  5
4040
  8
0
 10
181.9835836003823
 20
289.05640874688299
 30
0.0
 11
182.92158360038229
 21
286.200408746883
 31
0.0
  0
LINE
  5
4041
  8
0
 10
182.92158360038229
 20
284.86240874688298
 30
0.0
 11
182.54458360038231
 21
284.22340874688302
 31
0.0
  0
LINE
  5
4042
  8
0
 10
182.54458360038231
 20
284.22340874688302
 30
0.0
 11
182.23458360038231
 21
283.52440874688301
 31
0.0
  0
LINE
  5
4043
  8
0
 10
182.23458360038231
 20
283.52440874688301
 30
0.0
 11
182.00458360038229
 21
282.77640874688302
 31
0.0
  0
LINE
  5
4044
  8
0
 10
182.00458360038229
 20
282.77640874688302
 30
0.0
 11
181.86158360038229
 21
281.99240874688297
 31
0.0
  0
LINE
  5
4045
  8
0
 10
182.92158360038229
 20
284.86240874688298
 30
0.0
 11
182.92158360038229
 21
286.200408746883
 31
0.0
  0
LINE
  5
4046
  8
0
 10
181.49658360038231
 20
292.08040874688299
 30
0.0
 11
181.68058360038231
 21
290.55340874688301
 31
0.0
  0
LINE
  5
4047
  8
0
 10
181.68058360038231
 20
290.55340874688301
 30
0.0
 11
181.9835836003823
 21
289.05640874688299
 31
0.0
  0
LINE
  5
4048
  8
0
 10
181.9835836003823
 20
298.18740874688302
 30
0.0
 11
181.68058360038231
 21
296.68940874688298
 31
0.0
  0
LINE
  5
4049
  8
0
 10
181.68058360038231
 20
296.68940874688298
 30
0.0
 11
181.49658360038231
 21
295.16240874688299
 31
0.0
  0
LINE
  5
404A
  8
0
 10
181.49658360038231
 20
295.16240874688299
 30
0.0
 11
181.4345836003823
 21
293.62140874688299
 31
0.0
  0
LINE
  5
404B
  8
0
 10
182.92158360038229
 20
301.04440874688299
 30
0.0
 11
182.3995836003823
 21
299.64340874688298
 31
0.0
  0
LINE
  5
404C
  8
0
 10
182.3995836003823
 20
299.64340874688298
 30
0.0
 11
181.9835836003823
 21
298.18740874688302
 31
0.0
  0
LINE
  5
404D
  8
0
 10
182.92158360038229
 20
301.04440874688299
 30
0.0
 11
182.92158360038229
 21
302.38040874688301
 31
0.0
  0
LINE
  5
404E
  8
0
 10
182.00458360038229
 20
307.65540874688298
 30
0.0
 11
182.23458360038231
 21
308.41840874688302
 31
0.0
  0
LINE
  5
404F
  8
0
 10
182.92158360038229
 20
309.80340874688312
 30
0.0
 11
181.37358360038229
 21
307.12240874688302
 31
0.0
  0
LINE
  5
4050
  8
0
 10
181.81358360038229
 20
306.05340874688312
 30
0.0
 11
181.86158360038229
 21
306.86140874688311
 31
0.0
  0
LINE
  5
4051
  8
0
 10
181.86158360038229
 20
306.86140874688311
 30
0.0
 11
182.00458360038229
 21
307.65540874688298
 31
0.0
  0
LINE
  5
4052
  8
0
 10
182.54458360038231
 20
303.01940874688302
 30
0.0
 11
182.23458360038231
 21
303.71840874688297
 31
0.0
  0
LINE
  5
4053
  8
0
 10
182.23458360038231
 20
303.71840874688297
 30
0.0
 11
182.00458360038229
 21
304.46640874688302
 31
0.0
  0
LINE
  5
4054
  8
0
 10
182.00458360038229
 20
304.46640874688302
 30
0.0
 11
181.86158360038229
 21
305.24940874688298
 31
0.0
  0
LINE
  5
4055
  8
0
 10
181.86158360038229
 20
305.24940874688298
 30
0.0
 11
181.81358360038229
 21
306.05340874688312
 31
0.0
  0
LINE
  5
4056
  8
0
 10
182.23458360038231
 20
308.41840874688302
 30
0.0
 11
182.92158360038229
 21
309.80340874688312
 31
0.0
  0
LINE
  5
4057
  8
0
 10
247.37358360038229
 20
221.5120266494547
 30
0.0
 11
247.37358360038229
 21
213.5120266494547
 31
0.0
  0
LINE
  5
4059
  8
0
 10
195.3735836003822
 20
213.51192664945469
 30
0.0
 11
195.3735836003822
 21
221.5120266494547
 31
0.0
  0
LINE
  5
405A
  8
0
 10
247.37358360038229
 20
213.5120266494547
 30
0.0
 11
245.37358360038229
 21
211.5120266494547
 31
0.0
  0
LINE
  5
405B
  8
0
 10
238.34878360038229
 20
162.7536266494547
 30
0.0
 11
204.39838360038229
 21
162.7536266494547
 31
0.0
  0
LINE
  5
405C
  8
0
 10
203.39838360038229
 20
163.7536266494547
 30
0.0
 11
203.39838360038229
 21
192.27330012920609
 31
0.0
  0
LINE
  5
405D
  8
0
 10
204.39838360038229
 20
162.7536266494547
 30
0.0
 11
203.39838360038229
 21
163.7536266494547
 31
0.0
  0
LINE
  5
405E
  8
0
 10
203.3773836003823
 20
172.0434266494548
 30
0.0
 11
203.31038360038241
 21
172.34122664945471
 31
0.0
  0
LINE
  5
405F
  8
0
 10
203.39838360038229
 20
171.7536266494547
 30
0.0
 11
203.39838360038229
 21
171.7536266494547
 31
0.0
  0
LINE
  5
4060
  8
0
 10
203.39838360038229
 20
171.7536266494547
 30
0.0
 11
203.3773836003823
 21
172.0434266494548
 31
0.0
  0
LINE
  5
4061
  8
0
 10
203.31038360038241
 20
172.34122664945471
 30
0.0
 11
203.1933836003823
 21
172.6361266494547
 31
0.0
  0
LINE
  5
4062
  8
0
 10
203.1933836003823
 20
172.6361266494547
 30
0.0
 11
203.02638360038239
 21
172.91582664945469
 31
0.0
  0
LINE
  5
4063
  8
0
 10
202.8123836003823
 20
173.1678266494547
 30
0.0
 11
202.56038360038241
 21
173.3812266494547
 31
0.0
  0
LINE
  5
4064
  8
0
 10
202.56038360038241
 20
173.3812266494547
 30
0.0
 11
202.28138360038241
 21
173.54832664945471
 31
0.0
  0
LINE
  5
4065
  8
0
 10
202.28138360038241
 20
173.54832664945471
 30
0.0
 11
201.98638360038231
 21
173.6653266494547
 31
0.0
  0
LINE
  5
4066
  8
0
 10
201.98638360038231
 20
173.6653266494547
 30
0.0
 11
201.39838360038229
 21
173.7536266494547
 31
0.0
  0
LINE
  5
4067
  8
0
 10
203.02638360038239
 20
172.91582664945469
 30
0.0
 11
202.8123836003823
 21
173.1678266494547
 31
0.0
  0
LINE
  5
4068
  8
0
 10
239.34878360038221
 20
163.7536266494547
 30
0.0
 11
238.34878360038229
 21
162.7536266494547
 31
0.0
  0
LINE
  5
4069
  8
0
 10
197.4565836003824
 20
202.6081885267719
 30
0.0
 11
197.45658360038229
 21
211.42942664945471
 31
0.0
  0
LINE
  5
406A
  8
0
 10
197.45658360038229
 20
211.42942664945471
 30
0.0
 11
195.3735836003822
 21
213.51192664945469
 31
0.0
  0
LINE
  5
406B
  8
0
 10
245.37358360038229
 20
202.3020266494548
 30
0.0
 11
240.90500734314321
 21
193.3652679288746
 31
0.0
  0
ARC
  5
406C
  8
0
 10
239.04588667010219
 20
194.11864392104579
 30
0.0
 40
1.999765295529816
 50
305.15273380437259
 51
333.4383108490274
  0
LINE
  5
406D
  8
0
 10
245.37358360038229
 20
211.5120266494547
 30
0.0
 11
245.37358360038229
 21
202.3020266494548
 31
0.0
  0
LINE
  5
406E
  8
0
 10
231.10658360038241
 20
308.76240874688301
 30
0.0
 11
239.35358360038231
 21
294.4774087468831
 31
0.0
  0
LINE
  5
4070
  8
0
 10
197.5125836003823
 20
303.765408746883
 30
0.0
 11
196.82558360038229
 21
302.38040874688301
 31
0.0
  0
LINE
  5
4071
  8
0
 10
203.3935836003823
 20
294.4774087468831
 30
0.0
 11
211.64058360038231
 21
308.76240874688301
 31
0.0
  0
CIRCLE
  5
4072
  8
0
 10
221.37358360038229
 20
293.62040874688302
 30
0.0
 40
16.0
  0
CIRCLE
  5
4073
  8
0
 10
221.37358360038229
 20
293.62040874688302
 30
0.0
 40
15.0
  0
CIRCLE
  5
4074
  8
0
 10
221.37358360038229
 20
293.62040874688302
 30
0.0
 40
24.0
  0
CIRCLE
  5
4075
  8
0
 10
221.37358360038229
 20
293.62040874688302
 30
0.0
 40
25.999300000000002
  0
CIRCLE
  5
4076
  8
0
 10
221.37358360038229
 20
293.62040874688302
 30
0.0
 40
25.0
  0
CIRCLE
  5
4077
  8
0
 10
221.37358360038229
 20
293.62040874688302
 30
0.0
 40
25.0
  0
LINE
  5
4078
  8
0
 10
246.37358360038229
 20
222.51192664945469
 30
0.0
 11
247.37358360038229
 21
221.5120266494547
 31
0.0
  0
LINE
  5
4079
  8
0
 10
236.37358360038229
 20
238.51242664945471
 30
0.0
 11
206.37358360038229
 21
238.51242664945471
 31
0.0
  0
LINE
  5
407A
  8
0
 10
206.37358360038229
 20
239.01242664945471
 30
0.0
 11
236.37358360038229
 21
239.01242664945471
 31
0.0
  0
LINE
  5
407B
  8
0
 10
205.37358360038229
 20
238.51242664945471
 30
0.0
 11
221.37358360038229
 21
238.51242664945471
 31
0.0
  0
LINE
  5
407C
  8
0
 10
196.37358360038229
 20
222.51192664945469
 30
0.0
 11
196.37358360038229
 21
224.51202664945481
 31
0.0
  0
LINE
  5
407D
  8
0
 10
195.3735836003822
 20
221.5120266494547
 30
0.0
 11
196.37358360038229
 21
222.51192664945469
 31
0.0
  0
LINE
  5
407E
  8
0
 10
196.37358360038229
 20
228.51202664945481
 30
0.0
 11
197.37358360038229
 21
229.51202664945481
 31
0.0
  0
LINE
  5
407F
  8
0
 10
196.37358360038229
 20
224.51202664945481
 30
0.0
 11
196.37358360038229
 21
228.51202664945481
 31
0.0
  0
LINE
  5
4080
  8
0
 10
203.3945836003823
 20
230.5120266494547
 30
0.0
 11
203.39458360038239
 21
237.36942664945471
 31
0.0
  0
LINE
  5
4081
  8
0
 10
203.39458360038239
 20
237.36942664945471
 30
0.0
 11
205.37358360038229
 21
238.51242664945471
 31
0.0
  0
LINE
  5
4082
  8
0
 10
206.37358360038229
 20
238.51242664945471
 30
0.0
 11
206.37358360038229
 21
239.01242664945471
 31
0.0
  0
LINE
  5
4083
  8
0
 10
221.37358360038229
 20
238.51242664945471
 30
0.0
 11
237.37358360038229
 21
238.51242664945471
 31
0.0
  0
ARC
  5
4084
  8
0
 10
221.37358360038229
 20
239.00966483565429
 30
0.0
 40
1.000003813800461
 50
0.1582398722377785
 51
179.8417601277622
  0
LINE
  5
4085
  8
0
 10
246.37358360038229
 20
224.51202664945481
 30
0.0
 11
246.37358360038229
 21
222.51192664945469
 31
0.0
  0
LINE
  5
4086
  8
0
 10
197.37358360038229
 20
229.51202664945481
 30
0.0
 11
245.37358360038229
 21
229.51202664945481
 31
0.0
  0
LINE
  5
4087
  8
0
 10
246.37358360038229
 20
228.51202664945481
 30
0.0
 11
246.37358360038229
 21
224.51202664945481
 31
0.0
  0
LINE
  5
4088
  8
0
 10
245.37358360038229
 20
229.51202664945481
 30
0.0
 11
246.37358360038229
 21
228.51202664945481
 31
0.0
  0
LINE
  5
4089
  8
0
 10
237.37358360038229
 20
238.51242664945471
 30
0.0
 11
239.35358360038231
 21
237.36942664945471
 31
0.0
  0
LINE
  5
408A
  8
0
 10
236.37358360038229
 20
239.01242664945471
 30
0.0
 11
236.37358360038229
 21
238.51242664945471
 31
0.0
  0
LINE
  5
408B
  8
0
 10
239.35358360038231
 20
237.36942664945471
 30
0.0
 11
239.35358360038231
 21
230.5120266494547
 31
0.0
  0
LINE
  5
408C
  8
0
 10
229.62158360038239
 20
277.62040874688302
 30
0.0
 11
213.1265836003823
 21
277.62040874688302
 31
0.0
  0
LINE
  5
408D
  8
0
 10
197.93358360038229
 20
281.11440874688299
 30
0.0
 11
197.88558360038229
 21
281.921408746883
 31
0.0
  0
LINE
  5
408E
  8
0
 10
211.64058360038231
 20
278.47740874688299
 30
0.0
 11
203.3935836003823
 21
292.76240874688301
 31
0.0
  0
LINE
  5
408F
  8
0
 10
196.82558360038229
 20
277.44040874688301
 30
0.0
 11
198.37358360038229
 21
280.12240874688302
 31
0.0
  0
LINE
  5
4090
  8
0
 10
196.82558360038229
 20
277.44040874688301
 30
0.0
 11
197.2025836003823
 21
278.08040874688299
 31
0.0
  0
LINE
  5
4091
  8
0
 10
197.2025836003823
 20
278.08040874688299
 30
0.0
 11
197.5125836003823
 21
278.77840874688297
 31
0.0
  0
LINE
  5
4092
  8
0
 10
197.5125836003823
 20
278.77840874688297
 30
0.0
 11
197.74358360038229
 21
279.52640874688302
 31
0.0
  0
LINE
  5
4093
  8
0
 10
197.74358360038229
 20
279.52640874688302
 30
0.0
 11
197.88558360038229
 21
280.31040874688301
 31
0.0
  0
LINE
  5
4094
  8
0
 10
198.37358360038229
 20
280.12240874688302
 30
0.0
 11
198.37358360038229
 21
281.49740874688302
 31
0.0
  0
LINE
  5
4095
  8
0
 10
197.88558360038229
 20
280.31040874688301
 30
0.0
 11
197.93358360038229
 21
281.11440874688299
 31
0.0
  0
LINE
  5
4096
  8
0
 10
213.1265836003823
 20
277.62040874688302
 30
0.0
 11
211.64058360038231
 21
278.47740874688299
 31
0.0
  0
LINE
  5
4097
  8
0
 10
197.88558360038229
 20
281.921408746883
 30
0.0
 11
197.74358360038229
 21
282.71540874688299
 31
0.0
  0
LINE
  5
4098
  8
0
 10
197.74358360038229
 20
282.71540874688299
 30
0.0
 11
197.5125836003823
 21
283.479408746883
 31
0.0
  0
LINE
  5
4099
  8
0
 10
197.5125836003823
 20
283.479408746883
 30
0.0
 11
196.82558360038229
 21
284.86440874688299
 31
0.0
  0
LINE
  5
409A
  8
0
 10
196.45558360038231
 20
286.200408746883
 30
0.0
 11
196.82558360038229
 21
284.86240874688298
 31
0.0
  0
LINE
  5
409B
  8
0
 10
196.82558360038229
 20
302.38040874688301
 30
0.0
 11
196.45658360038229
 21
301.04440874688299
 31
0.0
  0
LINE
  5
409C
  8
0
 10
203.3935836003823
 20
292.76240874688301
 30
0.0
 11
203.3935836003823
 21
294.4774087468831
 31
0.0
  0
LINE
  5
409D
  8
0
 10
239.35358360038231
 20
292.76240874688301
 30
0.0
 11
231.10658360038241
 21
278.47740874688299
 31
0.0
  0
LINE
  5
409E
  8
0
 10
231.10658360038241
 20
278.47740874688299
 30
0.0
 11
229.62158360038239
 21
277.62040874688302
 31
0.0
  0
CIRCLE
  5
409F
  8
0
 10
221.37358360038229
 20
293.62040874688302
 30
0.0
 40
1.0
  0
LINE
  5
40A0
  8
0
 10
239.35358360038231
 20
294.4774087468831
 30
0.0
 11
239.35358360038231
 21
292.76240874688301
 31
0.0
  0
LINE
  5
40A1
  8
0
 10
213.1265836003823
 20
309.62040874688302
 30
0.0
 11
229.62158360038239
 21
309.62040874688302
 31
0.0
  0
LINE
  5
40A2
  8
0
 10
197.5125836003823
 20
308.46640874688302
 30
0.0
 11
197.74358360038229
 21
307.71840874688297
 31
0.0
  0
LINE
  5
40A3
  8
0
 10
198.37358360038229
 20
307.12240874688302
 30
0.0
 11
196.82558360038229
 21
309.80340874688312
 31
0.0
  0
LINE
  5
40A4
  8
0
 10
198.36658360038231
 20
305.729408746883
 30
0.0
 11
198.37358360038229
 21
307.12240874688302
 31
0.0
  0
LINE
  5
40A5
  8
0
 10
197.74358360038229
 20
307.71840874688297
 30
0.0
 11
197.88558360038229
 21
306.93440874688298
 31
0.0
  0
LINE
  5
40A6
  8
0
 10
197.88558360038229
 20
306.93440874688298
 30
0.0
 11
197.93358360038229
 21
306.13040874688301
 31
0.0
  0
LINE
  5
40A7
  8
0
 10
197.88558360038229
 20
305.32240874688301
 30
0.0
 11
197.74358360038229
 21
304.52940874688301
 31
0.0
  0
LINE
  5
40A8
  8
0
 10
197.74358360038229
 20
304.52940874688301
 30
0.0
 11
197.5125836003823
 21
303.765408746883
 31
0.0
  0
LINE
  5
40A9
  8
0
 10
197.93358360038229
 20
306.13040874688301
 30
0.0
 11
197.88558360038229
 21
305.32240874688301
 31
0.0
  0
LINE
  5
40AA
  8
0
 10
197.2025836003823
 20
309.164408746883
 30
0.0
 11
197.5125836003823
 21
308.46640874688302
 31
0.0
  0
LINE
  5
40AB
  8
0
 10
196.82558360038229
 20
309.80340874688312
 30
0.0
 11
197.2025836003823
 21
309.164408746883
 31
0.0
  0
LINE
  5
40AC
  8
0
 10
211.64058360038231
 20
308.76240874688301
 30
0.0
 11
213.1265836003823
 21
309.62040874688302
 31
0.0
  0
LINE
  5
40AD
  8
0
 10
229.62158360038239
 20
309.62040874688302
 30
0.0
 11
231.10658360038241
 21
308.76240874688301
 31
0.0
  0
ARC
  5
40AE
  8
0
 10
195.45658360038229
 20
207.75432664945481
 30
0.0
 40
2.0
 50
270.0
 51
0.0
  0
ARC
  5
40AF
  8
0
 10
202.3945836003823
 20
230.5120266494547
 30
0.0
 40
1.0
 50
270.0
 51
0.0
  0
ARC
  5
40B0
  8
0
 10
240.35358360038231
 20
230.5120266494547
 30
0.0
 40
1.0
 50
180.0
 51
270.0
  0
LINE
  5
40B1
  8
0
 10
211.64058360038231
 20
237.36942664945471
 30
0.0
 11
213.12658360038239
 21
237.36942664945479
 31
0.0
  0
LINE
  5
40B2
  8
0
 10
211.64058360038231
 20
237.36942664945471
 30
0.0
 11
211.64058360038231
 21
229.51202664945481
 31
0.0
  0
LINE
  5
40B3
  8
0
 10
213.1265836003823
 20
237.36942664945471
 30
0.0
 11
213.1265836003823
 21
229.51202664945481
 31
0.0
  0
LINE
  5
40B4
  8
0
 10
229.62158360038239
 20
237.36942664945471
 30
0.0
 11
229.62158360038231
 21
229.51202664945481
 31
0.0
  0
LINE
  5
40B5
  8
0
 10
231.10658360038229
 20
237.36942664945471
 30
0.0
 11
231.10658360038221
 21
229.51202664945481
 31
0.0
  0
LINE
  5
40B6
  8
0
 10
196.37358360038229
 20
228.51202664945481
 30
0.0
 11
246.37358360038229
 21
228.51202664945481
 31
0.0
  0
ARC
  5
40B7
  8
0
 10
221.37408360038231
 20
208.18534659696149
 30
0.0
 40
30.327080056614939
 50
74.219564481667518
 51
105.7804355183325
  0
ARC
  5
40B8
  8
0
 10
235.2300836003823
 20
230.5029335392187
 30
0.0
 40
8.0094931102361002
 50
59.014135487608769
 51
120.9858645123912
  0
ARC
  5
40B9
  8
0
 10
207.51720982389571
 20
230.50469702801769
 30
0.0
 40
8.0094931102361002
 50
59.006843536142469
 51
120.9785725609277
  0
LINE
  5
40BA
  8
0
 10
229.62158360038239
 20
237.36942664945471
 30
0.0
 11
231.10658360038229
 21
237.36942664945471
 31
0.0
  0
LINE
  5
40BB
  8
0
 10
196.37358360038229
 20
222.51192664945469
 30
0.0
 11
246.37358360038229
 21
222.51192664945469
 31
0.0
  0
LINE
  5
40BC
  8
0
 10
247.37358360038229
 20
221.5120266494547
 30
0.0
 11
195.3735836003822
 21
221.5120266494547
 31
0.0
  0
LINE
  5
40BD
  8
0
 10
195.3735836003822
 20
213.51192664945469
 30
0.0
 11
247.37358360038229
 21
213.51192664945469
 31
0.0
  0
LINE
  5
40BE
  8
0
 10
245.37358360038229
 20
211.5120266494547
 30
0.0
 11
197.45658360038229
 21
211.5120266494547
 31
0.0
  0
LINE
  5
40BF
  8
0
 10
182.37358360038229
 20
190.61962664945469
 30
0.0
 11
182.37358360038229
 21
188.88762664945469
 31
0.0
  0
LINE
  5
40C0
  8
0
 10
182.37358360038229
 20
190.61962664945469
 30
0.0
 11
195.45658360038229
 21
190.61962664945489
 31
0.0
  0
LINE
  5
40C1
  8
0
 10
182.37358360038229
 20
188.88762664945469
 30
0.0
 11
195.4565836003822
 21
188.88762664945469
 31
0.0
  0
ARC
  5
40C2
  8
0
 10
210.50597661163229
 20
198.18697664945469
 30
0.0
 40
29.132393011250031
 50
164.94434188888451
 51
195.05565811111541
  0
ARC
  5
40C3
  8
0
 10
210.50597661163229
 20
181.32097664945471
 30
0.0
 40
29.132393011250031
 50
164.94434188888451
 51
195.05565811111541
  0
LINE
  5
40C4
  8
0
 10
245.37358360038229
 20
202.3020266494548
 30
0.0
 11
197.58572254365771
 21
202.3020266494548
 31
0.0
  0
LINE
  5
40C5
  8
0
 10
203.63099847448379
 20
192.25972664945471
 30
0.0
 11
239.11616872628079
 21
192.25972664945471
 31
0.0
  0
ARC
  5
40C6
  8
0
 10
241.34878360038221
 20
190.84835522617121
 30
0.0
 40
2.0
 50
125.1527338043726
 51
180.0
  0
LINE
  5
40C7
  8
0
 10
213.13598360038239
 20
192.25972664945471
 30
0.0
 11
213.13598360038219
 21
163.7536266494547
 31
0.0
  0
LINE
  5
40C8
  8
0
 10
229.61118360038219
 20
192.25972664945471
 30
0.0
 11
229.6111836003823
 21
163.7536266494547
 31
0.0
  0
LINE
  5
40C9
  8
0
 10
231.1111836003823
 20
192.25972664945471
 30
0.0
 11
231.1111836003823
 21
163.7536266494547
 31
0.0
  0
LINE
  5
40CA
  8
0
 10
211.6359836003821
 20
192.25972664945471
 30
0.0
 11
211.6359836003823
 21
163.7536266494547
 31
0.0
  0
LINE
  5
40CB
  8
0
 10
211.6359836003823
 20
163.7536266494547
 30
0.0
 11
213.13598360038219
 21
163.7536266494547
 31
0.0
  0
ARC
  5
40CC
  8
0
 10
221.3735836003822
 20
197.1826535294548
 30
0.0
 40
34.429026880000052
 50
256.15694061120172
 51
283.84305938879828
  0
ARC
  5
40CD
  8
0
 10
235.22998360038221
 20
171.7358833694548
 30
0.0
 40
8.9822567200000183
 50
242.7065180254539
 51
297.29348197454613
  0
ARC
  5
40CE
  8
0
 10
207.5171836003824
 20
171.7358833694548
 30
0.0
 40
8.9822567200000183
 50
242.7065180254539
 51
297.29348197454613
  0
LINE
  5
40CF
  8
0
 10
229.61118360038219
 20
163.7536266494547
 30
0.0
 11
231.1111836003823
 21
163.7536266494547
 31
0.0
  0
LINE
  5
40D0
  8
0
 10
195.45658360038229
 20
190.61962664945489
 30
0.0
 11
195.45658360038229
 21
188.8883266494546
 31
0.0
  0
ARC
  5
40D1
  8
0
 10
239.11616872628079
 20
194.25972664945471
 30
0.0
 40
2.0
 50
270.0
 51
333.43393894763199
  0
LINE
  5
40D2
  8
0
 10
197.6677449835199
 20
201.71372980619171
 30
0.0
 11
201.84215985762131
 21
193.3652679288746
 31
0.0
  0
ARC
  5
40D3
  8
0
 10
203.63099847448379
 20
194.25972664945471
 30
0.0
 40
2.0
 50
206.56606105236801
 51
270.0
  0
ARC
  5
40D4
  8
0
 10
167.3241905891322
 20
198.18697664945469
 30
0.0
 40
29.132393011250031
 50
344.94434188888448
 51
15.05565811111545
  0
ARC
  5
40D5
  8
0
 10
167.3241905891322
 20
181.32097664945471
 30
0.0
 40
29.132393011250031
 50
344.94434188888448
 51
15.05565811111545
  0
LINE
  5
40D6
  8
0
 10
196.4565836003822
 20
173.7536266494547
 30
0.0
 11
196.45658360038229
 21
206.02227584188589
 31
0.0
  0
ARC
  5
40D7
  8
0
 10
199.4565836003824
 20
202.6081885267719
 30
0.0
 40
2.0
 50
180.0
 51
206.56606105236801
  0
LINE
  5
40D8
  8
0
 10
239.34878360038221
 20
190.84835522617121
 30
0.0
 11
239.3487836003824
 21
163.75362664945479
 31
0.0
  0
LINE
  5
40DA
  8
0
 10
411.84285352247269
 20
301.04440874688299
 30
0.0
 11
398.30785352247273
 21
301.04440874688299
 31
0.0
  0
LINE
  5
40DB
  8
0
 10
398.30785352247273
 20
302.38040874688301
 30
0.0
 11
412.21185352247272
 21
302.38040874688301
 31
0.0
  0
LINE
  5
40DC
  8
0
 10
412.21185352247272
 20
284.86240874688298
 30
0.0
 11
398.30785352247273
 21
284.86240874688298
 31
0.0
  0
LINE
  5
40DD
  8
0
 10
398.30785352247273
 20
286.200408746883
 30
0.0
 11
411.8418535224726
 21
286.200408746883
 31
0.0
  0
LINE
  5
40DE
  8
0
 10
412.21185352247272
 20
309.80340874688312
 30
0.0
 11
398.30785352247273
 21
309.80340874688312
 31
0.0
  0
LINE
  5
40DF
  8
0
 10
398.30785352247273
 20
277.44040874688301
 30
0.0
 11
412.21185352247272
 21
277.44040874688301
 31
0.0
  0
LINE
  5
40E0
  8
0
 10
397.75985352247272
 20
205.75432664945481
 30
0.0
 11
410.84285352247258
 21
205.75432664945481
 31
0.0
  0
LINE
  5
40E1
  8
0
 10
416.78465352247258
 20
173.7536266494547
 30
0.0
 11
397.75985352247272
 21
173.7536266494547
 31
0.0
  0
LINE
  5
40E3
  8
0
 10
360.05785352247273
 20
213.5120266494547
 30
0.0
 11
360.05785352247273
 21
221.5120266494547
 31
0.0
  0
LINE
  5
40E4
  8
0
 10
308.0579535224727
 20
221.5120266494547
 30
0.0
 11
308.0579535224727
 21
213.5120266494547
 31
0.0
  0
LINE
  5
40E6
  8
0
 10
343.79545352247271
 20
204.8876266494548
 30
0.0
 11
342.29545352247271
 21
205.7540266494548
 31
0.0
  0
LINE
  5
40E7
  8
0
 10
342.29545352247271
 20
173.7536266494547
 30
0.0
 11
343.79545352247271
 21
174.61962664945469
 31
0.0
  0
LINE
  5
40E9
  8
0
 10
310.05785352247273
 20
211.42942664945471
 30
0.0
 11
357.97535352247269
 21
211.42942664945471
 31
0.0
  0
LINE
  5
40EA
  8
0
 10
308.0579535224727
 20
213.5120266494547
 30
0.0
 11
360.05785352247273
 21
213.5120266494547
 31
0.0
  0
CIRCLE
  5
40EB
  8
0
 10
334.05785352247273
 20
189.7536266494547
 30
0.0
 40
16.003499999999999
  0
CIRCLE
  5
40EC
  8
0
 10
334.05785352247273
 20
189.7536266494547
 30
0.0
 40
12.0585
  0
ARC
  5
40EE
  8
0
 10
342.05785352247273
 20
199.63693950008991
 30
0.0
 40
29.614370241235189
 50
256.04578586375408
 51
283.95421413624592
  0
LINE
  5
40EF
  8
0
 10
319.05785352247273
 20
169.7536266494547
 30
0.0
 11
349.05785352247273
 21
169.7536266494547
 31
0.0
  0
LINE
  5
40F2
  8
0
 10
316.0826535224727
 20
188.88762664945469
 30
0.0
 11
324.32025352247268
 21
174.61962664945469
 31
0.0
  0
ARC
  5
40F4
  8
0
 10
326.05790352247271
 20
199.63738271665909
 30
0.0
 40
29.614812435304319
 50
256.04589876445658
 51
283.95410123554342
  0
LINE
  5
40F5
  8
0
 10
325.82025352247268
 20
173.7536266494547
 30
0.0
 11
342.29545352247271
 21
173.7536266494547
 31
0.0
  0
LINE
  5
40F6
  8
0
 10
318.05595352247269
 20
170.8965266494547
 30
0.0
 11
318.91645352247269
 21
170.8965266494547
 31
0.0
  0
LINE
  5
40F7
  8
0
 10
318.0561535224727
 20
170.7536266494547
 30
0.0
 11
319.05785352247273
 21
169.7536266494547
 31
0.0
  0
LINE
  5
40F8
  8
0
 10
324.32025352247268
 20
174.61962664945469
 30
0.0
 11
325.82025352247268
 21
173.7536266494547
 31
0.0
  0
LINE
  5
40F9
  8
0
 10
333.19935352247268
 20
170.8965266494547
 30
0.0
 11
333.19935352247268
 21
173.7536266494547
 31
0.0
  0
LINE
  5
40FA
  8
0
 10
334.91655352247273
 20
170.8965266494547
 30
0.0
 11
334.91655352247273
 21
173.7536266494547
 31
0.0
  0
LINE
  5
40FB
  8
0
 10
333.19935352247268
 20
170.8965266494547
 30
0.0
 11
333.19935352247268
 21
173.7536266494547
 31
0.0
  0
LINE
  5
40FC
  8
0
 10
334.91655352247273
 20
170.8965266494547
 30
0.0
 11
334.91655352247273
 21
173.7536266494547
 31
0.0
  0
LINE
  5
40FD
  8
0
 10
333.19935352247268
 20
170.8965266494547
 30
0.0
 11
334.91645352247269
 21
170.8965266494547
 31
0.0
  0
LINE
  5
40FE
  8
0
 10
314.25525352247269
 20
193.0515266494547
 30
0.0
 11
314.4046535224727
 21
192.8750266494547
 31
0.0
  0
LINE
  5
40FF
  8
0
 10
310.05785352247273
 20
202.3020266494548
 30
0.0
 11
322.82755352247273
 21
202.3020266494548
 31
0.0
  0
LINE
  5
4100
  8
0
 10
310.05785352247273
 20
202.3020266494548
 30
0.0
 11
314.02825352247271
 21
193.43622664945471
 31
0.0
  0
LINE
  5
4101
  8
0
 10
314.12945352247272
 20
193.24002664945471
 30
0.0
 11
314.25525352247269
 21
193.0515266494547
 31
0.0
  0
LINE
  5
4102
  8
0
 10
314.02825352247271
 20
193.43622664945471
 30
0.0
 11
314.02825352247271
 21
193.43622664945471
 31
0.0
  0
LINE
  5
4103
  8
0
 10
314.02825352247271
 20
193.43622664945471
 30
0.0
 11
314.12945352247272
 21
193.24002664945471
 31
0.0
  0
LINE
  5
4104
  8
0
 10
310.05785352247273
 20
211.42942664945471
 30
0.0
 11
310.05785352247273
 21
202.3020266494548
 31
0.0
  0
LINE
  5
4105
  8
0
 10
308.0579535224727
 20
213.5120266494547
 30
0.0
 11
310.05785352247273
 21
211.42942664945471
 31
0.0
  0
LINE
  5
4107
  8
0
 10
324.32025352247268
 20
204.8876266494548
 30
0.0
 11
316.0826535224727
 21
190.61962664945469
 31
0.0
  0
LINE
  5
410A
  8
0
 10
316.0826535224727
 20
190.61962664945469
 30
0.0
 11
316.0826535224727
 21
188.88762664945469
 31
0.0
  0
LINE
  5
410B
  8
0
 10
314.4046535224727
 20
192.8750266494547
 30
0.0
 11
314.57595352247267
 21
192.7149266494547
 31
0.0
  0
LINE
  5
410C
  8
0
 10
314.57595352247267
 20
192.7149266494547
 30
0.0
 11
314.76615352247268
 21
192.5751266494548
 31
0.0
  0
LINE
  5
410D
  8
0
 10
314.76615352247268
 20
192.5751266494548
 30
0.0
 11
314.97155352247268
 21
192.45862664945469
 31
0.0
  0
LINE
  5
410E
  8
0
 10
314.97155352247268
 20
192.45862664945469
 30
0.0
 11
315.18765352247271
 21
192.36772664945471
 31
0.0
  0
LINE
  5
410F
  8
0
 10
315.18765352247271
 20
192.36772664945471
 30
0.0
 11
315.40975352247273
 21
192.30352664945471
 31
0.0
  0
LINE
  5
4110
  8
0
 10
315.40975352247273
 20
192.30352664945471
 30
0.0
 11
315.8536535224726
 21
192.2536266494547
 31
0.0
  0
LINE
  5
4111
  8
0
 10
315.8536535224726
 20
192.2536266494547
 30
0.0
 11
317.02075352247272
 21
192.2536266494547
 31
0.0
  0
LINE
  5
411E
  8
0
 10
333.72215352247269
 20
205.75362664945479
 30
0.0
 11
325.82025352247268
 21
205.75362664945479
 31
0.0
  0
LINE
  5
411F
  8
0
 10
325.82025352247268
 20
205.75362664945479
 30
0.0
 11
324.32025352247268
 21
204.8876266494548
 31
0.0
  0
LINE
  5
4120
  8
0
 10
342.29545352247271
 20
205.7540266494548
 30
0.0
 11
334.05785352247273
 21
205.75712664945479
 31
0.0
  0
LINE
  5
4121
  8
0
 10
349.1992535224727
 20
170.8965266494547
 30
0.0
 11
349.1992535224727
 21
184.57182664945469
 31
0.0
  0
LINE
  5
4122
  8
0
 10
349.1992535224727
 20
170.8965266494547
 30
0.0
 11
349.1992535224727
 21
183.97932664945469
 31
0.0
  0
LINE
  5
4123
  8
0
 10
396.75985352247272
 20
174.7536266494547
 30
0.0
 11
396.75985352247272
 21
204.7543266494547
 31
0.0
  0
LINE
  5
4124
  8
0
 10
343.79545352247271
 20
174.61962664945469
 30
0.0
 11
352.0330535224727
 21
188.88762664945469
 31
0.0
  0
LINE
  5
4125
  8
0
 10
350.0595535224727
 20
170.7536266494547
 30
0.0
 11
350.08505352247272
 21
185.51352664945469
 31
0.0
  0
LINE
  5
4126
  8
0
 10
349.1992535224727
 20
170.8965266494547
 30
0.0
 11
350.05785352247273
 21
170.8965266494547
 31
0.0
  0
LINE
  5
4127
  8
0
 10
349.05785352247273
 20
169.7536266494547
 30
0.0
 11
350.0595535224727
 21
170.7536266494547
 31
0.0
  0
LINE
  5
4128
  8
0
 10
397.75985352247272
 20
173.7536266494547
 30
0.0
 11
396.75985352247272
 21
174.7536266494547
 31
0.0
  0
LINE
  5
4129
  8
0
 10
352.0330535224727
 20
190.61962664945469
 30
0.0
 11
343.79545352247271
 21
204.8876266494548
 31
0.0
  0
LINE
  5
412A
  8
0
 10
354.08745352247269
 20
193.43622664945471
 30
0.0
 11
358.05785352247273
 21
202.3020266494548
 31
0.0
  0
LINE
  5
412B
  8
0
 10
351.09495352247268
 20
192.2536266494547
 30
0.0
 11
352.26215352247272
 21
192.2536266494547
 31
0.0
  0
LINE
  5
412C
  8
0
 10
350.0678535224726
 20
192.2536266494547
 30
0.0
 11
350.0678535224726
 21
192.2536266494547
 31
0.0
  0
LINE
  5
412D
  8
0
 10
350.0678535224726
 20
192.2536266494547
 30
0.0
 11
350.0678535224726
 21
192.2536266494547
 31
0.0
  0
LINE
  5
412E
  8
0
 10
350.0678535224726
 20
192.2536266494547
 30
0.0
 11
350.05785352247273
 21
192.2536266494547
 31
0.0
  0
LINE
  5
412F
  8
0
 10
353.86055352247269
 20
193.0515266494547
 30
0.0
 11
354.08745352247269
 21
193.43622664945471
 31
0.0
  0
LINE
  5
4130
  8
0
 10
353.71115352247273
 20
192.8750266494547
 30
0.0
 11
353.86055352247269
 21
193.0515266494547
 31
0.0
  0
LINE
  5
4131
  8
0
 10
352.26215352247272
 20
192.2536266494547
 30
0.0
 11
352.26215352247272
 21
192.2536266494547
 31
0.0
  0
LINE
  5
4132
  8
0
 10
352.26215352247272
 20
192.2536266494547
 30
0.0
 11
352.4825535224727
 21
192.26582664945471
 31
0.0
  0
LINE
  5
4133
  8
0
 10
352.4825535224727
 20
192.26582664945471
 30
0.0
 11
352.70595352247273
 21
192.30352664945471
 31
0.0
  0
LINE
  5
4134
  8
0
 10
352.70595352247273
 20
192.30352664945471
 30
0.0
 11
352.92815352247271
 21
192.36772664945471
 31
0.0
  0
LINE
  5
4135
  8
0
 10
352.92815352247271
 20
192.36772664945471
 30
0.0
 11
353.1442535224727
 21
192.45862664945469
 31
0.0
  0
LINE
  5
4136
  8
0
 10
353.1442535224727
 20
192.45862664945469
 30
0.0
 11
353.34965352247269
 21
192.5751266494548
 31
0.0
  0
LINE
  5
4137
  8
0
 10
353.34965352247269
 20
192.5751266494548
 30
0.0
 11
353.5398535224727
 21
192.7149266494547
 31
0.0
  0
LINE
  5
4138
  8
0
 10
353.5398535224727
 20
192.7149266494547
 30
0.0
 11
353.71115352247273
 21
192.8750266494547
 31
0.0
  0
LINE
  5
4139
  8
0
 10
352.0330535224727
 20
188.88762664945469
 30
0.0
 11
352.0330535224727
 21
190.61962664945469
 31
0.0
  0
LINE
  5
413A
  8
0
 10
357.97535352247269
 20
211.42942664945471
 30
0.0
 11
360.05785352247273
 21
213.5120266494547
 31
0.0
  0
LINE
  5
413B
  8
0
 10
358.05785352247273
 20
202.3020266494548
 30
0.0
 11
357.97535352247269
 21
211.42942664945471
 31
0.0
  0
LINE
  5
413C
  8
0
 10
358.05785352247273
 20
202.3020266494548
 30
0.0
 11
345.2882535224727
 21
202.3020266494548
 31
0.0
  0
LINE
  5
4144
  8
0
 10
396.75985352247272
 20
204.7543266494547
 30
0.0
 11
397.75985352247272
 21
205.75432664945481
 31
0.0
  0
LINE
  5
4145
  8
0
 10
398.30785352247273
 20
302.38040874688301
 30
0.0
 11
397.93085352247272
 21
303.01940874688302
 31
0.0
  0
LINE
  5
4146
  8
0
 10
396.75985352247272
 20
307.12240874688302
 30
0.0
 11
396.75985352247272
 21
280.12240874688302
 31
0.0
  0
LINE
  5
4147
  8
0
 10
342.48715352247268
 20
238.44142664945471
 30
0.0
 11
344.03045352247273
 21
238.3974266494547
 31
0.0
  0
LINE
  5
4148
  8
0
 10
359.05785352247273
 20
224.51202664945481
 30
0.0
 11
343.16175352247268
 21
224.51202664945481
 31
0.0
  0
LINE
  5
4149
  8
0
 10
309.05785352247273
 20
228.51202664945481
 30
0.0
 11
359.05785352247273
 21
228.51202664945481
 31
0.0
  0
LINE
  5
414A
  8
0
 10
315.0783535224727
 20
229.51202664945481
 30
0.0
 11
358.05785352247273
 21
229.51202664945481
 31
0.0
  0
LINE
  5
414B
  8
0
 10
349.05785352247273
 20
238.51242664945471
 30
0.0
 11
319.05785352247273
 21
238.51242664945471
 31
0.0
  0
LINE
  5
414C
  8
0
 10
319.05785352247273
 20
239.01242664945471
 30
0.0
 11
349.05785352247273
 21
239.01242664945471
 31
0.0
  0
LINE
  5
414D
  8
0
 10
323.37695352247272
 20
222.51202664945481
 30
0.0
 11
359.05785352247273
 21
222.51192664945469
 31
0.0
  0
LINE
  5
414E
  8
0
 10
322.79955352247271
 20
221.5120266494547
 30
0.0
 11
360.05785352247273
 21
221.5120266494547
 31
0.0
  0
LINE
  5
414F
  8
0
 10
359.05785352247273
 20
224.51202664945481
 30
0.0
 11
324.9542535224727
 21
224.51202664945481
 31
0.0
  0
LINE
  5
4150
  8
0
 10
334.05785352247273
 20
238.51242664945471
 30
0.0
 11
350.05785352247273
 21
238.51242664945471
 31
0.0
  0
LINE
  5
4151
  8
0
 10
310.05785352247273
 20
229.51202664945481
 30
0.0
 11
315.0783535224727
 21
229.51202664945481
 31
0.0
  0
LINE
  5
4152
  8
0
 10
309.0579535224727
 20
222.51202664945481
 30
0.0
 11
323.37695352247272
 21
222.51202664945481
 31
0.0
  0
LINE
  5
4153
  8
0
 10
308.0579535224727
 20
221.5120266494547
 30
0.0
 11
322.79955352247271
 21
221.5120266494547
 31
0.0
  0
LINE
  5
4154
  8
0
 10
324.9542535224727
 20
224.51202664945481
 30
0.0
 11
309.06785352247272
 21
224.51202664945481
 31
0.0
  0
LINE
  5
4155
  8
0
 10
322.22225352247273
 20
224.51202664945481
 30
0.0
 11
309.05785352247273
 21
224.51202664945481
 31
0.0
  0
LINE
  5
4156
  8
0
 10
309.05785352247273
 20
224.51202664945481
 30
0.0
 11
309.05785352247273
 21
222.51192664945469
 31
0.0
  0
LINE
  5
4157
  8
0
 10
309.05785352247273
 20
222.51192664945469
 30
0.0
 11
308.0579535224727
 21
221.5120266494547
 31
0.0
  0
LINE
  5
4158
  8
0
 10
309.05785352247273
 20
228.51202664945481
 30
0.0
 11
310.05785352247273
 21
229.51202664945481
 31
0.0
  0
LINE
  5
4159
  8
0
 10
309.06785352247272
 20
224.51202664945481
 30
0.0
 11
309.05785352247273
 21
224.51202664945481
 31
0.0
  0
LINE
  5
415A
  8
0
 10
309.05785352247273
 20
224.51202664945481
 30
0.0
 11
309.05785352247273
 21
228.51202664945481
 31
0.0
  0
LINE
  5
415B
  8
0
 10
328.88565352247269
 20
238.2664266494547
 30
0.0
 11
330.3645535224727
 21
238.04942664945469
 31
0.0
  0
LINE
  5
415C
  8
0
 10
318.05785352247273
 20
238.51242664945471
 30
0.0
 11
334.05785352247273
 21
238.51242664945471
 31
0.0
  0
LINE
  5
415D
  8
0
 10
318.05785352247273
 20
237.36942664945471
 30
0.0
 11
318.05785352247273
 21
229.51202664945481
 31
0.0
  0
LINE
  5
415E
  8
0
 10
315.65945352247269
 20
229.6982266494548
 30
0.0
 11
315.78545352247272
 21
229.8049266494547
 31
0.0
  0
LINE
  5
415F
  8
0
 10
315.0783535224727
 20
229.51202664945481
 30
0.0
 11
315.0783535224727
 21
229.51202664945481
 31
0.0
  0
LINE
  5
4160
  8
0
 10
315.0783535224727
 20
229.51202664945481
 30
0.0
 11
315.2232535224727
 21
229.52262664945479
 31
0.0
  0
LINE
  5
4161
  8
0
 10
315.2232535224727
 20
229.52262664945479
 30
0.0
 11
315.37215352247267
 21
229.5561266494548
 31
0.0
  0
LINE
  5
4162
  8
0
 10
315.37215352247267
 20
229.5561266494548
 30
0.0
 11
315.51965352247271
 21
229.61462664945481
 31
0.0
  0
LINE
  5
4163
  8
0
 10
315.51965352247271
 20
229.61462664945481
 30
0.0
 11
315.65945352247269
 21
229.6982266494548
 31
0.0
  0
LINE
  5
4164
  8
0
 10
321.15965352247269
 20
238.04942664945469
 30
0.0
 11
322.72355352247268
 21
238.2664266494547
 31
0.0
  0
LINE
  5
4165
  8
0
 10
316.0783535224727
 20
230.5120266494547
 30
0.0
 11
316.0783535224727
 21
237.36942664945471
 31
0.0
  0
LINE
  5
4166
  8
0
 10
315.89215352247271
 20
229.9309266494547
 30
0.0
 11
315.9757535224727
 21
230.07072664945471
 31
0.0
  0
LINE
  5
4167
  8
0
 10
315.9757535224727
 20
230.07072664945471
 30
0.0
 11
316.03425352247268
 21
230.21822664945469
 31
0.0
  0
LINE
  5
4168
  8
0
 10
316.03425352247268
 20
230.21822664945469
 30
0.0
 11
316.0783535224727
 21
230.5120266494547
 31
0.0
  0
LINE
  5
4169
  8
0
 10
315.78545352247272
 20
229.8049266494547
 30
0.0
 11
315.89215352247271
 21
229.9309266494547
 31
0.0
  0
LINE
  5
416A
  8
0
 10
318.05785352247273
 20
237.36942664945471
 30
0.0
 11
316.0783535224727
 21
237.36942664945471
 31
0.0
  0
LINE
  5
416B
  8
0
 10
316.0783535224727
 20
237.36942664945471
 30
0.0
 11
318.05785352247273
 21
238.51242664945471
 31
0.0
  0
LINE
  5
416C
  8
0
 10
319.05785352247273
 20
238.51242664945471
 30
0.0
 11
319.05785352247273
 21
239.01242664945471
 31
0.0
  0
LINE
  5
416D
  8
0
 10
319.60195352247268
 20
237.7494266494547
 30
0.0
 11
321.15965352247269
 21
238.04942664945469
 31
0.0
  0
LINE
  5
416E
  8
0
 10
318.05785352247273
 20
237.36942664945471
 30
0.0
 11
319.60195352247268
 21
237.7494266494547
 31
0.0
  0
LINE
  5
416F
  8
0
 10
324.28585352247268
 20
238.3974266494547
 30
0.0
 11
325.8387535224727
 21
238.44042664945479
 31
0.0
  0
LINE
  5
4170
  8
0
 10
322.72355352247268
 20
238.2664266494547
 30
0.0
 11
324.28585352247268
 21
238.3974266494547
 31
0.0
  0
LINE
  5
4171
  8
0
 10
325.8387535224727
 20
238.44042664945479
 30
0.0
 11
327.3745535224727
 21
238.3974266494547
 31
0.0
  0
LINE
  5
4172
  8
0
 10
327.3745535224727
 20
238.3974266494547
 30
0.0
 11
328.88565352247269
 21
238.2664266494547
 31
0.0
  0
LINE
  5
4173
  8
0
 10
333.19935352247268
 20
237.36942664945471
 30
0.0
 11
333.19935352247268
 21
229.51202664945481
 31
0.0
  0
LINE
  5
4174
  8
0
 10
334.91645352247269
 20
237.36942664945471
 30
0.0
 11
334.91645352247269
 21
229.51202664945481
 31
0.0
  0
LINE
  5
4175
  8
0
 10
336.3874535224727
 20
237.75042664945479
 30
0.0
 11
337.88685352247268
 21
238.05042664945469
 31
0.0
  0
LINE
  5
4176
  8
0
 10
330.3645535224727
 20
238.04942664945469
 30
0.0
 11
333.19935352247268
 21
237.36942664945471
 31
0.0
  0
LINE
  5
4177
  8
0
 10
334.91645352247269
 20
237.36942664945471
 30
0.0
 11
334.91645352247269
 21
237.36942664945471
 31
0.0
  0
LINE
  5
4178
  8
0
 10
334.91645352247269
 20
237.36942664945471
 30
0.0
 11
336.3874535224727
 21
237.75042664945479
 31
0.0
  0
LINE
  5
4179
  8
0
 10
333.19935352247268
 20
237.36942664945471
 30
0.0
 11
334.91645352247269
 21
237.36942664945471
 31
0.0
  0
ARC
  5
417A
  8
0
 10
334.05785352247273
 20
239.00966483565429
 30
0.0
 40
1.000003813800461
 50
0.1582398722377785
 51
179.8417601277622
  0
LINE
  5
417B
  8
0
 10
339.4080535224727
 20
238.26742664945471
 30
0.0
 11
340.94395352247273
 21
238.3974266494547
 31
0.0
  0
LINE
  5
417C
  8
0
 10
337.88685352247268
 20
238.05042664945469
 30
0.0
 11
339.4080535224727
 21
238.26742664945471
 31
0.0
  0
LINE
  5
417D
  8
0
 10
340.94395352247273
 20
238.3974266494547
 30
0.0
 11
342.48715352247268
 21
238.44142664945471
 31
0.0
  0
LINE
  5
417E
  8
0
 10
358.05785352247273
 20
229.51202664945481
 30
0.0
 11
359.05785352247273
 21
228.51202664945481
 31
0.0
  0
LINE
  5
417F
  8
0
 10
352.33025352247267
 20
229.8049266494547
 30
0.0
 11
352.45625352247271
 21
229.6982266494548
 31
0.0
  0
LINE
  5
4180
  8
0
 10
350.05785352247273
 20
237.36942664945471
 30
0.0
 11
350.05785352247273
 21
229.51202664945481
 31
0.0
  0
LINE
  5
4181
  8
0
 10
353.0373535224727
 20
229.51202664945481
 30
0.0
 11
358.05785352247273
 21
229.51202664945481
 31
0.0
  0
LINE
  5
4182
  8
0
 10
352.45625352247271
 20
229.6982266494548
 30
0.0
 11
352.59615352247272
 21
229.61462664945481
 31
0.0
  0
LINE
  5
4183
  8
0
 10
352.59615352247272
 20
229.61462664945481
 30
0.0
 11
352.74355352247272
 21
229.5561266494548
 31
0.0
  0
LINE
  5
4184
  8
0
 10
352.74355352247272
 20
229.5561266494548
 30
0.0
 11
353.0373535224727
 21
229.51202664945481
 31
0.0
  0
LINE
  5
4185
  8
0
 10
350.05785352247273
 20
237.36942664945471
 30
0.0
 11
352.0373535224727
 21
237.36942664945471
 31
0.0
  0
LINE
  5
4186
  8
0
 10
350.05785352247273
 20
238.51242664945471
 30
0.0
 11
352.0373535224727
 21
237.36942664945471
 31
0.0
  0
LINE
  5
4187
  8
0
 10
347.08755352247272
 20
238.05042664945469
 30
0.0
 11
350.05785352247273
 21
237.36942664945471
 31
0.0
  0
LINE
  5
4188
  8
0
 10
345.5663535224727
 20
238.26742664945471
 30
0.0
 11
347.08755352247272
 21
238.05042664945469
 31
0.0
  0
LINE
  5
4189
  8
0
 10
344.03045352247273
 20
238.3974266494547
 30
0.0
 11
345.5663535224727
 21
238.26742664945471
 31
0.0
  0
LINE
  5
418A
  8
0
 10
349.05785352247273
 20
239.01242664945471
 30
0.0
 11
349.05785352247273
 21
238.51242664945471
 31
0.0
  0
LINE
  5
418B
  8
0
 10
352.0373535224727
 20
237.36942664945471
 30
0.0
 11
352.0373535224727
 21
230.5120266494547
 31
0.0
  0
LINE
  5
418C
  8
0
 10
352.0373535224727
 20
230.5120266494547
 30
0.0
 11
352.0373535224727
 21
230.5120266494547
 31
0.0
  0
LINE
  5
418D
  8
0
 10
352.0373535224727
 20
230.5120266494547
 30
0.0
 11
352.04795352247271
 21
230.36712664945469
 31
0.0
  0
LINE
  5
418E
  8
0
 10
352.04795352247271
 20
230.36712664945469
 30
0.0
 11
352.08155352247269
 21
230.21822664945469
 31
0.0
  0
LINE
  5
418F
  8
0
 10
352.08155352247269
 20
230.21822664945469
 30
0.0
 11
352.14005352247273
 21
230.07072664945471
 31
0.0
  0
LINE
  5
4190
  8
0
 10
352.14005352247273
 20
230.07072664945471
 30
0.0
 11
352.22355352247268
 21
229.9309266494547
 31
0.0
  0
LINE
  5
4191
  8
0
 10
352.22355352247268
 20
229.9309266494547
 30
0.0
 11
352.33025352247267
 21
229.8049266494547
 31
0.0
  0
LINE
  5
4192
  8
0
 10
359.05785352247273
 20
222.51192664945469
 30
0.0
 11
359.06785352247272
 21
224.51202664945481
 31
0.0
  0
LINE
  5
4193
  8
0
 10
360.05785352247273
 20
221.5120266494547
 30
0.0
 11
359.05785352247273
 21
222.51192664945469
 31
0.0
  0
LINE
  5
4194
  8
0
 10
359.06785352247272
 20
224.51202664945481
 30
0.0
 11
359.05785352247273
 21
224.51202664945481
 31
0.0
  0
LINE
  5
4195
  8
0
 10
359.05785352247273
 20
228.51202664945481
 30
0.0
 11
359.05785352247273
 21
224.51202664945481
 31
0.0
  0
LINE
  5
4196
  8
0
 10
397.24785352247272
 20
281.99240874688297
 30
0.0
 11
397.19985352247272
 21
281.188408746883
 31
0.0
  0
LINE
  5
4197
  8
0
 10
397.24785352247272
 20
280.38140874688298
 30
0.0
 11
397.3908535224727
 21
279.587408746883
 31
0.0
  0
LINE
  5
4198
  8
0
 10
397.3908535224727
 20
279.587408746883
 30
0.0
 11
397.6208535224726
 21
278.82340874688299
 31
0.0
  0
LINE
  5
4199
  8
0
 10
397.6208535224726
 20
278.82340874688299
 30
0.0
 11
398.30785352247273
 21
277.438408746883
 31
0.0
  0
LINE
  5
419A
  8
0
 10
396.75985352247272
 20
280.12240874688302
 30
0.0
 11
398.30785352247273
 21
277.44040874688301
 31
0.0
  0
LINE
  5
419B
  8
0
 10
397.19985352247272
 20
281.188408746883
 30
0.0
 11
397.24785352247272
 21
280.38140874688298
 31
0.0
  0
LINE
  5
419C
  8
0
 10
396.8208535224727
 20
293.62140874688299
 30
0.0
 11
396.88285352247271
 21
292.08040874688299
 31
0.0
  0
LINE
  5
419D
  8
0
 10
397.36985352247268
 20
289.05640874688299
 30
0.0
 11
398.30785352247273
 21
286.200408746883
 31
0.0
  0
LINE
  5
419E
  8
0
 10
398.30785352247273
 20
284.86240874688298
 30
0.0
 11
397.93085352247272
 21
284.22340874688302
 31
0.0
  0
LINE
  5
419F
  8
0
 10
397.93085352247272
 20
284.22340874688302
 30
0.0
 11
397.6208535224726
 21
283.52440874688301
 31
0.0
  0
LINE
  5
41A0
  8
0
 10
397.6208535224726
 20
283.52440874688301
 30
0.0
 11
397.3908535224727
 21
282.77640874688302
 31
0.0
  0
LINE
  5
41A1
  8
0
 10
397.3908535224727
 20
282.77640874688302
 30
0.0
 11
397.24785352247272
 21
281.99240874688297
 31
0.0
  0
LINE
  5
41A2
  8
0
 10
398.30785352247273
 20
284.86240874688298
 30
0.0
 11
398.30785352247273
 21
286.200408746883
 31
0.0
  0
LINE
  5
41A3
  8
0
 10
396.88285352247271
 20
292.08040874688299
 30
0.0
 11
397.06685352247268
 21
290.55340874688301
 31
0.0
  0
LINE
  5
41A4
  8
0
 10
397.06685352247268
 20
290.55340874688301
 30
0.0
 11
397.36985352247268
 21
289.05640874688299
 31
0.0
  0
LINE
  5
41A5
  8
0
 10
397.36985352247268
 20
298.18740874688302
 30
0.0
 11
397.06685352247268
 21
296.68940874688298
 31
0.0
  0
LINE
  5
41A6
  8
0
 10
397.06685352247268
 20
296.68940874688298
 30
0.0
 11
396.88285352247271
 21
295.16240874688299
 31
0.0
  0
LINE
  5
41A7
  8
0
 10
396.88285352247271
 20
295.16240874688299
 30
0.0
 11
396.8208535224727
 21
293.62140874688299
 31
0.0
  0
LINE
  5
41A8
  8
0
 10
398.30785352247273
 20
301.04440874688299
 30
0.0
 11
397.78585352247268
 21
299.64340874688298
 31
0.0
  0
LINE
  5
41A9
  8
0
 10
397.78585352247268
 20
299.64340874688298
 30
0.0
 11
397.36985352247268
 21
298.18740874688302
 31
0.0
  0
LINE
  5
41AA
  8
0
 10
398.30785352247273
 20
301.04440874688299
 30
0.0
 11
398.30785352247273
 21
302.38040874688301
 31
0.0
  0
LINE
  5
41AB
  8
0
 10
397.3908535224727
 20
307.65540874688298
 30
0.0
 11
397.6208535224726
 21
308.41840874688302
 31
0.0
  0
LINE
  5
41AC
  8
0
 10
398.30785352247273
 20
309.80340874688312
 30
0.0
 11
396.75985352247272
 21
307.12240874688302
 31
0.0
  0
LINE
  5
41AD
  8
0
 10
397.19985352247272
 20
306.05340874688312
 30
0.0
 11
397.24785352247272
 21
306.86140874688311
 31
0.0
  0
LINE
  5
41AE
  8
0
 10
397.24785352247272
 20
306.86140874688311
 30
0.0
 11
397.3908535224727
 21
307.65540874688298
 31
0.0
  0
LINE
  5
41AF
  8
0
 10
397.93085352247272
 20
303.01940874688302
 30
0.0
 11
397.6208535224726
 21
303.71840874688297
 31
0.0
  0
LINE
  5
41B0
  8
0
 10
397.6208535224726
 20
303.71840874688297
 30
0.0
 11
397.3908535224727
 21
304.46640874688302
 31
0.0
  0
LINE
  5
41B1
  8
0
 10
397.3908535224727
 20
304.46640874688302
 30
0.0
 11
397.24785352247272
 21
305.24940874688298
 31
0.0
  0
LINE
  5
41B2
  8
0
 10
397.24785352247272
 20
305.24940874688298
 30
0.0
 11
397.19985352247272
 21
306.05340874688312
 31
0.0
  0
LINE
  5
41B3
  8
0
 10
397.6208535224726
 20
308.41840874688302
 30
0.0
 11
398.30785352247273
 21
309.80340874688312
 31
0.0
  0
LINE
  5
41B4
  8
0
 10
462.75985352247261
 20
221.5120266494547
 30
0.0
 11
462.75985352247261
 21
213.5120266494547
 31
0.0
  0
LINE
  5
41B6
  8
0
 10
410.75985352247272
 20
213.51192664945469
 30
0.0
 11
410.75985352247272
 21
221.5120266494547
 31
0.0
  0
LINE
  5
41B7
  8
0
 10
462.75985352247261
 20
213.5120266494547
 30
0.0
 11
460.75985352247272
 21
211.5120266494547
 31
0.0
  0
LINE
  5
41B8
  8
0
 10
453.73505352247258
 20
169.7536266494547
 30
0.0
 11
419.78465352247258
 21
169.7536266494547
 31
0.0
  0
LINE
  5
41B9
  8
0
 10
418.78465352247269
 20
170.7536266494547
 30
0.0
 11
418.78465352247269
 21
192.27330012920609
 31
0.0
  0
LINE
  5
41BA
  8
0
 10
419.78465352247258
 20
169.7536266494547
 30
0.0
 11
418.78465352247269
 21
170.7536266494547
 31
0.0
  0
LINE
  5
41BB
  8
0
 10
418.76365352247268
 20
172.0434266494548
 30
0.0
 11
418.69665352247267
 21
172.34122664945471
 31
0.0
  0
LINE
  5
41BC
  8
0
 10
418.78465352247269
 20
171.7536266494547
 30
0.0
 11
418.78465352247269
 21
171.7536266494547
 31
0.0
  0
LINE
  5
41BD
  8
0
 10
418.78465352247269
 20
171.7536266494547
 30
0.0
 11
418.76365352247268
 21
172.0434266494548
 31
0.0
  0
LINE
  5
41BE
  8
0
 10
418.69665352247267
 20
172.34122664945471
 30
0.0
 11
418.5796535224726
 21
172.6361266494547
 31
0.0
  0
LINE
  5
41BF
  8
0
 10
418.5796535224726
 20
172.6361266494547
 30
0.0
 11
418.41265352247268
 21
172.91582664945469
 31
0.0
  0
LINE
  5
41C0
  8
0
 10
418.19865352247263
 20
173.1678266494547
 30
0.0
 11
417.94665352247267
 21
173.3812266494547
 31
0.0
  0
LINE
  5
41C1
  8
0
 10
417.94665352247267
 20
173.3812266494547
 30
0.0
 11
417.66765352247268
 21
173.54832664945471
 31
0.0
  0
LINE
  5
41C2
  8
0
 10
417.66765352247268
 20
173.54832664945471
 30
0.0
 11
417.37265352247272
 21
173.6653266494547
 31
0.0
  0
LINE
  5
41C3
  8
0
 10
417.37265352247272
 20
173.6653266494547
 30
0.0
 11
416.78465352247258
 21
173.7536266494547
 31
0.0
  0
LINE
  5
41C4
  8
0
 10
418.41265352247268
 20
172.91582664945469
 30
0.0
 11
418.19865352247263
 21
173.1678266494547
 31
0.0
  0
LINE
  5
41C5
  8
0
 10
454.73505352247258
 20
170.7536266494547
 30
0.0
 11
453.73505352247258
 21
169.7536266494547
 31
0.0
  0
LINE
  5
41C6
  8
0
 10
412.84285352247269
 20
202.6081885267719
 30
0.0
 11
412.84285352247269
 21
211.42942664945471
 31
0.0
  0
LINE
  5
41C7
  8
0
 10
412.84285352247269
 20
211.42942664945471
 30
0.0
 11
410.75985352247272
 21
213.51192664945469
 31
0.0
  0
LINE
  5
41C8
  8
0
 10
460.75985352247272
 20
202.3020266494548
 30
0.0
 11
456.29127726523348
 21
193.3652679288746
 31
0.0
  0
ARC
  5
41C9
  8
0
 10
454.43215659219248
 20
194.11864392104579
 30
0.0
 40
1.999765295529816
 50
305.15273380437259
 51
333.4383108490274
  0
LINE
  5
41CA
  8
0
 10
460.75985352247272
 20
211.5120266494547
 30
0.0
 11
460.75985352247272
 21
202.3020266494548
 31
0.0
  0
LINE
  5
41CB
  8
0
 10
446.49285352247273
 20
308.76240874688301
 30
0.0
 11
454.73985352247269
 21
294.4774087468831
 31
0.0
  0
LINE
  5
41CD
  8
0
 10
412.89885352247262
 20
303.765408746883
 30
0.0
 11
412.21185352247272
 21
302.38040874688301
 31
0.0
  0
LINE
  5
41CE
  8
0
 10
418.77985352247259
 20
294.4774087468831
 30
0.0
 11
427.02685352247272
 21
308.76240874688301
 31
0.0
  0
CIRCLE
  5
41CF
  8
0
 10
436.75985352247261
 20
293.62040874688302
 30
0.0
 40
16.0
  0
CIRCLE
  5
41D0
  8
0
 10
436.75985352247261
 20
293.62040874688302
 30
0.0
 40
15.0
  0
CIRCLE
  5
41D1
  8
0
 10
436.75985352247261
 20
293.62040874688302
 30
0.0
 40
24.0
  0
CIRCLE
  5
41D2
  8
0
 10
436.75985352247261
 20
293.62040874688302
 30
0.0
 40
25.999300000000002
  0
CIRCLE
  5
41D3
  8
0
 10
436.75985352247261
 20
293.62040874688302
 30
0.0
 40
25.0
  0
CIRCLE
  5
41D4
  8
0
 10
436.75985352247261
 20
293.62040874688302
 30
0.0
 40
25.0
  0
LINE
  5
41D5
  8
0
 10
461.75985352247261
 20
222.51192664945469
 30
0.0
 11
462.75985352247261
 21
221.5120266494547
 31
0.0
  0
LINE
  5
41D6
  8
0
 10
451.75985352247272
 20
238.51242664945471
 30
0.0
 11
421.75985352247261
 21
238.51242664945471
 31
0.0
  0
LINE
  5
41D7
  8
0
 10
421.75985352247261
 20
239.01242664945471
 30
0.0
 11
451.75985352247272
 21
239.01242664945471
 31
0.0
  0
LINE
  5
41D8
  8
0
 10
420.75985352247261
 20
238.51242664945471
 30
0.0
 11
436.75985352247261
 21
238.51242664945471
 31
0.0
  0
LINE
  5
41D9
  8
0
 10
411.75985352247261
 20
222.51192664945469
 30
0.0
 11
411.75985352247261
 21
224.51202664945481
 31
0.0
  0
LINE
  5
41DA
  8
0
 10
410.75985352247272
 20
221.5120266494547
 30
0.0
 11
411.75985352247261
 21
222.51192664945469
 31
0.0
  0
LINE
  5
41DB
  8
0
 10
411.75985352247261
 20
228.51202664945481
 30
0.0
 11
412.75985352247261
 21
229.51202664945481
 31
0.0
  0
LINE
  5
41DC
  8
0
 10
411.75985352247261
 20
224.51202664945481
 30
0.0
 11
411.75985352247261
 21
228.51202664945481
 31
0.0
  0
LINE
  5
41DD
  8
0
 10
418.78085352247263
 20
230.5120266494547
 30
0.0
 11
418.78085352247268
 21
237.36942664945471
 31
0.0
  0
LINE
  5
41DE
  8
0
 10
418.78085352247268
 20
237.36942664945471
 30
0.0
 11
420.75985352247261
 21
238.51242664945471
 31
0.0
  0
LINE
  5
41DF
  8
0
 10
421.75985352247261
 20
238.51242664945471
 30
0.0
 11
421.75985352247261
 21
239.01242664945471
 31
0.0
  0
LINE
  5
41E0
  8
0
 10
436.75985352247261
 20
238.51242664945471
 30
0.0
 11
452.75985352247261
 21
238.51242664945471
 31
0.0
  0
ARC
  5
41E1
  8
0
 10
436.75985352247261
 20
239.00966483565429
 30
0.0
 40
1.000003813800461
 50
0.1582398722377785
 51
179.8417601277622
  0
LINE
  5
41E2
  8
0
 10
461.75985352247261
 20
224.51202664945481
 30
0.0
 11
461.75985352247261
 21
222.51192664945469
 31
0.0
  0
LINE
  5
41E3
  8
0
 10
412.75985352247261
 20
229.51202664945481
 30
0.0
 11
460.75985352247272
 21
229.51202664945481
 31
0.0
  0
LINE
  5
41E4
  8
0
 10
461.75985352247261
 20
228.51202664945481
 30
0.0
 11
461.75985352247261
 21
224.51202664945481
 31
0.0
  0
LINE
  5
41E5
  8
0
 10
460.75985352247272
 20
229.51202664945481
 30
0.0
 11
461.75985352247261
 21
228.51202664945481
 31
0.0
  0
LINE
  5
41E6
  8
0
 10
452.75985352247261
 20
238.51242664945471
 30
0.0
 11
454.73985352247269
 21
237.36942664945471
 31
0.0
  0
LINE
  5
41E7
  8
0
 10
451.75985352247272
 20
239.01242664945471
 30
0.0
 11
451.75985352247272
 21
238.51242664945471
 31
0.0
  0
LINE
  5
41E8
  8
0
 10
454.73985352247269
 20
237.36942664945471
 30
0.0
 11
454.73985352247269
 21
230.5120266494547
 31
0.0
  0
LINE
  5
41E9
  8
0
 10
445.00785352247271
 20
277.62040874688302
 30
0.0
 11
428.51285352247271
 21
277.62040874688302
 31
0.0
  0
LINE
  5
41EA
  8
0
 10
413.31985352247261
 20
281.11440874688299
 30
0.0
 11
413.27185352247272
 21
281.921408746883
 31
0.0
  0
LINE
  5
41EB
  8
0
 10
427.02685352247272
 20
278.47740874688299
 30
0.0
 11
418.77985352247259
 21
292.76240874688301
 31
0.0
  0
LINE
  5
41EC
  8
0
 10
412.21185352247272
 20
277.44040874688301
 30
0.0
 11
413.75985352247261
 21
280.12240874688302
 31
0.0
  0
LINE
  5
41ED
  8
0
 10
412.21185352247272
 20
277.44040874688301
 30
0.0
 11
412.58885352247268
 21
278.08040874688299
 31
0.0
  0
LINE
  5
41EE
  8
0
 10
412.58885352247268
 20
278.08040874688299
 30
0.0
 11
412.89885352247262
 21
278.77840874688297
 31
0.0
  0
LINE
  5
41EF
  8
0
 10
412.89885352247262
 20
278.77840874688297
 30
0.0
 11
413.12985352247262
 21
279.52640874688302
 31
0.0
  0
LINE
  5
41F0
  8
0
 10
413.12985352247262
 20
279.52640874688302
 30
0.0
 11
413.27185352247272
 21
280.31040874688301
 31
0.0
  0
LINE
  5
41F1
  8
0
 10
413.75985352247261
 20
280.12240874688302
 30
0.0
 11
413.75985352247261
 21
281.49740874688302
 31
0.0
  0
LINE
  5
41F2
  8
0
 10
413.27185352247272
 20
280.31040874688301
 30
0.0
 11
413.31985352247261
 21
281.11440874688299
 31
0.0
  0
LINE
  5
41F3
  8
0
 10
428.51285352247271
 20
277.62040874688302
 30
0.0
 11
427.02685352247272
 21
278.47740874688299
 31
0.0
  0
LINE
  5
41F4
  8
0
 10
413.27185352247272
 20
281.921408746883
 30
0.0
 11
413.12985352247262
 21
282.71540874688299
 31
0.0
  0
LINE
  5
41F5
  8
0
 10
413.12985352247262
 20
282.71540874688299
 30
0.0
 11
412.89885352247262
 21
283.479408746883
 31
0.0
  0
LINE
  5
41F6
  8
0
 10
412.89885352247262
 20
283.479408746883
 30
0.0
 11
412.21185352247272
 21
284.86440874688299
 31
0.0
  0
LINE
  5
41F7
  8
0
 10
411.8418535224726
 20
286.200408746883
 30
0.0
 11
412.21185352247272
 21
284.86240874688298
 31
0.0
  0
LINE
  5
41F8
  8
0
 10
412.21185352247272
 20
302.38040874688301
 30
0.0
 11
411.84285352247269
 21
301.04440874688299
 31
0.0
  0
LINE
  5
41F9
  8
0
 10
418.77985352247259
 20
292.76240874688301
 30
0.0
 11
418.77985352247259
 21
294.4774087468831
 31
0.0
  0
LINE
  5
41FA
  8
0
 10
454.73985352247269
 20
292.76240874688301
 30
0.0
 11
446.49285352247273
 21
278.47740874688299
 31
0.0
  0
LINE
  5
41FB
  8
0
 10
446.49285352247273
 20
278.47740874688299
 30
0.0
 11
445.00785352247271
 21
277.62040874688302
 31
0.0
  0
CIRCLE
  5
41FC
  8
0
 10
436.75985352247261
 20
293.62040874688302
 30
0.0
 40
1.0
  0
LINE
  5
41FD
  8
0
 10
454.73985352247269
 20
294.4774087468831
 30
0.0
 11
454.73985352247269
 21
292.76240874688301
 31
0.0
  0
LINE
  5
41FE
  8
0
 10
428.51285352247271
 20
309.62040874688302
 30
0.0
 11
445.00785352247271
 21
309.62040874688302
 31
0.0
  0
LINE
  5
41FF
  8
0
 10
412.89885352247262
 20
308.46640874688302
 30
0.0
 11
413.12985352247262
 21
307.71840874688297
 31
0.0
  0
LINE
  5
4200
  8
0
 10
413.75985352247261
 20
307.12240874688302
 30
0.0
 11
412.21185352247272
 21
309.80340874688312
 31
0.0
  0
LINE
  5
4201
  8
0
 10
413.75285352247272
 20
305.729408746883
 30
0.0
 11
413.75985352247261
 21
307.12240874688302
 31
0.0
  0
LINE
  5
4202
  8
0
 10
413.12985352247262
 20
307.71840874688297
 30
0.0
 11
413.27185352247272
 21
306.93440874688298
 31
0.0
  0
LINE
  5
4203
  8
0
 10
413.27185352247272
 20
306.93440874688298
 30
0.0
 11
413.31985352247261
 21
306.13040874688301
 31
0.0
  0
LINE
  5
4204
  8
0
 10
413.27185352247272
 20
305.32240874688301
 30
0.0
 11
413.12985352247262
 21
304.52940874688301
 31
0.0
  0
LINE
  5
4205
  8
0
 10
413.12985352247262
 20
304.52940874688301
 30
0.0
 11
412.89885352247262
 21
303.765408746883
 31
0.0
  0
LINE
  5
4206
  8
0
 10
413.31985352247261
 20
306.13040874688301
 30
0.0
 11
413.27185352247272
 21
305.32240874688301
 31
0.0
  0
LINE
  5
4207
  8
0
 10
412.58885352247268
 20
309.164408746883
 30
0.0
 11
412.89885352247262
 21
308.46640874688302
 31
0.0
  0
LINE
  5
4208
  8
0
 10
412.21185352247272
 20
309.80340874688312
 30
0.0
 11
412.58885352247268
 21
309.164408746883
 31
0.0
  0
LINE
  5
4209
  8
0
 10
427.02685352247272
 20
308.76240874688301
 30
0.0
 11
428.51285352247271
 21
309.62040874688302
 31
0.0
  0
LINE
  5
420A
  8
0
 10
445.00785352247271
 20
309.62040874688302
 30
0.0
 11
446.49285352247273
 21
308.76240874688301
 31
0.0
  0
ARC
  5
420B
  8
0
 10
410.84285352247258
 20
207.75432664945481
 30
0.0
 40
2.0
 50
270.0
 51
0.0
  0
ARC
  5
420C
  8
0
 10
417.78085352247263
 20
230.5120266494547
 30
0.0
 40
1.0
 50
270.0
 51
0.0
  0
ARC
  5
420D
  8
0
 10
455.73985352247257
 20
230.5120266494547
 30
0.0
 40
1.0
 50
180.0
 51
270.0
  0
LINE
  5
420E
  8
0
 10
427.02685352247272
 20
237.36942664945471
 30
0.0
 11
428.51285352247271
 21
237.36942664945479
 31
0.0
  0
LINE
  5
420F
  8
0
 10
427.02685352247272
 20
237.36942664945471
 30
0.0
 11
427.02685352247272
 21
229.51202664945481
 31
0.0
  0
LINE
  5
4210
  8
0
 10
428.51285352247271
 20
237.36942664945471
 30
0.0
 11
428.51285352247271
 21
229.51202664945481
 31
0.0
  0
LINE
  5
4211
  8
0
 10
445.00785352247271
 20
237.36942664945471
 30
0.0
 11
445.00785352247271
 21
229.51202664945481
 31
0.0
  0
LINE
  5
4212
  8
0
 10
446.49285352247261
 20
237.36942664945471
 30
0.0
 11
446.49285352247261
 21
229.51202664945481
 31
0.0
  0
LINE
  5
4213
  8
0
 10
411.75985352247261
 20
228.51202664945481
 30
0.0
 11
461.75985352247261
 21
228.51202664945481
 31
0.0
  0
ARC
  5
4214
  8
0
 10
436.76035352247271
 20
208.18534659696149
 30
0.0
 40
30.327080056614939
 50
74.219564481667518
 51
105.7804355183325
  0
ARC
  5
4215
  8
0
 10
450.61635352247259
 20
230.5029335392187
 30
0.0
 40
8.0094931102361002
 50
59.014135487608769
 51
120.9858645123912
  0
ARC
  5
4216
  8
0
 10
422.90347974598598
 20
230.50469702801769
 30
0.0
 40
8.0094931102361002
 50
59.006843536142469
 51
120.9785725609277
  0
LINE
  5
4217
  8
0
 10
445.00785352247271
 20
237.36942664945471
 30
0.0
 11
446.49285352247261
 21
237.36942664945471
 31
0.0
  0
LINE
  5
4218
  8
0
 10
411.75985352247261
 20
222.51192664945469
 30
0.0
 11
461.75985352247261
 21
222.51192664945469
 31
0.0
  0
LINE
  5
4219
  8
0
 10
462.75985352247261
 20
221.5120266494547
 30
0.0
 11
410.75985352247272
 21
221.5120266494547
 31
0.0
  0
LINE
  5
421A
  8
0
 10
410.75985352247272
 20
213.51192664945469
 30
0.0
 11
462.75985352247261
 21
213.51192664945469
 31
0.0
  0
LINE
  5
421B
  8
0
 10
460.75985352247272
 20
211.5120266494547
 30
0.0
 11
412.84285352247269
 21
211.5120266494547
 31
0.0
  0
LINE
  5
421C
  8
0
 10
397.75985352247272
 20
190.61962664945469
 30
0.0
 11
397.75985352247272
 21
188.88762664945469
 31
0.0
  0
LINE
  5
421D
  8
0
 10
397.75985352247272
 20
190.61962664945469
 30
0.0
 11
410.84285352247258
 21
190.61962664945489
 31
0.0
  0
LINE
  5
421E
  8
0
 10
397.75985352247272
 20
188.88762664945469
 30
0.0
 11
410.84285352247258
 21
188.88762664945469
 31
0.0
  0
ARC
  5
421F
  8
0
 10
425.8922465337227
 20
198.18697664945469
 30
0.0
 40
29.132393011250031
 50
164.94434188888451
 51
195.05565811111541
  0
ARC
  5
4220
  8
0
 10
425.8922465337227
 20
181.32097664945471
 30
0.0
 40
29.132393011250031
 50
164.94434188888451
 51
195.05565811111541
  0
LINE
  5
4221
  8
0
 10
460.75985352247272
 20
202.3020266494548
 30
0.0
 11
412.97199246574809
 21
202.3020266494548
 31
0.0
  0
LINE
  5
4222
  8
0
 10
419.01726839657402
 20
192.25972664945471
 30
0.0
 11
454.5024386483712
 21
192.25972664945471
 31
0.0
  0
ARC
  5
4223
  8
0
 10
456.73505352247258
 20
190.84835522617121
 30
0.0
 40
2.0
 50
125.1527338043726
 51
180.0
  0
LINE
  5
4224
  8
0
 10
428.52225352247268
 20
192.25972664945471
 30
0.0
 11
428.52225352247251
 21
170.7536266494547
 31
0.0
  0
LINE
  5
4225
  8
0
 10
444.99745352247248
 20
192.25972664945471
 30
0.0
 11
444.99745352247248
 21
170.7536266494547
 31
0.0
  0
LINE
  5
4226
  8
0
 10
446.49745352247248
 20
192.25972664945471
 30
0.0
 11
446.49745352247248
 21
170.7536266494547
 31
0.0
  0
LINE
  5
4227
  8
0
 10
427.02225352247251
 20
192.25972664945471
 30
0.0
 11
427.02225352247268
 21
170.7536266494547
 31
0.0
  0
LINE
  5
4228
  8
0
 10
427.02225352247268
 20
170.7536266494547
 30
0.0
 11
428.52225352247251
 21
170.7536266494547
 31
0.0
  0
ARC
  5
4229
  8
0
 10
436.75985352247261
 20
204.1826535294548
 30
0.0
 40
34.429026880000052
 50
256.15694061120172
 51
283.84305938879828
  0
ARC
  5
422A
  8
0
 10
450.6162535224725
 20
178.73588336945471
 30
0.0
 40
8.9822567200000183
 50
242.7065180254539
 51
297.29348197454613
  0
ARC
  5
422B
  8
0
 10
422.90345352247277
 20
178.73588336945471
 30
0.0
 40
8.9822567200000183
 50
242.7065180254539
 51
297.29348197454613
  0
LINE
  5
422C
  8
0
 10
444.99745352247248
 20
170.7536266494547
 30
0.0
 11
446.49745352247248
 21
170.7536266494547
 31
0.0
  0
LINE
  5
422D
  8
0
 10
410.84285352247258
 20
190.61962664945489
 30
0.0
 11
410.84285352247258
 21
188.8883266494546
 31
0.0
  0
ARC
  5
422E
  8
0
 10
454.5024386483712
 20
194.25972664945471
 30
0.0
 40
2.0
 50
270.0
 51
333.43393894763199
  0
LINE
  5
422F
  8
0
 10
413.0540149056103
 20
201.71372980619171
 30
0.0
 11
417.22842977971169
 21
193.3652679288746
 31
0.0
  0
ARC
  5
4230
  8
0
 10
419.01726839657402
 20
194.25972664945471
 30
0.0
 40
2.0
 50
206.56606105236801
 51
270.0
  0
ARC
  5
4231
  8
0
 10
382.71046051122261
 20
198.18697664945469
 30
0.0
 40
29.132393011250031
 50
344.94434188888448
 51
15.05565811111545
  0
ARC
  5
4232
  8
0
 10
382.71046051122261
 20
181.32097664945471
 30
0.0
 40
29.132393011250031
 50
344.94434188888448
 51
15.05565811111545
  0
LINE
  5
4233
  8
0
 10
411.84285352247258
 20
173.7536266494547
 30
0.0
 11
411.84285352247269
 21
206.02227584188589
 31
0.0
  0
ARC
  5
4234
  8
0
 10
414.84285352247269
 20
202.6081885267719
 30
0.0
 40
2.0
 50
180.0
 51
206.56606105236801
  0
LINE
  5
4235
  8
0
 10
454.73505352247258
 20
190.84835522617121
 30
0.0
 11
454.7350535224727
 21
170.7536266494549
 31
0.0
  0
LINE
  5
4239
  8
0
 10
318.0561535224727
 20
170.7536266494547
 30
0.0
 11
318.05615352247258
 21
185.46941042142711
 31
0.0
  0
LINE
  5
423A
  8
0
 10
318.91645352247269
 20
170.8965266494547
 30
0.0
 11
318.91645352247269
 21
183.97932102645771
 31
0.0
  0
LINE
  5
423C
  8
0
 10
388.99308949446407
 20
192.860760857028
 30
0.0
 11
392.05758949446408
 21
189.86061085702801
 31
0.0
  0
LINE
  5
423D
  8
0
 10
392.05758949446408
 20
189.86061085702801
 30
0.0
 11
377.05863949446399
 21
189.86061085702801
 31
0.0
  0
LINE
  5
423E
  8
0
 10
374.05863949446399
 20
192.860760857028
 30
0.0
 11
383.0590894944641
 21
192.860760857028
 31
0.0
  0
LINE
  5
423F
  8
0
 10
377.05863949446399
 20
189.86061085702801
 30
0.0
 11
374.05863949446399
 21
192.860760857028
 31
0.0
  0
LINE
  5
4240
  8
0
 10
383.0590894944641
 20
192.860760857028
 30
0.0
 11
384.5590894944641
 21
191.36061085702801
 31
0.0
  0
LINE
  5
4241
  8
0
 10
388.99308949446407
 20
191.36061085702801
 30
0.0
 11
388.99308949446407
 21
192.860760857028
 31
0.0
  0
LINE
  5
4242
  8
0
 10
384.5590894944641
 20
191.36061085702801
 30
0.0
 11
388.99308949446407
 21
191.36061085702801
 31
0.0
  0
TEXT
  5
4243
  8
0
 10
160.60288951047809
 20
136.1005362304048
 30
0.0
 40
8.0
  1
15
 41
0.8
 72
     4
 11
165.1743180819067
 21
140.1005362304048
 31
0.0
  0
TEXT
  5
4244
  8
0
 10
157.2505085580971
 20
124.0152721914689
 30
0.0
 40
8.0
  1
1/2
 41
0.8
 72
     4
 11
165.1743180819067
 21
127.4438436200404
 31
0.0
  0
TEXT
  5
4245
  8
0
 10
382.77301277696881
 20
136.1005362304048
 30
0.0
 40
8.0
  1
20
 41
0.8
 72
     4
 11
387.95396515792117
 21
140.1005362304048
 31
0.0
  0
TEXT
  5
4246
  8
0
 10
379.26825087220692
 20
124.0152721914689
 30
0.0
 40
8.0
  1
3/4
 41
0.8
 72
     4
 11
387.95396515792117
 21
127.4438436200404
 31
0.0
  0
VIEWPORT
  5
41
 67
     1
  8
0
 10
117.358407079646
 20
73.5
 30
0.0
 40
234.716814159292
 41
147.0
 68
     1
 69
     1
1001
ACAD
1000
MVIEW
1002
{
1070
    16
1010
0.0
1020
0.0
1030
0.0
1010
0.0
1020
0.0
1030
1.0
1040
0.0
1040
147.0
1040
117.358407079646
1040
73.5
1040
50.0
1040
0.0
1040
0.0
1070
     0
1070
   100
1070
     1
1070
     1
1070
     0
1070
     0
1070
     0
1070
     0
1040
0.0
1040
0.0
1040
0.0
1040
1.0
1040
1.0
1040
0.0
1040
0.0
1070
     0
1002
{
1002
}
1002
}
  0
ENDSEC
  0
EOF
