  0
SECTION
  2
HEADER
  9
$ACADVER
  1
AC1012
  9
$DWGCODEPAGE
  3
dos932
  9
$INSBASE
 10
0.0
 20
0.0
 30
0.0
  9
$EXTMIN
 10
88.0
 20
40.0
 30
0.0
  9
$EXTMAX
 10
2288.0
 20
1528.0
 30
0.0
  9
$LIMMIN
 10
0.0
 20
0.0
  9
$LIMMAX
 10
2376.0
 20
1680.0
  9
$ORTHOMODE
 70
     1
  9
$REGENMODE
 70
     1
  9
$FILLMODE
 70
     1
  9
$QTEXTMODE
 70
     0
  9
$MIRRTEXT
 70
     1
  9
$DRAGMODE
 70
     2
  9
$LTSCALE
 40
32.0
  9
$OSMODE
 70
   163
  9
$ATTMODE
 70
     1
  9
$TEXTSIZE
 40
32.0
  9
$TRACEWID
 40
0.05
  9
$TEXTSTYLE
  7
STANDARD
  9
$CLAYER
  8
0
  9
$CELTYPE
  6
BYLAYER
  9
$CECOLOR
 62
   256
  9
$CELTSCALE
 40
1.0
  9
$DELOBJ
 70
     1
  9
$DISPSILH
 70
     0
  9
$DIMSCALE
 40
8.0
  9
$DIMASZ
 40
2.8
  9
$DIMEXO
 40
1.0
  9
$DIMDLI
 40
5.0
  9
$DIMRND
 40
0.1
  9
$DIMDLE
 40
0.0
  9
$DIMEXE
 40
1.0
  9
$DIMTP
 40
0.0
  9
$DIMTM
 40
0.0
  9
$DIMTXT
 40
2.5
  9
$DIMCEN
 40
0.0
  9
$DIMTSZ
 40
0.0
  9
$DIMTOL
 70
     0
  9
$DIMLIM
 70
     0
  9
$DIMTIH
 70
     0
  9
$DIMTOH
 70
     0
  9
$DIMSE1
 70
     0
  9
$DIMSE2
 70
     0
  9
$DIMTAD
 70
     3
  9
$DIMZIN
 70
     8
  9
$DIMBLK
  1

  9
$DIMASO
 70
     1
  9
$DIMSHO
 70
     1
  9
$DIMPOST
  1
 
  9
$DIMAPOST
  1

  9
$DIMALT
 70
     0
  9
$DIMALTD
 70
     2
  9
$DIMALTF
 40
1.0
  9
$DIMLFAC
 40
1.0
  9
$DIMTOFL
 70
     1
  9
$DIMTVP
 40
0.0
  9
$DIMTIX
 70
     0
  9
$DIMSOXD
 70
     0
  9
$DIMSAH
 70
     1
  9
$DIMBLK1
  1
_OPEN
  9
$DIMBLK2
  1
_OPEN
  9
$DIMSTYLE
  2
DIM1
  9
$DIMCLRD
 70
     2
  9
$DIMCLRE
 70
     2
  9
$DIMCLRT
 70
     2
  9
$DIMTFAC
 40
0.7
  9
$DIMGAP
 40
0.85
  9
$DIMJUST
 70
     0
  9
$DIMSD1
 70
     0
  9
$DIMSD2
 70
     0
  9
$DIMTOLJ
 70
     1
  9
$DIMTZIN
 70
     8
  9
$DIMALTZ
 70
     8
  9
$DIMALTTZ
 70
     8
  9
$DIMFIT
 70
     3
  9
$DIMUPT
 70
     0
  9
$DIMUNIT
 70
     2
  9
$DIMDEC
 70
     2
  9
$DIMTDEC
 70
     3
  9
$DIMALTU
 70
     2
  9
$DIMALTTD
 70
     3
  9
$DIMTXSTY
  7
DIM
  9
$DIMAUNIT
 70
     0
  9
$LUNITS
 70
     2
  9
$LUPREC
 70
     4
  9
$SKETCHINC
 40
0.1
  9
$FILLETRAD
 40
0.0
  9
$AUNITS
 70
     0
  9
$AUPREC
 70
     0
  9
$MENU
  1
C:\ACADR13\WIN\SUPPORT\ACAD.mnc
  9
$ELEVATION
 40
0.0
  9
$PELEVATION
 40
0.0
  9
$THICKNESS
 40
0.0
  9
$LIMCHECK
 70
     0
  9
$BLIPMODE
 70
     1
  9
$CHAMFERA
 40
0.0
  9
$CHAMFERB
 40
0.0
  9
$CHAMFERC
 40
0.0
  9
$CHAMFERD
 40
0.0
  9
$SKPOLY
 70
     0
  9
$TDCREATE
 40
2451564.587411898
  9
$TDUPDATE
 40
2451967.654673206
  9
$TDINDWG
 40
0.0400809144
  9
$TDUSRTIMER
 40
0.0400809144
  9
$USRTIMER
 70
     1
  9
$ANGBASE
 50
0.0
  9
$ANGDIR
 70
     0
  9
$PDMODE
 70
     0
  9
$PDSIZE
 40
0.0
  9
$PLINEWID
 40
0.0
  9
$COORDS
 70
     1
  9
$SPLFRAME
 70
     0
  9
$SPLINETYPE
 70
     6
  9
$SPLINESEGS
 70
     8
  9
$ATTDIA
 70
     0
  9
$ATTREQ
 70
     1
  9
$HANDLING
 70
     1
  9
$HANDSEED
  5
4EBC
  9
$SURFTAB1
 70
     6
  9
$SURFTAB2
 70
     6
  9
$SURFTYPE
 70
     6
  9
$SURFU
 70
     6
  9
$SURFV
 70
     6
  9
$UCSNAME
  2

  9
$UCSORG
 10
0.0
 20
0.0
 30
0.0
  9
$UCSXDIR
 10
1.0
 20
0.0
 30
0.0
  9
$UCSYDIR
 10
0.0
 20
1.0
 30
0.0
  9
$PUCSNAME
  2

  9
$PUCSORG
 10
0.0
 20
0.0
 30
0.0
  9
$PUCSXDIR
 10
1.0
 20
0.0
 30
0.0
  9
$PUCSYDIR
 10
0.0
 20
1.0
 30
0.0
  9
$USERI1
 70
     0
  9
$USERI2
 70
     0
  9
$USERI3
 70
     0
  9
$USERI4
 70
     0
  9
$USERI5
 70
     0
  9
$USERR1
 40
0.0
  9
$USERR2
 40
0.0
  9
$USERR3
 40
0.0
  9
$USERR4
 40
0.0
  9
$USERR5
 40
0.0
  9
$WORLDVIEW
 70
     1
  9
$SHADEDGE
 70
     3
  9
$SHADEDIF
 70
    70
  9
$TILEMODE
 70
     1
  9
$MAXACTVP
 70
    16
  9
$PINSBASE
 10
0.0
 20
0.0
 30
0.0
  9
$PLIMCHECK
 70
     0
  9
$PEXTMIN
 10
1.000000E+20
 20
1.000000E+20
 30
1.000000E+20
  9
$PEXTMAX
 10
-1.000000E+20
 20
-1.000000E+20
 30
-1.000000E+20
  9
$PLIMMIN
 10
0.0
 20
0.0
  9
$PLIMMAX
 10
20.0
 20
147.0
  9
$UNITMODE
 70
     0
  9
$VISRETAIN
 70
     0
  9
$PLINEGEN
 70
     0
  9
$PSLTSCALE
 70
     1
  9
$TREEDEPTH
 70
  3020
  9
$PICKSTYLE
 70
     1
  9
$CMLSTYLE
  2
STANDARD
  9
$CMLJUST
 70
     0
  9
$CMLSCALE
 40
1.0
  9
$SAVEIMAGES
 70
     1
  0
ENDSEC
  0
SECTION
  2
CLASSES
  0
CLASS
  1
LWPOLYLINE
  2
AcDbPolyline
  3
"AutoCAD"
 90
    32768
280
     0
281
     1
  0
ENDSEC
  0
SECTION
  2
TABLES
  0
TABLE
  2
VPORT
  5
8
100
AcDbSymbolTable
 70
     2
  0
VPORT
  5
4EBB
100
AcDbSymbolTableRecord
100
AcDbViewportTableRecord
  2
*ACTIVE
 70
     0
 10
0.0
 20
0.0
 11
1.0
 21
1.0
 12
1587.77027
 22
901.085866
 13
0.0
 23
0.0
 14
1.0
 24
1.0
 15
0.0
 25
0.0
 16
0.0
 26
0.0
 36
1.0
 17
0.0
 27
0.0
 37
0.0
 40
1802.171733
 41
1.762063
 42
50.0
 43
0.0
 44
0.0
 50
0.0
 51
0.0
 71
     0
 72
   100
 73
     1
 74
     1
 75
     0
 76
     0
 77
     0
 78
     0
  0
ENDTAB
  0
TABLE
  2
LTYPE
  5
5
100
AcDbSymbolTable
 70
     5
  0
LTYPE
  5
12
100
AcDbSymbolTableRecord
100
AcDbLinetypeTableRecord
  2
BYBLOCK
 70
     0
  3

 72
    65
 73
     0
 40
0.0
  0
LTYPE
  5
13
100
AcDbSymbolTableRecord
100
AcDbLinetypeTableRecord
  2
BYLAYER
 70
     0
  3

 72
    65
 73
     0
 40
0.0
  0
LTYPE
  5
14
100
AcDbSymbolTableRecord
100
AcDbLinetypeTableRecord
  2
CONTINUOUS
 70
     0
  3
Solid line
 72
    65
 73
     0
 40
0.0
  0
ENDTAB
  0
TABLE
  2
LAYER
  5
2
100
AcDbSymbolTable
 70
     4
  0
LAYER
  5
F
100
AcDbSymbolTableRecord
100
AcDbLayerTableRecord
  2
0
 70
     0
 62
     7
  6
CONTINUOUS
  0
ENDTAB
  0
TABLE
  2
STYLE
  5
3
100
AcDbSymbolTable
 70
     3
  0
STYLE
  5
10
100
AcDbSymbolTableRecord
100
AcDbTextStyleTableRecord
  2
STANDARD
 70
     0
 40
0.0
 41
0.8
 50
0.0
 71
     0
 42
32.0
  3
simplex
  4
extfont
  0
STYLE
  5
237C
100
AcDbSymbolTableRecord
100
AcDbTextStyleTableRecord
  2
PTSH
 70
     0
 40
0.0
 41
0.9
 50
0.0
 71
     0
 42
4.0
  3
SIMPLEX
  4
EXTFONT
  0
STYLE
  5
2592
100
AcDbSymbolTableRecord
100
AcDbTextStyleTableRecord
  2
DIM
 70
     0
 40
0.0
 41
0.8
 50
0.0
 71
     0
 42
4.0
  3
simplex
  4
extfont
  0
ENDTAB
  0
TABLE
  2
VIEW
  5
6
100
AcDbSymbolTable
 70
     0
  0
ENDTAB
  0
TABLE
  2
UCS
  5
7
100
AcDbSymbolTable
 70
     0
  0
ENDTAB
  0
TABLE
  2
APPID
  5
9
100
AcDbSymbolTable
 70
     1
  0
APPID
  5
11
100
AcDbSymbolTableRecord
100
AcDbRegAppTableRecord
  2
ACAD
 70
     0
  0
ENDTAB
  0
TABLE
  2
DIMSTYLE
  5
A
100
AcDbSymbolTable
 70
     1
  0
DIMSTYLE
105
2237
100
AcDbSymbolTableRecord
100
AcDbDimStyleTableRecord
  2
DIM1
 70
     0
  3
 
  4

  5

  6
_OPEN
  7
_OPEN
 40
8.0
 41
2.8
 42
1.0
 43
5.0
 44
1.0
 45
0.1
 46
0.0
 47
0.0
 48
0.0
140
2.5
141
0.0
142
0.0
143
1.0
144
1.0
145
0.0
146
0.7
147
0.85
 71
     0
 72
     0
 73
     0
 74
     0
 75
     0
 76
     0
 77
     3
 78
     8
170
     0
171
     2
172
     1
173
     1
174
     0
175
     0
176
     2
177
     2
178
     2
270
     2
271
     2
272
     3
273
     2
274
     3
340
2592
275
     0
280
     0
281
     0
282
     0
283
     1
284
     8
285
     8
286
     8
287
     3
288
     0
  0
ENDTAB
  0
TABLE
  2
BLOCK_RECORD
  5
1
100
AcDbSymbolTable
 70
     1
  0
BLOCK_RECORD
  5
18
100
AcDbSymbolTableRecord
100
AcDbBlockTableRecord
  2
*MODEL_SPACE
  0
BLOCK_RECORD
  5
15
100
AcDbSymbolTableRecord
100
AcDbBlockTableRecord
  2
*PAPER_SPACE
  0
BLOCK_RECORD
  5
2448
100
AcDbSymbolTableRecord
100
AcDbBlockTableRecord
  2
_OPEN
  0
ENDTAB
  0
ENDSEC
  0
SECTION
  2
BLOCKS
  0
BLOCK
  5
3C
100
AcDbEntity
  8
0
100
AcDbBlockBegin
  2
*MODEL_SPACE
 70
     0
 10
0.0
 20
0.0
 30
0.0
  3
*MODEL_SPACE
  1

  0
ENDBLK
  5
3D
100
AcDbEntity
  8
0
100
AcDbBlockEnd
  0
BLOCK
  5
3A
100
AcDbEntity
 67
     1
  8
0
100
AcDbBlockBegin
  2
*PAPER_SPACE
 70
     0
 10
0.0
 20
0.0
 30
0.0
  3
*PAPER_SPACE
  1

  0
ENDBLK
  5
3B
100
AcDbEntity
 67
     1
  8
0
100
AcDbBlockEnd
  0
BLOCK
  5
2449
100
AcDbEntity
  8
0
 48
4.0
100
AcDbBlockBegin
  2
_OPEN
 70
     0
 10
0.0
 20
0.0
 30
0.0
  3
_OPEN
  1
H1111.DWG
  0
LINE
  5
244A
100
AcDbEntity
  8
0
  6
BYBLOCK
 62
     0
 48
4.0
100
AcDbLine
 10
-1.0
 20
0.166667
 30
0.0
 11
0.0
 21
0.0
 31
0.0
  0
LINE
  5
244B
100
AcDbEntity
  8
0
  6
BYBLOCK
 62
     0
 48
4.0
100
AcDbLine
 10
0.0
 20
0.0
 30
0.0
 11
-1.0
 21
-0.166667
 31
0.0
  0
LINE
  5
244C
100
AcDbEntity
  8
0
  6
BYBLOCK
 62
     0
 48
4.0
100
AcDbLine
 10
0.0
 20
0.0
 30
0.0
 11
-1.0
 21
0.0
 31
0.0
  0
ENDBLK
  5
244D
100
AcDbEntity
  8
0
 48
4.0
100
AcDbBlockEnd
  0
ENDSEC
  0
SECTION
  2
ENTITIES
  0
MTEXT
  5
ADA
100
AcDbEntity
  8
0
100
AcDbMText
 10
3041.114238
 20
398.770489
 30
0.0
 40
1.6
 41
377.811719
 71
     1
 72
     1
  1

  0
MTEXT
  5
ADB
100
AcDbEntity
  8
0
100
AcDbMText
 10
3112.399465
 20
462.80635
 30
0.0
 40
1.6
 41
363.554673
 71
     1
 72
     1
  1

  0
MTEXT
  5
ADC
100
AcDbEntity
  8
0
100
AcDbMText
 10
3069.628329
 20
-383.889971
 30
0.0
 40
1.6
 41
413.454332
 71
     1
 72
     1
  1

  0
TEXT
  5
2529
100
AcDbEntity
  8
0
  6
CONTINUOUS
100
AcDbText
 10
2171.885714
 20
56.0
 30
0.0
 40
24.0
  1
MT1A
 41
0.9
  7
PTSH
 72
     2
 11
2248.0
 21
68.0
 31
0.0
100
AcDbText
 73
     2
  0
POLYLINE
  5
2563
100
AcDbEntity
  8
0
100
AcDb2dPolyline
 66
     1
 10
0.0
 20
0.0
 30
0.0
 70
     1
  0
VERTEX
  5
4E2C
100
AcDbEntity
  8
0
100
AcDbVertex
100
AcDb2dVertex
 10
88.0
 20
40.0
 30
0.0
  0
VERTEX
  5
4E2D
100
AcDbEntity
  8
0
100
AcDbVertex
100
AcDb2dVertex
 10
2288.0
 20
40.0
 30
0.0
  0
VERTEX
  5
4E2E
100
AcDbEntity
  8
0
100
AcDbVertex
100
AcDb2dVertex
 10
2288.0
 20
1528.0
 30
0.0
  0
VERTEX
  5
4E2F
100
AcDbEntity
  8
0
100
AcDbVertex
100
AcDb2dVertex
 10
88.0
 20
1528.0
 30
0.0
  0
SEQEND
  5
4E30
100
AcDbEntity
  8
0
  0
TEXT
  5
28A0
100
AcDbEntity
  8
0
100
AcDbText
 10
1032.8
 20
148.0
 30
0.0
 40
28.0
  1
TLV  MT1A (PT)
 72
     4
 11
1188.0
 21
160.0
 31
0.0
100
AcDbText
  0
TEXT
  5
471F
100
AcDbEntity
  8
0
100
AcDbText
 10
515.633596
 20
417.637335
 30
0.0
 40
20.0
  1
10A,15A
 72
     4
 11
572.776453
 21
425.732573
 31
0.0
100
AcDbText
  0
TEXT
  5
4720
100
AcDbEntity
  8
0
100
AcDbText
 10
161.796833
 20
512.984237
 30
0.0
 40
28.0
  1
正面
100
AcDbText
  0
LINE
  5
4721
100
AcDbEntity
  8
0
100
AcDbLine
 10
418.351988
 20
550.484237
 30
0.0
 11
418.351988
 21
542.884237
 31
0.0
  0
LINE
  5
4722
100
AcDbEntity
  8
0
100
AcDbLine
 10
405.351988
 20
542.884237
 30
0.0
 11
405.351988
 21
550.484237
 31
0.0
  0
LINE
  5
4723
100
AcDbEntity
  8
0
100
AcDbLine
 10
344.351988
 20
542.884237
 30
0.0
 11
344.351988
 21
550.484237
 31
0.0
  0
LINE
  5
4724
100
AcDbEntity
  8
0
100
AcDbLine
 10
331.351988
 20
550.484237
 30
0.0
 11
331.351988
 21
542.884237
 31
0.0
  0
LINE
  5
4725
100
AcDbEntity
  8
0
100
AcDbLine
 10
771.168092
 20
551.484237
 30
0.0
 11
771.168092
 21
498.185134
 31
0.0
  0
LINE
  5
4726
100
AcDbEntity
  8
0
100
AcDbLine
 10
821.168092
 20
551.484237
 30
0.0
 11
821.168092
 21
498.185134
 31
0.0
  0
LINE
  5
4727
100
AcDbEntity
  8
0
100
AcDbLine
 10
343.951988
 20
542.484237
 30
0.0
 11
331.751988
 21
542.484237
 31
0.0
  0
LINE
  5
4728
100
AcDbEntity
  8
0
100
AcDbLine
 10
344.351988
 20
542.884237
 30
0.0
 11
331.351988
 21
542.884237
 31
0.0
  0
LINE
  5
4729
100
AcDbEntity
  8
0
100
AcDbLine
 10
331.351988
 20
542.884237
 30
0.0
 11
331.751988
 21
542.484237
 31
0.0
  0
LINE
  5
472A
100
AcDbEntity
  8
0
100
AcDbLine
 10
344.351988
 20
542.884237
 30
0.0
 11
343.951988
 21
542.484237
 31
0.0
  0
CIRCLE
  5
472B
100
AcDbEntity
  8
0
100
AcDbCircle
 10
796.168092
 20
520.484237
 30
0.0
 40
17.5
  0
CIRCLE
  5
472C
100
AcDbEntity
  8
0
100
AcDbCircle
 10
778.13687
 20
502.453014
 30
0.0
 40
6.5
  0
LINE
  5
472D
100
AcDbEntity
  8
0
100
AcDbLine
 10
818.467196
 20
495.484237
 30
0.0
 11
773.868989
 21
495.484237
 31
0.0
  0
CIRCLE
  5
472E
100
AcDbEntity
  8
0
100
AcDbCircle
 10
814.199315
 20
502.453014
 30
0.0
 40
6.5
  0
POLYLINE
  5
472F
100
AcDbEntity
  8
0
100
AcDb2dPolyline
 66
     1
 10
0.0
 20
0.0
 30
0.0
 70
     1
  0
VERTEX
  5
4E31
100
AcDbEntity
  8
0
100
AcDbVertex
100
AcDb2dVertex
 10
812.467265
 20
505.453014
 30
0.0
  0
VERTEX
  5
4E32
100
AcDbEntity
  8
0
100
AcDbVertex
100
AcDb2dVertex
 10
810.735214
 20
502.453014
 30
0.0
  0
VERTEX
  5
4E33
100
AcDbEntity
  8
0
100
AcDbVertex
100
AcDb2dVertex
 10
812.467265
 20
499.453014
 30
0.0
  0
VERTEX
  5
4E34
100
AcDbEntity
  8
0
100
AcDbVertex
100
AcDb2dVertex
 10
815.931366
 20
499.453014
 30
0.0
  0
VERTEX
  5
4E35
100
AcDbEntity
  8
0
100
AcDbVertex
100
AcDb2dVertex
 10
817.663417
 20
502.453014
 30
0.0
  0
VERTEX
  5
4E36
100
AcDbEntity
  8
0
100
AcDbVertex
100
AcDb2dVertex
 10
815.931366
 20
505.453014
 30
0.0
  0
SEQEND
  5
4E37
100
AcDbEntity
  8
0
  0
ARC
  5
4730
100
AcDbEntity
  8
0
100
AcDbCircle
 10
796.168092
 20
520.484237
 30
0.0
 40
33.5
100
AcDbArc
 50
311.731817
 51
318.268183
  0
POLYLINE
  5
4731
100
AcDbEntity
  8
0
100
AcDb2dPolyline
 66
     1
 10
0.0
 20
0.0
 30
0.0
 70
     1
  0
VERTEX
  5
4E38
100
AcDbEntity
  8
0
100
AcDbVertex
100
AcDb2dVertex
 10
779.86892
 20
505.453014
 30
0.0
  0
VERTEX
  5
4E39
100
AcDbEntity
  8
0
100
AcDbVertex
100
AcDb2dVertex
 10
781.600971
 20
502.453014
 30
0.0
  0
VERTEX
  5
4E3A
100
AcDbEntity
  8
0
100
AcDbVertex
100
AcDb2dVertex
 10
779.86892
 20
499.453014
 30
0.0
  0
VERTEX
  5
4E3B
100
AcDbEntity
  8
0
100
AcDbVertex
100
AcDb2dVertex
 10
776.404819
 20
499.453014
 30
0.0
  0
VERTEX
  5
4E3C
100
AcDbEntity
  8
0
100
AcDbVertex
100
AcDb2dVertex
 10
774.672768
 20
502.453014
 30
0.0
  0
VERTEX
  5
4E3D
100
AcDbEntity
  8
0
100
AcDbVertex
100
AcDb2dVertex
 10
776.404819
 20
505.453014
 30
0.0
  0
SEQEND
  5
4E3E
100
AcDbEntity
  8
0
  0
ARC
  5
4732
100
AcDbEntity
  8
0
100
AcDbCircle
 10
796.168092
 20
520.484237
 30
0.0
 40
33.5
100
AcDbArc
 50
221.731817
 51
228.268183
  0
CIRCLE
  5
4733
100
AcDbEntity
  8
0
100
AcDbCircle
 10
778.13687
 20
538.51546
 30
0.0
 40
6.5
  0
LINE
  5
4734
100
AcDbEntity
  8
0
100
AcDbLine
 10
818.467196
 20
545.484237
 30
0.0
 11
773.868989
 21
545.484237
 31
0.0
  0
POLYLINE
  5
4735
100
AcDbEntity
  8
0
100
AcDb2dPolyline
 66
     1
 10
0.0
 20
0.0
 30
0.0
 70
     1
  0
VERTEX
  5
4E3F
100
AcDbEntity
  8
0
100
AcDbVertex
100
AcDb2dVertex
 10
812.467265
 20
535.51546
 30
0.0
  0
VERTEX
  5
4E40
100
AcDbEntity
  8
0
100
AcDbVertex
100
AcDb2dVertex
 10
810.735214
 20
538.51546
 30
0.0
  0
VERTEX
  5
4E41
100
AcDbEntity
  8
0
100
AcDbVertex
100
AcDb2dVertex
 10
812.467265
 20
541.51546
 30
0.0
  0
VERTEX
  5
4E42
100
AcDbEntity
  8
0
100
AcDbVertex
100
AcDb2dVertex
 10
815.931366
 20
541.51546
 30
0.0
  0
VERTEX
  5
4E43
100
AcDbEntity
  8
0
100
AcDbVertex
100
AcDb2dVertex
 10
817.663417
 20
538.51546
 30
0.0
  0
VERTEX
  5
4E44
100
AcDbEntity
  8
0
100
AcDbVertex
100
AcDb2dVertex
 10
815.931366
 20
535.51546
 30
0.0
  0
SEQEND
  5
4E45
100
AcDbEntity
  8
0
  0
CIRCLE
  5
4736
100
AcDbEntity
  8
0
100
AcDbCircle
 10
814.199315
 20
538.51546
 30
0.0
 40
6.5
  0
ARC
  5
4737
100
AcDbEntity
  8
0
100
AcDbCircle
 10
796.168092
 20
520.484237
 30
0.0
 40
33.5
100
AcDbArc
 50
41.731817
 51
48.268183
  0
LINE
  5
4738
100
AcDbEntity
  8
0
100
AcDbLine
 10
405.351988
 20
542.884237
 30
0.0
 11
418.351988
 21
542.884237
 31
0.0
  0
LINE
  5
4739
100
AcDbEntity
  8
0
100
AcDbLine
 10
405.751988
 20
542.484237
 30
0.0
 11
417.951988
 21
542.484237
 31
0.0
  0
POLYLINE
  5
473A
100
AcDbEntity
  8
0
100
AcDb2dPolyline
 66
     1
 10
0.0
 20
0.0
 30
0.0
 70
     1
  0
VERTEX
  5
4E46
100
AcDbEntity
  8
0
100
AcDbVertex
100
AcDb2dVertex
 10
779.86892
 20
535.51546
 30
0.0
  0
VERTEX
  5
4E47
100
AcDbEntity
  8
0
100
AcDbVertex
100
AcDb2dVertex
 10
781.600971
 20
538.51546
 30
0.0
  0
VERTEX
  5
4E48
100
AcDbEntity
  8
0
100
AcDbVertex
100
AcDb2dVertex
 10
779.86892
 20
541.51546
 30
0.0
  0
VERTEX
  5
4E49
100
AcDbEntity
  8
0
100
AcDbVertex
100
AcDb2dVertex
 10
776.404819
 20
541.51546
 30
0.0
  0
VERTEX
  5
4E4A
100
AcDbEntity
  8
0
100
AcDbVertex
100
AcDb2dVertex
 10
774.672768
 20
538.51546
 30
0.0
  0
VERTEX
  5
4E4B
100
AcDbEntity
  8
0
100
AcDbVertex
100
AcDb2dVertex
 10
776.404819
 20
535.51546
 30
0.0
  0
SEQEND
  5
4E4C
100
AcDbEntity
  8
0
  0
LINE
  5
473B
100
AcDbEntity
  8
0
100
AcDbLine
 10
405.351988
 20
542.884237
 30
0.0
 11
405.751988
 21
542.484237
 31
0.0
  0
ARC
  5
473C
100
AcDbEntity
  8
0
100
AcDbCircle
 10
796.168092
 20
520.484237
 30
0.0
 40
33.5
100
AcDbArc
 50
131.731817
 51
138.268183
  0
LINE
  5
473D
100
AcDbEntity
  8
0
100
AcDbLine
 10
418.351988
 20
542.884237
 30
0.0
 11
417.951988
 21
542.484237
 31
0.0
  0
LINE
  5
473E
100
AcDbEntity
  8
0
100
AcDbLine
 10
349.851988
 20
551.484237
 30
0.0
 11
329.851988
 21
551.484237
 31
0.0
  0
LINE
  5
473F
100
AcDbEntity
  8
0
100
AcDbLine
 10
419.851988
 20
560.484237
 30
0.0
 11
329.851988
 21
560.484237
 31
0.0
  0
LINE
  5
4740
100
AcDbEntity
  8
0
100
AcDbLine
 10
409.101988
 20
644.284237
 30
0.0
 11
340.601988
 21
644.284237
 31
0.0
  0
LINE
  5
4741
100
AcDbEntity
  8
0
100
AcDbLine
 10
415.402634
 20
637.983591
 30
0.0
 11
334.301342
 21
637.983591
 31
0.0
  0
LINE
  5
4742
100
AcDbEntity
  8
0
100
AcDbLine
 10
419.951988
 20
585.984237
 30
0.0
 11
329.751988
 21
585.984237
 31
0.0
  0
LINE
  5
4743
100
AcDbEntity
  8
0
100
AcDbLine
 10
419.951988
 20
580.484237
 30
0.0
 11
329.751988
 21
580.484237
 31
0.0
  0
LINE
  5
4744
100
AcDbEntity
  8
0
100
AcDbLine
 10
329.751988
 20
585.984237
 30
0.0
 11
334.301342
 21
637.983591
 31
0.0
  0
LINE
  5
4745
100
AcDbEntity
  8
0
100
AcDbLine
 10
329.851988
 20
580.484237
 30
0.0
 11
329.851988
 21
560.484237
 31
0.0
  0
LINE
  5
4746
100
AcDbEntity
  8
0
100
AcDbLine
 10
329.851988
 20
560.484237
 30
0.0
 11
329.851988
 21
551.484237
 31
0.0
  0
LINE
  5
4747
100
AcDbEntity
  8
0
100
AcDbLine
 10
344.601988
 20
551.484237
 30
0.0
 11
344.601988
 21
550.484237
 31
0.0
  0
LINE
  5
4748
100
AcDbEntity
  8
0
100
AcDbLine
 10
331.101988
 20
551.484237
 30
0.0
 11
331.101988
 21
550.484237
 31
0.0
  0
LINE
  5
4749
100
AcDbEntity
  8
0
100
AcDbLine
 10
344.601988
 20
550.484237
 30
0.0
 11
331.101988
 21
550.484237
 31
0.0
  0
LINE
  5
474A
100
AcDbEntity
  8
0
100
AcDbLine
 10
329.751988
 20
585.984237
 30
0.0
 11
329.751988
 21
580.484237
 31
0.0
  0
LINE
  5
474B
100
AcDbEntity
  8
0
100
AcDbLine
 10
334.301342
 20
637.983591
 30
0.0
 11
340.601988
 21
644.284237
 31
0.0
  0
LINE
  5
474C
100
AcDbEntity
  8
0
100
AcDbLine
 10
419.951988
 20
585.984237
 30
0.0
 11
415.402634
 21
637.983591
 31
0.0
  0
CIRCLE
  5
474D
100
AcDbEntity
  8
0
100
AcDbCircle
 10
374.851988
 20
569.984237
 30
0.0
 40
8.156094
  0
POLYLINE
  5
474E
100
AcDbEntity
  8
0
100
AcDb2dPolyline
 66
     1
 10
0.0
 20
0.0
 30
0.0
  0
VERTEX
  5
4E4D
100
AcDbEntity
  8
0
100
AcDbVertex
100
AcDb2dVertex
 10
366.335973
 20
573.59533
 30
0.0
  0
VERTEX
  5
4E4E
100
AcDbEntity
  8
0
100
AcDbVertex
100
AcDb2dVertex
 10
366.335973
 20
566.373145
 30
0.0
  0
SEQEND
  5
4E4F
100
AcDbEntity
  8
0
  0
POLYLINE
  5
474F
100
AcDbEntity
  8
0
100
AcDb2dPolyline
 66
     1
 10
0.0
 20
0.0
 30
0.0
  0
VERTEX
  5
4E50
100
AcDbEntity
  8
0
100
AcDbVertex
100
AcDb2dVertex
 10
383.335973
 20
566.298522
 30
0.0
  0
VERTEX
  5
4E51
100
AcDbEntity
  8
0
100
AcDbVertex
100
AcDb2dVertex
 10
383.335973
 20
573.669952
 30
0.0
  0
SEQEND
  5
4E52
100
AcDbEntity
  8
0
  0
POLYLINE
  5
4750
100
AcDbEntity
  8
0
100
AcDb2dPolyline
 66
     1
 10
0.0
 20
0.0
 30
0.0
  0
VERTEX
  5
4E53
100
AcDbEntity
  8
0
100
AcDbVertex
100
AcDb2dVertex
 10
367.454383
 20
564.431046
 30
0.0
  0
VERTEX
  5
4E54
100
AcDbEntity
  8
0
100
AcDbVertex
100
AcDb2dVertex
 10
373.741586
 20
560.801127
 30
0.0
  0
SEQEND
  5
4E55
100
AcDbEntity
  8
0
  0
ARC
  5
4751
100
AcDbEntity
  8
0
100
AcDbCircle
 10
374.851988
 20
569.984237
 30
0.0
 40
9.25
100
AcDbArc
 50
202.978669
 51
216.89461
  0
ARC
  5
4752
100
AcDbEntity
  8
0
100
AcDbCircle
 10
374.851988
 20
569.984237
 30
0.0
 40
9.25
100
AcDbArc
 50
323.356881
 51
336.518328
  0
ARC
  5
4753
100
AcDbEntity
  8
0
100
AcDbCircle
 10
374.851988
 20
569.984237
 30
0.0
 40
9.25
100
AcDbArc
 50
263.10539
 51
276.643119
  0
POLYLINE
  5
4754
100
AcDbEntity
  8
0
100
AcDb2dPolyline
 66
     1
 10
0.0
 20
0.0
 30
0.0
  0
VERTEX
  5
4E56
100
AcDbEntity
  8
0
100
AcDbVertex
100
AcDb2dVertex
 10
375.922072
 20
560.796342
 30
0.0
  0
VERTEX
  5
4E57
100
AcDbEntity
  8
0
100
AcDbVertex
100
AcDb2dVertex
 10
382.273897
 20
564.46357
 30
0.0
  0
SEQEND
  5
4E58
100
AcDbEntity
  8
0
  0
POLYLINE
  5
4755
100
AcDbEntity
  8
0
100
AcDb2dPolyline
 66
     1
 10
0.0
 20
0.0
 30
0.0
  0
VERTEX
  5
4E59
100
AcDbEntity
  8
0
100
AcDbVertex
100
AcDb2dVertex
 10
373.741586
 20
579.167347
 30
0.0
  0
VERTEX
  5
4E5A
100
AcDbEntity
  8
0
100
AcDbVertex
100
AcDb2dVertex
 10
367.454383
 20
575.537429
 30
0.0
  0
SEQEND
  5
4E5B
100
AcDbEntity
  8
0
  0
ARC
  5
4756
100
AcDbEntity
  8
0
100
AcDbCircle
 10
374.851988
 20
569.984237
 30
0.0
 40
9.25
100
AcDbArc
 50
143.10539
 51
157.021331
  0
POLYLINE
  5
4757
100
AcDbEntity
  8
0
100
AcDb2dPolyline
 66
     1
 10
0.0
 20
0.0
 30
0.0
  0
VERTEX
  5
4E5C
100
AcDbEntity
  8
0
100
AcDbVertex
100
AcDb2dVertex
 10
382.273897
 20
575.504905
 30
0.0
  0
VERTEX
  5
4E5D
100
AcDbEntity
  8
0
100
AcDbVertex
100
AcDb2dVertex
 10
375.922072
 20
579.172133
 30
0.0
  0
SEQEND
  5
4E5E
100
AcDbEntity
  8
0
  0
ARC
  5
4758
100
AcDbEntity
  8
0
100
AcDbCircle
 10
374.851988
 20
569.984237
 30
0.0
 40
9.25
100
AcDbArc
 50
23.481672
 51
36.643119
  0
ARC
  5
4759
100
AcDbEntity
  8
0
100
AcDbCircle
 10
374.851988
 20
569.984237
 30
0.0
 40
9.25
100
AcDbArc
 50
83.356881
 51
96.89461
  0
LINE
  5
475A
100
AcDbEntity
  8
0
100
AcDbLine
 10
419.851988
 20
580.484237
 30
0.0
 11
419.851988
 21
560.484237
 31
0.0
  0
LINE
  5
475B
100
AcDbEntity
  8
0
100
AcDbLine
 10
405.101988
 20
550.484237
 30
0.0
 11
418.601988
 21
550.484237
 31
0.0
  0
LINE
  5
475C
100
AcDbEntity
  8
0
100
AcDbLine
 10
399.851988
 20
551.484237
 30
0.0
 11
419.851988
 21
551.484237
 31
0.0
  0
LINE
  5
475D
100
AcDbEntity
  8
0
100
AcDbLine
 10
405.101988
 20
551.484237
 30
0.0
 11
405.101988
 21
550.484237
 31
0.0
  0
LINE
  5
475E
100
AcDbEntity
  8
0
100
AcDbLine
 10
419.851988
 20
560.484237
 30
0.0
 11
419.851988
 21
551.484237
 31
0.0
  0
LINE
  5
475F
100
AcDbEntity
  8
0
100
AcDbLine
 10
418.601988
 20
551.484237
 30
0.0
 11
418.601988
 21
550.484237
 31
0.0
  0
LINE
  5
4760
100
AcDbEntity
  8
0
100
AcDbLine
 10
419.951988
 20
585.984237
 30
0.0
 11
419.951988
 21
580.484237
 31
0.0
  0
LINE
  5
4761
100
AcDbEntity
  8
0
100
AcDbLine
 10
415.402634
 20
637.983591
 30
0.0
 11
409.101988
 21
644.284237
 31
0.0
  0
LINE
  5
4762
100
AcDbEntity
  8
0
100
AcDbLine
 10
349.851988
 20
551.484237
 30
0.0
 11
349.851988
 21
498.185134
 31
0.0
  0
LINE
  5
4763
100
AcDbEntity
  8
0
100
AcDbLine
 10
399.851988
 20
551.484237
 30
0.0
 11
399.851988
 21
498.185134
 31
0.0
  0
LINE
  5
4764
100
AcDbEntity
  8
0
100
AcDbLine
 10
839.668092
 20
550.484237
 30
0.0
 11
839.668092
 21
542.884237
 31
0.0
  0
LINE
  5
4765
100
AcDbEntity
  8
0
100
AcDbLine
 10
826.668092
 20
542.884237
 30
0.0
 11
826.668092
 21
550.484237
 31
0.0
  0
LINE
  5
4766
100
AcDbEntity
  8
0
100
AcDbLine
 10
765.668092
 20
542.884237
 30
0.0
 11
765.668092
 21
550.484237
 31
0.0
  0
LINE
  5
4767
100
AcDbEntity
  8
0
100
AcDbLine
 10
752.668092
 20
550.484237
 30
0.0
 11
752.668092
 21
542.884237
 31
0.0
  0
LINE
  5
4768
100
AcDbEntity
  8
0
100
AcDbLine
 10
579.01004
 20
550.484237
 30
0.0
 11
579.01004
 21
542.884237
 31
0.0
  0
LINE
  5
4769
100
AcDbEntity
  8
0
100
AcDbLine
 10
592.01004
 20
542.884237
 30
0.0
 11
592.01004
 21
550.484237
 31
0.0
  0
LINE
  5
476A
100
AcDbEntity
  8
0
100
AcDbLine
 10
564.51004
 20
560.484237
 30
0.0
 11
564.51004
 21
495.484237
 31
0.0
  0
LINE
  5
476B
100
AcDbEntity
  8
0
100
AcDbLine
 10
606.51004
 20
560.484237
 30
0.0
 11
606.51004
 21
495.484237
 31
0.0
  0
LINE
  5
476C
100
AcDbEntity
  8
0
100
AcDbLine
 10
616.51004
 20
495.484237
 30
0.0
 11
554.51004
 21
495.484237
 31
0.0
  0
LINE
  5
476D
100
AcDbEntity
  8
0
100
AcDbLine
 10
625.51004
 20
520.484237
 30
0.0
 11
625.51004
 21
508.086989
 31
0.0
  0
LINE
  5
476E
100
AcDbEntity
  8
0
100
AcDbLine
 10
616.51004
 20
545.484237
 30
0.0
 11
616.51004
 21
495.484237
 31
0.0
  0
LINE
  5
476F
100
AcDbEntity
  8
0
100
AcDbLine
 10
617.51004
 20
495.703014
 30
0.0
 11
616.51004
 21
495.703014
 31
0.0
  0
LINE
  5
4770
100
AcDbEntity
  8
0
100
AcDbLine
 10
616.51004
 20
509.203014
 30
0.0
 11
617.51004
 21
509.203014
 31
0.0
  0
LINE
  5
4771
100
AcDbEntity
  8
0
100
AcDbLine
 10
625.01004
 20
495.953014
 30
0.0
 11
617.51004
 21
495.953014
 31
0.0
  0
LINE
  5
4772
100
AcDbEntity
  8
0
100
AcDbLine
 10
625.01004
 20
495.953014
 30
0.0
 11
625.51004
 21
496.81904
 31
0.0
  0
LINE
  5
4773
100
AcDbEntity
  8
0
100
AcDbLine
 10
625.01004
 20
508.953014
 30
0.0
 11
617.51004
 21
508.953014
 31
0.0
  0
LINE
  5
4774
100
AcDbEntity
  8
0
100
AcDbLine
 10
625.01004
 20
508.953014
 30
0.0
 11
625.51004
 21
508.086989
 31
0.0
  0
LINE
  5
4775
100
AcDbEntity
  8
0
100
AcDbLine
 10
625.51004
 20
496.81904
 30
0.0
 11
625.51004
 21
508.086989
 31
0.0
  0
LINE
  5
4776
100
AcDbEntity
  8
0
100
AcDbLine
 10
617.51004
 20
495.703014
 30
0.0
 11
617.51004
 21
509.203014
 31
0.0
  0
LINE
  5
4777
100
AcDbEntity
  8
0
100
AcDbLine
 10
616.51004
 20
531.76546
 30
0.0
 11
617.51004
 21
531.76546
 31
0.0
  0
LINE
  5
4778
100
AcDbEntity
  8
0
100
AcDbLine
 10
617.51004
 20
545.26546
 30
0.0
 11
616.51004
 21
545.26546
 31
0.0
  0
LINE
  5
4779
100
AcDbEntity
  8
0
100
AcDbLine
 10
625.51004
 20
532.881486
 30
0.0
 11
625.51004
 21
520.484237
 31
0.0
  0
LINE
  5
477A
100
AcDbEntity
  8
0
100
AcDbLine
 10
617.51004
 20
545.26546
 30
0.0
 11
617.51004
 21
531.76546
 31
0.0
  0
LINE
  5
477B
100
AcDbEntity
  8
0
100
AcDbLine
 10
625.01004
 20
532.01546
 30
0.0
 11
625.51004
 21
532.881486
 31
0.0
  0
LINE
  5
477C
100
AcDbEntity
  8
0
100
AcDbLine
 10
625.01004
 20
545.01546
 30
0.0
 11
625.51004
 21
544.149435
 31
0.0
  0
LINE
  5
477D
100
AcDbEntity
  8
0
100
AcDbLine
 10
625.51004
 20
544.149435
 30
0.0
 11
625.51004
 21
532.881486
 31
0.0
  0
LINE
  5
477E
100
AcDbEntity
  8
0
100
AcDbLine
 10
625.01004
 20
532.01546
 30
0.0
 11
617.51004
 21
532.01546
 31
0.0
  0
LINE
  5
477F
100
AcDbEntity
  8
0
100
AcDbLine
 10
625.01004
 20
545.01546
 30
0.0
 11
617.51004
 21
545.01546
 31
0.0
  0
LINE
  5
4780
100
AcDbEntity
  8
0
100
AcDbLine
 10
606.51004
 20
545.484237
 30
0.0
 11
616.51004
 21
545.484237
 31
0.0
  0
LINE
  5
4781
100
AcDbEntity
  8
0
100
AcDbLine
 10
592.01004
 20
542.884237
 30
0.0
 11
591.61004
 21
542.484237
 31
0.0
  0
LINE
  5
4782
100
AcDbEntity
  8
0
100
AcDbLine
 10
579.01004
 20
542.884237
 30
0.0
 11
579.41004
 21
542.484237
 31
0.0
  0
LINE
  5
4783
100
AcDbEntity
  8
0
100
AcDbLine
 10
592.01004
 20
542.884237
 30
0.0
 11
579.01004
 21
542.884237
 31
0.0
  0
LINE
  5
4784
100
AcDbEntity
  8
0
100
AcDbLine
 10
591.61004
 20
542.484237
 30
0.0
 11
579.41004
 21
542.484237
 31
0.0
  0
LINE
  5
4785
100
AcDbEntity
  8
0
100
AcDbLine
 10
545.51004
 20
520.484237
 30
0.0
 11
545.51004
 21
506.453014
 31
0.0
  0
LINE
  5
4786
100
AcDbEntity
  8
0
100
AcDbLine
 10
554.51004
 20
545.484237
 30
0.0
 11
554.51004
 21
495.484237
 31
0.0
  0
LINE
  5
4787
100
AcDbEntity
  8
0
100
AcDbLine
 10
553.51004
 20
495.703014
 30
0.0
 11
554.51004
 21
495.703014
 31
0.0
  0
LINE
  5
4788
100
AcDbEntity
  8
0
100
AcDbLine
 10
554.51004
 20
509.203014
 30
0.0
 11
553.51004
 21
509.203014
 31
0.0
  0
LINE
  5
4789
100
AcDbEntity
  8
0
100
AcDbLine
 10
554.51004
 20
495.703014
 30
0.0
 11
554.51004
 21
509.203014
 31
0.0
  0
LINE
  5
478A
100
AcDbEntity
  8
0
100
AcDbLine
 10
553.51004
 20
494.947514
 30
0.0
 11
547.70104
 21
494.947514
 31
0.0
  0
LINE
  5
478B
100
AcDbEntity
  8
0
100
AcDbLine
 10
547.70104
 20
494.947514
 30
0.0
 11
547.01004
 21
496.144514
 31
0.0
  0
ARC
  5
478C
100
AcDbEntity
  8
0
100
AcDbCircle
 10
550.703999
 20
496.825014
 30
0.0
 40
3.541047
100
AcDbArc
 50
147.999406
 51
212.000594
  0
LINE
  5
478D
100
AcDbEntity
  8
0
100
AcDbLine
 10
547.70104
 20
498.701514
 30
0.0
 11
553.51004
 21
498.701514
 31
0.0
  0
LINE
  5
478E
100
AcDbEntity
  8
0
100
AcDbLine
 10
542.51004
 20
499.129514
 30
0.0
 11
543.18654
 21
498.453014
 31
0.0
  0
LINE
  5
478F
100
AcDbEntity
  8
0
100
AcDbLine
 10
543.18654
 20
498.453014
 30
0.0
 11
547.01004
 21
498.453014
 31
0.0
  0
LINE
  5
4790
100
AcDbEntity
  8
0
100
AcDbLine
 10
547.70104
 20
506.205514
 30
0.0
 11
553.51004
 21
506.205514
 31
0.0
  0
ARC
  5
4791
100
AcDbEntity
  8
0
100
AcDbCircle
 10
550.703999
 20
508.082014
 30
0.0
 40
3.541047
100
AcDbArc
 50
147.999406
 51
212.000594
  0
LINE
  5
4792
100
AcDbEntity
  8
0
100
AcDbLine
 10
547.01004
 20
508.762514
 30
0.0
 11
547.70104
 21
509.958514
 31
0.0
  0
LINE
  5
4793
100
AcDbEntity
  8
0
100
AcDbLine
 10
547.70104
 20
509.958514
 30
0.0
 11
553.51004
 21
509.958514
 31
0.0
  0
LINE
  5
4794
100
AcDbEntity
  8
0
100
AcDbLine
 10
547.01004
 20
506.453014
 30
0.0
 11
543.18654
 21
506.453014
 31
0.0
  0
LINE
  5
4795
100
AcDbEntity
  8
0
100
AcDbLine
 10
542.51004
 20
505.776514
 30
0.0
 11
543.18654
 21
506.453014
 31
0.0
  0
LINE
  5
4796
100
AcDbEntity
  8
0
100
AcDbLine
 10
547.01004
 20
496.144514
 30
0.0
 11
547.01004
 21
508.762514
 31
0.0
  0
LINE
  5
4797
100
AcDbEntity
  8
0
100
AcDbLine
 10
553.51004
 20
494.947514
 30
0.0
 11
553.51004
 21
509.958514
 31
0.0
  0
LINE
  5
4798
100
AcDbEntity
  8
0
100
AcDbLine
 10
553.51004
 20
495.703014
 30
0.0
 11
553.51004
 21
509.203014
 31
0.0
  0
ARC
  5
4799
100
AcDbEntity
  8
0
100
AcDbCircle
 10
560.51552
 20
502.453514
 30
0.0
 40
13.352467
100
AcDbArc
 50
163.680297
 51
196.319703
  0
LINE
  5
479A
100
AcDbEntity
  8
0
100
AcDbLine
 10
542.51004
 20
505.776514
 30
0.0
 11
542.51004
 21
499.129514
 31
0.0
  0
LINE
  5
479B
100
AcDbEntity
  8
0
100
AcDbLine
 10
545.51004
 20
534.51546
 30
0.0
 11
545.51004
 21
520.484237
 31
0.0
  0
LINE
  5
479C
100
AcDbEntity
  8
0
100
AcDbLine
 10
554.51004
 20
531.76546
 30
0.0
 11
553.51004
 21
531.76546
 31
0.0
  0
LINE
  5
479D
100
AcDbEntity
  8
0
100
AcDbLine
 10
553.51004
 20
545.26546
 30
0.0
 11
554.51004
 21
545.26546
 31
0.0
  0
LINE
  5
479E
100
AcDbEntity
  8
0
100
AcDbLine
 10
564.51004
 20
545.484237
 30
0.0
 11
554.51004
 21
545.484237
 31
0.0
  0
LINE
  5
479F
100
AcDbEntity
  8
0
100
AcDbLine
 10
554.51004
 20
545.26546
 30
0.0
 11
554.51004
 21
531.76546
 31
0.0
  0
LINE
  5
47A0
100
AcDbEntity
  8
0
100
AcDbLine
 10
547.70104
 20
531.00996
 30
0.0
 11
553.51004
 21
531.00996
 31
0.0
  0
LINE
  5
47A1
100
AcDbEntity
  8
0
100
AcDbLine
 10
547.01004
 20
532.20596
 30
0.0
 11
547.70104
 21
531.00996
 31
0.0
  0
ARC
  5
47A2
100
AcDbEntity
  8
0
100
AcDbCircle
 10
550.703999
 20
532.88646
 30
0.0
 40
3.541047
100
AcDbArc
 50
147.999406
 51
212.000594
  0
ARC
  5
47A3
100
AcDbEntity
  8
0
100
AcDbCircle
 10
560.51552
 20
538.51496
 30
0.0
 40
13.352467
100
AcDbArc
 50
163.680297
 51
196.319703
  0
LINE
  5
47A4
100
AcDbEntity
  8
0
100
AcDbLine
 10
547.70104
 20
534.76296
 30
0.0
 11
553.51004
 21
534.76296
 31
0.0
  0
LINE
  5
47A5
100
AcDbEntity
  8
0
100
AcDbLine
 10
547.70104
 20
542.26696
 30
0.0
 11
553.51004
 21
542.26696
 31
0.0
  0
ARC
  5
47A6
100
AcDbEntity
  8
0
100
AcDbCircle
 10
550.703999
 20
544.14346
 30
0.0
 40
3.541047
100
AcDbArc
 50
147.999406
 51
212.000594
  0
LINE
  5
47A7
100
AcDbEntity
  8
0
100
AcDbLine
 10
547.70104
 20
546.02096
 30
0.0
 11
547.01004
 21
544.82396
 31
0.0
  0
LINE
  5
47A8
100
AcDbEntity
  8
0
100
AcDbLine
 10
553.51004
 20
545.26546
 30
0.0
 11
553.51004
 21
531.76546
 31
0.0
  0
LINE
  5
47A9
100
AcDbEntity
  8
0
100
AcDbLine
 10
553.51004
 20
546.02096
 30
0.0
 11
547.70104
 21
546.02096
 31
0.0
  0
LINE
  5
47AA
100
AcDbEntity
  8
0
100
AcDbLine
 10
553.51004
 20
546.02096
 30
0.0
 11
553.51004
 21
531.00996
 31
0.0
  0
LINE
  5
47AB
100
AcDbEntity
  8
0
100
AcDbLine
 10
543.18654
 20
542.51546
 30
0.0
 11
547.01004
 21
542.51546
 31
0.0
  0
LINE
  5
47AC
100
AcDbEntity
  8
0
100
AcDbLine
 10
542.51004
 20
541.83896
 30
0.0
 11
543.18654
 21
542.51546
 31
0.0
  0
LINE
  5
47AD
100
AcDbEntity
  8
0
100
AcDbLine
 10
542.51004
 20
535.19196
 30
0.0
 11
542.51004
 21
541.83896
 31
0.0
  0
LINE
  5
47AE
100
AcDbEntity
  8
0
100
AcDbLine
 10
547.01004
 20
534.51546
 30
0.0
 11
543.18654
 21
534.51546
 31
0.0
  0
LINE
  5
47AF
100
AcDbEntity
  8
0
100
AcDbLine
 10
542.51004
 20
535.19196
 30
0.0
 11
543.18654
 21
534.51546
 31
0.0
  0
LINE
  5
47B0
100
AcDbEntity
  8
0
100
AcDbLine
 10
547.01004
 20
544.82396
 30
0.0
 11
547.01004
 21
532.20596
 31
0.0
  0
LINE
  5
47B1
100
AcDbEntity
  8
0
100
AcDbLine
 10
765.268092
 20
542.484237
 30
0.0
 11
753.068092
 21
542.484237
 31
0.0
  0
LINE
  5
47B2
100
AcDbEntity
  8
0
100
AcDbLine
 10
765.668092
 20
542.884237
 30
0.0
 11
752.668092
 21
542.884237
 31
0.0
  0
LINE
  5
47B3
100
AcDbEntity
  8
0
100
AcDbLine
 10
752.668092
 20
542.884237
 30
0.0
 11
753.068092
 21
542.484237
 31
0.0
  0
CIRCLE
  5
47B4
100
AcDbEntity
  8
0
100
AcDbCircle
 10
374.851988
 20
520.484237
 30
0.0
 40
17.5
  0
LINE
  5
47B5
100
AcDbEntity
  8
0
100
AcDbLine
 10
391.952769
 20
495.484237
 30
0.0
 11
357.751207
 21
495.484237
 31
0.0
  0
LINE
  5
47B6
100
AcDbEntity
  8
0
100
AcDbLine
 10
392.883211
 20
494.947014
 30
0.0
 11
386.383211
 21
498.700014
 31
0.0
  0
LINE
  5
47B7
100
AcDbEntity
  8
0
100
AcDbLine
 10
386.383211
 20
506.206014
 30
0.0
 11
392.883211
 21
509.959014
 31
0.0
  0
ARC
  5
47B8
100
AcDbEntity
  8
0
100
AcDbCircle
 10
374.851988
 20
520.484237
 30
0.0
 40
33.5
100
AcDbArc
 50
311.731817
 51
318.268183
  0
LINE
  5
47B9
100
AcDbEntity
  8
0
100
AcDbLine
 10
399.383211
 20
498.700014
 30
0.0
 11
392.883211
 21
494.947014
 31
0.0
  0
LINE
  5
47BA
100
AcDbEntity
  8
0
100
AcDbLine
 10
392.883211
 20
509.959014
 30
0.0
 11
399.383211
 21
506.206014
 31
0.0
  0
CIRCLE
  5
47BB
100
AcDbEntity
  8
0
100
AcDbCircle
 10
392.883211
 20
502.453014
 30
0.0
 40
6.30876
  0
CIRCLE
  5
47BC
100
AcDbEntity
  8
0
100
AcDbCircle
 10
392.883211
 20
502.453014
 30
0.0
 40
3.99999
  0
LINE
  5
47BD
100
AcDbEntity
  8
0
100
AcDbLine
 10
399.383211
 20
506.206014
 30
0.0
 11
399.383211
 21
498.700014
 31
0.0
  0
LINE
  5
47BE
100
AcDbEntity
  8
0
100
AcDbLine
 10
397.151091
 20
495.484237
 30
0.0
 11
393.813653
 21
495.484237
 31
0.0
  0
LINE
  5
47BF
100
AcDbEntity
  8
0
100
AcDbLine
 10
386.383211
 20
498.700014
 30
0.0
 11
386.383211
 21
506.206014
 31
0.0
  0
LINE
  5
47C0
100
AcDbEntity
  8
0
100
AcDbLine
 10
355.890323
 20
495.484237
 30
0.0
 11
352.552885
 21
495.484237
 31
0.0
  0
ARC
  5
47C1
100
AcDbEntity
  8
0
100
AcDbCircle
 10
374.851988
 20
520.484237
 30
0.0
 40
33.5
100
AcDbArc
 50
221.731817
 51
228.268183
  0
LINE
  5
47C2
100
AcDbEntity
  8
0
100
AcDbLine
 10
350.320765
 20
506.206014
 30
0.0
 11
350.320765
 21
498.700014
 31
0.0
  0
LINE
  5
47C3
100
AcDbEntity
  8
0
100
AcDbLine
 10
363.320765
 20
498.700014
 30
0.0
 11
363.320765
 21
506.206014
 31
0.0
  0
CIRCLE
  5
47C4
100
AcDbEntity
  8
0
100
AcDbCircle
 10
356.820765
 20
502.453014
 30
0.0
 40
3.99999
  0
CIRCLE
  5
47C5
100
AcDbEntity
  8
0
100
AcDbCircle
 10
356.820765
 20
502.453014
 30
0.0
 40
6.30876
  0
LINE
  5
47C6
100
AcDbEntity
  8
0
100
AcDbLine
 10
363.320765
 20
506.206014
 30
0.0
 11
356.820765
 21
509.959014
 31
0.0
  0
LINE
  5
47C7
100
AcDbEntity
  8
0
100
AcDbLine
 10
356.820765
 20
509.959014
 30
0.0
 11
350.320765
 21
506.206014
 31
0.0
  0
LINE
  5
47C8
100
AcDbEntity
  8
0
100
AcDbLine
 10
356.820765
 20
494.947014
 30
0.0
 11
363.320765
 21
498.700014
 31
0.0
  0
LINE
  5
47C9
100
AcDbEntity
  8
0
100
AcDbLine
 10
350.320765
 20
498.700014
 30
0.0
 11
356.820765
 21
494.947014
 31
0.0
  0
LINE
  5
47CA
100
AcDbEntity
  8
0
100
AcDbLine
 10
391.952769
 20
545.484237
 30
0.0
 11
357.751207
 21
545.484237
 31
0.0
  0
LINE
  5
47CB
100
AcDbEntity
  8
0
100
AcDbLine
 10
392.883211
 20
546.02146
 30
0.0
 11
386.383211
 21
542.26846
 31
0.0
  0
LINE
  5
47CC
100
AcDbEntity
  8
0
100
AcDbLine
 10
386.383211
 20
534.76246
 30
0.0
 11
392.883211
 21
531.00946
 31
0.0
  0
ARC
  5
47CD
100
AcDbEntity
  8
0
100
AcDbCircle
 10
374.851988
 20
520.484237
 30
0.0
 40
33.5
100
AcDbArc
 50
41.731817
 51
48.268183
  0
LINE
  5
47CE
100
AcDbEntity
  8
0
100
AcDbLine
 10
397.151091
 20
545.484237
 30
0.0
 11
393.813653
 21
545.484237
 31
0.0
  0
LINE
  5
47CF
100
AcDbEntity
  8
0
100
AcDbLine
 10
399.383211
 20
534.76246
 30
0.0
 11
399.383211
 21
542.26846
 31
0.0
  0
CIRCLE
  5
47D0
100
AcDbEntity
  8
0
100
AcDbCircle
 10
392.883211
 20
538.51546
 30
0.0
 40
3.99999
  0
LINE
  5
47D1
100
AcDbEntity
  8
0
100
AcDbLine
 10
399.383211
 20
542.26846
 30
0.0
 11
392.883211
 21
546.02146
 31
0.0
  0
CIRCLE
  5
47D2
100
AcDbEntity
  8
0
100
AcDbCircle
 10
392.883211
 20
538.51546
 30
0.0
 40
6.30876
  0
LINE
  5
47D3
100
AcDbEntity
  8
0
100
AcDbLine
 10
392.883211
 20
531.00946
 30
0.0
 11
399.383211
 21
534.76246
 31
0.0
  0
LINE
  5
47D4
100
AcDbEntity
  8
0
100
AcDbLine
 10
765.668092
 20
542.884237
 30
0.0
 11
765.268092
 21
542.484237
 31
0.0
  0
LINE
  5
47D5
100
AcDbEntity
  8
0
100
AcDbLine
 10
386.383211
 20
542.26846
 30
0.0
 11
386.383211
 21
534.76246
 31
0.0
  0
LINE
  5
47D6
100
AcDbEntity
  8
0
100
AcDbLine
 10
355.890323
 20
545.484237
 30
0.0
 11
352.552885
 21
545.484237
 31
0.0
  0
ARC
  5
47D7
100
AcDbEntity
  8
0
100
AcDbCircle
 10
374.851988
 20
520.484237
 30
0.0
 40
33.5
100
AcDbArc
 50
131.731817
 51
138.268183
  0
LINE
  5
47D8
100
AcDbEntity
  8
0
100
AcDbLine
 10
350.320765
 20
542.26846
 30
0.0
 11
356.820765
 21
546.02146
 31
0.0
  0
LINE
  5
47D9
100
AcDbEntity
  8
0
100
AcDbLine
 10
356.820765
 20
546.02146
 30
0.0
 11
363.320765
 21
542.26846
 31
0.0
  0
LINE
  5
47DA
100
AcDbEntity
  8
0
100
AcDbLine
 10
356.820765
 20
531.00946
 30
0.0
 11
350.320765
 21
534.76246
 31
0.0
  0
LINE
  5
47DB
100
AcDbEntity
  8
0
100
AcDbLine
 10
363.320765
 20
534.76246
 30
0.0
 11
356.820765
 21
531.00946
 31
0.0
  0
CIRCLE
  5
47DC
100
AcDbEntity
  8
0
100
AcDbCircle
 10
356.820765
 20
538.51546
 30
0.0
 40
6.30876
  0
CIRCLE
  5
47DD
100
AcDbEntity
  8
0
100
AcDbCircle
 10
356.820765
 20
538.51546
 30
0.0
 40
3.99999
  0
LINE
  5
47DE
100
AcDbEntity
  8
0
100
AcDbLine
 10
363.320765
 20
542.26846
 30
0.0
 11
363.320765
 21
534.76246
 31
0.0
  0
LINE
  5
47DF
100
AcDbEntity
  8
0
100
AcDbLine
 10
350.320765
 20
534.76246
 30
0.0
 11
350.320765
 21
542.26846
 31
0.0
  0
LINE
  5
47E0
100
AcDbEntity
  8
0
100
AcDbLine
 10
826.668092
 20
542.884237
 30
0.0
 11
827.068092
 21
542.484237
 31
0.0
  0
LINE
  5
47E1
100
AcDbEntity
  8
0
100
AcDbLine
 10
839.668092
 20
542.884237
 30
0.0
 11
839.268092
 21
542.484237
 31
0.0
  0
LINE
  5
47E2
100
AcDbEntity
  8
0
100
AcDbLine
 10
826.668092
 20
542.884237
 30
0.0
 11
839.668092
 21
542.884237
 31
0.0
  0
LINE
  5
47E3
100
AcDbEntity
  8
0
100
AcDbLine
 10
827.068092
 20
542.484237
 30
0.0
 11
839.268092
 21
542.484237
 31
0.0
  0
LINE
  5
47E4
100
AcDbEntity
  8
0
100
AcDbLine
 10
630.61004
 20
585.984237
 30
0.0
 11
626.060686
 21
637.983591
 31
0.0
  0
LINE
  5
47E5
100
AcDbEntity
  8
0
100
AcDbLine
 10
540.41004
 20
585.984237
 30
0.0
 11
544.959394
 21
637.983591
 31
0.0
  0
LINE
  5
47E6
100
AcDbEntity
  8
0
100
AcDbLine
 10
564.51004
 20
551.484237
 30
0.0
 11
606.51004
 21
551.484237
 31
0.0
  0
LINE
  5
47E7
100
AcDbEntity
  8
0
100
AcDbLine
 10
540.41004
 20
585.984237
 30
0.0
 11
630.61004
 21
585.984237
 31
0.0
  0
LINE
  5
47E8
100
AcDbEntity
  8
0
100
AcDbLine
 10
537.51004
 20
580.484237
 30
0.0
 11
630.61004
 21
580.484237
 31
0.0
  0
LINE
  5
47E9
100
AcDbEntity
  8
0
100
AcDbLine
 10
537.51004
 20
560.484237
 30
0.0
 11
611.166123
 21
560.484237
 31
0.0
  0
LINE
  5
47EA
100
AcDbEntity
  8
0
100
AcDbLine
 10
564.51004
 20
560.484237
 30
0.0
 11
606.51004
 21
560.484237
 31
0.0
  0
LINE
  5
47EB
100
AcDbEntity
  8
0
100
AcDbLine
 10
606.51004
 20
560.484237
 30
0.0
 11
564.51004
 21
560.484237
 31
0.0
  0
LINE
  5
47EC
100
AcDbEntity
  8
0
100
AcDbLine
 10
537.51004
 20
559.984237
 30
0.0
 11
537.51004
 21
580.484237
 31
0.0
  0
LINE
  5
47ED
100
AcDbEntity
  8
0
100
AcDbLine
 10
533.973455
 20
573.829766
 30
0.0
 11
533.973455
 21
566.138709
 31
0.0
  0
LINE
  5
47EE
100
AcDbEntity
  8
0
100
AcDbLine
 10
527.818983
 20
573.829766
 30
0.0
 11
527.818983
 21
566.138709
 31
0.0
  0
LINE
  5
47EF
100
AcDbEntity
  8
0
100
AcDbLine
 10
521.355569
 20
560.756595
 30
0.0
 11
521.355569
 21
579.21188
 31
0.0
  0
LINE
  5
47F0
100
AcDbEntity
  8
0
100
AcDbLine
 10
517.51004
 20
578.065538
 30
0.0
 11
517.51004
 21
561.902936
 31
0.0
  0
LINE
  5
47F1
100
AcDbEntity
  8
0
100
AcDbLine
 10
523.209227
 20
578.829766
 30
0.0
 11
523.209227
 21
561.520823
 31
0.0
  0
LINE
  5
47F2
100
AcDbEntity
  8
0
100
AcDbLine
 10
527.818983
 20
559.984237
 30
0.0
 11
537.51004
 21
559.984237
 31
0.0
  0
LINE
  5
47F3
100
AcDbEntity
  8
0
100
AcDbLine
 10
533.973455
 20
566.138709
 30
0.0
 11
527.818983
 21
566.138709
 31
0.0
  0
LINE
  5
47F4
100
AcDbEntity
  8
0
100
AcDbLine
 10
527.818983
 20
564.21188
 30
0.0
 11
533.973455
 21
564.21188
 31
0.0
  0
LINE
  5
47F5
100
AcDbEntity
  8
0
100
AcDbLine
 10
517.51004
 20
566.298522
 30
0.0
 11
521.355569
 21
566.298522
 31
0.0
  0
LINE
  5
47F6
100
AcDbEntity
  8
0
100
AcDbLine
 10
517.51004
 20
564.46357
 30
0.0
 11
521.355569
 21
564.46357
 31
0.0
  0
LINE
  5
47F7
100
AcDbEntity
  8
0
100
AcDbLine
 10
517.51004
 20
561.902936
 30
0.0
 11
518.282398
 21
560.756595
 31
0.0
  0
LINE
  5
47F8
100
AcDbEntity
  8
0
100
AcDbLine
 10
521.355569
 20
563.057408
 30
0.0
 11
523.209227
 21
563.057408
 31
0.0
  0
LINE
  5
47F9
100
AcDbEntity
  8
0
100
AcDbLine
 10
524.1347
 20
561.436851
 30
0.0
 11
523.209227
 21
561.520823
 31
0.0
  0
LINE
  5
47FA
100
AcDbEntity
  8
0
100
AcDbLine
 10
524.355569
 20
565.179359
 30
0.0
 11
527.818983
 21
564.21188
 31
0.0
  0
LINE
  5
47FB
100
AcDbEntity
  8
0
100
AcDbLine
 10
527.818983
 20
566.138709
 30
0.0
 11
524.355569
 21
565.179359
 31
0.0
  0
LINE
  5
47FC
100
AcDbEntity
  8
0
100
AcDbLine
 10
518.282398
 20
560.756595
 30
0.0
 11
521.355569
 21
560.756595
 31
0.0
  0
LINE
  5
47FD
100
AcDbEntity
  8
0
100
AcDbLine
 10
527.818983
 20
564.21188
 30
0.0
 11
527.818983
 21
559.984237
 31
0.0
  0
LINE
  5
47FE
100
AcDbEntity
  8
0
100
AcDbLine
 10
527.818983
 20
559.984237
 30
0.0
 11
524.127926
 21
561.439522
 31
0.0
  0
LINE
  5
47FF
100
AcDbEntity
  8
0
100
AcDbLine
 10
533.973455
 20
564.21188
 30
0.0
 11
533.973455
 21
559.984237
 31
0.0
  0
LINE
  5
4800
100
AcDbEntity
  8
0
100
AcDbLine
 10
537.51004
 20
579.984237
 30
0.0
 11
527.818983
 21
579.984237
 31
0.0
  0
LINE
  5
4801
100
AcDbEntity
  8
0
100
AcDbLine
 10
533.973455
 20
575.756595
 30
0.0
 11
527.818983
 21
575.756595
 31
0.0
  0
LINE
  5
4802
100
AcDbEntity
  8
0
100
AcDbLine
 10
527.818983
 20
573.829766
 30
0.0
 11
533.973455
 21
573.829766
 31
0.0
  0
LINE
  5
4803
100
AcDbEntity
  8
0
100
AcDbLine
 10
517.51004
 20
575.504905
 30
0.0
 11
521.355569
 21
575.504905
 31
0.0
  0
LINE
  5
4804
100
AcDbEntity
  8
0
100
AcDbLine
 10
517.51004
 20
573.669952
 30
0.0
 11
521.355569
 21
573.669952
 31
0.0
  0
LINE
  5
4805
100
AcDbEntity
  8
0
100
AcDbLine
 10
518.282398
 20
579.21188
 30
0.0
 11
517.51004
 21
578.065538
 31
0.0
  0
LINE
  5
4806
100
AcDbEntity
  8
0
100
AcDbLine
 10
524.125005
 20
578.910217
 30
0.0
 11
523.209227
 21
578.829766
 31
0.0
  0
LINE
  5
4807
100
AcDbEntity
  8
0
100
AcDbLine
 10
523.209227
 20
576.911067
 30
0.0
 11
521.355569
 21
576.911067
 31
0.0
  0
LINE
  5
4808
100
AcDbEntity
  8
0
100
AcDbLine
 10
524.125005
 20
578.910217
 30
0.0
 11
527.818983
 21
579.984237
 31
0.0
  0
LINE
  5
4809
100
AcDbEntity
  8
0
100
AcDbLine
 10
521.355569
 20
579.21188
 30
0.0
 11
518.282398
 21
579.21188
 31
0.0
  0
LINE
  5
480A
100
AcDbEntity
  8
0
100
AcDbLine
 10
524.355569
 20
574.789115
 30
0.0
 11
527.818983
 21
573.829766
 31
0.0
  0
LINE
  5
480B
100
AcDbEntity
  8
0
100
AcDbLine
 10
527.818983
 20
575.756595
 30
0.0
 11
524.355569
 21
574.789115
 31
0.0
  0
LINE
  5
480C
100
AcDbEntity
  8
0
100
AcDbLine
 10
527.818983
 20
579.984237
 30
0.0
 11
527.818983
 21
575.756595
 31
0.0
  0
LINE
  5
480D
100
AcDbEntity
  8
0
100
AcDbLine
 10
533.973455
 20
579.984237
 30
0.0
 11
533.973455
 21
575.756595
 31
0.0
  0
LINE
  5
480E
100
AcDbEntity
  8
0
100
AcDbLine
 10
540.41004
 20
585.984237
 30
0.0
 11
540.41004
 21
580.484237
 31
0.0
  0
LINE
  5
480F
100
AcDbEntity
  8
0
100
AcDbLine
 10
592.26004
 20
551.484237
 30
0.0
 11
592.26004
 21
550.484237
 31
0.0
  0
LINE
  5
4810
100
AcDbEntity
  8
0
100
AcDbLine
 10
578.76004
 20
551.484237
 30
0.0
 11
578.76004
 21
550.484237
 31
0.0
  0
LINE
  5
4811
100
AcDbEntity
  8
0
100
AcDbLine
 10
592.26004
 20
550.484237
 30
0.0
 11
578.76004
 21
550.484237
 31
0.0
  0
LINE
  5
4812
100
AcDbEntity
  8
0
100
AcDbLine
 10
634.01004
 20
562.484237
 30
0.0
 11
634.01004
 21
570.984237
 31
0.0
  0
LINE
  5
4813
100
AcDbEntity
  8
0
100
AcDbLine
 10
635.51004
 20
560.984237
 30
0.0
 11
635.51004
 21
570.984237
 31
0.0
  0
LINE
  5
4814
100
AcDbEntity
  8
0
100
AcDbLine
 10
630.51004
 20
580.484237
 30
0.0
 11
630.51004
 21
562.484237
 31
0.0
  0
LINE
  5
4815
100
AcDbEntity
  8
0
100
AcDbLine
 10
611.166123
 20
560.984237
 30
0.0
 11
635.51004
 21
560.984237
 31
0.0
  0
LINE
  5
4816
100
AcDbEntity
  8
0
100
AcDbLine
 10
611.166123
 20
562.484237
 30
0.0
 11
634.01004
 21
562.484237
 31
0.0
  0
LINE
  5
4817
100
AcDbEntity
  8
0
100
AcDbLine
 10
611.166123
 20
562.484237
 30
0.0
 11
611.166123
 21
560.484237
 31
0.0
  0
LINE
  5
4818
100
AcDbEntity
  8
0
100
AcDbLine
 10
634.01004
 20
570.984237
 30
0.0
 11
635.51004
 21
570.984237
 31
0.0
  0
LINE
  5
4819
100
AcDbEntity
  8
0
100
AcDbLine
 10
630.61004
 20
585.984237
 30
0.0
 11
630.61004
 21
580.484237
 31
0.0
  0
LINE
  5
481A
100
AcDbEntity
  8
0
100
AcDbLine
 10
551.26004
 20
644.284237
 30
0.0
 11
619.76004
 21
644.284237
 31
0.0
  0
LINE
  5
481B
100
AcDbEntity
  8
0
100
AcDbLine
 10
544.959394
 20
637.983591
 30
0.0
 11
626.060686
 21
637.983591
 31
0.0
  0
LINE
  5
481C
100
AcDbEntity
  8
0
100
AcDbLine
 10
544.959394
 20
637.983591
 30
0.0
 11
551.26004
 21
644.284237
 31
0.0
  0
LINE
  5
481D
100
AcDbEntity
  8
0
100
AcDbLine
 10
626.060686
 20
637.983591
 30
0.0
 11
619.76004
 21
644.284237
 31
0.0
  0
LINE
  5
481E
100
AcDbEntity
  8
0
100
AcDbLine
 10
841.268092
 20
585.984237
 30
0.0
 11
836.718738
 21
637.983591
 31
0.0
  0
LINE
  5
481F
100
AcDbEntity
  8
0
100
AcDbLine
 10
751.068092
 20
585.984237
 30
0.0
 11
755.617446
 21
637.983591
 31
0.0
  0
LINE
  5
4820
100
AcDbEntity
  8
0
100
AcDbLine
 10
771.168092
 20
551.484237
 30
0.0
 11
751.168092
 21
551.484237
 31
0.0
  0
LINE
  5
4821
100
AcDbEntity
  8
0
100
AcDbLine
 10
765.918092
 20
550.484237
 30
0.0
 11
752.418092
 21
550.484237
 31
0.0
  0
LINE
  5
4822
100
AcDbEntity
  8
0
100
AcDbLine
 10
757.906232
 20
562.484237
 30
0.0
 11
790.168092
 21
562.484237
 31
0.0
  0
LINE
  5
4823
100
AcDbEntity
  8
0
100
AcDbLine
 10
751.168092
 20
560.484237
 30
0.0
 11
841.168092
 21
560.484237
 31
0.0
  0
LINE
  5
4824
100
AcDbEntity
  8
0
100
AcDbLine
 10
751.068092
 20
580.484237
 30
0.0
 11
841.268092
 21
580.484237
 31
0.0
  0
LINE
  5
4825
100
AcDbEntity
  8
0
100
AcDbLine
 10
751.068092
 20
585.984237
 30
0.0
 11
841.268092
 21
585.984237
 31
0.0
  0
LINE
  5
4826
100
AcDbEntity
  8
0
100
AcDbLine
 10
751.168092
 20
580.484237
 30
0.0
 11
751.168092
 21
560.484237
 31
0.0
  0
LINE
  5
4827
100
AcDbEntity
  8
0
100
AcDbLine
 10
751.168092
 20
560.484237
 30
0.0
 11
751.168092
 21
551.484237
 31
0.0
  0
LINE
  5
4828
100
AcDbEntity
  8
0
100
AcDbLine
 10
752.418092
 20
551.484237
 30
0.0
 11
752.418092
 21
550.484237
 31
0.0
  0
LINE
  5
4829
100
AcDbEntity
  8
0
100
AcDbLine
 10
757.906232
 20
562.484237
 30
0.0
 11
757.906232
 21
560.484237
 31
0.0
  0
LINE
  5
482A
100
AcDbEntity
  8
0
100
AcDbLine
 10
751.068092
 20
585.984237
 30
0.0
 11
751.068092
 21
580.484237
 31
0.0
  0
LINE
  5
482B
100
AcDbEntity
  8
0
100
AcDbLine
 10
802.168092
 20
562.484237
 30
0.0
 11
834.429953
 21
562.484237
 31
0.0
  0
ARC
  5
482C
100
AcDbEntity
  8
0
100
AcDbCircle
 10
796.168092
 20
564.984237
 30
0.0
 40
6.0
100
AcDbArc
 50
0.0
 51
180.0
  0
LINE
  5
482D
100
AcDbEntity
  8
0
100
AcDbLine
 10
765.918092
 20
551.484237
 30
0.0
 11
765.918092
 21
550.484237
 31
0.0
  0
CIRCLE
  5
482E
100
AcDbEntity
  8
0
100
AcDbCircle
 10
796.168092
 20
565.984237
 30
0.0
 40
2.5
  0
LINE
  5
482F
100
AcDbEntity
  8
0
100
AcDbLine
 10
802.168092
 20
564.984237
 30
0.0
 11
802.168092
 21
560.984237
 31
0.0
  0
LINE
  5
4830
100
AcDbEntity
  8
0
100
AcDbLine
 10
790.168092
 20
564.984237
 30
0.0
 11
790.168092
 21
560.984237
 31
0.0
  0
LINE
  5
4831
100
AcDbEntity
  8
0
100
AcDbLine
 10
790.168092
 20
560.984237
 30
0.0
 11
802.168092
 21
560.984237
 31
0.0
  0
LINE
  5
4832
100
AcDbEntity
  8
0
100
AcDbLine
 10
841.168092
 20
580.484237
 30
0.0
 11
841.168092
 21
560.484237
 31
0.0
  0
LINE
  5
4833
100
AcDbEntity
  8
0
100
AcDbLine
 10
821.168092
 20
551.484237
 30
0.0
 11
841.168092
 21
551.484237
 31
0.0
  0
LINE
  5
4834
100
AcDbEntity
  8
0
100
AcDbLine
 10
841.168092
 20
560.484237
 30
0.0
 11
841.168092
 21
551.484237
 31
0.0
  0
LINE
  5
4835
100
AcDbEntity
  8
0
100
AcDbLine
 10
826.418092
 20
550.484237
 30
0.0
 11
839.918092
 21
550.484237
 31
0.0
  0
LINE
  5
4836
100
AcDbEntity
  8
0
100
AcDbLine
 10
839.918092
 20
551.484237
 30
0.0
 11
839.918092
 21
550.484237
 31
0.0
  0
LINE
  5
4837
100
AcDbEntity
  8
0
100
AcDbLine
 10
826.418092
 20
551.484237
 30
0.0
 11
826.418092
 21
550.484237
 31
0.0
  0
LINE
  5
4838
100
AcDbEntity
  8
0
100
AcDbLine
 10
834.429953
 20
562.484237
 30
0.0
 11
834.429953
 21
560.484237
 31
0.0
  0
LINE
  5
4839
100
AcDbEntity
  8
0
100
AcDbLine
 10
841.268092
 20
585.984237
 30
0.0
 11
841.268092
 21
580.484237
 31
0.0
  0
LINE
  5
483A
100
AcDbEntity
  8
0
100
AcDbLine
 10
755.617446
 20
637.983591
 30
0.0
 11
836.718738
 21
637.983591
 31
0.0
  0
LINE
  5
483B
100
AcDbEntity
  8
0
100
AcDbLine
 10
761.918092
 20
644.284237
 30
0.0
 11
830.418092
 21
644.284237
 31
0.0
  0
LINE
  5
483C
100
AcDbEntity
  8
0
100
AcDbLine
 10
755.617446
 20
637.983591
 30
0.0
 11
761.918092
 21
644.284237
 31
0.0
  0
LINE
  5
483D
100
AcDbEntity
  8
0
100
AcDbLine
 10
836.718738
 20
637.983591
 30
0.0
 11
830.418092
 21
644.284237
 31
0.0
  0
LINE
  5
483E
100
AcDbEntity
  8
0
100
AcDbLine
 10
1435.098309
 20
553.484237
 30
0.0
 11
1435.098309
 21
497.73045
 31
0.0
  0
ARC
  5
483F
100
AcDbEntity
  8
0
100
AcDbCircle
 10
1462.598309
 20
522.484237
 30
0.0
 40
37.0
100
AcDbArc
 50
131.991572
 51
138.008428
  0
ARC
  5
4840
100
AcDbEntity
  8
0
100
AcDbCircle
 10
1462.598309
 20
522.484237
 30
0.0
 40
37.0
100
AcDbArc
 50
41.991572
 51
48.008428
  0
LINE
  5
4841
100
AcDbEntity
  8
0
100
AcDbLine
 10
1490.098309
 20
553.484237
 30
0.0
 11
1490.098309
 21
497.73045
 31
0.0
  0
LINE
  5
4842
100
AcDbEntity
  8
0
100
AcDbLine
 10
1010.782205
 20
544.884237
 30
0.0
 11
1010.782205
 21
552.484237
 31
0.0
  0
LINE
  5
4843
100
AcDbEntity
  8
0
100
AcDbLine
 10
997.782205
 20
552.484237
 30
0.0
 11
997.782205
 21
544.884237
 31
0.0
  0
LINE
  5
4844
100
AcDbEntity
  8
0
100
AcDbLine
 10
1071.782205
 20
544.884237
 30
0.0
 11
1071.782205
 21
552.484237
 31
0.0
  0
LINE
  5
4845
100
AcDbEntity
  8
0
100
AcDbLine
 10
1084.782205
 20
552.484237
 30
0.0
 11
1084.782205
 21
544.884237
 31
0.0
  0
POLYLINE
  5
4846
100
AcDbEntity
  8
0
100
AcDb2dPolyline
 66
     1
 10
0.0
 20
0.0
 30
0.0
 70
     1
  0
VERTEX
  5
4E5F
100
AcDbEntity
  8
0
100
AcDbVertex
100
AcDb2dVertex
 10
1440.713715
 20
505.331694
 30
0.0
  0
VERTEX
  5
4E60
100
AcDbEntity
  8
0
100
AcDbVertex
100
AcDb2dVertex
 10
1438.981664
 20
502.331694
 30
0.0
  0
VERTEX
  5
4E61
100
AcDbEntity
  8
0
100
AcDbVertex
100
AcDb2dVertex
 10
1440.713715
 20
499.331694
 30
0.0
  0
VERTEX
  5
4E62
100
AcDbEntity
  8
0
100
AcDbVertex
100
AcDb2dVertex
 10
1444.177817
 20
499.331694
 30
0.0
  0
VERTEX
  5
4E63
100
AcDbEntity
  8
0
100
AcDbVertex
100
AcDb2dVertex
 10
1445.909868
 20
502.331694
 30
0.0
  0
VERTEX
  5
4E64
100
AcDbEntity
  8
0
100
AcDbVertex
100
AcDb2dVertex
 10
1444.177817
 20
505.331694
 30
0.0
  0
SEQEND
  5
4E65
100
AcDbEntity
  8
0
  0
CIRCLE
  5
4847
100
AcDbEntity
  8
0
100
AcDbCircle
 10
1442.445766
 20
502.331694
 30
0.0
 40
6.5
  0
POLYLINE
  5
4848
100
AcDbEntity
  8
0
100
AcDb2dPolyline
 66
     1
 10
0.0
 20
0.0
 30
0.0
 70
     1
  0
VERTEX
  5
4E66
100
AcDbEntity
  8
0
100
AcDbVertex
100
AcDb2dVertex
 10
1440.713715
 20
539.636781
 30
0.0
  0
VERTEX
  5
4E67
100
AcDbEntity
  8
0
100
AcDbVertex
100
AcDb2dVertex
 10
1438.981664
 20
542.636781
 30
0.0
  0
VERTEX
  5
4E68
100
AcDbEntity
  8
0
100
AcDbVertex
100
AcDb2dVertex
 10
1440.713715
 20
545.636781
 30
0.0
  0
VERTEX
  5
4E69
100
AcDbEntity
  8
0
100
AcDbVertex
100
AcDb2dVertex
 10
1444.177817
 20
545.636781
 30
0.0
  0
VERTEX
  5
4E6A
100
AcDbEntity
  8
0
100
AcDbVertex
100
AcDb2dVertex
 10
1445.909868
 20
542.636781
 30
0.0
  0
VERTEX
  5
4E6B
100
AcDbEntity
  8
0
100
AcDbVertex
100
AcDb2dVertex
 10
1444.177817
 20
539.636781
 30
0.0
  0
SEQEND
  5
4E6C
100
AcDbEntity
  8
0
  0
CIRCLE
  5
4849
100
AcDbEntity
  8
0
100
AcDbCircle
 10
1442.445766
 20
542.636781
 30
0.0
 40
6.5
  0
CIRCLE
  5
484A
100
AcDbEntity
  8
0
100
AcDbCircle
 10
1462.598309
 20
522.484237
 30
0.0
 40
20.0
  0
LINE
  5
484B
100
AcDbEntity
  8
0
100
AcDbLine
 10
1437.844522
 20
494.984237
 30
0.0
 11
1487.352097
 21
494.984237
 31
0.0
  0
LINE
  5
484C
100
AcDbEntity
  8
0
100
AcDbLine
 10
1437.844522
 20
549.984237
 30
0.0
 11
1487.352097
 21
549.984237
 31
0.0
  0
CIRCLE
  5
484D
100
AcDbEntity
  8
0
100
AcDbCircle
 10
1482.750852
 20
502.331694
 30
0.0
 40
6.5
  0
ARC
  5
484E
100
AcDbEntity
  8
0
100
AcDbCircle
 10
1462.598309
 20
522.484237
 30
0.0
 40
37.0
100
AcDbArc
 50
311.991572
 51
318.008428
  0
POLYLINE
  5
484F
100
AcDbEntity
  8
0
100
AcDb2dPolyline
 66
     1
 10
0.0
 20
0.0
 30
0.0
 70
     1
  0
VERTEX
  5
4E6D
100
AcDbEntity
  8
0
100
AcDbVertex
100
AcDb2dVertex
 10
1484.482903
 20
505.331694
 30
0.0
  0
VERTEX
  5
4E6E
100
AcDbEntity
  8
0
100
AcDbVertex
100
AcDb2dVertex
 10
1486.214954
 20
502.331694
 30
0.0
  0
VERTEX
  5
4E6F
100
AcDbEntity
  8
0
100
AcDbVertex
100
AcDb2dVertex
 10
1484.482903
 20
499.331694
 30
0.0
  0
VERTEX
  5
4E70
100
AcDbEntity
  8
0
100
AcDbVertex
100
AcDb2dVertex
 10
1481.018802
 20
499.331694
 30
0.0
  0
VERTEX
  5
4E71
100
AcDbEntity
  8
0
100
AcDbVertex
100
AcDb2dVertex
 10
1479.286751
 20
502.331694
 30
0.0
  0
VERTEX
  5
4E72
100
AcDbEntity
  8
0
100
AcDbVertex
100
AcDb2dVertex
 10
1481.018802
 20
505.331694
 30
0.0
  0
SEQEND
  5
4E73
100
AcDbEntity
  8
0
  0
CIRCLE
  5
4850
100
AcDbEntity
  8
0
100
AcDbCircle
 10
1482.750852
 20
542.636781
 30
0.0
 40
6.5
  0
LINE
  5
4851
100
AcDbEntity
  8
0
100
AcDbLine
 10
1010.782205
 20
544.884237
 30
0.0
 11
1010.382205
 21
544.484237
 31
0.0
  0
LINE
  5
4852
100
AcDbEntity
  8
0
100
AcDbLine
 10
997.782205
 20
544.884237
 30
0.0
 11
998.182205
 21
544.484237
 31
0.0
  0
LINE
  5
4853
100
AcDbEntity
  8
0
100
AcDbLine
 10
1010.782205
 20
544.884237
 30
0.0
 11
997.782205
 21
544.884237
 31
0.0
  0
LINE
  5
4854
100
AcDbEntity
  8
0
100
AcDbLine
 10
1010.382205
 20
544.484237
 30
0.0
 11
998.182205
 21
544.484237
 31
0.0
  0
POLYLINE
  5
4855
100
AcDbEntity
  8
0
100
AcDb2dPolyline
 66
     1
 10
0.0
 20
0.0
 30
0.0
 70
     1
  0
VERTEX
  5
4E74
100
AcDbEntity
  8
0
100
AcDbVertex
100
AcDb2dVertex
 10
1484.482903
 20
539.636781
 30
0.0
  0
VERTEX
  5
4E75
100
AcDbEntity
  8
0
100
AcDbVertex
100
AcDb2dVertex
 10
1486.214954
 20
542.636781
 30
0.0
  0
VERTEX
  5
4E76
100
AcDbEntity
  8
0
100
AcDbVertex
100
AcDb2dVertex
 10
1484.482903
 20
545.636781
 30
0.0
  0
VERTEX
  5
4E77
100
AcDbEntity
  8
0
100
AcDbVertex
100
AcDb2dVertex
 10
1481.018802
 20
545.636781
 30
0.0
  0
VERTEX
  5
4E78
100
AcDbEntity
  8
0
100
AcDbVertex
100
AcDb2dVertex
 10
1479.286751
 20
542.636781
 30
0.0
  0
VERTEX
  5
4E79
100
AcDbEntity
  8
0
100
AcDbVertex
100
AcDb2dVertex
 10
1481.018802
 20
539.636781
 30
0.0
  0
SEQEND
  5
4E7A
100
AcDbEntity
  8
0
  0
ARC
  5
4856
100
AcDbEntity
  8
0
100
AcDbCircle
 10
1462.598309
 20
522.484237
 30
0.0
 40
37.0
100
AcDbArc
 50
221.991572
 51
228.008428
  0
LINE
  5
4857
100
AcDbEntity
  8
0
100
AcDbLine
 10
1072.182205
 20
544.484237
 30
0.0
 11
1084.382205
 21
544.484237
 31
0.0
  0
LINE
  5
4858
100
AcDbEntity
  8
0
100
AcDbLine
 10
1071.782205
 20
544.884237
 30
0.0
 11
1084.782205
 21
544.884237
 31
0.0
  0
LINE
  5
4859
100
AcDbEntity
  8
0
100
AcDbLine
 10
1071.782205
 20
544.884237
 30
0.0
 11
1072.182205
 21
544.484237
 31
0.0
  0
LINE
  5
485A
100
AcDbEntity
  8
0
100
AcDbLine
 10
1084.782205
 20
544.884237
 30
0.0
 11
1084.382205
 21
544.484237
 31
0.0
  0
LINE
  5
485B
100
AcDbEntity
  8
0
100
AcDbLine
 10
1086.382205
 20
587.984237
 30
0.0
 11
1081.832851
 21
639.983591
 31
0.0
  0
LINE
  5
485C
100
AcDbEntity
  8
0
100
AcDbLine
 10
996.182205
 20
587.984237
 30
0.0
 11
1000.731559
 21
639.983591
 31
0.0
  0
LINE
  5
485D
100
AcDbEntity
  8
0
100
AcDbLine
 10
1086.382205
 20
582.484237
 30
0.0
 11
996.182205
 21
582.484237
 31
0.0
  0
LINE
  5
485E
100
AcDbEntity
  8
0
100
AcDbLine
 10
1086.382205
 20
587.984237
 30
0.0
 11
996.182205
 21
587.984237
 31
0.0
  0
LINE
  5
485F
100
AcDbEntity
  8
0
100
AcDbLine
 10
1086.282205
 20
562.484237
 30
0.0
 11
996.282205
 21
562.484237
 31
0.0
  0
LINE
  5
4860
100
AcDbEntity
  8
0
100
AcDbLine
 10
996.282205
 20
582.484237
 30
0.0
 11
996.282205
 21
562.484237
 31
0.0
  0
LINE
  5
4861
100
AcDbEntity
  8
0
100
AcDbLine
 10
1011.032205
 20
553.484237
 30
0.0
 11
1011.032205
 21
552.484237
 31
0.0
  0
LINE
  5
4862
100
AcDbEntity
  8
0
100
AcDbLine
 10
997.532205
 20
553.484237
 30
0.0
 11
997.532205
 21
552.484237
 31
0.0
  0
LINE
  5
4863
100
AcDbEntity
  8
0
100
AcDbLine
 10
996.282205
 20
562.484237
 30
0.0
 11
996.282205
 21
553.484237
 31
0.0
  0
LINE
  5
4864
100
AcDbEntity
  8
0
100
AcDbLine
 10
1013.782205
 20
553.484237
 30
0.0
 11
996.282205
 21
553.484237
 31
0.0
  0
LINE
  5
4865
100
AcDbEntity
  8
0
100
AcDbLine
 10
1011.032205
 20
552.484237
 30
0.0
 11
997.532205
 21
552.484237
 31
0.0
  0
LINE
  5
4866
100
AcDbEntity
  8
0
100
AcDbLine
 10
996.182205
 20
587.984237
 30
0.0
 11
996.182205
 21
582.484237
 31
0.0
  0
POLYLINE
  5
4867
100
AcDbEntity
  8
0
100
AcDb2dPolyline
 66
     1
 10
0.0
 20
0.0
 30
0.0
  0
VERTEX
  5
4E7B
100
AcDbEntity
  8
0
100
AcDbVertex
100
AcDb2dVertex
 10
1049.76619
 20
568.298522
 30
0.0
  0
VERTEX
  5
4E7C
100
AcDbEntity
  8
0
100
AcDbVertex
100
AcDb2dVertex
 10
1049.76619
 20
575.669952
 30
0.0
  0
SEQEND
  5
4E7D
100
AcDbEntity
  8
0
  0
POLYLINE
  5
4868
100
AcDbEntity
  8
0
100
AcDb2dPolyline
 66
     1
 10
0.0
 20
0.0
 30
0.0
  0
VERTEX
  5
4E7E
100
AcDbEntity
  8
0
100
AcDbVertex
100
AcDb2dVertex
 10
1032.76619
 20
575.59533
 30
0.0
  0
VERTEX
  5
4E7F
100
AcDbEntity
  8
0
100
AcDbVertex
100
AcDb2dVertex
 10
1032.76619
 20
568.373145
 30
0.0
  0
SEQEND
  5
4E80
100
AcDbEntity
  8
0
  0
CIRCLE
  5
4869
100
AcDbEntity
  8
0
100
AcDbCircle
 10
1041.282205
 20
571.984237
 30
0.0
 40
8.156094
  0
POLYLINE
  5
486A
100
AcDbEntity
  8
0
100
AcDb2dPolyline
 66
     1
 10
0.0
 20
0.0
 30
0.0
  0
VERTEX
  5
4E81
100
AcDbEntity
  8
0
100
AcDbVertex
100
AcDb2dVertex
 10
1033.884599
 20
566.431046
 30
0.0
  0
VERTEX
  5
4E82
100
AcDbEntity
  8
0
100
AcDbVertex
100
AcDb2dVertex
 10
1040.171803
 20
562.801127
 30
0.0
  0
SEQEND
  5
4E83
100
AcDbEntity
  8
0
  0
ARC
  5
486B
100
AcDbEntity
  8
0
100
AcDbCircle
 10
1041.282205
 20
571.984237
 30
0.0
 40
9.25
100
AcDbArc
 50
202.978669
 51
216.89461
  0
POLYLINE
  5
486C
100
AcDbEntity
  8
0
100
AcDb2dPolyline
 66
     1
 10
0.0
 20
0.0
 30
0.0
  0
VERTEX
  5
4E84
100
AcDbEntity
  8
0
100
AcDbVertex
100
AcDb2dVertex
 10
1042.352288
 20
562.796342
 30
0.0
  0
VERTEX
  5
4E85
100
AcDbEntity
  8
0
100
AcDbVertex
100
AcDb2dVertex
 10
1048.704114
 20
566.46357
 30
0.0
  0
SEQEND
  5
4E86
100
AcDbEntity
  8
0
  0
ARC
  5
486D
100
AcDbEntity
  8
0
100
AcDbCircle
 10
1041.282205
 20
571.984237
 30
0.0
 40
9.25
100
AcDbArc
 50
263.10539
 51
276.643119
  0
ARC
  5
486E
100
AcDbEntity
  8
0
100
AcDbCircle
 10
1041.282205
 20
571.984237
 30
0.0
 40
9.25
100
AcDbArc
 50
323.356881
 51
336.518328
  0
POLYLINE
  5
486F
100
AcDbEntity
  8
0
100
AcDb2dPolyline
 66
     1
 10
0.0
 20
0.0
 30
0.0
  0
VERTEX
  5
4E87
100
AcDbEntity
  8
0
100
AcDbVertex
100
AcDb2dVertex
 10
1040.171803
 20
581.167347
 30
0.0
  0
VERTEX
  5
4E88
100
AcDbEntity
  8
0
100
AcDbVertex
100
AcDb2dVertex
 10
1033.884599
 20
577.537429
 30
0.0
  0
SEQEND
  5
4E89
100
AcDbEntity
  8
0
  0
ARC
  5
4870
100
AcDbEntity
  8
0
100
AcDbCircle
 10
1041.282205
 20
571.984237
 30
0.0
 40
9.25
100
AcDbArc
 50
143.10539
 51
157.021331
  0
ARC
  5
4871
100
AcDbEntity
  8
0
100
AcDbCircle
 10
1041.282205
 20
571.984237
 30
0.0
 40
9.25
100
AcDbArc
 50
83.356881
 51
96.89461
  0
ARC
  5
4872
100
AcDbEntity
  8
0
100
AcDbCircle
 10
1041.282205
 20
571.984237
 30
0.0
 40
9.25
100
AcDbArc
 50
23.481672
 51
36.643119
  0
POLYLINE
  5
4873
100
AcDbEntity
  8
0
100
AcDb2dPolyline
 66
     1
 10
0.0
 20
0.0
 30
0.0
  0
VERTEX
  5
4E8A
100
AcDbEntity
  8
0
100
AcDbVertex
100
AcDb2dVertex
 10
1048.704114
 20
577.504905
 30
0.0
  0
VERTEX
  5
4E8B
100
AcDbEntity
  8
0
100
AcDbVertex
100
AcDb2dVertex
 10
1042.352288
 20
581.172133
 30
0.0
  0
SEQEND
  5
4E8C
100
AcDbEntity
  8
0
  0
LINE
  5
4874
100
AcDbEntity
  8
0
100
AcDbLine
 10
1086.282205
 20
582.484237
 30
0.0
 11
1086.282205
 21
562.484237
 31
0.0
  0
LINE
  5
4875
100
AcDbEntity
  8
0
100
AcDbLine
 10
1068.782205
 20
553.484237
 30
0.0
 11
1086.282205
 21
553.484237
 31
0.0
  0
LINE
  5
4876
100
AcDbEntity
  8
0
100
AcDbLine
 10
1071.532205
 20
552.484237
 30
0.0
 11
1085.032205
 21
552.484237
 31
0.0
  0
LINE
  5
4877
100
AcDbEntity
  8
0
100
AcDbLine
 10
1071.532205
 20
553.484237
 30
0.0
 11
1071.532205
 21
552.484237
 31
0.0
  0
LINE
  5
4878
100
AcDbEntity
  8
0
100
AcDbLine
 10
1085.032205
 20
553.484237
 30
0.0
 11
1085.032205
 21
552.484237
 31
0.0
  0
LINE
  5
4879
100
AcDbEntity
  8
0
100
AcDbLine
 10
1086.282205
 20
562.484237
 30
0.0
 11
1086.282205
 21
553.484237
 31
0.0
  0
LINE
  5
487A
100
AcDbEntity
  8
0
100
AcDbLine
 10
1086.382205
 20
587.984237
 30
0.0
 11
1086.382205
 21
582.484237
 31
0.0
  0
LINE
  5
487B
100
AcDbEntity
  8
0
100
AcDbLine
 10
1081.832851
 20
639.983591
 30
0.0
 11
1000.731559
 21
639.983591
 31
0.0
  0
LINE
  5
487C
100
AcDbEntity
  8
0
100
AcDbLine
 10
1075.532205
 20
646.284237
 30
0.0
 11
1007.032205
 21
646.284237
 31
0.0
  0
LINE
  5
487D
100
AcDbEntity
  8
0
100
AcDbLine
 10
1000.731559
 20
639.983591
 30
0.0
 11
1007.032205
 21
646.284237
 31
0.0
  0
LINE
  5
487E
100
AcDbEntity
  8
0
100
AcDbLine
 10
1081.832851
 20
639.983591
 30
0.0
 11
1075.532205
 21
646.284237
 31
0.0
  0
TEXT
  5
487F
100
AcDbEntity
  8
0
100
AcDbText
 10
161.796833
 20
785.432538
 30
0.0
 40
28.0
  1
平面
100
AcDbText
  0
TEXT
  5
4880
100
AcDbEntity
  8
0
100
AcDbText
 10
161.796833
 20
949.075202
 30
0.0
 40
28.0
  1
背面
100
AcDbText
  0
LINE
  5
4881
100
AcDbEntity
  8
0
100
AcDbLine
 10
540.51004
 20
1017.429271
 30
0.0
 11
540.51004
 21
999.429271
 31
0.0
  0
LINE
  5
4882
100
AcDbEntity
  8
0
100
AcDbLine
 10
653.51004
 20
1015.010571
 30
0.0
 11
653.51004
 21
998.84797
 31
0.0
  0
LINE
  5
4883
100
AcDbEntity
  8
0
100
AcDbLine
 10
643.201097
 20
1016.929271
 30
0.0
 11
643.201097
 21
1012.701628
 31
0.0
  0
LINE
  5
4884
100
AcDbEntity
  8
0
100
AcDbLine
 10
637.046626
 20
1016.929271
 30
0.0
 11
637.046626
 21
1012.701628
 31
0.0
  0
LINE
  5
4885
100
AcDbEntity
  8
0
100
AcDbLine
 10
649.664512
 20
997.701628
 30
0.0
 11
649.664512
 21
1016.156913
 31
0.0
  0
LINE
  5
4886
100
AcDbEntity
  8
0
100
AcDbLine
 10
633.51004
 20
996.929271
 30
0.0
 11
633.51004
 21
1017.429271
 31
0.0
  0
LINE
  5
4887
100
AcDbEntity
  8
0
100
AcDbLine
 10
647.810853
 20
1015.774799
 30
0.0
 11
647.810853
 21
998.465856
 31
0.0
  0
LINE
  5
4888
100
AcDbEntity
  8
0
100
AcDbLine
 10
635.51004
 20
781.241482
 30
0.0
 11
635.51004
 21
793.241482
 31
0.0
  0
LINE
  5
4889
100
AcDbEntity
  8
0
100
AcDbLine
 10
634.01004
 20
781.241482
 30
0.0
 11
634.01004
 21
793.241482
 31
0.0
  0
LINE
  5
488A
100
AcDbEntity
  8
0
100
AcDbLine
 10
537.51004
 20
776.741482
 30
0.0
 11
537.51004
 21
797.741482
 31
0.0
  0
LINE
  5
488B
100
AcDbEntity
  8
0
100
AcDbLine
 10
524.355569
 20
782.436603
 30
0.0
 11
527.818983
 21
781.469124
 31
0.0
  0
LINE
  5
488C
100
AcDbEntity
  8
0
100
AcDbLine
 10
523.209227
 20
796.08701
 30
0.0
 11
523.209227
 21
778.778067
 31
0.0
  0
LINE
  5
488D
100
AcDbEntity
  8
0
100
AcDbLine
 10
517.51004
 20
795.322782
 30
0.0
 11
517.51004
 21
779.160181
 31
0.0
  0
LINE
  5
488E
100
AcDbEntity
  8
0
100
AcDbLine
 10
521.355569
 20
778.013839
 30
0.0
 11
521.355569
 21
796.469124
 31
0.0
  0
CIRCLE
  5
488F
100
AcDbEntity
  8
0
100
AcDbCircle
 10
585.51004
 20
787.241482
 30
0.0
 40
34.25
  0
CIRCLE
  5
4890
100
AcDbEntity
  8
0
100
AcDbCircle
 10
585.51004
 20
787.241482
 30
0.0
 40
40.550646
  0
CIRCLE
  5
4891
100
AcDbEntity
  8
0
100
AcDbCircle
 10
585.51004
 20
787.241482
 30
0.0
 40
45.0
  0
LINE
  5
4892
100
AcDbEntity
  8
0
100
AcDbLine
 10
527.818983
 20
781.469124
 30
0.0
 11
533.973455
 21
781.469124
 31
0.0
  0
LINE
  5
4893
100
AcDbEntity
  8
0
100
AcDbLine
 10
527.818983
 20
777.241482
 30
0.0
 11
537.51004
 21
777.241482
 31
0.0
  0
LINE
  5
4894
100
AcDbEntity
  8
0
100
AcDbLine
 10
518.282398
 20
778.013839
 30
0.0
 11
521.355569
 21
778.013839
 31
0.0
  0
LINE
  5
4895
100
AcDbEntity
  8
0
100
AcDbLine
 10
517.51004
 20
779.160181
 30
0.0
 11
518.282398
 21
778.013839
 31
0.0
  0
LINE
  5
4896
100
AcDbEntity
  8
0
100
AcDbLine
 10
524.1347
 20
778.694095
 30
0.0
 11
523.209227
 21
778.778067
 31
0.0
  0
LINE
  5
4897
100
AcDbEntity
  8
0
100
AcDbLine
 10
521.355569
 20
780.314652
 30
0.0
 11
523.209227
 21
780.314652
 31
0.0
  0
LINE
  5
4898
100
AcDbEntity
  8
0
100
AcDbLine
 10
527.818983
 20
781.469124
 30
0.0
 11
527.818983
 21
777.241482
 31
0.0
  0
LINE
  5
4899
100
AcDbEntity
  8
0
100
AcDbLine
 10
527.818983
 20
777.241482
 30
0.0
 11
524.127926
 21
778.696766
 31
0.0
  0
LINE
  5
489A
100
AcDbEntity
  8
0
100
AcDbLine
 10
540.202756
 20
776.741482
 30
0.0
 11
537.51004
 21
776.741482
 31
0.0
  0
ARC
  5
489B
100
AcDbEntity
  8
0
100
AcDbCircle
 10
540.202756
 20
774.741482
 30
0.0
 40
2.0
100
AcDbArc
 50
15.423852
 51
90.0
  0
LINE
  5
489C
100
AcDbEntity
  8
0
100
AcDbLine
 10
533.973455
 20
781.469124
 30
0.0
 11
533.973455
 21
777.241482
 31
0.0
  0
LINE
  5
489D
100
AcDbEntity
  8
0
100
AcDbLine
 10
630.51004
 20
781.241482
 30
0.0
 11
635.51004
 21
781.241482
 31
0.0
  0
LINE
  5
489E
100
AcDbEntity
  8
0
100
AcDbLine
 10
527.818983
 20
791.08701
 30
0.0
 11
533.973455
 21
791.08701
 31
0.0
  0
LINE
  5
489F
100
AcDbEntity
  8
0
100
AcDbLine
 10
533.973455
 20
793.013839
 30
0.0
 11
527.818983
 21
793.013839
 31
0.0
  0
LINE
  5
48A0
100
AcDbEntity
  8
0
100
AcDbLine
 10
537.51004
 20
797.241482
 30
0.0
 11
527.818983
 21
797.241482
 31
0.0
  0
LINE
  5
48A1
100
AcDbEntity
  8
0
100
AcDbLine
 10
533.973455
 20
783.395953
 30
0.0
 11
527.818983
 21
783.395953
 31
0.0
  0
LINE
  5
48A2
100
AcDbEntity
  8
0
100
AcDbLine
 10
517.51004
 20
781.720814
 30
0.0
 11
521.355569
 21
781.720814
 31
0.0
  0
LINE
  5
48A3
100
AcDbEntity
  8
0
100
AcDbLine
 10
517.51004
 20
783.555766
 30
0.0
 11
521.355569
 21
783.555766
 31
0.0
  0
LINE
  5
48A4
100
AcDbEntity
  8
0
100
AcDbLine
 10
517.51004
 20
790.927197
 30
0.0
 11
521.355569
 21
790.927197
 31
0.0
  0
LINE
  5
48A5
100
AcDbEntity
  8
0
100
AcDbLine
 10
517.51004
 20
792.762149
 30
0.0
 11
521.355569
 21
792.762149
 31
0.0
  0
LINE
  5
48A6
100
AcDbEntity
  8
0
100
AcDbLine
 10
527.818983
 20
797.241482
 30
0.0
 11
527.818983
 21
793.013839
 31
0.0
  0
LINE
  5
48A7
100
AcDbEntity
  8
0
100
AcDbLine
 10
518.282398
 20
796.469124
 30
0.0
 11
517.51004
 21
795.322782
 31
0.0
  0
LINE
  5
48A8
100
AcDbEntity
  8
0
100
AcDbLine
 10
523.209227
 20
794.168311
 30
0.0
 11
521.355569
 21
794.168311
 31
0.0
  0
LINE
  5
48A9
100
AcDbEntity
  8
0
100
AcDbLine
 10
521.355569
 20
796.469124
 30
0.0
 11
518.282398
 21
796.469124
 31
0.0
  0
LINE
  5
48AA
100
AcDbEntity
  8
0
100
AcDbLine
 10
524.125005
 20
796.167462
 30
0.0
 11
523.209227
 21
796.08701
 31
0.0
  0
LINE
  5
48AB
100
AcDbEntity
  8
0
100
AcDbLine
 10
527.818983
 20
793.013839
 30
0.0
 11
524.355569
 21
792.04636
 31
0.0
  0
LINE
  5
48AC
100
AcDbEntity
  8
0
100
AcDbLine
 10
524.355569
 20
792.04636
 30
0.0
 11
527.818983
 21
791.08701
 31
0.0
  0
LINE
  5
48AD
100
AcDbEntity
  8
0
100
AcDbLine
 10
524.125005
 20
796.167462
 30
0.0
 11
527.818983
 21
797.241482
 31
0.0
  0
LINE
  5
48AE
100
AcDbEntity
  8
0
100
AcDbLine
 10
527.818983
 20
783.395953
 30
0.0
 11
524.355569
 21
782.436603
 31
0.0
  0
LINE
  5
48AF
100
AcDbEntity
  8
0
100
AcDbLine
 10
527.818983
 20
791.08701
 30
0.0
 11
527.818983
 21
783.395953
 31
0.0
  0
LINE
  5
48B0
100
AcDbEntity
  8
0
100
AcDbLine
 10
533.973455
 20
797.241482
 30
0.0
 11
533.973455
 21
793.013839
 31
0.0
  0
LINE
  5
48B1
100
AcDbEntity
  8
0
100
AcDbLine
 10
540.202756
 20
797.741482
 30
0.0
 11
537.51004
 21
797.741482
 31
0.0
  0
ARC
  5
48B2
100
AcDbEntity
  8
0
100
AcDbCircle
 10
540.202756
 20
799.741482
 30
0.0
 40
2.0
100
AcDbArc
 50
270.0
 51
344.576148
  0
LINE
  5
48B3
100
AcDbEntity
  8
0
100
AcDbLine
 10
533.973455
 20
791.08701
 30
0.0
 11
533.973455
 21
783.395953
 31
0.0
  0
LINE
  5
48B4
100
AcDbEntity
  8
0
100
AcDbLine
 10
630.51004
 20
793.241482
 30
0.0
 11
635.51004
 21
793.241482
 31
0.0
  0
LINE
  5
48B5
100
AcDbEntity
  8
0
100
AcDbLine
 10
628.51004
 20
942.721548
 30
0.0
 11
628.51004
 21
936.074548
 31
0.0
  0
ARC
  5
48B6
100
AcDbEntity
  8
0
100
AcDbCircle
 10
610.504561
 20
939.398548
 30
0.0
 40
13.352467
100
AcDbArc
 50
343.680297
 51
16.319703
  0
LINE
  5
48B7
100
AcDbEntity
  8
0
100
AcDbLine
 10
617.51004
 20
932.648048
 30
0.0
 11
617.51004
 21
946.148048
 31
0.0
  0
LINE
  5
48B8
100
AcDbEntity
  8
0
100
AcDbLine
 10
617.51004
 20
931.892548
 30
0.0
 11
617.51004
 21
946.903548
 31
0.0
  0
LINE
  5
48B9
100
AcDbEntity
  8
0
100
AcDbLine
 10
624.01004
 20
933.089548
 30
0.0
 11
624.01004
 21
945.707548
 31
0.0
  0
LINE
  5
48BA
100
AcDbEntity
  8
0
100
AcDbLine
 10
616.51004
 20
932.648048
 30
0.0
 11
616.51004
 21
946.148048
 31
0.0
  0
LINE
  5
48BB
100
AcDbEntity
  8
0
100
AcDbLine
 10
553.51004
 20
932.648048
 30
0.0
 11
553.51004
 21
946.148048
 31
0.0
  0
LINE
  5
48BC
100
AcDbEntity
  8
0
100
AcDbLine
 10
545.51004
 20
933.764073
 30
0.0
 11
545.51004
 21
945.032022
 31
0.0
  0
LINE
  5
48BD
100
AcDbEntity
  8
0
100
AcDbLine
 10
564.51004
 20
997.429271
 30
0.0
 11
564.51004
 21
932.429271
 31
0.0
  0
LINE
  5
48BE
100
AcDbEntity
  8
0
100
AcDbLine
 10
606.51004
 20
997.429271
 30
0.0
 11
606.51004
 21
932.429271
 31
0.0
  0
LINE
  5
48BF
100
AcDbEntity
  8
0
100
AcDbLine
 10
554.51004
 20
982.429271
 30
0.0
 11
554.51004
 21
932.429271
 31
0.0
  0
LINE
  5
48C0
100
AcDbEntity
  8
0
100
AcDbLine
 10
616.51004
 20
982.429271
 30
0.0
 11
616.51004
 21
932.429271
 31
0.0
  0
LINE
  5
48C1
100
AcDbEntity
  8
0
100
AcDbLine
 10
616.51004
 20
932.429271
 30
0.0
 11
554.51004
 21
932.429271
 31
0.0
  0
LINE
  5
48C2
100
AcDbEntity
  8
0
100
AcDbLine
 10
617.51004
 20
932.648048
 30
0.0
 11
616.51004
 21
932.648048
 31
0.0
  0
LINE
  5
48C3
100
AcDbEntity
  8
0
100
AcDbLine
 10
627.83354
 20
935.398048
 30
0.0
 11
624.01004
 21
935.398048
 31
0.0
  0
LINE
  5
48C4
100
AcDbEntity
  8
0
100
AcDbLine
 10
628.51004
 20
936.074548
 30
0.0
 11
627.83354
 21
935.398048
 31
0.0
  0
LINE
  5
48C5
100
AcDbEntity
  8
0
100
AcDbLine
 10
623.31904
 20
935.646548
 30
0.0
 11
617.51004
 21
935.646548
 31
0.0
  0
ARC
  5
48C6
100
AcDbEntity
  8
0
100
AcDbCircle
 10
620.316082
 20
933.770048
 30
0.0
 40
3.541047
100
AcDbArc
 50
327.999406
 51
32.000594
  0
LINE
  5
48C7
100
AcDbEntity
  8
0
100
AcDbLine
 10
623.31904
 20
931.892548
 30
0.0
 11
624.01004
 21
933.089548
 31
0.0
  0
LINE
  5
48C8
100
AcDbEntity
  8
0
100
AcDbLine
 10
617.51004
 20
931.892548
 30
0.0
 11
623.31904
 21
931.892548
 31
0.0
  0
LINE
  5
48C9
100
AcDbEntity
  8
0
100
AcDbLine
 10
553.51004
 20
932.648048
 30
0.0
 11
554.51004
 21
932.648048
 31
0.0
  0
LINE
  5
48CA
100
AcDbEntity
  8
0
100
AcDbLine
 10
546.01004
 20
932.898048
 30
0.0
 11
545.51004
 21
933.764073
 31
0.0
  0
LINE
  5
48CB
100
AcDbEntity
  8
0
100
AcDbLine
 10
546.01004
 20
932.898048
 30
0.0
 11
553.51004
 21
932.898048
 31
0.0
  0
LINE
  5
48CC
100
AcDbEntity
  8
0
100
AcDbLine
 10
564.51004
 20
997.429271
 30
0.0
 11
606.51004
 21
997.429271
 31
0.0
  0
LINE
  5
48CD
100
AcDbEntity
  8
0
100
AcDbLine
 10
606.51004
 20
997.429271
 30
0.0
 11
564.51004
 21
997.429271
 31
0.0
  0
LINE
  5
48CE
100
AcDbEntity
  8
0
100
AcDbLine
 10
606.51004
 20
988.429271
 30
0.0
 11
564.51004
 21
988.429271
 31
0.0
  0
LINE
  5
48CF
100
AcDbEntity
  8
0
100
AcDbLine
 10
633.51004
 20
997.429271
 30
0.0
 11
559.853958
 21
997.429271
 31
0.0
  0
LINE
  5
48D0
100
AcDbEntity
  8
0
100
AcDbLine
 10
616.51004
 20
982.210494
 30
0.0
 11
616.51004
 21
968.710494
 31
0.0
  0
LINE
  5
48D1
100
AcDbEntity
  8
0
100
AcDbLine
 10
624.01004
 20
981.768994
 30
0.0
 11
624.01004
 21
969.150994
 31
0.0
  0
LINE
  5
48D2
100
AcDbEntity
  8
0
100
AcDbLine
 10
617.51004
 20
982.965994
 30
0.0
 11
617.51004
 21
967.954994
 31
0.0
  0
LINE
  5
48D3
100
AcDbEntity
  8
0
100
AcDbLine
 10
617.51004
 20
982.210494
 30
0.0
 11
617.51004
 21
968.710494
 31
0.0
  0
ARC
  5
48D4
100
AcDbEntity
  8
0
100
AcDbCircle
 10
610.504561
 20
975.459994
 30
0.0
 40
13.352467
100
AcDbArc
 50
343.680297
 51
16.319703
  0
LINE
  5
48D5
100
AcDbEntity
  8
0
100
AcDbLine
 10
628.51004
 20
972.136994
 30
0.0
 11
628.51004
 21
978.783994
 31
0.0
  0
LINE
  5
48D6
100
AcDbEntity
  8
0
100
AcDbLine
 10
616.51004
 20
968.710494
 30
0.0
 11
617.51004
 21
968.710494
 31
0.0
  0
LINE
  5
48D7
100
AcDbEntity
  8
0
100
AcDbLine
 10
616.51004
 20
946.148048
 30
0.0
 11
617.51004
 21
946.148048
 31
0.0
  0
LINE
  5
48D8
100
AcDbEntity
  8
0
100
AcDbLine
 10
625.51004
 20
957.429271
 30
0.0
 11
625.51004
 21
943.398048
 31
0.0
  0
LINE
  5
48D9
100
AcDbEntity
  8
0
100
AcDbLine
 10
628.51004
 20
942.721548
 30
0.0
 11
627.83354
 21
943.398048
 31
0.0
  0
LINE
  5
48DA
100
AcDbEntity
  8
0
100
AcDbLine
 10
624.01004
 20
943.398048
 30
0.0
 11
627.83354
 21
943.398048
 31
0.0
  0
LINE
  5
48DB
100
AcDbEntity
  8
0
100
AcDbLine
 10
623.31904
 20
946.903548
 30
0.0
 11
617.51004
 21
946.903548
 31
0.0
  0
LINE
  5
48DC
100
AcDbEntity
  8
0
100
AcDbLine
 10
624.01004
 20
945.707548
 30
0.0
 11
623.31904
 21
946.903548
 31
0.0
  0
ARC
  5
48DD
100
AcDbEntity
  8
0
100
AcDbCircle
 10
620.316082
 20
945.027048
 30
0.0
 40
3.541047
100
AcDbArc
 50
327.999406
 51
32.000594
  0
LINE
  5
48DE
100
AcDbEntity
  8
0
100
AcDbLine
 10
623.31904
 20
943.150548
 30
0.0
 11
617.51004
 21
943.150548
 31
0.0
  0
LINE
  5
48DF
100
AcDbEntity
  8
0
100
AcDbLine
 10
623.31904
 20
971.707994
 30
0.0
 11
617.51004
 21
971.707994
 31
0.0
  0
ARC
  5
48E0
100
AcDbEntity
  8
0
100
AcDbCircle
 10
620.316082
 20
969.831494
 30
0.0
 40
3.541047
100
AcDbArc
 50
327.999406
 51
32.000594
  0
LINE
  5
48E1
100
AcDbEntity
  8
0
100
AcDbLine
 10
624.01004
 20
969.150994
 30
0.0
 11
623.31904
 21
967.954994
 31
0.0
  0
LINE
  5
48E2
100
AcDbEntity
  8
0
100
AcDbLine
 10
623.31904
 20
967.954994
 30
0.0
 11
617.51004
 21
967.954994
 31
0.0
  0
LINE
  5
48E3
100
AcDbEntity
  8
0
100
AcDbLine
 10
625.51004
 20
971.460494
 30
0.0
 11
625.51004
 21
957.429271
 31
0.0
  0
LINE
  5
48E4
100
AcDbEntity
  8
0
100
AcDbLine
 10
624.01004
 20
971.460494
 30
0.0
 11
627.83354
 21
971.460494
 31
0.0
  0
LINE
  5
48E5
100
AcDbEntity
  8
0
100
AcDbLine
 10
628.51004
 20
972.136994
 30
0.0
 11
627.83354
 21
971.460494
 31
0.0
  0
LINE
  5
48E6
100
AcDbEntity
  8
0
100
AcDbLine
 10
559.853958
 20
999.429271
 30
0.0
 11
537.01004
 21
999.429271
 31
0.0
  0
LINE
  5
48E7
100
AcDbEntity
  8
0
100
AcDbLine
 10
559.853958
 20
997.929271
 30
0.0
 11
535.51004
 21
997.929271
 31
0.0
  0
LINE
  5
48E8
100
AcDbEntity
  8
0
100
AcDbLine
 10
617.51004
 20
982.210494
 30
0.0
 11
616.51004
 21
982.210494
 31
0.0
  0
LINE
  5
48E9
100
AcDbEntity
  8
0
100
AcDbLine
 10
617.51004
 20
982.965994
 30
0.0
 11
623.31904
 21
982.965994
 31
0.0
  0
LINE
  5
48EA
100
AcDbEntity
  8
0
100
AcDbLine
 10
623.31904
 20
982.965994
 30
0.0
 11
624.01004
 21
981.768994
 31
0.0
  0
ARC
  5
48EB
100
AcDbEntity
  8
0
100
AcDbCircle
 10
620.316082
 20
981.088494
 30
0.0
 40
3.541047
100
AcDbArc
 50
327.999406
 51
32.000594
  0
LINE
  5
48EC
100
AcDbEntity
  8
0
100
AcDbLine
 10
623.31904
 20
979.211994
 30
0.0
 11
617.51004
 21
979.211994
 31
0.0
  0
LINE
  5
48ED
100
AcDbEntity
  8
0
100
AcDbLine
 10
628.51004
 20
978.783994
 30
0.0
 11
627.83354
 21
979.460494
 31
0.0
  0
LINE
  5
48EE
100
AcDbEntity
  8
0
100
AcDbLine
 10
627.83354
 20
979.460494
 30
0.0
 11
624.01004
 21
979.460494
 31
0.0
  0
LINE
  5
48EF
100
AcDbEntity
  8
0
100
AcDbLine
 10
535.51004
 20
997.929271
 30
0.0
 11
535.51004
 21
1007.929271
 31
0.0
  0
LINE
  5
48F0
100
AcDbEntity
  8
0
100
AcDbLine
 10
537.01004
 20
999.429271
 30
0.0
 11
537.01004
 21
1007.929271
 31
0.0
  0
LINE
  5
48F1
100
AcDbEntity
  8
0
100
AcDbLine
 10
537.01004
 20
1007.929271
 30
0.0
 11
535.51004
 21
1007.929271
 31
0.0
  0
LINE
  5
48F2
100
AcDbEntity
  8
0
100
AcDbLine
 10
606.51004
 20
982.429271
 30
0.0
 11
616.51004
 21
982.429271
 31
0.0
  0
LINE
  5
48F3
100
AcDbEntity
  8
0
100
AcDbLine
 10
578.76004
 20
988.429271
 30
0.0
 11
578.76004
 21
987.429271
 31
0.0
  0
LINE
  5
48F4
100
AcDbEntity
  8
0
100
AcDbLine
 10
579.01004
 20
979.829271
 30
0.0
 11
579.41004
 21
979.429271
 31
0.0
  0
LINE
  5
48F5
100
AcDbEntity
  8
0
100
AcDbLine
 10
592.01004
 20
979.829271
 30
0.0
 11
591.61004
 21
979.429271
 31
0.0
  0
LINE
  5
48F6
100
AcDbEntity
  8
0
100
AcDbLine
 10
579.01004
 20
979.829271
 30
0.0
 11
592.01004
 21
979.829271
 31
0.0
  0
LINE
  5
48F7
100
AcDbEntity
  8
0
100
AcDbLine
 10
579.41004
 20
979.429271
 30
0.0
 11
591.61004
 21
979.429271
 31
0.0
  0
LINE
  5
48F8
100
AcDbEntity
  8
0
100
AcDbLine
 10
592.01004
 20
987.429271
 30
0.0
 11
592.01004
 21
979.829271
 31
0.0
  0
LINE
  5
48F9
100
AcDbEntity
  8
0
100
AcDbLine
 10
579.01004
 20
979.829271
 30
0.0
 11
579.01004
 21
987.429271
 31
0.0
  0
LINE
  5
48FA
100
AcDbEntity
  8
0
100
AcDbLine
 10
592.26004
 20
988.429271
 30
0.0
 11
592.26004
 21
987.429271
 31
0.0
  0
LINE
  5
48FB
100
AcDbEntity
  8
0
100
AcDbLine
 10
578.76004
 20
987.429271
 30
0.0
 11
592.26004
 21
987.429271
 31
0.0
  0
LINE
  5
48FC
100
AcDbEntity
  8
0
100
AcDbLine
 10
559.853958
 20
999.429271
 30
0.0
 11
559.853958
 21
997.429271
 31
0.0
  0
LINE
  5
48FD
100
AcDbEntity
  8
0
100
AcDbLine
 10
545.51004
 20
981.094468
 30
0.0
 11
545.51004
 21
969.826519
 31
0.0
  0
LINE
  5
48FE
100
AcDbEntity
  8
0
100
AcDbLine
 10
553.51004
 20
982.210494
 30
0.0
 11
553.51004
 21
968.710494
 31
0.0
  0
LINE
  5
48FF
100
AcDbEntity
  8
0
100
AcDbLine
 10
545.51004
 20
957.429271
 30
0.0
 11
545.51004
 21
945.032022
 31
0.0
  0
LINE
  5
4900
100
AcDbEntity
  8
0
100
AcDbLine
 10
554.51004
 20
946.148048
 30
0.0
 11
553.51004
 21
946.148048
 31
0.0
  0
LINE
  5
4901
100
AcDbEntity
  8
0
100
AcDbLine
 10
546.01004
 20
945.898048
 30
0.0
 11
545.51004
 21
945.032022
 31
0.0
  0
LINE
  5
4902
100
AcDbEntity
  8
0
100
AcDbLine
 10
546.01004
 20
945.898048
 30
0.0
 11
553.51004
 21
945.898048
 31
0.0
  0
LINE
  5
4903
100
AcDbEntity
  8
0
100
AcDbLine
 10
554.51004
 20
968.710494
 30
0.0
 11
553.51004
 21
968.710494
 31
0.0
  0
LINE
  5
4904
100
AcDbEntity
  8
0
100
AcDbLine
 10
546.01004
 20
968.960494
 30
0.0
 11
553.51004
 21
968.960494
 31
0.0
  0
LINE
  5
4905
100
AcDbEntity
  8
0
100
AcDbLine
 10
546.01004
 20
968.960494
 30
0.0
 11
545.51004
 21
969.826519
 31
0.0
  0
LINE
  5
4906
100
AcDbEntity
  8
0
100
AcDbLine
 10
545.51004
 20
969.826519
 30
0.0
 11
545.51004
 21
957.429271
 31
0.0
  0
LINE
  5
4907
100
AcDbEntity
  8
0
100
AcDbLine
 10
643.201097
 20
1001.156913
 30
0.0
 11
637.046626
 21
1001.156913
 31
0.0
  0
LINE
  5
4908
100
AcDbEntity
  8
0
100
AcDbLine
 10
637.046626
 20
1003.083742
 30
0.0
 11
643.201097
 21
1003.083742
 31
0.0
  0
LINE
  5
4909
100
AcDbEntity
  8
0
100
AcDbLine
 10
643.201097
 20
996.929271
 30
0.0
 11
633.51004
 21
996.929271
 31
0.0
  0
LINE
  5
490A
100
AcDbEntity
  8
0
100
AcDbLine
 10
643.201097
 20
1010.774799
 30
0.0
 11
637.046626
 21
1010.774799
 31
0.0
  0
LINE
  5
490B
100
AcDbEntity
  8
0
100
AcDbLine
 10
637.046626
 20
1012.701628
 30
0.0
 11
643.201097
 21
1012.701628
 31
0.0
  0
LINE
  5
490C
100
AcDbEntity
  8
0
100
AcDbLine
 10
553.51004
 20
982.210494
 30
0.0
 11
554.51004
 21
982.210494
 31
0.0
  0
LINE
  5
490D
100
AcDbEntity
  8
0
100
AcDbLine
 10
564.51004
 20
982.429271
 30
0.0
 11
554.51004
 21
982.429271
 31
0.0
  0
LINE
  5
490E
100
AcDbEntity
  8
0
100
AcDbLine
 10
546.01004
 20
981.960494
 30
0.0
 11
553.51004
 21
981.960494
 31
0.0
  0
LINE
  5
490F
100
AcDbEntity
  8
0
100
AcDbLine
 10
546.01004
 20
981.960494
 30
0.0
 11
545.51004
 21
981.094468
 31
0.0
  0
LINE
  5
4910
100
AcDbEntity
  8
0
100
AcDbLine
 10
637.046626
 20
1010.774799
 30
0.0
 11
637.046626
 21
1003.083742
 31
0.0
  0
LINE
  5
4911
100
AcDbEntity
  8
0
100
AcDbLine
 10
637.046626
 20
1001.156913
 30
0.0
 11
637.046626
 21
996.929271
 31
0.0
  0
LINE
  5
4912
100
AcDbEntity
  8
0
100
AcDbLine
 10
643.201097
 20
1010.774799
 30
0.0
 11
643.201097
 21
1003.083742
 31
0.0
  0
LINE
  5
4913
100
AcDbEntity
  8
0
100
AcDbLine
 10
643.201097
 20
996.929271
 30
0.0
 11
646.892154
 21
998.384555
 31
0.0
  0
LINE
  5
4914
100
AcDbEntity
  8
0
100
AcDbLine
 10
643.201097
 20
1001.156913
 30
0.0
 11
643.201097
 21
996.929271
 31
0.0
  0
LINE
  5
4915
100
AcDbEntity
  8
0
100
AcDbLine
 10
652.737683
 20
997.701628
 30
0.0
 11
649.664512
 21
997.701628
 31
0.0
  0
LINE
  5
4916
100
AcDbEntity
  8
0
100
AcDbLine
 10
643.201097
 20
1003.083742
 30
0.0
 11
646.664512
 21
1002.124393
 31
0.0
  0
LINE
  5
4917
100
AcDbEntity
  8
0
100
AcDbLine
 10
646.664512
 20
1002.124393
 30
0.0
 11
643.201097
 21
1001.156913
 31
0.0
  0
LINE
  5
4918
100
AcDbEntity
  8
0
100
AcDbLine
 10
646.88538
 20
998.381885
 30
0.0
 11
647.810853
 21
998.465856
 31
0.0
  0
LINE
  5
4919
100
AcDbEntity
  8
0
100
AcDbLine
 10
649.664512
 20
1000.002441
 30
0.0
 11
647.810853
 21
1000.002441
 31
0.0
  0
LINE
  5
491A
100
AcDbEntity
  8
0
100
AcDbLine
 10
653.51004
 20
998.84797
 30
0.0
 11
652.737683
 21
997.701628
 31
0.0
  0
LINE
  5
491B
100
AcDbEntity
  8
0
100
AcDbLine
 10
643.201097
 20
1012.701628
 30
0.0
 11
646.664512
 21
1011.734149
 31
0.0
  0
LINE
  5
491C
100
AcDbEntity
  8
0
100
AcDbLine
 10
646.664512
 20
1011.734149
 30
0.0
 11
643.201097
 21
1010.774799
 31
0.0
  0
LINE
  5
491D
100
AcDbEntity
  8
0
100
AcDbLine
 10
653.51004
 20
1012.449938
 30
0.0
 11
649.664512
 21
1012.449938
 31
0.0
  0
LINE
  5
491E
100
AcDbEntity
  8
0
100
AcDbLine
 10
653.51004
 20
1010.614986
 30
0.0
 11
649.664512
 21
1010.614986
 31
0.0
  0
LINE
  5
491F
100
AcDbEntity
  8
0
100
AcDbLine
 10
653.51004
 20
1003.243555
 30
0.0
 11
649.664512
 21
1003.243555
 31
0.0
  0
LINE
  5
4920
100
AcDbEntity
  8
0
100
AcDbLine
 10
653.51004
 20
1001.408603
 30
0.0
 11
649.664512
 21
1001.408603
 31
0.0
  0
LINE
  5
4921
100
AcDbEntity
  8
0
100
AcDbLine
 10
626.060686
 20
1074.928625
 30
0.0
 11
544.959394
 21
1074.928625
 31
0.0
  0
LINE
  5
4922
100
AcDbEntity
  8
0
100
AcDbLine
 10
619.76004
 20
1081.229271
 30
0.0
 11
551.26004
 21
1081.229271
 31
0.0
  0
LINE
  5
4923
100
AcDbEntity
  8
0
100
AcDbLine
 10
633.51004
 20
1017.429271
 30
0.0
 11
540.41004
 21
1017.429271
 31
0.0
  0
LINE
  5
4924
100
AcDbEntity
  8
0
100
AcDbLine
 10
630.61004
 20
1022.929271
 30
0.0
 11
540.41004
 21
1022.929271
 31
0.0
  0
LINE
  5
4925
100
AcDbEntity
  8
0
100
AcDbLine
 10
540.41004
 20
1022.929271
 30
0.0
 11
544.959394
 21
1074.928625
 31
0.0
  0
LINE
  5
4926
100
AcDbEntity
  8
0
100
AcDbLine
 10
540.41004
 20
1022.929271
 30
0.0
 11
540.41004
 21
1017.429271
 31
0.0
  0
LINE
  5
4927
100
AcDbEntity
  8
0
100
AcDbLine
 10
544.959394
 20
1074.928625
 30
0.0
 11
551.26004
 21
1081.229271
 31
0.0
  0
LINE
  5
4928
100
AcDbEntity
  8
0
100
AcDbLine
 10
630.61004
 20
1022.929271
 30
0.0
 11
626.060686
 21
1074.928625
 31
0.0
  0
LINE
  5
4929
100
AcDbEntity
  8
0
100
AcDbLine
 10
633.51004
 20
1016.929271
 30
0.0
 11
643.201097
 21
1016.929271
 31
0.0
  0
LINE
  5
492A
100
AcDbEntity
  8
0
100
AcDbLine
 10
630.61004
 20
1022.929271
 30
0.0
 11
630.61004
 21
1017.429271
 31
0.0
  0
LINE
  5
492B
100
AcDbEntity
  8
0
100
AcDbLine
 10
649.664512
 20
1016.156913
 30
0.0
 11
652.737683
 21
1016.156913
 31
0.0
  0
LINE
  5
492C
100
AcDbEntity
  8
0
100
AcDbLine
 10
646.895075
 20
1015.855251
 30
0.0
 11
643.201097
 21
1016.929271
 31
0.0
  0
LINE
  5
492D
100
AcDbEntity
  8
0
100
AcDbLine
 10
647.810853
 20
1013.8561
 30
0.0
 11
649.664512
 21
1013.8561
 31
0.0
  0
LINE
  5
492E
100
AcDbEntity
  8
0
100
AcDbLine
 10
646.895075
 20
1015.855251
 30
0.0
 11
647.810853
 21
1015.774799
 31
0.0
  0
LINE
  5
492F
100
AcDbEntity
  8
0
100
AcDbLine
 10
652.737683
 20
1016.156913
 30
0.0
 11
653.51004
 21
1015.010571
 31
0.0
  0
LINE
  5
4930
100
AcDbEntity
  8
0
100
AcDbLine
 10
626.060686
 20
1074.928625
 30
0.0
 11
619.76004
 21
1081.229271
 31
0.0
  0
TEXT
  5
4931
100
AcDbEntity
  8
0
100
AcDbText
 10
1232.38634
 20
417.732573
 30
0.0
 40
20.0
  1
20A
 72
     4
 11
1259.053007
 21
427.732573
 31
0.0
100
AcDbText
  0
CIRCLE
  5
4932
100
AcDbEntity
  8
0
100
AcDbCircle
 10
1041.282205
 20
522.484237
 30
0.0
 40
20.0
  0
LINE
  5
4933
100
AcDbEntity
  8
0
100
AcDbLine
 10
1021.129661
 20
494.825694
 30
0.0
 11
1027.629661
 21
498.578694
 31
0.0
  0
CIRCLE
  5
4934
100
AcDbEntity
  8
0
100
AcDbCircle
 10
1021.129661
 20
502.331694
 30
0.0
 40
6.30876
  0
LINE
  5
4935
100
AcDbEntity
  8
0
100
AcDbLine
 10
1027.629661
 20
506.084694
 30
0.0
 11
1021.129661
 21
509.837694
 31
0.0
  0
LINE
  5
4936
100
AcDbEntity
  8
0
100
AcDbLine
 10
1021.129661
 20
550.142781
 30
0.0
 11
1027.629661
 21
546.389781
 31
0.0
  0
LINE
  5
4937
100
AcDbEntity
  8
0
100
AcDbLine
 10
1027.629661
 20
538.883781
 30
0.0
 11
1021.129661
 21
535.130781
 31
0.0
  0
CIRCLE
  5
4938
100
AcDbEntity
  8
0
100
AcDbCircle
 10
1021.129661
 20
542.636781
 30
0.0
 40
6.30876
  0
LINE
  5
4939
100
AcDbEntity
  8
0
100
AcDbLine
 10
1468.598309
 20
564.484237
 30
0.0
 11
1500.86017
 21
564.484237
 31
0.0
  0
LINE
  5
493A
100
AcDbEntity
  8
0
100
AcDbLine
 10
1417.598309
 20
562.484237
 30
0.0
 11
1507.598309
 21
562.484237
 31
0.0
  0
LINE
  5
493B
100
AcDbEntity
  8
0
100
AcDbLine
 10
1066.035992
 20
494.984237
 30
0.0
 11
1016.528417
 21
494.984237
 31
0.0
  0
LINE
  5
493C
100
AcDbEntity
  8
0
100
AcDbLine
 10
1066.035992
 20
549.984237
 30
0.0
 11
1016.528417
 21
549.984237
 31
0.0
  0
LINE
  5
493D
100
AcDbEntity
  8
0
100
AcDbLine
 10
1417.498309
 20
587.984237
 30
0.0
 11
1507.698309
 21
587.984237
 31
0.0
  0
LINE
  5
493E
100
AcDbEntity
  8
0
100
AcDbLine
 10
1422.047663
 20
639.983591
 30
0.0
 11
1503.148955
 21
639.983591
 31
0.0
  0
LINE
  5
493F
100
AcDbEntity
  8
0
100
AcDbLine
 10
1428.348309
 20
646.284237
 30
0.0
 11
1496.848309
 21
646.284237
 31
0.0
  0
LINE
  5
4940
100
AcDbEntity
  8
0
100
AcDbLine
 10
1417.498309
 20
582.484237
 30
0.0
 11
1507.698309
 21
582.484237
 31
0.0
  0
LINE
  5
4941
100
AcDbEntity
  8
0
100
AcDbLine
 10
1214.131257
 20
550.142281
 30
0.0
 11
1213.440257
 21
548.945281
 31
0.0
  0
ARC
  5
4942
100
AcDbEntity
  8
0
100
AcDbCircle
 10
1217.134215
 20
548.264781
 30
0.0
 40
3.541047
100
AcDbArc
 50
147.999406
 51
212.000594
  0
LINE
  5
4943
100
AcDbEntity
  8
0
100
AcDbLine
 10
1219.940257
 20
550.142281
 30
0.0
 11
1219.940257
 21
535.131281
 31
0.0
  0
ARC
  5
4944
100
AcDbEntity
  8
0
100
AcDbCircle
 10
1041.282205
 20
522.484237
 30
0.0
 40
37.0
100
AcDbArc
 50
41.991572
 51
48.008428
  0
LINE
  5
4945
100
AcDbEntity
  8
0
100
AcDbLine
 10
1067.934748
 20
546.389781
 30
0.0
 11
1061.434748
 21
550.142781
 31
0.0
  0
LINE
  5
4946
100
AcDbEntity
  8
0
100
AcDbLine
 10
1061.434748
 20
550.142781
 30
0.0
 11
1054.934748
 21
546.389781
 31
0.0
  0
LINE
  5
4947
100
AcDbEntity
  8
0
100
AcDbLine
 10
1432.098309
 20
544.884237
 30
0.0
 11
1432.098309
 21
552.484237
 31
0.0
  0
LINE
  5
4948
100
AcDbEntity
  8
0
100
AcDbLine
 10
1419.098309
 20
552.484237
 30
0.0
 11
1419.098309
 21
544.884237
 31
0.0
  0
LINE
  5
4949
100
AcDbEntity
  8
0
100
AcDbLine
 10
1068.782205
 20
553.484237
 30
0.0
 11
1068.782205
 21
497.73045
 31
0.0
  0
LINE
  5
494A
100
AcDbEntity
  8
0
100
AcDbLine
 10
1258.440257
 20
544.884237
 30
0.0
 11
1258.440257
 21
552.484237
 31
0.0
  0
LINE
  5
494B
100
AcDbEntity
  8
0
100
AcDbLine
 10
1245.440257
 20
552.484237
 30
0.0
 11
1245.440257
 21
544.884237
 31
0.0
  0
LINE
  5
494C
100
AcDbEntity
  8
0
100
AcDbLine
 10
1230.940257
 20
562.484237
 30
0.0
 11
1230.940257
 21
494.984237
 31
0.0
  0
LINE
  5
494D
100
AcDbEntity
  8
0
100
AcDbLine
 10
1272.940257
 20
562.484237
 30
0.0
 11
1272.940257
 21
494.984237
 31
0.0
  0
LINE
  5
494F
100
AcDbEntity
  8
0
100
AcDbLine
 10
1272.940257
 20
549.984237
 30
0.0
 11
1282.940257
 21
549.984237
 31
0.0
  0
LINE
  5
4950
100
AcDbEntity
  8
0
100
AcDbLine
 10
1282.940257
 20
494.984237
 30
0.0
 11
1220.940257
 21
494.984237
 31
0.0
  0
LINE
  5
4951
100
AcDbEntity
  8
0
100
AcDbLine
 10
1291.940257
 20
522.484237
 30
0.0
 11
1291.940257
 21
506.433473
 31
0.0
  0
LINE
  5
4952
100
AcDbEntity
  8
0
100
AcDbLine
 10
1282.940257
 20
549.984237
 30
0.0
 11
1282.940257
 21
494.984237
 31
0.0
  0
LINE
  5
4953
100
AcDbEntity
  8
0
100
AcDbLine
 10
1283.940257
 20
495.581694
 30
0.0
 11
1282.940257
 21
495.581694
 31
0.0
  0
LINE
  5
4954
100
AcDbEntity
  8
0
100
AcDbLine
 10
1291.440257
 20
495.831694
 30
0.0
 11
1291.940257
 21
496.697719
 31
0.0
  0
LINE
  5
4955
100
AcDbEntity
  8
0
100
AcDbLine
 10
1291.440257
 20
495.831694
 30
0.0
 11
1283.940257
 21
495.831694
 31
0.0
  0
LINE
  5
4956
100
AcDbEntity
  8
0
100
AcDbLine
 10
1282.940257
 20
509.081694
 30
0.0
 11
1283.940257
 21
509.081694
 31
0.0
  0
LINE
  5
4957
100
AcDbEntity
  8
0
100
AcDbLine
 10
1291.440257
 20
508.831694
 30
0.0
 11
1291.940257
 21
507.965669
 31
0.0
  0
LINE
  5
4958
100
AcDbEntity
  8
0
100
AcDbLine
 10
1291.440257
 20
508.831694
 30
0.0
 11
1283.940257
 21
508.831694
 31
0.0
  0
LINE
  5
4959
100
AcDbEntity
  8
0
100
AcDbLine
 10
1283.940257
 20
495.581694
 30
0.0
 11
1283.940257
 21
509.081694
 31
0.0
  0
LINE
  5
495A
100
AcDbEntity
  8
0
100
AcDbLine
 10
1291.940257
 20
496.697719
 30
0.0
 11
1291.940257
 21
507.965669
 31
0.0
  0
LINE
  5
495B
100
AcDbEntity
  8
0
100
AcDbLine
 10
1291.940257
 20
538.535002
 30
0.0
 11
1291.940257
 21
522.484237
 31
0.0
  0
LINE
  5
495C
100
AcDbEntity
  8
0
100
AcDbLine
 10
1291.440257
 20
549.136781
 30
0.0
 11
1283.940257
 21
549.136781
 31
0.0
  0
LINE
  5
495D
100
AcDbEntity
  8
0
100
AcDbLine
 10
1291.440257
 20
549.136781
 30
0.0
 11
1291.940257
 21
548.270755
 31
0.0
  0
LINE
  5
495E
100
AcDbEntity
  8
0
100
AcDbLine
 10
1283.940257
 20
549.386781
 30
0.0
 11
1282.940257
 21
549.386781
 31
0.0
  0
LINE
  5
495F
100
AcDbEntity
  8
0
100
AcDbLine
 10
1291.440257
 20
536.136781
 30
0.0
 11
1283.940257
 21
536.136781
 31
0.0
  0
LINE
  5
4960
100
AcDbEntity
  8
0
100
AcDbLine
 10
1291.440257
 20
536.136781
 30
0.0
 11
1291.940257
 21
537.002806
 31
0.0
  0
LINE
  5
4961
100
AcDbEntity
  8
0
100
AcDbLine
 10
1282.940257
 20
535.886781
 30
0.0
 11
1283.940257
 21
535.886781
 31
0.0
  0
LINE
  5
4962
100
AcDbEntity
  8
0
100
AcDbLine
 10
1291.940257
 20
548.270755
 30
0.0
 11
1291.940257
 21
537.002806
 31
0.0
  0
LINE
  5
4963
100
AcDbEntity
  8
0
100
AcDbLine
 10
1283.940257
 20
549.386781
 30
0.0
 11
1283.940257
 21
535.886781
 31
0.0
  0
LINE
  5
4964
100
AcDbEntity
  8
0
100
AcDbLine
 10
1211.940257
 20
522.484237
 30
0.0
 11
1211.940257
 21
506.331694
 31
0.0
  0
LINE
  5
4965
100
AcDbEntity
  8
0
100
AcDbLine
 10
1220.940257
 20
549.984237
 30
0.0
 11
1220.940257
 21
494.984237
 31
0.0
  0
LINE
  5
4966
100
AcDbEntity
  8
0
100
AcDbLine
 10
1214.131257
 20
506.084194
 30
0.0
 11
1219.940257
 21
506.084194
 31
0.0
  0
LINE
  5
4967
100
AcDbEntity
  8
0
100
AcDbLine
 10
1214.131257
 20
498.580194
 30
0.0
 11
1219.940257
 21
498.580194
 31
0.0
  0
LINE
  5
4968
100
AcDbEntity
  8
0
100
AcDbLine
 10
1219.940257
 20
494.826194
 30
0.0
 11
1214.131257
 21
494.826194
 31
0.0
  0
LINE
  5
4969
100
AcDbEntity
  8
0
100
AcDbLine
 10
1214.131257
 20
509.837194
 30
0.0
 11
1219.940257
 21
509.837194
 31
0.0
  0
LINE
  5
496A
100
AcDbEntity
  8
0
100
AcDbLine
 10
1219.940257
 20
495.581694
 30
0.0
 11
1220.940257
 21
495.581694
 31
0.0
  0
LINE
  5
496B
100
AcDbEntity
  8
0
100
AcDbLine
 10
1220.940257
 20
509.081694
 30
0.0
 11
1219.940257
 21
509.081694
 31
0.0
  0
LINE
  5
496C
100
AcDbEntity
  8
0
100
AcDbLine
 10
1219.940257
 20
495.581694
 30
0.0
 11
1219.940257
 21
509.081694
 31
0.0
  0
LINE
  5
496D
100
AcDbEntity
  8
0
100
AcDbLine
 10
1219.940257
 20
494.826194
 30
0.0
 11
1219.940257
 21
509.837194
 31
0.0
  0
LINE
  5
496E
100
AcDbEntity
  8
0
100
AcDbLine
 10
1220.940257
 20
495.581694
 30
0.0
 11
1220.940257
 21
509.081694
 31
0.0
  0
ARC
  5
496F
100
AcDbEntity
  8
0
100
AcDbCircle
 10
1226.945736
 20
502.332194
 30
0.0
 40
13.352467
100
AcDbArc
 50
163.680297
 51
196.319703
  0
ARC
  5
4970
100
AcDbEntity
  8
0
100
AcDbCircle
 10
1217.134215
 20
496.703694
 30
0.0
 40
3.541047
100
AcDbArc
 50
147.999406
 51
212.000594
  0
LINE
  5
4971
100
AcDbEntity
  8
0
100
AcDbLine
 10
1214.131257
 20
494.826194
 30
0.0
 11
1213.440257
 21
496.023194
 31
0.0
  0
LINE
  5
4972
100
AcDbEntity
  8
0
100
AcDbLine
 10
1209.616757
 20
498.331694
 30
0.0
 11
1213.440257
 21
498.331694
 31
0.0
  0
LINE
  5
4973
100
AcDbEntity
  8
0
100
AcDbLine
 10
1208.940257
 20
499.008194
 30
0.0
 11
1209.616757
 21
498.331694
 31
0.0
  0
LINE
  5
4974
100
AcDbEntity
  8
0
100
AcDbLine
 10
1208.940257
 20
505.655194
 30
0.0
 11
1209.616757
 21
506.331694
 31
0.0
  0
LINE
  5
4975
100
AcDbEntity
  8
0
100
AcDbLine
 10
1213.440257
 20
506.331694
 30
0.0
 11
1209.616757
 21
506.331694
 31
0.0
  0
LINE
  5
4976
100
AcDbEntity
  8
0
100
AcDbLine
 10
1208.940257
 20
505.655194
 30
0.0
 11
1208.940257
 21
499.008194
 31
0.0
  0
LINE
  5
4977
100
AcDbEntity
  8
0
100
AcDbLine
 10
1213.440257
 20
508.641194
 30
0.0
 11
1214.131257
 21
509.837194
 31
0.0
  0
LINE
  5
4978
100
AcDbEntity
  8
0
100
AcDbLine
 10
1213.440257
 20
496.023194
 30
0.0
 11
1213.440257
 21
508.641194
 31
0.0
  0
ARC
  5
4979
100
AcDbEntity
  8
0
100
AcDbCircle
 10
1217.134215
 20
507.960694
 30
0.0
 40
3.541047
100
AcDbArc
 50
147.999406
 51
212.000594
  0
LINE
  5
497A
100
AcDbEntity
  8
0
100
AcDbLine
 10
1258.440257
 20
544.884237
 30
0.0
 11
1245.440257
 21
544.884237
 31
0.0
  0
LINE
  5
497B
100
AcDbEntity
  8
0
100
AcDbLine
 10
1258.040257
 20
544.484237
 30
0.0
 11
1245.840257
 21
544.484237
 31
0.0
  0
LINE
  5
497C
100
AcDbEntity
  8
0
100
AcDbLine
 10
1245.440257
 20
544.884237
 30
0.0
 11
1245.840257
 21
544.484237
 31
0.0
  0
LINE
  5
497D
100
AcDbEntity
  8
0
100
AcDbLine
 10
1258.440257
 20
544.884237
 30
0.0
 11
1258.040257
 21
544.484237
 31
0.0
  0
LINE
  5
497E
100
AcDbEntity
  8
0
100
AcDbLine
 10
1211.940257
 20
538.636781
 30
0.0
 11
1211.940257
 21
522.484237
 31
0.0
  0
LINE
  5
497F
100
AcDbEntity
  8
0
100
AcDbLine
 10
1214.131257
 20
546.388281
 30
0.0
 11
1219.940257
 21
546.388281
 31
0.0
  0
LINE
  5
4980
100
AcDbEntity
  8
0
100
AcDbLine
 10
1214.131257
 20
538.884281
 30
0.0
 11
1219.940257
 21
538.884281
 31
0.0
  0
LINE
  5
4981
100
AcDbEntity
  8
0
100
AcDbLine
 10
1214.131257
 20
535.131281
 30
0.0
 11
1219.940257
 21
535.131281
 31
0.0
  0
LINE
  5
4982
100
AcDbEntity
  8
0
100
AcDbLine
 10
1219.940257
 20
549.386781
 30
0.0
 11
1220.940257
 21
549.386781
 31
0.0
  0
LINE
  5
4983
100
AcDbEntity
  8
0
100
AcDbLine
 10
1220.940257
 20
535.886781
 30
0.0
 11
1219.940257
 21
535.886781
 31
0.0
  0
LINE
  5
4984
100
AcDbEntity
  8
0
100
AcDbLine
 10
1220.940257
 20
549.386781
 30
0.0
 11
1220.940257
 21
535.886781
 31
0.0
  0
LINE
  5
4985
100
AcDbEntity
  8
0
100
AcDbLine
 10
1219.940257
 20
549.386781
 30
0.0
 11
1219.940257
 21
535.886781
 31
0.0
  0
LINE
  5
4986
100
AcDbEntity
  8
0
100
AcDbLine
 10
1230.940257
 20
549.984237
 30
0.0
 11
1220.940257
 21
549.984237
 31
0.0
  0
LINE
  5
4987
100
AcDbEntity
  8
0
100
AcDbLine
 10
1209.616757
 20
546.636781
 30
0.0
 11
1213.440257
 21
546.636781
 31
0.0
  0
LINE
  5
4988
100
AcDbEntity
  8
0
100
AcDbLine
 10
1208.940257
 20
545.960281
 30
0.0
 11
1209.616757
 21
546.636781
 31
0.0
  0
LINE
  5
4989
100
AcDbEntity
  8
0
100
AcDbLine
 10
1208.940257
 20
539.313281
 30
0.0
 11
1209.616757
 21
538.636781
 31
0.0
  0
LINE
  5
498A
100
AcDbEntity
  8
0
100
AcDbLine
 10
1213.440257
 20
538.636781
 30
0.0
 11
1209.616757
 21
538.636781
 31
0.0
  0
ARC
  5
498B
100
AcDbEntity
  8
0
100
AcDbCircle
 10
1217.134215
 20
537.007781
 30
0.0
 40
3.541047
100
AcDbArc
 50
147.999406
 51
212.000594
  0
LINE
  5
498C
100
AcDbEntity
  8
0
100
AcDbLine
 10
1213.440257
 20
536.327281
 30
0.0
 11
1214.131257
 21
535.131281
 31
0.0
  0
LINE
  5
498D
100
AcDbEntity
  8
0
100
AcDbLine
 10
1213.440257
 20
548.945281
 30
0.0
 11
1213.440257
 21
536.327281
 31
0.0
  0
LINE
  5
498E
100
AcDbEntity
  8
0
100
AcDbLine
 10
1208.940257
 20
539.313281
 30
0.0
 11
1208.940257
 21
545.960281
 31
0.0
  0
ARC
  5
498F
100
AcDbEntity
  8
0
100
AcDbCircle
 10
1226.945736
 20
542.636281
 30
0.0
 40
13.352467
100
AcDbArc
 50
163.680297
 51
196.319703
  0
ARC
  5
4990
100
AcDbEntity
  8
0
100
AcDbCircle
 10
1041.282205
 20
522.484237
 30
0.0
 40
37.0
100
AcDbArc
 50
311.991572
 51
318.008428
  0
LINE
  5
4991
100
AcDbEntity
  8
0
100
AcDbLine
 10
1061.434748
 20
494.825694
 30
0.0
 11
1054.934748
 21
498.578694
 31
0.0
  0
CIRCLE
  5
4992
100
AcDbEntity
  8
0
100
AcDbCircle
 10
1061.434748
 20
502.331694
 30
0.0
 40
3.99999
  0
LINE
  5
4993
100
AcDbEntity
  8
0
100
AcDbLine
 10
1054.934748
 20
498.578694
 30
0.0
 11
1054.934748
 21
506.084694
 31
0.0
  0
LINE
  5
4994
100
AcDbEntity
  8
0
100
AcDbLine
 10
1067.934748
 20
498.578694
 30
0.0
 11
1061.434748
 21
494.825694
 31
0.0
  0
LINE
  5
4995
100
AcDbEntity
  8
0
100
AcDbLine
 10
1067.934748
 20
506.084694
 30
0.0
 11
1067.934748
 21
498.578694
 31
0.0
  0
LINE
  5
4996
100
AcDbEntity
  8
0
100
AcDbLine
 10
1054.934748
 20
506.084694
 30
0.0
 11
1061.434748
 21
509.837694
 31
0.0
  0
LINE
  5
4997
100
AcDbEntity
  8
0
100
AcDbLine
 10
1061.434748
 20
509.837694
 30
0.0
 11
1067.934748
 21
506.084694
 31
0.0
  0
CIRCLE
  5
4998
100
AcDbEntity
  8
0
100
AcDbCircle
 10
1061.434748
 20
502.331694
 30
0.0
 40
6.30876
  0
LINE
  5
4999
100
AcDbEntity
  8
0
100
AcDbLine
 10
1027.629661
 20
498.578694
 30
0.0
 11
1027.629661
 21
506.084694
 31
0.0
  0
LINE
  5
499A
100
AcDbEntity
  8
0
100
AcDbLine
 10
1431.698309
 20
544.484237
 30
0.0
 11
1419.498309
 21
544.484237
 31
0.0
  0
LINE
  5
499B
100
AcDbEntity
  8
0
100
AcDbLine
 10
1432.098309
 20
544.884237
 30
0.0
 11
1419.098309
 21
544.884237
 31
0.0
  0
LINE
  5
499C
100
AcDbEntity
  8
0
100
AcDbLine
 10
1419.098309
 20
544.884237
 30
0.0
 11
1419.498309
 21
544.484237
 31
0.0
  0
LINE
  5
499D
100
AcDbEntity
  8
0
100
AcDbLine
 10
1432.098309
 20
544.884237
 30
0.0
 11
1431.698309
 21
544.484237
 31
0.0
  0
LINE
  5
499E
100
AcDbEntity
  8
0
100
AcDbLine
 10
1067.934748
 20
538.883781
 30
0.0
 11
1067.934748
 21
546.389781
 31
0.0
  0
LINE
  5
499F
100
AcDbEntity
  8
0
100
AcDbLine
 10
1054.934748
 20
546.389781
 30
0.0
 11
1054.934748
 21
538.883781
 31
0.0
  0
CIRCLE
  5
49A0
100
AcDbEntity
  8
0
100
AcDbCircle
 10
1061.434748
 20
542.636781
 30
0.0
 40
3.99999
  0
CIRCLE
  5
49A1
100
AcDbEntity
  8
0
100
AcDbCircle
 10
1061.434748
 20
542.636781
 30
0.0
 40
6.30876
  0
LINE
  5
49A2
100
AcDbEntity
  8
0
100
AcDbLine
 10
1061.434748
 20
535.130781
 30
0.0
 11
1067.934748
 21
538.883781
 31
0.0
  0
LINE
  5
49A3
100
AcDbEntity
  8
0
100
AcDbLine
 10
1054.934748
 20
538.883781
 30
0.0
 11
1061.434748
 21
535.130781
 31
0.0
  0
LINE
  5
49A4
100
AcDbEntity
  8
0
100
AcDbLine
 10
1027.629661
 20
546.389781
 30
0.0
 11
1027.629661
 21
538.883781
 31
0.0
  0
LINE
  5
49A5
100
AcDbEntity
  8
0
100
AcDbLine
 10
1297.040257
 20
587.984237
 30
0.0
 11
1292.490903
 21
639.983591
 31
0.0
  0
LINE
  5
49A6
100
AcDbEntity
  8
0
100
AcDbLine
 10
1206.840257
 20
587.984237
 30
0.0
 11
1211.389611
 21
639.983591
 31
0.0
  0
LINE
  5
49A7
100
AcDbEntity
  8
0
100
AcDbLine
 10
1203.940257
 20
562.484237
 30
0.0
 11
1277.596339
 21
562.484237
 31
0.0
  0
LINE
  5
49A8
100
AcDbEntity
  8
0
100
AcDbLine
 10
1203.940257
 20
582.484237
 30
0.0
 11
1297.040257
 21
582.484237
 31
0.0
  0
LINE
  5
49A9
100
AcDbEntity
  8
0
100
AcDbLine
 10
1206.840257
 20
587.984237
 30
0.0
 11
1297.040257
 21
587.984237
 31
0.0
  0
LINE
  5
49AA
100
AcDbEntity
  8
0
100
AcDbLine
 10
1183.940257
 20
566.46357
 30
0.0
 11
1187.785785
 21
566.46357
 31
0.0
  0
LINE
  5
49AB
100
AcDbEntity
  8
0
100
AcDbLine
 10
1183.940257
 20
568.298522
 30
0.0
 11
1187.785785
 21
568.298522
 31
0.0
  0
LINE
  5
49AC
100
AcDbEntity
  8
0
100
AcDbLine
 10
1183.940257
 20
575.669952
 30
0.0
 11
1187.785785
 21
575.669952
 31
0.0
  0
LINE
  5
49AD
100
AcDbEntity
  8
0
100
AcDbLine
 10
1183.940257
 20
577.504905
 30
0.0
 11
1187.785785
 21
577.504905
 31
0.0
  0
LINE
  5
49AE
100
AcDbEntity
  8
0
100
AcDbLine
 10
1184.712615
 20
581.21188
 30
0.0
 11
1183.940257
 21
580.065538
 31
0.0
  0
LINE
  5
49AF
100
AcDbEntity
  8
0
100
AcDbLine
 10
1183.940257
 20
563.902936
 30
0.0
 11
1184.712615
 21
562.756595
 31
0.0
  0
LINE
  5
49B0
100
AcDbEntity
  8
0
100
AcDbLine
 10
1183.940257
 20
580.065538
 30
0.0
 11
1183.940257
 21
563.902936
 31
0.0
  0
LINE
  5
49B1
100
AcDbEntity
  8
0
100
AcDbLine
 10
1203.940257
 20
561.984237
 30
0.0
 11
1203.940257
 21
582.484237
 31
0.0
  0
LINE
  5
49B2
100
AcDbEntity
  8
0
100
AcDbLine
 10
1200.403672
 20
575.829766
 30
0.0
 11
1200.403672
 21
568.138709
 31
0.0
  0
LINE
  5
49B3
100
AcDbEntity
  8
0
100
AcDbLine
 10
1194.2492
 20
575.829766
 30
0.0
 11
1194.2492
 21
568.138709
 31
0.0
  0
LINE
  5
49B4
100
AcDbEntity
  8
0
100
AcDbLine
 10
1187.785785
 20
562.756595
 30
0.0
 11
1187.785785
 21
581.21188
 31
0.0
  0
LINE
  5
49B5
100
AcDbEntity
  8
0
100
AcDbLine
 10
1189.639444
 20
580.829766
 30
0.0
 11
1189.639444
 21
563.520823
 31
0.0
  0
LINE
  5
49B6
100
AcDbEntity
  8
0
100
AcDbLine
 10
1200.403672
 20
566.21188
 30
0.0
 11
1200.403672
 21
561.984237
 31
0.0
  0
LINE
  5
49B7
100
AcDbEntity
  8
0
100
AcDbLine
 10
1194.2492
 20
561.984237
 30
0.0
 11
1190.558143
 21
563.439522
 31
0.0
  0
LINE
  5
49B8
100
AcDbEntity
  8
0
100
AcDbLine
 10
1187.785785
 20
565.057408
 30
0.0
 11
1189.639444
 21
565.057408
 31
0.0
  0
LINE
  5
49B9
100
AcDbEntity
  8
0
100
AcDbLine
 10
1190.564917
 20
563.436851
 30
0.0
 11
1189.639444
 21
563.520823
 31
0.0
  0
LINE
  5
49BA
100
AcDbEntity
  8
0
100
AcDbLine
 10
1184.712615
 20
562.756595
 30
0.0
 11
1187.785785
 21
562.756595
 31
0.0
  0
LINE
  5
49BB
100
AcDbEntity
  8
0
100
AcDbLine
 10
1190.785785
 20
567.179359
 30
0.0
 11
1194.2492
 21
566.21188
 31
0.0
  0
LINE
  5
49BC
100
AcDbEntity
  8
0
100
AcDbLine
 10
1194.2492
 20
568.138709
 30
0.0
 11
1190.785785
 21
567.179359
 31
0.0
  0
LINE
  5
49BD
100
AcDbEntity
  8
0
100
AcDbLine
 10
1194.2492
 20
566.21188
 30
0.0
 11
1194.2492
 21
561.984237
 31
0.0
  0
LINE
  5
49BE
100
AcDbEntity
  8
0
100
AcDbLine
 10
1194.2492
 20
561.984237
 30
0.0
 11
1203.940257
 21
561.984237
 31
0.0
  0
LINE
  5
49BF
100
AcDbEntity
  8
0
100
AcDbLine
 10
1200.403672
 20
568.138709
 30
0.0
 11
1194.2492
 21
568.138709
 31
0.0
  0
LINE
  5
49C0
100
AcDbEntity
  8
0
100
AcDbLine
 10
1194.2492
 20
566.21188
 30
0.0
 11
1200.403672
 21
566.21188
 31
0.0
  0
LINE
  5
49C1
100
AcDbEntity
  8
0
100
AcDbLine
 10
1200.403672
 20
581.984237
 30
0.0
 11
1200.403672
 21
577.756595
 31
0.0
  0
LINE
  5
49C2
100
AcDbEntity
  8
0
100
AcDbLine
 10
1190.555222
 20
580.910217
 30
0.0
 11
1194.2492
 21
581.984237
 31
0.0
  0
LINE
  5
49C3
100
AcDbEntity
  8
0
100
AcDbLine
 10
1190.555222
 20
580.910217
 30
0.0
 11
1189.639444
 21
580.829766
 31
0.0
  0
LINE
  5
49C4
100
AcDbEntity
  8
0
100
AcDbLine
 10
1189.639444
 20
578.911067
 30
0.0
 11
1187.785785
 21
578.911067
 31
0.0
  0
LINE
  5
49C5
100
AcDbEntity
  8
0
100
AcDbLine
 10
1187.785785
 20
581.21188
 30
0.0
 11
1184.712615
 21
581.21188
 31
0.0
  0
LINE
  5
49C6
100
AcDbEntity
  8
0
100
AcDbLine
 10
1190.785785
 20
576.789115
 30
0.0
 11
1194.2492
 21
575.829766
 31
0.0
  0
LINE
  5
49C7
100
AcDbEntity
  8
0
100
AcDbLine
 10
1194.2492
 20
577.756595
 30
0.0
 11
1190.785785
 21
576.789115
 31
0.0
  0
LINE
  5
49C8
100
AcDbEntity
  8
0
100
AcDbLine
 10
1194.2492
 20
581.984237
 30
0.0
 11
1194.2492
 21
577.756595
 31
0.0
  0
LINE
  5
49C9
100
AcDbEntity
  8
0
100
AcDbLine
 10
1203.940257
 20
581.984237
 30
0.0
 11
1194.2492
 21
581.984237
 31
0.0
  0
LINE
  5
49CA
100
AcDbEntity
  8
0
100
AcDbLine
 10
1200.403672
 20
577.756595
 30
0.0
 11
1194.2492
 21
577.756595
 31
0.0
  0
LINE
  5
49CB
100
AcDbEntity
  8
0
100
AcDbLine
 10
1194.2492
 20
575.829766
 30
0.0
 11
1200.403672
 21
575.829766
 31
0.0
  0
LINE
  5
49CC
100
AcDbEntity
  8
0
100
AcDbLine
 10
1206.840257
 20
587.984237
 30
0.0
 11
1206.840257
 21
582.484237
 31
0.0
  0
LINE
  5
49CD
100
AcDbEntity
  8
0
100
AcDbLine
 10
1230.940257
 20
553.484237
 30
0.0
 11
1272.940257
 21
553.484237
 31
0.0
  0
LINE
  5
49CE
100
AcDbEntity
  8
0
100
AcDbLine
 10
1230.940257
 20
562.484237
 30
0.0
 11
1272.940257
 21
562.484237
 31
0.0
  0
LINE
  5
49CF
100
AcDbEntity
  8
0
100
AcDbLine
 10
1272.940257
 20
562.484237
 30
0.0
 11
1230.940257
 21
562.484237
 31
0.0
  0
LINE
  5
49D0
100
AcDbEntity
  8
0
100
AcDbLine
 10
1272.940257
 20
562.484237
 30
0.0
 11
1230.940257
 21
562.484237
 31
0.0
  0
LINE
  5
49D1
100
AcDbEntity
  8
0
100
AcDbLine
 10
1258.690257
 20
552.484237
 30
0.0
 11
1245.190257
 21
552.484237
 31
0.0
  0
LINE
  5
49D2
100
AcDbEntity
  8
0
100
AcDbLine
 10
1245.190257
 20
553.484237
 30
0.0
 11
1245.190257
 21
552.484237
 31
0.0
  0
LINE
  5
49D3
100
AcDbEntity
  8
0
100
AcDbLine
 10
1258.690257
 20
553.484237
 30
0.0
 11
1258.690257
 21
552.484237
 31
0.0
  0
LINE
  5
49D4
100
AcDbEntity
  8
0
100
AcDbLine
 10
1300.440257
 20
564.484237
 30
0.0
 11
1300.440257
 21
572.984237
 31
0.0
  0
LINE
  5
49D5
100
AcDbEntity
  8
0
100
AcDbLine
 10
1301.940257
 20
562.984237
 30
0.0
 11
1301.940257
 21
572.984237
 31
0.0
  0
LINE
  5
49D6
100
AcDbEntity
  8
0
100
AcDbLine
 10
1296.940257
 20
582.484237
 30
0.0
 11
1296.940257
 21
564.484237
 31
0.0
  0
LINE
  5
49D7
100
AcDbEntity
  8
0
100
AcDbLine
 10
1219.940257
 20
550.142281
 30
0.0
 11
1214.131257
 21
550.142281
 31
0.0
  0
LINE
  5
49D8
100
AcDbEntity
  8
0
100
AcDbLine
 10
1277.596339
 20
562.984237
 30
0.0
 11
1301.940257
 21
562.984237
 31
0.0
  0
LINE
  5
49D9
100
AcDbEntity
  8
0
100
AcDbLine
 10
1277.596339
 20
564.484237
 30
0.0
 11
1300.440257
 21
564.484237
 31
0.0
  0
LINE
  5
49DA
100
AcDbEntity
  8
0
100
AcDbLine
 10
1277.596339
 20
564.484237
 30
0.0
 11
1277.596339
 21
562.484237
 31
0.0
  0
LINE
  5
49DB
100
AcDbEntity
  8
0
100
AcDbLine
 10
1300.440257
 20
572.984237
 30
0.0
 11
1301.940257
 21
572.984237
 31
0.0
  0
LINE
  5
49DC
100
AcDbEntity
  8
0
100
AcDbLine
 10
1297.040257
 20
587.984237
 30
0.0
 11
1297.040257
 21
582.484237
 31
0.0
  0
LINE
  5
49DD
100
AcDbEntity
  8
0
100
AcDbLine
 10
1217.690257
 20
646.284237
 30
0.0
 11
1286.190257
 21
646.284237
 31
0.0
  0
LINE
  5
49DE
100
AcDbEntity
  8
0
100
AcDbLine
 10
1211.389611
 20
639.983591
 30
0.0
 11
1292.490903
 21
639.983591
 31
0.0
  0
LINE
  5
49DF
100
AcDbEntity
  8
0
100
AcDbLine
 10
1211.389611
 20
639.983591
 30
0.0
 11
1217.690257
 21
646.284237
 31
0.0
  0
LINE
  5
49E0
100
AcDbEntity
  8
0
100
AcDbLine
 10
1292.490903
 20
639.983591
 30
0.0
 11
1286.190257
 21
646.284237
 31
0.0
  0
LINE
  5
49E1
100
AcDbEntity
  8
0
100
AcDbLine
 10
1417.498309
 20
587.984237
 30
0.0
 11
1422.047663
 21
639.983591
 31
0.0
  0
LINE
  5
49E2
100
AcDbEntity
  8
0
100
AcDbLine
 10
1424.336449
 20
564.484237
 30
0.0
 11
1456.598309
 21
564.484237
 31
0.0
  0
LINE
  5
49E3
100
AcDbEntity
  8
0
100
AcDbLine
 10
1417.598309
 20
582.484237
 30
0.0
 11
1417.598309
 21
562.484237
 31
0.0
  0
LINE
  5
49E4
100
AcDbEntity
  8
0
100
AcDbLine
 10
1424.336449
 20
564.484237
 30
0.0
 11
1424.336449
 21
562.484237
 31
0.0
  0
LINE
  5
49E5
100
AcDbEntity
  8
0
100
AcDbLine
 10
1417.598309
 20
562.484237
 30
0.0
 11
1417.598309
 21
553.484237
 31
0.0
  0
LINE
  5
49E6
100
AcDbEntity
  8
0
100
AcDbLine
 10
1432.348309
 20
553.484237
 30
0.0
 11
1432.348309
 21
552.484237
 31
0.0
  0
LINE
  5
49E7
100
AcDbEntity
  8
0
100
AcDbLine
 10
1418.848309
 20
553.484237
 30
0.0
 11
1418.848309
 21
552.484237
 31
0.0
  0
LINE
  5
49E8
100
AcDbEntity
  8
0
100
AcDbLine
 10
1432.348309
 20
552.484237
 30
0.0
 11
1418.848309
 21
552.484237
 31
0.0
  0
LINE
  5
49E9
100
AcDbEntity
  8
0
100
AcDbLine
 10
1435.098309
 20
553.484237
 30
0.0
 11
1417.598309
 21
553.484237
 31
0.0
  0
LINE
  5
49EA
100
AcDbEntity
  8
0
100
AcDbLine
 10
1417.498309
 20
587.984237
 30
0.0
 11
1417.498309
 21
582.484237
 31
0.0
  0
CIRCLE
  5
49EB
100
AcDbEntity
  8
0
100
AcDbCircle
 10
1462.598309
 20
567.984237
 30
0.0
 40
2.5
  0
ARC
  5
49EC
100
AcDbEntity
  8
0
100
AcDbCircle
 10
1462.598309
 20
566.984237
 30
0.0
 40
6.0
100
AcDbArc
 50
0.0
 51
180.0
  0
LINE
  5
49ED
100
AcDbEntity
  8
0
100
AcDbLine
 10
1468.598309
 20
566.984237
 30
0.0
 11
1468.598309
 21
562.984237
 31
0.0
  0
LINE
  5
49EE
100
AcDbEntity
  8
0
100
AcDbLine
 10
1456.598309
 20
566.984237
 30
0.0
 11
1456.598309
 21
562.984237
 31
0.0
  0
LINE
  5
49EF
100
AcDbEntity
  8
0
100
AcDbLine
 10
1456.598309
 20
562.984237
 30
0.0
 11
1468.598309
 21
562.984237
 31
0.0
  0
LINE
  5
49F0
100
AcDbEntity
  8
0
100
AcDbLine
 10
1422.047663
 20
639.983591
 30
0.0
 11
1428.348309
 21
646.284237
 31
0.0
  0
CIRCLE
  5
49F1
100
AcDbEntity
  8
0
100
AcDbCircle
 10
2106.763626
 20
544.767061
 30
0.0
 40
6.5
  0
CIRCLE
  5
49F2
100
AcDbEntity
  8
0
100
AcDbCircle
 10
2151.293426
 20
544.767061
 30
0.0
 40
6.5
  0
LINE
  5
49F3
100
AcDbEntity
  8
0
100
AcDbLine
 10
2172.528526
 20
552.484237
 30
0.0
 11
2172.528526
 21
544.884237
 31
0.0
  0
LINE
  5
49F4
100
AcDbEntity
  8
0
100
AcDbLine
 10
2159.528526
 20
544.884237
 30
0.0
 11
2159.528526
 21
552.484237
 31
0.0
  0
ARC
  5
49F5
100
AcDbEntity
  8
0
100
AcDbCircle
 10
2129.028526
 20
522.484237
 30
0.0
 40
40.5
100
AcDbArc
 50
42.205446
 51
47.794554
  0
LINE
  5
49F6
100
AcDbEntity
  8
0
100
AcDbLine
 10
2085.528526
 20
552.484237
 30
0.0
 11
2085.528526
 21
544.884237
 31
0.0
  0
LINE
  5
49F7
100
AcDbEntity
  8
0
100
AcDbLine
 10
2098.528526
 20
544.884237
 30
0.0
 11
2098.528526
 21
552.484237
 31
0.0
  0
ARC
  5
49F8
100
AcDbEntity
  8
0
100
AcDbCircle
 10
2129.028526
 20
522.484237
 30
0.0
 40
40.5
100
AcDbArc
 50
132.205446
 51
137.794554
  0
LINE
  5
49F9
100
AcDbEntity
  8
0
100
AcDbLine
 10
2099.028526
 20
553.484237
 30
0.0
 11
2099.028526
 21
495.276702
 31
0.0
  0
LINE
  5
49FA
100
AcDbEntity
  8
0
100
AcDbLine
 10
2159.028526
 20
553.484237
 30
0.0
 11
2159.028526
 21
495.276702
 31
0.0
  0
LINE
  5
49FB
100
AcDbEntity
  8
0
100
AcDbLine
 10
1014.629661
 20
546.389781
 30
0.0
 11
1021.129661
 21
550.142781
 31
0.0
  0
LINE
  5
49FC
100
AcDbEntity
  8
0
100
AcDbLine
 10
1506.098309
 20
552.484237
 30
0.0
 11
1506.098309
 21
544.884237
 31
0.0
  0
LINE
  5
49FD
100
AcDbEntity
  8
0
100
AcDbLine
 10
1493.098309
 20
544.884237
 30
0.0
 11
1493.098309
 21
552.484237
 31
0.0
  0
ARC
  5
49FE
100
AcDbEntity
  8
0
100
AcDbCircle
 10
1041.282205
 20
522.484237
 30
0.0
 40
37.0
100
AcDbArc
 50
131.991572
 51
138.008428
  0
LINE
  5
49FF
100
AcDbEntity
  8
0
100
AcDbLine
 10
1013.782205
 20
553.484237
 30
0.0
 11
1013.782205
 21
497.73045
 31
0.0
  0
ARC
  5
4A00
100
AcDbEntity
  8
0
100
AcDbCircle
 10
1041.282205
 20
522.484237
 30
0.0
 40
37.0
100
AcDbArc
 50
221.991572
 51
228.008428
  0
LINE
  5
4A01
100
AcDbEntity
  8
0
100
AcDbLine
 10
1014.629661
 20
506.084694
 30
0.0
 11
1014.629661
 21
498.578694
 31
0.0
  0
LINE
  5
4A02
100
AcDbEntity
  8
0
100
AcDbLine
 10
1014.629661
 20
498.578694
 30
0.0
 11
1021.129661
 21
494.825694
 31
0.0
  0
CIRCLE
  5
4A03
100
AcDbEntity
  8
0
100
AcDbCircle
 10
1021.129661
 20
502.331694
 30
0.0
 40
3.99999
  0
LINE
  5
4A04
100
AcDbEntity
  8
0
100
AcDbLine
 10
1021.129661
 20
509.837694
 30
0.0
 11
1014.629661
 21
506.084694
 31
0.0
  0
LINE
  5
4A05
100
AcDbEntity
  8
0
100
AcDbLine
 10
1493.098309
 20
544.884237
 30
0.0
 11
1506.098309
 21
544.884237
 31
0.0
  0
LINE
  5
4A06
100
AcDbEntity
  8
0
100
AcDbLine
 10
1493.498309
 20
544.484237
 30
0.0
 11
1505.698309
 21
544.484237
 31
0.0
  0
LINE
  5
4A07
100
AcDbEntity
  8
0
100
AcDbLine
 10
1021.129661
 20
535.130781
 30
0.0
 11
1014.629661
 21
538.883781
 31
0.0
  0
LINE
  5
4A08
100
AcDbEntity
  8
0
100
AcDbLine
 10
1014.629661
 20
538.883781
 30
0.0
 11
1014.629661
 21
546.389781
 31
0.0
  0
CIRCLE
  5
4A09
100
AcDbEntity
  8
0
100
AcDbCircle
 10
1021.129661
 20
542.636781
 30
0.0
 40
3.99999
  0
LINE
  5
4A0A
100
AcDbEntity
  8
0
100
AcDbLine
 10
1493.098309
 20
544.884237
 30
0.0
 11
1493.498309
 21
544.484237
 31
0.0
  0
LINE
  5
4A0B
100
AcDbEntity
  8
0
100
AcDbLine
 10
1506.098309
 20
544.884237
 30
0.0
 11
1505.698309
 21
544.484237
 31
0.0
  0
ARC
  5
4A0C
100
AcDbEntity
  8
0
100
AcDbCircle
 10
2129.028526
 20
522.484237
 30
0.0
 40
40.5
100
AcDbArc
 50
312.205446
 51
317.794554
  0
LINE
  5
4A0D
100
AcDbEntity
  8
0
100
AcDbLine
 10
2172.528526
 20
544.884237
 30
0.0
 11
2172.128526
 21
544.484237
 31
0.0
  0
LINE
  5
4A0E
100
AcDbEntity
  8
0
100
AcDbLine
 10
2159.528526
 20
544.884237
 30
0.0
 11
2159.928526
 21
544.484237
 31
0.0
  0
LINE
  5
4A0F
100
AcDbEntity
  8
0
100
AcDbLine
 10
2159.528526
 20
544.884237
 30
0.0
 11
2172.528526
 21
544.884237
 31
0.0
  0
LINE
  5
4A10
100
AcDbEntity
  8
0
100
AcDbLine
 10
2159.928526
 20
544.484237
 30
0.0
 11
2172.128526
 21
544.484237
 31
0.0
  0
CIRCLE
  5
4A11
100
AcDbEntity
  8
0
100
AcDbCircle
 10
2129.028526
 20
522.484237
 30
0.0
 40
23.5
  0
LINE
  5
4A12
100
AcDbEntity
  8
0
100
AcDbLine
 10
2101.82099
 20
492.484237
 30
0.0
 11
2156.236062
 21
492.484237
 31
0.0
  0
POLYLINE
  5
4A13
100
AcDbEntity
  8
0
100
AcDb2dPolyline
 66
     1
 10
0.0
 20
0.0
 30
0.0
 70
     1
  0
VERTEX
  5
4E8D
100
AcDbEntity
  8
0
100
AcDbVertex
100
AcDb2dVertex
 10
2153.025477
 20
503.201414
 30
0.0
  0
VERTEX
  5
4E8E
100
AcDbEntity
  8
0
100
AcDbVertex
100
AcDb2dVertex
 10
2154.757528
 20
500.201414
 30
0.0
  0
VERTEX
  5
4E8F
100
AcDbEntity
  8
0
100
AcDbVertex
100
AcDb2dVertex
 10
2153.025477
 20
497.201414
 30
0.0
  0
VERTEX
  5
4E90
100
AcDbEntity
  8
0
100
AcDbVertex
100
AcDb2dVertex
 10
2149.561375
 20
497.201414
 30
0.0
  0
VERTEX
  5
4E91
100
AcDbEntity
  8
0
100
AcDbVertex
100
AcDb2dVertex
 10
2147.829324
 20
500.201414
 30
0.0
  0
VERTEX
  5
4E92
100
AcDbEntity
  8
0
100
AcDbVertex
100
AcDb2dVertex
 10
2149.561375
 20
503.201414
 30
0.0
  0
SEQEND
  5
4E93
100
AcDbEntity
  8
0
  0
CIRCLE
  5
4A14
100
AcDbEntity
  8
0
100
AcDbCircle
 10
2151.293426
 20
500.201414
 30
0.0
 40
6.5
  0
CIRCLE
  5
4A15
100
AcDbEntity
  8
0
100
AcDbCircle
 10
2106.763626
 20
500.201414
 30
0.0
 40
6.5
  0
POLYLINE
  5
4A16
100
AcDbEntity
  8
0
100
AcDb2dPolyline
 66
     1
 10
0.0
 20
0.0
 30
0.0
 70
     1
  0
VERTEX
  5
4E94
100
AcDbEntity
  8
0
100
AcDbVertex
100
AcDb2dVertex
 10
2105.031575
 20
503.201414
 30
0.0
  0
VERTEX
  5
4E95
100
AcDbEntity
  8
0
100
AcDbVertex
100
AcDb2dVertex
 10
2103.299524
 20
500.201414
 30
0.0
  0
VERTEX
  5
4E96
100
AcDbEntity
  8
0
100
AcDbVertex
100
AcDb2dVertex
 10
2105.031575
 20
497.201414
 30
0.0
  0
VERTEX
  5
4E97
100
AcDbEntity
  8
0
100
AcDbVertex
100
AcDb2dVertex
 10
2108.495677
 20
497.201414
 30
0.0
  0
VERTEX
  5
4E98
100
AcDbEntity
  8
0
100
AcDbVertex
100
AcDb2dVertex
 10
2110.227727
 20
500.201414
 30
0.0
  0
VERTEX
  5
4E99
100
AcDbEntity
  8
0
100
AcDbVertex
100
AcDb2dVertex
 10
2108.495677
 20
503.201414
 30
0.0
  0
SEQEND
  5
4E9A
100
AcDbEntity
  8
0
  0
ARC
  5
4A17
100
AcDbEntity
  8
0
100
AcDbCircle
 10
2129.028526
 20
522.484237
 30
0.0
 40
40.5
100
AcDbArc
 50
222.205446
 51
227.794554
  0
POLYLINE
  5
4A18
100
AcDbEntity
  8
0
100
AcDb2dPolyline
 66
     1
 10
0.0
 20
0.0
 30
0.0
 70
     1
  0
VERTEX
  5
4E9B
100
AcDbEntity
  8
0
100
AcDbVertex
100
AcDb2dVertex
 10
2153.025477
 20
541.767061
 30
0.0
  0
VERTEX
  5
4E9C
100
AcDbEntity
  8
0
100
AcDbVertex
100
AcDb2dVertex
 10
2154.757528
 20
544.767061
 30
0.0
  0
VERTEX
  5
4E9D
100
AcDbEntity
  8
0
100
AcDbVertex
100
AcDb2dVertex
 10
2153.025477
 20
547.767061
 30
0.0
  0
VERTEX
  5
4E9E
100
AcDbEntity
  8
0
100
AcDbVertex
100
AcDb2dVertex
 10
2149.561375
 20
547.767061
 30
0.0
  0
VERTEX
  5
4E9F
100
AcDbEntity
  8
0
100
AcDbVertex
100
AcDb2dVertex
 10
2147.829324
 20
544.767061
 30
0.0
  0
VERTEX
  5
4EA0
100
AcDbEntity
  8
0
100
AcDbVertex
100
AcDb2dVertex
 10
2149.561375
 20
541.767061
 30
0.0
  0
SEQEND
  5
4EA1
100
AcDbEntity
  8
0
  0
LINE
  5
4A19
100
AcDbEntity
  8
0
100
AcDbLine
 10
2098.128526
 20
544.484237
 30
0.0
 11
2085.928526
 21
544.484237
 31
0.0
  0
LINE
  5
4A1A
100
AcDbEntity
  8
0
100
AcDbLine
 10
2098.528526
 20
544.884237
 30
0.0
 11
2085.528526
 21
544.884237
 31
0.0
  0
POLYLINE
  5
4A1B
100
AcDbEntity
  8
0
100
AcDb2dPolyline
 66
     1
 10
0.0
 20
0.0
 30
0.0
 70
     1
  0
VERTEX
  5
4EA2
100
AcDbEntity
  8
0
100
AcDbVertex
100
AcDb2dVertex
 10
2105.031575
 20
541.767061
 30
0.0
  0
VERTEX
  5
4EA3
100
AcDbEntity
  8
0
100
AcDbVertex
100
AcDb2dVertex
 10
2103.299524
 20
544.767061
 30
0.0
  0
VERTEX
  5
4EA4
100
AcDbEntity
  8
0
100
AcDbVertex
100
AcDb2dVertex
 10
2105.031575
 20
547.767061
 30
0.0
  0
VERTEX
  5
4EA5
100
AcDbEntity
  8
0
100
AcDbVertex
100
AcDb2dVertex
 10
2108.495677
 20
547.767061
 30
0.0
  0
VERTEX
  5
4EA6
100
AcDbEntity
  8
0
100
AcDbVertex
100
AcDb2dVertex
 10
2110.227727
 20
544.767061
 30
0.0
  0
VERTEX
  5
4EA7
100
AcDbEntity
  8
0
100
AcDbVertex
100
AcDb2dVertex
 10
2108.495677
 20
541.767061
 30
0.0
  0
SEQEND
  5
4EA8
100
AcDbEntity
  8
0
  0
LINE
  5
4A1C
100
AcDbEntity
  8
0
100
AcDbLine
 10
2098.528526
 20
544.884237
 30
0.0
 11
2098.128526
 21
544.484237
 31
0.0
  0
LINE
  5
4A1D
100
AcDbEntity
  8
0
100
AcDbLine
 10
2085.528526
 20
544.884237
 30
0.0
 11
2085.928526
 21
544.484237
 31
0.0
  0
LINE
  5
4A1E
100
AcDbEntity
  8
0
100
AcDbLine
 10
1507.698309
 20
587.984237
 30
0.0
 11
1503.148955
 21
639.983591
 31
0.0
  0
LINE
  5
4A1F
100
AcDbEntity
  8
0
100
AcDbLine
 10
1507.598309
 20
582.484237
 30
0.0
 11
1507.598309
 21
562.484237
 31
0.0
  0
LINE
  5
4A20
100
AcDbEntity
  8
0
100
AcDbLine
 10
1492.848309
 20
552.484237
 30
0.0
 11
1506.348309
 21
552.484237
 31
0.0
  0
LINE
  5
4A21
100
AcDbEntity
  8
0
100
AcDbLine
 10
1490.098309
 20
553.484237
 30
0.0
 11
1507.598309
 21
553.484237
 31
0.0
  0
LINE
  5
4A22
100
AcDbEntity
  8
0
100
AcDbLine
 10
1492.848309
 20
553.484237
 30
0.0
 11
1492.848309
 21
552.484237
 31
0.0
  0
LINE
  5
4A23
100
AcDbEntity
  8
0
100
AcDbLine
 10
1500.86017
 20
564.484237
 30
0.0
 11
1500.86017
 21
562.484237
 31
0.0
  0
LINE
  5
4A24
100
AcDbEntity
  8
0
100
AcDbLine
 10
1507.598309
 20
562.484237
 30
0.0
 11
1507.598309
 21
553.484237
 31
0.0
  0
LINE
  5
4A25
100
AcDbEntity
  8
0
100
AcDbLine
 10
1506.348309
 20
553.484237
 30
0.0
 11
1506.348309
 21
552.484237
 31
0.0
  0
LINE
  5
4A26
100
AcDbEntity
  8
0
100
AcDbLine
 10
1507.698309
 20
587.984237
 30
0.0
 11
1507.698309
 21
582.484237
 31
0.0
  0
LINE
  5
4A27
100
AcDbEntity
  8
0
100
AcDbLine
 10
1503.148955
 20
639.983591
 30
0.0
 11
1496.848309
 21
646.284237
 31
0.0
  0
LINE
  5
4A28
100
AcDbEntity
  8
0
100
AcDbLine
 10
1672.612421
 20
587.984237
 30
0.0
 11
1677.161775
 21
639.983591
 31
0.0
  0
LINE
  5
4A29
100
AcDbEntity
  8
0
100
AcDbLine
 10
1762.812421
 20
587.984237
 30
0.0
 11
1758.263067
 21
639.983591
 31
0.0
  0
LINE
  5
4A2A
100
AcDbEntity
  8
0
100
AcDbLine
 10
1762.812421
 20
587.984237
 30
0.0
 11
1672.612421
 21
587.984237
 31
0.0
  0
LINE
  5
4A2B
100
AcDbEntity
  8
0
100
AcDbLine
 10
1762.812421
 20
582.484237
 30
0.0
 11
1672.612421
 21
582.484237
 31
0.0
  0
LINE
  5
4A2C
100
AcDbEntity
  8
0
100
AcDbLine
 10
1762.712421
 20
562.484237
 30
0.0
 11
1672.712421
 21
562.484237
 31
0.0
  0
LINE
  5
4A2D
100
AcDbEntity
  8
0
100
AcDbLine
 10
1672.712421
 20
582.484237
 30
0.0
 11
1672.712421
 21
562.484237
 31
0.0
  0
LINE
  5
4A2E
100
AcDbEntity
  8
0
100
AcDbLine
 10
1672.712421
 20
562.484237
 30
0.0
 11
1672.712421
 21
553.484237
 31
0.0
  0
LINE
  5
4A2F
100
AcDbEntity
  8
0
100
AcDbLine
 10
2172.778526
 20
553.484237
 30
0.0
 11
2172.778526
 21
552.484237
 31
0.0
  0
LINE
  5
4A30
100
AcDbEntity
  8
0
100
AcDbLine
 10
2159.278526
 20
553.484237
 30
0.0
 11
2159.278526
 21
552.484237
 31
0.0
  0
LINE
  5
4A31
100
AcDbEntity
  8
0
100
AcDbLine
 10
2159.278526
 20
552.484237
 30
0.0
 11
2172.778526
 21
552.484237
 31
0.0
  0
LINE
  5
4A32
100
AcDbEntity
  8
0
100
AcDbLine
 10
2159.028526
 20
553.484237
 30
0.0
 11
2174.028526
 21
553.484237
 31
0.0
  0
LINE
  5
4A33
100
AcDbEntity
  8
0
100
AcDbLine
 10
1672.612421
 20
587.984237
 30
0.0
 11
1672.612421
 21
582.484237
 31
0.0
  0
LINE
  5
4A34
100
AcDbEntity
  8
0
100
AcDbLine
 10
2101.82099
 20
552.484237
 30
0.0
 11
2156.236062
 21
552.484237
 31
0.0
  0
CIRCLE
  5
4A35
100
AcDbEntity
  8
0
100
AcDbCircle
 10
1717.712421
 20
571.984237
 30
0.0
 40
8.156094
  0
POLYLINE
  5
4A36
100
AcDbEntity
  8
0
100
AcDb2dPolyline
 66
     1
 10
0.0
 20
0.0
 30
0.0
  0
VERTEX
  5
4EA9
100
AcDbEntity
  8
0
100
AcDbVertex
100
AcDb2dVertex
 10
1709.196407
 20
575.59533
 30
0.0
  0
VERTEX
  5
4EAA
100
AcDbEntity
  8
0
100
AcDbVertex
100
AcDb2dVertex
 10
1709.196407
 20
568.373145
 30
0.0
  0
SEQEND
  5
4EAB
100
AcDbEntity
  8
0
  0
POLYLINE
  5
4A37
100
AcDbEntity
  8
0
100
AcDb2dPolyline
 66
     1
 10
0.0
 20
0.0
 30
0.0
  0
VERTEX
  5
4EAC
100
AcDbEntity
  8
0
100
AcDbVertex
100
AcDb2dVertex
 10
1726.196407
 20
568.298522
 30
0.0
  0
VERTEX
  5
4EAD
100
AcDbEntity
  8
0
100
AcDbVertex
100
AcDb2dVertex
 10
1726.196407
 20
575.669952
 30
0.0
  0
SEQEND
  5
4EAE
100
AcDbEntity
  8
0
  0
ARC
  5
4A38
100
AcDbEntity
  8
0
100
AcDbCircle
 10
1717.712421
 20
571.984237
 30
0.0
 40
9.25
100
AcDbArc
 50
202.978669
 51
216.89461
  0
POLYLINE
  5
4A39
100
AcDbEntity
  8
0
100
AcDb2dPolyline
 66
     1
 10
0.0
 20
0.0
 30
0.0
  0
VERTEX
  5
4EAF
100
AcDbEntity
  8
0
100
AcDbVertex
100
AcDb2dVertex
 10
1710.314816
 20
566.431046
 30
0.0
  0
VERTEX
  5
4EB0
100
AcDbEntity
  8
0
100
AcDbVertex
100
AcDb2dVertex
 10
1716.60202
 20
562.801127
 30
0.0
  0
SEQEND
  5
4EB1
100
AcDbEntity
  8
0
  0
ARC
  5
4A3A
100
AcDbEntity
  8
0
100
AcDbCircle
 10
1717.712421
 20
571.984237
 30
0.0
 40
9.25
100
AcDbArc
 50
323.356881
 51
336.518328
  0
ARC
  5
4A3B
100
AcDbEntity
  8
0
100
AcDbCircle
 10
1717.712421
 20
571.984237
 30
0.0
 40
9.25
100
AcDbArc
 50
263.10539
 51
276.643119
  0
POLYLINE
  5
4A3C
100
AcDbEntity
  8
0
100
AcDb2dPolyline
 66
     1
 10
0.0
 20
0.0
 30
0.0
  0
VERTEX
  5
4EB2
100
AcDbEntity
  8
0
100
AcDbVertex
100
AcDb2dVertex
 10
1718.782505
 20
562.796342
 30
0.0
  0
VERTEX
  5
4EB3
100
AcDbEntity
  8
0
100
AcDbVertex
100
AcDb2dVertex
 10
1725.13433
 20
566.46357
 30
0.0
  0
SEQEND
  5
4EB4
100
AcDbEntity
  8
0
  0
ARC
  5
4A3D
100
AcDbEntity
  8
0
100
AcDbCircle
 10
1717.712421
 20
571.984237
 30
0.0
 40
9.25
100
AcDbArc
 50
143.10539
 51
157.021331
  0
POLYLINE
  5
4A3E
100
AcDbEntity
  8
0
100
AcDb2dPolyline
 66
     1
 10
0.0
 20
0.0
 30
0.0
  0
VERTEX
  5
4EB5
100
AcDbEntity
  8
0
100
AcDbVertex
100
AcDb2dVertex
 10
1716.60202
 20
581.167347
 30
0.0
  0
VERTEX
  5
4EB6
100
AcDbEntity
  8
0
100
AcDbVertex
100
AcDb2dVertex
 10
1710.314816
 20
577.537429
 30
0.0
  0
SEQEND
  5
4EB7
100
AcDbEntity
  8
0
  0
POLYLINE
  5
4A3F
100
AcDbEntity
  8
0
100
AcDb2dPolyline
 66
     1
 10
0.0
 20
0.0
 30
0.0
  0
VERTEX
  5
4EB8
100
AcDbEntity
  8
0
100
AcDbVertex
100
AcDb2dVertex
 10
1725.13433
 20
577.504905
 30
0.0
  0
VERTEX
  5
4EB9
100
AcDbEntity
  8
0
100
AcDbVertex
100
AcDb2dVertex
 10
1718.782505
 20
581.172133
 30
0.0
  0
SEQEND
  5
4EBA
100
AcDbEntity
  8
0
  0
ARC
  5
4A40
100
AcDbEntity
  8
0
100
AcDbCircle
 10
1717.712421
 20
571.984237
 30
0.0
 40
9.25
100
AcDbArc
 50
23.481672
 51
36.643119
  0
ARC
  5
4A41
100
AcDbEntity
  8
0
100
AcDbCircle
 10
1717.712421
 20
571.984237
 30
0.0
 40
9.25
100
AcDbArc
 50
83.356881
 51
96.89461
  0
LINE
  5
4A42
100
AcDbEntity
  8
0
100
AcDbLine
 10
1762.712421
 20
582.484237
 30
0.0
 11
1762.712421
 21
562.484237
 31
0.0
  0
LINE
  5
4A43
100
AcDbEntity
  8
0
100
AcDbLine
 10
2098.778526
 20
552.484237
 30
0.0
 11
2085.278526
 21
552.484237
 31
0.0
  0
LINE
  5
4A44
100
AcDbEntity
  8
0
100
AcDbLine
 10
2099.028526
 20
553.484237
 30
0.0
 11
2084.028526
 21
553.484237
 31
0.0
  0
LINE
  5
4A45
100
AcDbEntity
  8
0
100
AcDbLine
 10
2098.778526
 20
553.484237
 30
0.0
 11
2098.778526
 21
552.484237
 31
0.0
  0
LINE
  5
4A46
100
AcDbEntity
  8
0
100
AcDbLine
 10
1762.712421
 20
562.484237
 30
0.0
 11
1762.712421
 21
553.484237
 31
0.0
  0
LINE
  5
4A47
100
AcDbEntity
  8
0
100
AcDbLine
 10
2085.278526
 20
553.484237
 30
0.0
 11
2085.278526
 21
552.484237
 31
0.0
  0
LINE
  5
4A48
100
AcDbEntity
  8
0
100
AcDbLine
 10
1762.812421
 20
587.984237
 30
0.0
 11
1762.812421
 21
582.484237
 31
0.0
  0
LINE
  5
4A49
100
AcDbEntity
  8
0
100
AcDbLine
 10
1751.962421
 20
646.284237
 30
0.0
 11
1683.462421
 21
646.284237
 31
0.0
  0
LINE
  5
4A4A
100
AcDbEntity
  8
0
100
AcDbLine
 10
1758.263067
 20
639.983591
 30
0.0
 11
1677.161775
 21
639.983591
 31
0.0
  0
LINE
  5
4A4B
100
AcDbEntity
  8
0
100
AcDbLine
 10
1677.161775
 20
639.983591
 30
0.0
 11
1683.462421
 21
646.284237
 31
0.0
  0
LINE
  5
4A4C
100
AcDbEntity
  8
0
100
AcDbLine
 10
1758.263067
 20
639.983591
 30
0.0
 11
1751.962421
 21
646.284237
 31
0.0
  0
TEXT
  5
4A4D
100
AcDbEntity
  8
0
100
AcDbText
 10
1898.816557
 20
419.732573
 30
0.0
 40
20.0
  1
25A
 72
     4
 11
1925.483223
 21
429.732573
 31
0.0
100
AcDbText
  0
CIRCLE
  5
4A4F
100
AcDbEntity
  8
0
100
AcDbCircle
 10
1739.977322
 20
500.201414
 30
0.0
 40
6.30876
  0
CIRCLE
  5
4A50
100
AcDbEntity
  8
0
100
AcDbCircle
 10
1739.977322
 20
500.201414
 30
0.0
 40
3.99999
  0
LINE
  5
4A51
100
AcDbEntity
  8
0
100
AcDbLine
 10
1739.977322
 20
492.695414
 30
0.0
 11
1733.477322
 21
496.448414
 31
0.0
  0
LINE
  5
4A52
100
AcDbEntity
  8
0
100
AcDbLine
 10
1733.477322
 20
503.954414
 30
0.0
 11
1739.977322
 21
507.707414
 31
0.0
  0
LINE
  5
4A53
100
AcDbEntity
  8
0
100
AcDbLine
 10
1739.977322
 20
552.273061
 30
0.0
 11
1733.477322
 21
548.520061
 31
0.0
  0
CIRCLE
  5
4A54
100
AcDbEntity
  8
0
100
AcDbCircle
 10
1739.977322
 20
544.767061
 30
0.0
 40
3.99999
  0
CIRCLE
  5
4A55
100
AcDbEntity
  8
0
100
AcDbCircle
 10
1739.977322
 20
544.767061
 30
0.0
 40
6.30876
  0
LINE
  5
4A56
100
AcDbEntity
  8
0
100
AcDbLine
 10
1733.477322
 20
541.014061
 30
0.0
 11
1739.977322
 21
537.261061
 31
0.0
  0
LINE
  5
4A57
100
AcDbEntity
  8
0
100
AcDbLine
 10
1744.919957
 20
492.484237
 30
0.0
 11
1690.504886
 21
492.484237
 31
0.0
  0
LINE
  5
4A58
100
AcDbEntity
  8
0
100
AcDbLine
 10
1744.919957
 20
552.484237
 30
0.0
 11
1690.504886
 21
552.484237
 31
0.0
  0
CIRCLE
  5
4A59
100
AcDbEntity
  8
0
100
AcDbCircle
 10
1717.712421
 20
522.484237
 30
0.0
 40
23.5
  0
LINE
  5
4A5A
100
AcDbEntity
  8
0
100
AcDbLine
 10
2084.028526
 20
562.484237
 30
0.0
 11
2174.028526
 21
562.484237
 31
0.0
  0
LINE
  5
4A5B
100
AcDbEntity
  8
0
100
AcDbLine
 10
2090.766665
 20
564.484237
 30
0.0
 11
2123.028526
 21
564.484237
 31
0.0
  0
LINE
  5
4A5C
100
AcDbEntity
  8
0
100
AcDbLine
 10
2083.928526
 20
582.484237
 30
0.0
 11
2174.128526
 21
582.484237
 31
0.0
  0
LINE
  5
4A5D
100
AcDbEntity
  8
0
100
AcDbLine
 10
2083.928526
 20
587.984237
 30
0.0
 11
2174.128526
 21
587.984237
 31
0.0
  0
LINE
  5
4A5E
100
AcDbEntity
  8
0
100
AcDbLine
 10
2088.47788
 20
639.983591
 30
0.0
 11
2169.579172
 21
639.983591
 31
0.0
  0
LINE
  5
4A5F
100
AcDbEntity
  8
0
100
AcDbLine
 10
2094.778526
 20
646.284237
 30
0.0
 11
2163.278526
 21
646.284237
 31
0.0
  0
ARC
  5
4A60
100
AcDbEntity
  8
0
100
AcDbCircle
 10
1717.712421
 20
522.484237
 30
0.0
 40
40.5
100
AcDbArc
 50
42.205446
 51
47.794554
  0
LINE
  5
4A61
100
AcDbEntity
  8
0
100
AcDbLine
 10
1746.477322
 20
548.520061
 30
0.0
 11
1739.977322
 21
552.273061
 31
0.0
  0
LINE
  5
4A62
100
AcDbEntity
  8
0
100
AcDbLine
 10
1747.712421
 20
553.484237
 30
0.0
 11
1747.712421
 21
495.276702
 31
0.0
  0
LINE
  5
4A63
100
AcDbEntity
  8
0
100
AcDbLine
 10
1748.212421
 20
544.884237
 30
0.0
 11
1748.212421
 21
552.484237
 31
0.0
  0
LINE
  5
4A64
100
AcDbEntity
  8
0
100
AcDbLine
 10
1761.212421
 20
552.484237
 30
0.0
 11
1761.212421
 21
544.884237
 31
0.0
  0
ARC
  5
4A65
100
AcDbEntity
  8
0
100
AcDbCircle
 10
1888.564432
 20
550.386101
 30
0.0
 40
3.541047
100
AcDbArc
 50
147.999406
 51
212.000594
  0
LINE
  5
4A66
100
AcDbEntity
  8
0
100
AcDbLine
 10
1944.370474
 20
562.484237
 30
0.0
 11
1944.370474
 21
492.484237
 31
0.0
  0
LINE
  5
4A67
100
AcDbEntity
  8
0
100
AcDbLine
 10
1892.370474
 20
552.484237
 30
0.0
 11
1892.370474
 21
492.484237
 31
0.0
  0
LINE
  5
4A68
100
AcDbEntity
  8
0
100
AcDbLine
 10
1891.370474
 20
551.508101
 30
0.0
 11
1891.370474
 21
538.008101
 31
0.0
  0
LINE
  5
4A69
100
AcDbEntity
  8
0
100
AcDbLine
 10
1891.370474
 20
552.263601
 30
0.0
 11
1891.370474
 21
537.252601
 31
0.0
  0
LINE
  5
4A6A
100
AcDbEntity
  8
0
100
AcDbLine
 10
1884.870474
 20
551.066601
 30
0.0
 11
1884.870474
 21
538.448601
 31
0.0
  0
LINE
  5
4A6B
100
AcDbEntity
  8
0
100
AcDbLine
 10
1916.870474
 20
552.484237
 30
0.0
 11
1916.870474
 21
544.884237
 31
0.0
  0
LINE
  5
4A6C
100
AcDbEntity
  8
0
100
AcDbLine
 10
1929.870474
 20
544.884237
 30
0.0
 11
1929.870474
 21
552.484237
 31
0.0
  0
LINE
  5
4A6D
100
AcDbEntity
  8
0
100
AcDbLine
 10
1902.370474
 20
562.484237
 30
0.0
 11
1902.370474
 21
492.484237
 31
0.0
  0
LINE
  5
4A6E
100
AcDbEntity
  8
0
100
AcDbLine
 10
1954.370474
 20
492.484237
 30
0.0
 11
1954.370474
 21
552.484237
 31
0.0
  0
LINE
  5
4A6F
100
AcDbEntity
  8
0
100
AcDbLine
 10
1955.370474
 20
551.258101
 30
0.0
 11
1955.370474
 21
538.258101
 31
0.0
  0
LINE
  5
4A70
100
AcDbEntity
  8
0
100
AcDbLine
 10
1963.370474
 20
550.858101
 30
0.0
 11
1963.370474
 21
538.658101
 31
0.0
  0
LINE
  5
4A71
100
AcDbEntity
  8
0
100
AcDbLine
 10
1955.370474
 20
551.508101
 30
0.0
 11
1955.370474
 21
538.008101
 31
0.0
  0
LINE
  5
4A72
100
AcDbEntity
  8
0
100
AcDbLine
 10
1954.370474
 20
492.484237
 30
0.0
 11
1892.370474
 21
492.484237
 31
0.0
  0
LINE
  5
4A74
100
AcDbEntity
  8
0
100
AcDbLine
 10
1968.370474
 20
522.484237
 30
0.0
 11
1968.370474
 21
506.984237
 31
0.0
  0
LINE
  5
4A75
100
AcDbEntity
  8
0
100
AcDbLine
 10
1954.370474
 20
506.960374
 30
0.0
 11
1955.370474
 21
506.960374
 31
0.0
  0
LINE
  5
4A76
100
AcDbEntity
  8
0
100
AcDbLine
 10
1962.970474
 20
506.710374
 30
0.0
 11
1963.370474
 21
506.310374
 31
0.0
  0
LINE
  5
4A77
100
AcDbEntity
  8
0
100
AcDbLine
 10
1963.370474
 20
504.984237
 30
0.0
 11
1966.370474
 21
504.984237
 31
0.0
  0
LINE
  5
4A78
100
AcDbEntity
  8
0
100
AcDbLine
 10
1966.370474
 20
504.984237
 30
0.0
 11
1968.370474
 21
506.984237
 31
0.0
  0
LINE
  5
4A79
100
AcDbEntity
  8
0
100
AcDbLine
 10
1955.370474
 20
506.710374
 30
0.0
 11
1962.970474
 21
506.710374
 31
0.0
  0
LINE
  5
4A7A
100
AcDbEntity
  8
0
100
AcDbLine
 10
1955.370474
 20
493.460374
 30
0.0
 11
1954.370474
 21
493.460374
 31
0.0
  0
LINE
  5
4A7B
100
AcDbEntity
  8
0
100
AcDbLine
 10
1962.970474
 20
493.710374
 30
0.0
 11
1963.370474
 21
494.110374
 31
0.0
  0
LINE
  5
4A7C
100
AcDbEntity
  8
0
100
AcDbLine
 10
1962.970474
 20
493.710374
 30
0.0
 11
1955.370474
 21
493.710374
 31
0.0
  0
LINE
  5
4A7D
100
AcDbEntity
  8
0
100
AcDbLine
 10
1955.370474
 20
493.460374
 30
0.0
 11
1955.370474
 21
506.960374
 31
0.0
  0
LINE
  5
4A7E
100
AcDbEntity
  8
0
100
AcDbLine
 10
1955.370474
 20
493.710374
 30
0.0
 11
1955.370474
 21
506.710374
 31
0.0
  0
LINE
  5
4A7F
100
AcDbEntity
  8
0
100
AcDbLine
 10
1963.370474
 20
494.110374
 30
0.0
 11
1963.370474
 21
506.310374
 31
0.0
  0
LINE
  5
4A80
100
AcDbEntity
  8
0
100
AcDbLine
 10
1968.370474
 20
537.984237
 30
0.0
 11
1968.370474
 21
522.484237
 31
0.0
  0
LINE
  5
4A81
100
AcDbEntity
  8
0
100
AcDbLine
 10
1954.370474
 20
538.008101
 30
0.0
 11
1955.370474
 21
538.008101
 31
0.0
  0
LINE
  5
4A82
100
AcDbEntity
  8
0
100
AcDbLine
 10
1962.970474
 20
538.258101
 30
0.0
 11
1963.370474
 21
538.658101
 31
0.0
  0
LINE
  5
4A83
100
AcDbEntity
  8
0
100
AcDbLine
 10
1963.370474
 20
539.984237
 30
0.0
 11
1966.370474
 21
539.984237
 31
0.0
  0
LINE
  5
4A84
100
AcDbEntity
  8
0
100
AcDbLine
 10
1968.370474
 20
537.984237
 30
0.0
 11
1966.370474
 21
539.984237
 31
0.0
  0
LINE
  5
4A85
100
AcDbEntity
  8
0
100
AcDbLine
 10
1955.370474
 20
538.258101
 30
0.0
 11
1962.970474
 21
538.258101
 31
0.0
  0
LINE
  5
4A86
100
AcDbEntity
  8
0
100
AcDbLine
 10
1929.870474
 20
544.884237
 30
0.0
 11
1916.870474
 21
544.884237
 31
0.0
  0
LINE
  5
4A87
100
AcDbEntity
  8
0
100
AcDbLine
 10
1929.470474
 20
544.484237
 30
0.0
 11
1917.270474
 21
544.484237
 31
0.0
  0
LINE
  5
4A88
100
AcDbEntity
  8
0
100
AcDbLine
 10
1916.870474
 20
544.884237
 30
0.0
 11
1917.270474
 21
544.484237
 31
0.0
  0
LINE
  5
4A89
100
AcDbEntity
  8
0
100
AcDbLine
 10
1929.870474
 20
544.884237
 30
0.0
 11
1929.470474
 21
544.484237
 31
0.0
  0
LINE
  5
4A8A
100
AcDbEntity
  8
0
100
AcDbLine
 10
1878.370474
 20
522.484237
 30
0.0
 11
1878.370474
 21
506.984237
 31
0.0
  0
LINE
  5
4A8B
100
AcDbEntity
  8
0
100
AcDbLine
 10
1885.561474
 20
503.962874
 30
0.0
 11
1891.370474
 21
503.962874
 31
0.0
  0
LINE
  5
4A8C
100
AcDbEntity
  8
0
100
AcDbLine
 10
1885.561474
 20
507.715874
 30
0.0
 11
1891.370474
 21
507.715874
 31
0.0
  0
LINE
  5
4A8D
100
AcDbEntity
  8
0
100
AcDbLine
 10
1885.561474
 20
496.458874
 30
0.0
 11
1891.370474
 21
496.458874
 31
0.0
  0
LINE
  5
4A8E
100
AcDbEntity
  8
0
100
AcDbLine
 10
1891.370474
 20
492.704874
 30
0.0
 11
1885.561474
 21
492.704874
 31
0.0
  0
LINE
  5
4A8F
100
AcDbEntity
  8
0
100
AcDbLine
 10
1892.370474
 20
506.960374
 30
0.0
 11
1891.370474
 21
506.960374
 31
0.0
  0
LINE
  5
4A90
100
AcDbEntity
  8
0
100
AcDbLine
 10
1891.370474
 20
493.460374
 30
0.0
 11
1892.370474
 21
493.460374
 31
0.0
  0
LINE
  5
4A91
100
AcDbEntity
  8
0
100
AcDbLine
 10
1891.370474
 20
493.460374
 30
0.0
 11
1891.370474
 21
506.960374
 31
0.0
  0
LINE
  5
4A92
100
AcDbEntity
  8
0
100
AcDbLine
 10
1891.370474
 20
492.704874
 30
0.0
 11
1891.370474
 21
507.715874
 31
0.0
  0
LINE
  5
4A93
100
AcDbEntity
  8
0
100
AcDbLine
 10
1880.370474
 20
503.533874
 30
0.0
 11
1881.046974
 21
504.210374
 31
0.0
  0
LINE
  5
4A94
100
AcDbEntity
  8
0
100
AcDbLine
 10
1880.370474
 20
504.984237
 30
0.0
 11
1878.370474
 21
506.984237
 31
0.0
  0
ARC
  5
4A95
100
AcDbEntity
  8
0
100
AcDbCircle
 10
1888.564432
 20
505.839374
 30
0.0
 40
3.541047
100
AcDbArc
 50
147.999406
 51
212.000594
  0
LINE
  5
4A96
100
AcDbEntity
  8
0
100
AcDbLine
 10
1884.870474
 20
506.519874
 30
0.0
 11
1885.561474
 21
507.715874
 31
0.0
  0
LINE
  5
4A97
100
AcDbEntity
  8
0
100
AcDbLine
 10
1880.370474
 20
504.984237
 30
0.0
 11
1884.870474
 21
504.984237
 31
0.0
  0
LINE
  5
4A98
100
AcDbEntity
  8
0
100
AcDbLine
 10
1884.870474
 20
504.210374
 30
0.0
 11
1881.046974
 21
504.210374
 31
0.0
  0
LINE
  5
4A99
100
AcDbEntity
  8
0
100
AcDbLine
 10
1880.370474
 20
496.886874
 30
0.0
 11
1881.046974
 21
496.210374
 31
0.0
  0
LINE
  5
4A9A
100
AcDbEntity
  8
0
100
AcDbLine
 10
1885.561474
 20
492.704874
 30
0.0
 11
1884.870474
 21
493.901874
 31
0.0
  0
ARC
  5
4A9B
100
AcDbEntity
  8
0
100
AcDbCircle
 10
1888.564432
 20
494.582374
 30
0.0
 40
3.541047
100
AcDbArc
 50
147.999406
 51
212.000594
  0
LINE
  5
4A9C
100
AcDbEntity
  8
0
100
AcDbLine
 10
1881.046974
 20
496.210374
 30
0.0
 11
1884.870474
 21
496.210374
 31
0.0
  0
LINE
  5
4A9D
100
AcDbEntity
  8
0
100
AcDbLine
 10
1880.370474
 20
503.533874
 30
0.0
 11
1880.370474
 21
496.886874
 31
0.0
  0
LINE
  5
4A9E
100
AcDbEntity
  8
0
100
AcDbLine
 10
1884.870474
 20
493.901874
 30
0.0
 11
1884.870474
 21
506.519874
 31
0.0
  0
ARC
  5
4A9F
100
AcDbEntity
  8
0
100
AcDbCircle
 10
1898.375953
 20
500.210874
 30
0.0
 40
13.352467
100
AcDbArc
 50
163.680297
 51
196.319703
  0
LINE
  5
4AA0
100
AcDbEntity
  8
0
100
AcDbLine
 10
1878.370474
 20
522.484237
 30
0.0
 11
1878.370474
 21
537.984237
 31
0.0
  0
LINE
  5
4AA1
100
AcDbEntity
  8
0
100
AcDbLine
 10
1885.561474
 20
548.509601
 30
0.0
 11
1891.370474
 21
548.509601
 31
0.0
  0
LINE
  5
4AA2
100
AcDbEntity
  8
0
100
AcDbLine
 10
1885.561474
 20
541.005601
 30
0.0
 11
1891.370474
 21
541.005601
 31
0.0
  0
LINE
  5
4AA3
100
AcDbEntity
  8
0
100
AcDbLine
 10
1885.561474
 20
537.252601
 30
0.0
 11
1891.370474
 21
537.252601
 31
0.0
  0
LINE
  5
4AA4
100
AcDbEntity
  8
0
100
AcDbLine
 10
1892.370474
 20
538.008101
 30
0.0
 11
1891.370474
 21
538.008101
 31
0.0
  0
LINE
  5
4AA5
100
AcDbEntity
  8
0
100
AcDbLine
 10
1880.370474
 20
548.081601
 30
0.0
 11
1881.046974
 21
548.758101
 31
0.0
  0
LINE
  5
4AA6
100
AcDbEntity
  8
0
100
AcDbLine
 10
1881.046974
 20
548.758101
 30
0.0
 11
1884.870474
 21
548.758101
 31
0.0
  0
LINE
  5
4AA7
100
AcDbEntity
  8
0
100
AcDbLine
 10
1880.370474
 20
541.434601
 30
0.0
 11
1881.046974
 21
540.758101
 31
0.0
  0
LINE
  5
4AA8
100
AcDbEntity
  8
0
100
AcDbLine
 10
1878.370474
 20
537.984237
 30
0.0
 11
1880.370474
 21
539.984237
 31
0.0
  0
LINE
  5
4AA9
100
AcDbEntity
  8
0
100
AcDbLine
 10
1884.870474
 20
538.448601
 30
0.0
 11
1885.561474
 21
537.252601
 31
0.0
  0
ARC
  5
4AAA
100
AcDbEntity
  8
0
100
AcDbCircle
 10
1888.564432
 20
539.129101
 30
0.0
 40
3.541047
100
AcDbArc
 50
147.999406
 51
212.000594
  0
LINE
  5
4AAB
100
AcDbEntity
  8
0
100
AcDbLine
 10
1880.370474
 20
539.984237
 30
0.0
 11
1884.870474
 21
539.984237
 31
0.0
  0
LINE
  5
4AAC
100
AcDbEntity
  8
0
100
AcDbLine
 10
1884.870474
 20
540.758101
 30
0.0
 11
1881.046974
 21
540.758101
 31
0.0
  0
ARC
  5
4AAD
100
AcDbEntity
  8
0
100
AcDbCircle
 10
1898.375953
 20
544.757601
 30
0.0
 40
13.352467
100
AcDbArc
 50
163.680297
 51
196.319703
  0
LINE
  5
4AAE
100
AcDbEntity
  8
0
100
AcDbLine
 10
1880.370474
 20
541.434601
 30
0.0
 11
1880.370474
 21
548.081601
 31
0.0
  0
ARC
  5
4AAF
100
AcDbEntity
  8
0
100
AcDbCircle
 10
1717.712421
 20
522.484237
 30
0.0
 40
40.5
100
AcDbArc
 50
312.205446
 51
317.794554
  0
LINE
  5
4AB0
100
AcDbEntity
  8
0
100
AcDbLine
 10
1746.477322
 20
503.954414
 30
0.0
 11
1746.477322
 21
496.448414
 31
0.0
  0
LINE
  5
4AB1
100
AcDbEntity
  8
0
100
AcDbLine
 10
1746.477322
 20
496.448414
 30
0.0
 11
1739.977322
 21
492.695414
 31
0.0
  0
LINE
  5
4AB2
100
AcDbEntity
  8
0
100
AcDbLine
 10
1739.977322
 20
507.707414
 30
0.0
 11
1746.477322
 21
503.954414
 31
0.0
  0
LINE
  5
4AB3
100
AcDbEntity
  8
0
100
AcDbLine
 10
1748.212421
 20
544.884237
 30
0.0
 11
1761.212421
 21
544.884237
 31
0.0
  0
LINE
  5
4AB4
100
AcDbEntity
  8
0
100
AcDbLine
 10
1748.612421
 20
544.484237
 30
0.0
 11
1760.812421
 21
544.484237
 31
0.0
  0
LINE
  5
4AB5
100
AcDbEntity
  8
0
100
AcDbLine
 10
1761.212421
 20
544.884237
 30
0.0
 11
1760.812421
 21
544.484237
 31
0.0
  0
LINE
  5
4AB6
100
AcDbEntity
  8
0
100
AcDbLine
 10
1746.477322
 20
541.014061
 30
0.0
 11
1746.477322
 21
548.520061
 31
0.0
  0
LINE
  5
4AB7
100
AcDbEntity
  8
0
100
AcDbLine
 10
1739.977322
 20
537.261061
 30
0.0
 11
1746.477322
 21
541.014061
 31
0.0
  0
LINE
  5
4AB8
100
AcDbEntity
  8
0
100
AcDbLine
 10
1748.212421
 20
544.884237
 30
0.0
 11
1748.612421
 21
544.484237
 31
0.0
  0
LINE
  5
4AB9
100
AcDbEntity
  8
0
100
AcDbLine
 10
1902.370474
 20
553.484237
 30
0.0
 11
1944.370474
 21
553.484237
 31
0.0
  0
LINE
  5
4ABA
100
AcDbEntity
  8
0
100
AcDbLine
 10
1889.120474
 20
646.284237
 30
0.0
 11
1957.620474
 21
646.284237
 31
0.0
  0
LINE
  5
4ABB
100
AcDbEntity
  8
0
100
AcDbLine
 10
1882.819828
 20
639.983591
 30
0.0
 11
1963.92112
 21
639.983591
 31
0.0
  0
LINE
  5
4ABC
100
AcDbEntity
  8
0
100
AcDbLine
 10
1875.370474
 20
562.484237
 30
0.0
 11
1949.026556
 21
562.484237
 31
0.0
  0
LINE
  5
4ABD
100
AcDbEntity
  8
0
100
AcDbLine
 10
1875.370474
 20
582.484237
 30
0.0
 11
1968.470474
 21
582.484237
 31
0.0
  0
LINE
  5
4ABE
100
AcDbEntity
  8
0
100
AcDbLine
 10
1878.270474
 20
587.984237
 30
0.0
 11
1968.470474
 21
587.984237
 31
0.0
  0
LINE
  5
4ABF
100
AcDbEntity
  8
0
100
AcDbLine
 10
1878.270474
 20
587.984237
 30
0.0
 11
1882.819828
 21
639.983591
 31
0.0
  0
LINE
  5
4AC0
100
AcDbEntity
  8
0
100
AcDbLine
 10
1855.370474
 20
566.46357
 30
0.0
 11
1859.216002
 21
566.46357
 31
0.0
  0
LINE
  5
4AC1
100
AcDbEntity
  8
0
100
AcDbLine
 10
1855.370474
 20
568.298522
 30
0.0
 11
1859.216002
 21
568.298522
 31
0.0
  0
LINE
  5
4AC2
100
AcDbEntity
  8
0
100
AcDbLine
 10
1855.370474
 20
575.669952
 30
0.0
 11
1859.216002
 21
575.669952
 31
0.0
  0
LINE
  5
4AC3
100
AcDbEntity
  8
0
100
AcDbLine
 10
1855.370474
 20
577.504905
 30
0.0
 11
1859.216002
 21
577.504905
 31
0.0
  0
LINE
  5
4AC4
100
AcDbEntity
  8
0
100
AcDbLine
 10
1856.142831
 20
581.21188
 30
0.0
 11
1855.370474
 21
580.065538
 31
0.0
  0
LINE
  5
4AC5
100
AcDbEntity
  8
0
100
AcDbLine
 10
1855.370474
 20
563.902936
 30
0.0
 11
1856.142831
 21
562.756595
 31
0.0
  0
LINE
  5
4AC6
100
AcDbEntity
  8
0
100
AcDbLine
 10
1855.370474
 20
580.065538
 30
0.0
 11
1855.370474
 21
563.902936
 31
0.0
  0
LINE
  5
4AC7
100
AcDbEntity
  8
0
100
AcDbLine
 10
1954.370474
 20
552.484237
 30
0.0
 11
1944.370474
 21
552.484237
 31
0.0
  0
LINE
  5
4AC8
100
AcDbEntity
  8
0
100
AcDbLine
 10
1859.216002
 20
562.756595
 30
0.0
 11
1859.216002
 21
581.21188
 31
0.0
  0
LINE
  5
4AC9
100
AcDbEntity
  8
0
100
AcDbLine
 10
1875.370474
 20
561.984237
 30
0.0
 11
1875.370474
 21
582.484237
 31
0.0
  0
LINE
  5
4ACA
100
AcDbEntity
  8
0
100
AcDbLine
 10
1871.833888
 20
575.829766
 30
0.0
 11
1871.833888
 21
568.138709
 31
0.0
  0
LINE
  5
4ACB
100
AcDbEntity
  8
0
100
AcDbLine
 10
1865.679417
 20
575.829766
 30
0.0
 11
1865.679417
 21
568.138709
 31
0.0
  0
LINE
  5
4ACC
100
AcDbEntity
  8
0
100
AcDbLine
 10
1861.069661
 20
580.829766
 30
0.0
 11
1861.069661
 21
563.520823
 31
0.0
  0
LINE
  5
4ACD
100
AcDbEntity
  8
0
100
AcDbLine
 10
1871.833888
 20
568.138709
 30
0.0
 11
1865.679417
 21
568.138709
 31
0.0
  0
LINE
  5
4ACE
100
AcDbEntity
  8
0
100
AcDbLine
 10
1865.679417
 20
566.21188
 30
0.0
 11
1871.833888
 21
566.21188
 31
0.0
  0
LINE
  5
4ACF
100
AcDbEntity
  8
0
100
AcDbLine
 10
1865.679417
 20
566.21188
 30
0.0
 11
1865.679417
 21
561.984237
 31
0.0
  0
LINE
  5
4AD0
100
AcDbEntity
  8
0
100
AcDbLine
 10
1871.833888
 20
566.21188
 30
0.0
 11
1871.833888
 21
561.984237
 31
0.0
  0
LINE
  5
4AD1
100
AcDbEntity
  8
0
100
AcDbLine
 10
1859.216002
 20
565.057408
 30
0.0
 11
1861.069661
 21
565.057408
 31
0.0
  0
LINE
  5
4AD2
100
AcDbEntity
  8
0
100
AcDbLine
 10
1861.995133
 20
563.436851
 30
0.0
 11
1861.069661
 21
563.520823
 31
0.0
  0
LINE
  5
4AD3
100
AcDbEntity
  8
0
100
AcDbLine
 10
1856.142831
 20
562.756595
 30
0.0
 11
1859.216002
 21
562.756595
 31
0.0
  0
LINE
  5
4AD4
100
AcDbEntity
  8
0
100
AcDbLine
 10
1865.679417
 20
561.984237
 30
0.0
 11
1861.98836
 21
563.439522
 31
0.0
  0
LINE
  5
4AD5
100
AcDbEntity
  8
0
100
AcDbLine
 10
1862.216002
 20
567.179359
 30
0.0
 11
1865.679417
 21
566.21188
 31
0.0
  0
LINE
  5
4AD6
100
AcDbEntity
  8
0
100
AcDbLine
 10
1865.679417
 20
568.138709
 30
0.0
 11
1862.216002
 21
567.179359
 31
0.0
  0
LINE
  5
4AD7
100
AcDbEntity
  8
0
100
AcDbLine
 10
1865.679417
 20
561.984237
 30
0.0
 11
1875.370474
 21
561.984237
 31
0.0
  0
LINE
  5
4AD8
100
AcDbEntity
  8
0
100
AcDbLine
 10
1955.370474
 20
551.508101
 30
0.0
 11
1954.370474
 21
551.508101
 31
0.0
  0
LINE
  5
4AD9
100
AcDbEntity
  8
0
100
AcDbLine
 10
1962.970474
 20
551.258101
 30
0.0
 11
1963.370474
 21
550.858101
 31
0.0
  0
LINE
  5
4ADA
100
AcDbEntity
  8
0
100
AcDbLine
 10
1962.970474
 20
551.258101
 30
0.0
 11
1955.370474
 21
551.258101
 31
0.0
  0
LINE
  5
4ADB
100
AcDbEntity
  8
0
100
AcDbLine
 10
1871.833888
 20
581.984237
 30
0.0
 11
1871.833888
 21
577.756595
 31
0.0
  0
LINE
  5
4ADC
100
AcDbEntity
  8
0
100
AcDbLine
 10
1865.679417
 20
581.984237
 30
0.0
 11
1865.679417
 21
577.756595
 31
0.0
  0
LINE
  5
4ADD
100
AcDbEntity
  8
0
100
AcDbLine
 10
1871.833888
 20
577.756595
 30
0.0
 11
1865.679417
 21
577.756595
 31
0.0
  0
LINE
  5
4ADE
100
AcDbEntity
  8
0
100
AcDbLine
 10
1865.679417
 20
575.829766
 30
0.0
 11
1871.833888
 21
575.829766
 31
0.0
  0
LINE
  5
4ADF
100
AcDbEntity
  8
0
100
AcDbLine
 10
1861.985439
 20
580.910217
 30
0.0
 11
1861.069661
 21
580.829766
 31
0.0
  0
LINE
  5
4AE0
100
AcDbEntity
  8
0
100
AcDbLine
 10
1859.216002
 20
581.21188
 30
0.0
 11
1856.142831
 21
581.21188
 31
0.0
  0
LINE
  5
4AE1
100
AcDbEntity
  8
0
100
AcDbLine
 10
1861.069661
 20
578.911067
 30
0.0
 11
1859.216002
 21
578.911067
 31
0.0
  0
LINE
  5
4AE2
100
AcDbEntity
  8
0
100
AcDbLine
 10
1862.216002
 20
576.789115
 30
0.0
 11
1865.679417
 21
575.829766
 31
0.0
  0
LINE
  5
4AE3
100
AcDbEntity
  8
0
100
AcDbLine
 10
1865.679417
 20
577.756595
 30
0.0
 11
1862.216002
 21
576.789115
 31
0.0
  0
LINE
  5
4AE4
100
AcDbEntity
  8
0
100
AcDbLine
 10
1861.985439
 20
580.910217
 30
0.0
 11
1865.679417
 21
581.984237
 31
0.0
  0
LINE
  5
4AE5
100
AcDbEntity
  8
0
100
AcDbLine
 10
1875.370474
 20
581.984237
 30
0.0
 11
1865.679417
 21
581.984237
 31
0.0
  0
LINE
  5
4AE6
100
AcDbEntity
  8
0
100
AcDbLine
 10
1878.270474
 20
587.984237
 30
0.0
 11
1878.270474
 21
582.484237
 31
0.0
  0
LINE
  5
4AE7
100
AcDbEntity
  8
0
100
AcDbLine
 10
1930.120474
 20
552.484237
 30
0.0
 11
1916.620474
 21
552.484237
 31
0.0
  0
LINE
  5
4AE8
100
AcDbEntity
  8
0
100
AcDbLine
 10
1916.620474
 20
553.484237
 30
0.0
 11
1916.620474
 21
552.484237
 31
0.0
  0
LINE
  5
4AE9
100
AcDbEntity
  8
0
100
AcDbLine
 10
1930.120474
 20
553.484237
 30
0.0
 11
1930.120474
 21
552.484237
 31
0.0
  0
LINE
  5
4AEA
100
AcDbEntity
  8
0
100
AcDbLine
 10
1882.819828
 20
639.983591
 30
0.0
 11
1889.120474
 21
646.284237
 31
0.0
  0
LINE
  5
4AEB
100
AcDbEntity
  8
0
100
AcDbLine
 10
2083.928526
 20
587.984237
 30
0.0
 11
2088.47788
 21
639.983591
 31
0.0
  0
LINE
  5
4AEC
100
AcDbEntity
  8
0
100
AcDbLine
 10
1968.470474
 20
587.984237
 30
0.0
 11
1963.92112
 21
639.983591
 31
0.0
  0
LINE
  5
4AED
100
AcDbEntity
  8
0
100
AcDbLine
 10
1971.870474
 20
564.484237
 30
0.0
 11
1971.870474
 21
572.984237
 31
0.0
  0
LINE
  5
4AEE
100
AcDbEntity
  8
0
100
AcDbLine
 10
1973.370474
 20
562.984237
 30
0.0
 11
1973.370474
 21
572.984237
 31
0.0
  0
LINE
  5
4AEF
100
AcDbEntity
  8
0
100
AcDbLine
 10
1968.370474
 20
582.484237
 30
0.0
 11
1968.370474
 21
564.484237
 31
0.0
  0
LINE
  5
4AF0
100
AcDbEntity
  8
0
100
AcDbLine
 10
1891.370474
 20
552.263601
 30
0.0
 11
1885.561474
 21
552.263601
 31
0.0
  0
LINE
  5
4AF1
100
AcDbEntity
  8
0
100
AcDbLine
 10
1949.026556
 20
562.984237
 30
0.0
 11
1973.370474
 21
562.984237
 31
0.0
  0
LINE
  5
4AF2
100
AcDbEntity
  8
0
100
AcDbLine
 10
1949.026556
 20
564.484237
 30
0.0
 11
1971.870474
 21
564.484237
 31
0.0
  0
LINE
  5
4AF3
100
AcDbEntity
  8
0
100
AcDbLine
 10
1891.370474
 20
551.508101
 30
0.0
 11
1892.370474
 21
551.508101
 31
0.0
  0
LINE
  5
4AF4
100
AcDbEntity
  8
0
100
AcDbLine
 10
1949.026556
 20
564.484237
 30
0.0
 11
1949.026556
 21
562.484237
 31
0.0
  0
LINE
  5
4AF5
100
AcDbEntity
  8
0
100
AcDbLine
 10
1902.370474
 20
552.484237
 30
0.0
 11
1892.370474
 21
552.484237
 31
0.0
  0
LINE
  5
4AF6
100
AcDbEntity
  8
0
100
AcDbLine
 10
1885.561474
 20
552.263601
 30
0.0
 11
1884.870474
 21
551.066601
 31
0.0
  0
LINE
  5
4AF7
100
AcDbEntity
  8
0
100
AcDbLine
 10
1971.870474
 20
572.984237
 30
0.0
 11
1973.370474
 21
572.984237
 31
0.0
  0
LINE
  5
4AF8
100
AcDbEntity
  8
0
100
AcDbLine
 10
1968.470474
 20
587.984237
 30
0.0
 11
1968.470474
 21
582.484237
 31
0.0
  0
LINE
  5
4AF9
100
AcDbEntity
  8
0
100
AcDbLine
 10
2084.028526
 20
582.484237
 30
0.0
 11
2084.028526
 21
562.484237
 31
0.0
  0
LINE
  5
4AFA
100
AcDbEntity
  8
0
100
AcDbLine
 10
1747.962421
 20
552.484237
 30
0.0
 11
1761.462421
 21
552.484237
 31
0.0
  0
LINE
  5
4AFB
100
AcDbEntity
  8
0
100
AcDbLine
 10
1747.712421
 20
553.484237
 30
0.0
 11
1762.712421
 21
553.484237
 31
0.0
  0
LINE
  5
4AFC
100
AcDbEntity
  8
0
100
AcDbLine
 10
1761.462421
 20
553.484237
 30
0.0
 11
1761.462421
 21
552.484237
 31
0.0
  0
LINE
  5
4AFD
100
AcDbEntity
  8
0
100
AcDbLine
 10
2084.028526
 20
562.484237
 30
0.0
 11
2084.028526
 21
553.484237
 31
0.0
  0
LINE
  5
4AFE
100
AcDbEntity
  8
0
100
AcDbLine
 10
1747.962421
 20
553.484237
 30
0.0
 11
1747.962421
 21
552.484237
 31
0.0
  0
LINE
  5
4AFF
100
AcDbEntity
  8
0
100
AcDbLine
 10
2090.766665
 20
564.484237
 30
0.0
 11
2090.766665
 21
562.484237
 31
0.0
  0
LINE
  5
4B00
100
AcDbEntity
  8
0
100
AcDbLine
 10
2083.928526
 20
587.984237
 30
0.0
 11
2083.928526
 21
582.484237
 31
0.0
  0
LINE
  5
4B01
100
AcDbEntity
  8
0
100
AcDbLine
 10
1963.92112
 20
639.983591
 30
0.0
 11
1957.620474
 21
646.284237
 31
0.0
  0
LINE
  5
4B02
100
AcDbEntity
  8
0
100
AcDbLine
 10
2088.47788
 20
639.983591
 30
0.0
 11
2094.778526
 21
646.284237
 31
0.0
  0
ARC
  5
4B03
100
AcDbEntity
  8
0
100
AcDbCircle
 10
1717.712421
 20
522.484237
 30
0.0
 40
40.5
100
AcDbArc
 50
132.205446
 51
137.794554
  0
LINE
  5
4B04
100
AcDbEntity
  8
0
100
AcDbLine
 10
1688.947521
 20
548.520061
 30
0.0
 11
1695.447521
 21
552.273061
 31
0.0
  0
CIRCLE
  5
4B05
100
AcDbEntity
  8
0
100
AcDbCircle
 10
1695.447521
 20
544.767061
 30
0.0
 40
6.30876
  0
LINE
  5
4B06
100
AcDbEntity
  8
0
100
AcDbLine
 10
1695.447521
 20
552.273061
 30
0.0
 11
1701.947521
 21
548.520061
 31
0.0
  0
LINE
  5
4B07
100
AcDbEntity
  8
0
100
AcDbLine
 10
1687.712421
 20
553.484237
 30
0.0
 11
1687.712421
 21
495.276702
 31
0.0
  0
LINE
  5
4B08
100
AcDbEntity
  8
0
100
AcDbLine
 10
1687.212421
 20
544.884237
 30
0.0
 11
1687.212421
 21
552.484237
 31
0.0
  0
LINE
  5
4B09
100
AcDbEntity
  8
0
100
AcDbLine
 10
1674.212421
 20
552.484237
 30
0.0
 11
1674.212421
 21
544.884237
 31
0.0
  0
LINE
  5
4B0A
100
AcDbEntity
  8
0
100
AcDbLine
 10
1695.447521
 20
492.695414
 30
0.0
 11
1701.947521
 21
496.448414
 31
0.0
  0
CIRCLE
  5
4B0B
100
AcDbEntity
  8
0
100
AcDbCircle
 10
1695.447521
 20
500.201414
 30
0.0
 40
3.99999
  0
CIRCLE
  5
4B0C
100
AcDbEntity
  8
0
100
AcDbCircle
 10
1695.447521
 20
500.201414
 30
0.0
 40
6.30876
  0
LINE
  5
4B0D
100
AcDbEntity
  8
0
100
AcDbLine
 10
1701.947521
 20
503.954414
 30
0.0
 11
1695.447521
 21
507.707414
 31
0.0
  0
LINE
  5
4B0E
100
AcDbEntity
  8
0
100
AcDbLine
 10
1733.477322
 20
496.448414
 30
0.0
 11
1733.477322
 21
503.954414
 31
0.0
  0
LINE
  5
4B0F
100
AcDbEntity
  8
0
100
AcDbLine
 10
1701.947521
 20
496.448414
 30
0.0
 11
1701.947521
 21
503.954414
 31
0.0
  0
ARC
  5
4B10
100
AcDbEntity
  8
0
100
AcDbCircle
 10
1717.712421
 20
522.484237
 30
0.0
 40
40.5
100
AcDbArc
 50
222.205446
 51
227.794554
  0
LINE
  5
4B11
100
AcDbEntity
  8
0
100
AcDbLine
 10
1688.947521
 20
496.448414
 30
0.0
 11
1695.447521
 21
492.695414
 31
0.0
  0
LINE
  5
4B12
100
AcDbEntity
  8
0
100
AcDbLine
 10
1688.947521
 20
503.954414
 30
0.0
 11
1688.947521
 21
496.448414
 31
0.0
  0
LINE
  5
4B13
100
AcDbEntity
  8
0
100
AcDbLine
 10
1695.447521
 20
507.707414
 30
0.0
 11
1688.947521
 21
503.954414
 31
0.0
  0
CIRCLE
  5
4B14
100
AcDbEntity
  8
0
100
AcDbCircle
 10
1695.447521
 20
544.767061
 30
0.0
 40
3.99999
  0
LINE
  5
4B15
100
AcDbEntity
  8
0
100
AcDbLine
 10
1701.947521
 20
541.014061
 30
0.0
 11
1695.447521
 21
537.261061
 31
0.0
  0
LINE
  5
4B16
100
AcDbEntity
  8
0
100
AcDbLine
 10
1733.477322
 20
548.520061
 30
0.0
 11
1733.477322
 21
541.014061
 31
0.0
  0
LINE
  5
4B17
100
AcDbEntity
  8
0
100
AcDbLine
 10
1701.947521
 20
548.520061
 30
0.0
 11
1701.947521
 21
541.014061
 31
0.0
  0
LINE
  5
4B18
100
AcDbEntity
  8
0
100
AcDbLine
 10
1686.812421
 20
544.484237
 30
0.0
 11
1674.612421
 21
544.484237
 31
0.0
  0
LINE
  5
4B19
100
AcDbEntity
  8
0
100
AcDbLine
 10
1687.212421
 20
544.884237
 30
0.0
 11
1674.212421
 21
544.884237
 31
0.0
  0
LINE
  5
4B1A
100
AcDbEntity
  8
0
100
AcDbLine
 10
1688.947521
 20
541.014061
 30
0.0
 11
1688.947521
 21
548.520061
 31
0.0
  0
LINE
  5
4B1B
100
AcDbEntity
  8
0
100
AcDbLine
 10
1695.447521
 20
537.261061
 30
0.0
 11
1688.947521
 21
541.014061
 31
0.0
  0
LINE
  5
4B1C
100
AcDbEntity
  8
0
100
AcDbLine
 10
1687.212421
 20
544.884237
 30
0.0
 11
1686.812421
 21
544.484237
 31
0.0
  0
LINE
  5
4B1D
100
AcDbEntity
  8
0
100
AcDbLine
 10
1674.212421
 20
544.884237
 30
0.0
 11
1674.612421
 21
544.484237
 31
0.0
  0
LINE
  5
4B1E
100
AcDbEntity
  8
0
100
AcDbLine
 10
2174.128526
 20
587.984237
 30
0.0
 11
2169.579172
 21
639.983591
 31
0.0
  0
LINE
  5
4B1F
100
AcDbEntity
  8
0
100
AcDbLine
 10
2135.028526
 20
564.484237
 30
0.0
 11
2167.290387
 21
564.484237
 31
0.0
  0
ARC
  5
4B20
100
AcDbEntity
  8
0
100
AcDbCircle
 10
2129.028526
 20
566.984237
 30
0.0
 40
6.0
100
AcDbArc
 50
0.0
 51
180.0
  0
CIRCLE
  5
4B21
100
AcDbEntity
  8
0
100
AcDbCircle
 10
2129.028526
 20
567.984237
 30
0.0
 40
2.5
  0
LINE
  5
4B22
100
AcDbEntity
  8
0
100
AcDbLine
 10
2123.028526
 20
562.984237
 30
0.0
 11
2135.028526
 21
562.984237
 31
0.0
  0
LINE
  5
4B23
100
AcDbEntity
  8
0
100
AcDbLine
 10
2123.028526
 20
566.984237
 30
0.0
 11
2123.028526
 21
562.984237
 31
0.0
  0
LINE
  5
4B24
100
AcDbEntity
  8
0
100
AcDbLine
 10
2135.028526
 20
566.984237
 30
0.0
 11
2135.028526
 21
562.984237
 31
0.0
  0
LINE
  5
4B25
100
AcDbEntity
  8
0
100
AcDbLine
 10
2174.028526
 20
582.484237
 30
0.0
 11
2174.028526
 21
562.484237
 31
0.0
  0
LINE
  5
4B26
100
AcDbEntity
  8
0
100
AcDbLine
 10
1687.462421
 20
552.484237
 30
0.0
 11
1673.962421
 21
552.484237
 31
0.0
  0
LINE
  5
4B27
100
AcDbEntity
  8
0
100
AcDbLine
 10
1687.712421
 20
553.484237
 30
0.0
 11
1672.712421
 21
553.484237
 31
0.0
  0
LINE
  5
4B28
100
AcDbEntity
  8
0
100
AcDbLine
 10
1687.462421
 20
553.484237
 30
0.0
 11
1687.462421
 21
552.484237
 31
0.0
  0
LINE
  5
4B29
100
AcDbEntity
  8
0
100
AcDbLine
 10
2167.290387
 20
564.484237
 30
0.0
 11
2167.290387
 21
562.484237
 31
0.0
  0
LINE
  5
4B2A
100
AcDbEntity
  8
0
100
AcDbLine
 10
1673.962421
 20
553.484237
 30
0.0
 11
1673.962421
 21
552.484237
 31
0.0
  0
LINE
  5
4B2B
100
AcDbEntity
  8
0
100
AcDbLine
 10
2174.028526
 20
562.484237
 30
0.0
 11
2174.028526
 21
553.484237
 31
0.0
  0
LINE
  5
4B2C
100
AcDbEntity
  8
0
100
AcDbLine
 10
2174.128526
 20
587.984237
 30
0.0
 11
2174.128526
 21
582.484237
 31
0.0
  0
LINE
  5
4B2D
100
AcDbEntity
  8
0
100
AcDbLine
 10
2169.579172
 20
639.983591
 30
0.0
 11
2163.278526
 21
646.284237
 31
0.0
  0
LINE
  5
4B2E
100
AcDbEntity
  8
0
100
AcDbLine
 10
1206.940257
 20
1017.429271
 30
0.0
 11
1206.940257
 21
999.429271
 31
0.0
  0
LINE
  5
4B2F
100
AcDbEntity
  8
0
100
AcDbLine
 10
1314.24107
 20
1015.774799
 30
0.0
 11
1314.24107
 21
998.465856
 31
0.0
  0
LINE
  5
4B30
100
AcDbEntity
  8
0
100
AcDbLine
 10
1319.940257
 20
1015.010571
 30
0.0
 11
1319.940257
 21
998.84797
 31
0.0
  0
LINE
  5
4B31
100
AcDbEntity
  8
0
100
AcDbLine
 10
1316.094729
 20
997.701628
 30
0.0
 11
1316.094729
 21
1016.156913
 31
0.0
  0
LINE
  5
4B32
100
AcDbEntity
  8
0
100
AcDbLine
 10
1299.940257
 20
996.929271
 30
0.0
 11
1299.940257
 21
1017.429271
 31
0.0
  0
LINE
  5
4B33
100
AcDbEntity
  8
0
100
AcDbLine
 10
1309.631314
 20
1016.929271
 30
0.0
 11
1309.631314
 21
1012.701628
 31
0.0
  0
LINE
  5
4B34
100
AcDbEntity
  8
0
100
AcDbLine
 10
1303.476842
 20
1016.929271
 30
0.0
 11
1303.476842
 21
1012.701628
 31
0.0
  0
LINE
  5
4B35
100
AcDbEntity
  8
0
100
AcDbLine
 10
1301.940257
 20
781.241482
 30
0.0
 11
1301.940257
 21
793.241482
 31
0.0
  0
LINE
  5
4B36
100
AcDbEntity
  8
0
100
AcDbLine
 10
1300.440257
 20
781.241482
 30
0.0
 11
1300.440257
 21
793.241482
 31
0.0
  0
LINE
  5
4B37
100
AcDbEntity
  8
0
100
AcDbLine
 10
1190.785785
 20
782.436603
 30
0.0
 11
1194.2492
 21
781.469124
 31
0.0
  0
LINE
  5
4B38
100
AcDbEntity
  8
0
100
AcDbLine
 10
1189.639444
 20
796.08701
 30
0.0
 11
1189.639444
 21
778.778067
 31
0.0
  0
LINE
  5
4B39
100
AcDbEntity
  8
0
100
AcDbLine
 10
1183.940257
 20
795.322782
 30
0.0
 11
1183.940257
 21
779.160181
 31
0.0
  0
LINE
  5
4B3A
100
AcDbEntity
  8
0
100
AcDbLine
 10
1187.785785
 20
778.013839
 30
0.0
 11
1187.785785
 21
796.469124
 31
0.0
  0
LINE
  5
4B3B
100
AcDbEntity
  8
0
100
AcDbLine
 10
1203.940257
 20
776.741482
 30
0.0
 11
1203.940257
 21
797.741482
 31
0.0
  0
CIRCLE
  5
4B3C
100
AcDbEntity
  8
0
100
AcDbCircle
 10
1251.940257
 20
787.241482
 30
0.0
 40
34.25
  0
CIRCLE
  5
4B3D
100
AcDbEntity
  8
0
100
AcDbCircle
 10
1251.940257
 20
787.241482
 30
0.0
 40
40.550646
  0
CIRCLE
  5
4B3E
100
AcDbEntity
  8
0
100
AcDbCircle
 10
1251.940257
 20
787.241482
 30
0.0
 40
45.0
  0
LINE
  5
4B3F
100
AcDbEntity
  8
0
100
AcDbLine
 10
1183.940257
 20
779.160181
 30
0.0
 11
1184.712615
 21
778.013839
 31
0.0
  0
LINE
  5
4B40
100
AcDbEntity
  8
0
100
AcDbLine
 10
1206.632973
 20
776.741482
 30
0.0
 11
1203.940257
 21
776.741482
 31
0.0
  0
LINE
  5
4B41
100
AcDbEntity
  8
0
100
AcDbLine
 10
1184.712615
 20
778.013839
 30
0.0
 11
1187.785785
 21
778.013839
 31
0.0
  0
LINE
  5
4B42
100
AcDbEntity
  8
0
100
AcDbLine
 10
1190.564917
 20
778.694095
 30
0.0
 11
1189.639444
 21
778.778067
 31
0.0
  0
LINE
  5
4B43
100
AcDbEntity
  8
0
100
AcDbLine
 10
1187.785785
 20
780.314652
 30
0.0
 11
1189.639444
 21
780.314652
 31
0.0
  0
LINE
  5
4B44
100
AcDbEntity
  8
0
100
AcDbLine
 10
1194.2492
 20
781.469124
 30
0.0
 11
1200.403672
 21
781.469124
 31
0.0
  0
LINE
  5
4B45
100
AcDbEntity
  8
0
100
AcDbLine
 10
1194.2492
 20
777.241482
 30
0.0
 11
1203.940257
 21
777.241482
 31
0.0
  0
LINE
  5
4B46
100
AcDbEntity
  8
0
100
AcDbLine
 10
1194.2492
 20
781.469124
 30
0.0
 11
1194.2492
 21
777.241482
 31
0.0
  0
LINE
  5
4B47
100
AcDbEntity
  8
0
100
AcDbLine
 10
1194.2492
 20
777.241482
 30
0.0
 11
1190.558143
 21
778.696766
 31
0.0
  0
LINE
  5
4B48
100
AcDbEntity
  8
0
100
AcDbLine
 10
1200.403672
 20
781.469124
 30
0.0
 11
1200.403672
 21
777.241482
 31
0.0
  0
ARC
  5
4B49
100
AcDbEntity
  8
0
100
AcDbCircle
 10
1206.632973
 20
774.741482
 30
0.0
 40
2.0
100
AcDbArc
 50
15.423852
 51
90.0
  0
LINE
  5
4B4A
100
AcDbEntity
  8
0
100
AcDbLine
 10
1296.940257
 20
781.241482
 30
0.0
 11
1301.940257
 21
781.241482
 31
0.0
  0
LINE
  5
4B4B
100
AcDbEntity
  8
0
100
AcDbLine
 10
1183.940257
 20
781.720814
 30
0.0
 11
1187.785785
 21
781.720814
 31
0.0
  0
LINE
  5
4B4C
100
AcDbEntity
  8
0
100
AcDbLine
 10
1183.940257
 20
783.555766
 30
0.0
 11
1187.785785
 21
783.555766
 31
0.0
  0
LINE
  5
4B4D
100
AcDbEntity
  8
0
100
AcDbLine
 10
1183.940257
 20
790.927197
 30
0.0
 11
1187.785785
 21
790.927197
 31
0.0
  0
LINE
  5
4B4E
100
AcDbEntity
  8
0
100
AcDbLine
 10
1183.940257
 20
792.762149
 30
0.0
 11
1187.785785
 21
792.762149
 31
0.0
  0
LINE
  5
4B4F
100
AcDbEntity
  8
0
100
AcDbLine
 10
1184.712615
 20
796.469124
 30
0.0
 11
1183.940257
 21
795.322782
 31
0.0
  0
LINE
  5
4B50
100
AcDbEntity
  8
0
100
AcDbLine
 10
1206.632973
 20
797.741482
 30
0.0
 11
1203.940257
 21
797.741482
 31
0.0
  0
LINE
  5
4B51
100
AcDbEntity
  8
0
100
AcDbLine
 10
1200.403672
 20
797.241482
 30
0.0
 11
1200.403672
 21
793.013839
 31
0.0
  0
LINE
  5
4B52
100
AcDbEntity
  8
0
100
AcDbLine
 10
1194.2492
 20
797.241482
 30
0.0
 11
1194.2492
 21
793.013839
 31
0.0
  0
LINE
  5
4B53
100
AcDbEntity
  8
0
100
AcDbLine
 10
1189.639444
 20
794.168311
 30
0.0
 11
1187.785785
 21
794.168311
 31
0.0
  0
LINE
  5
4B54
100
AcDbEntity
  8
0
100
AcDbLine
 10
1187.785785
 20
796.469124
 30
0.0
 11
1184.712615
 21
796.469124
 31
0.0
  0
LINE
  5
4B55
100
AcDbEntity
  8
0
100
AcDbLine
 10
1190.555222
 20
796.167462
 30
0.0
 11
1189.639444
 21
796.08701
 31
0.0
  0
LINE
  5
4B56
100
AcDbEntity
  8
0
100
AcDbLine
 10
1194.2492
 20
793.013839
 30
0.0
 11
1190.785785
 21
792.04636
 31
0.0
  0
LINE
  5
4B57
100
AcDbEntity
  8
0
100
AcDbLine
 10
1190.785785
 20
792.04636
 30
0.0
 11
1194.2492
 21
791.08701
 31
0.0
  0
LINE
  5
4B58
100
AcDbEntity
  8
0
100
AcDbLine
 10
1190.555222
 20
796.167462
 30
0.0
 11
1194.2492
 21
797.241482
 31
0.0
  0
LINE
  5
4B59
100
AcDbEntity
  8
0
100
AcDbLine
 10
1194.2492
 20
791.08701
 30
0.0
 11
1200.403672
 21
791.08701
 31
0.0
  0
LINE
  5
4B5A
100
AcDbEntity
  8
0
100
AcDbLine
 10
1200.403672
 20
793.013839
 30
0.0
 11
1194.2492
 21
793.013839
 31
0.0
  0
LINE
  5
4B5B
100
AcDbEntity
  8
0
100
AcDbLine
 10
1203.940257
 20
797.241482
 30
0.0
 11
1194.2492
 21
797.241482
 31
0.0
  0
LINE
  5
4B5C
100
AcDbEntity
  8
0
100
AcDbLine
 10
1194.2492
 20
783.395953
 30
0.0
 11
1190.785785
 21
782.436603
 31
0.0
  0
LINE
  5
4B5D
100
AcDbEntity
  8
0
100
AcDbLine
 10
1200.403672
 20
783.395953
 30
0.0
 11
1194.2492
 21
783.395953
 31
0.0
  0
LINE
  5
4B5E
100
AcDbEntity
  8
0
100
AcDbLine
 10
1194.2492
 20
791.08701
 30
0.0
 11
1194.2492
 21
783.395953
 31
0.0
  0
LINE
  5
4B5F
100
AcDbEntity
  8
0
100
AcDbLine
 10
1200.403672
 20
791.08701
 30
0.0
 11
1200.403672
 21
783.395953
 31
0.0
  0
ARC
  5
4B60
100
AcDbEntity
  8
0
100
AcDbCircle
 10
1206.632973
 20
799.741482
 30
0.0
 40
2.0
100
AcDbArc
 50
270.0
 51
344.576148
  0
LINE
  5
4B61
100
AcDbEntity
  8
0
100
AcDbLine
 10
1296.940257
 20
793.241482
 30
0.0
 11
1301.940257
 21
793.241482
 31
0.0
  0
LINE
  5
4B62
100
AcDbEntity
  8
0
100
AcDbLine
 10
1309.631314
 20
1003.083742
 30
0.0
 11
1313.094729
 21
1002.124393
 31
0.0
  0
LINE
  5
4B63
100
AcDbEntity
  8
0
100
AcDbLine
 10
1313.094729
 20
1002.124393
 30
0.0
 11
1309.631314
 21
1001.156913
 31
0.0
  0
LINE
  5
4B64
100
AcDbEntity
  8
0
100
AcDbLine
 10
1309.631314
 20
996.929271
 30
0.0
 11
1313.322371
 21
998.384555
 31
0.0
  0
LINE
  5
4B65
100
AcDbEntity
  8
0
100
AcDbLine
 10
1309.631314
 20
1012.701628
 30
0.0
 11
1313.094729
 21
1011.734149
 31
0.0
  0
LINE
  5
4B66
100
AcDbEntity
  8
0
100
AcDbLine
 10
1313.094729
 20
1011.734149
 30
0.0
 11
1309.631314
 21
1010.774799
 31
0.0
  0
LINE
  5
4B67
100
AcDbEntity
  8
0
100
AcDbLine
 10
1282.940257
 20
930.526727
 30
0.0
 11
1282.940257
 21
944.026727
 31
0.0
  0
LINE
  5
4B68
100
AcDbEntity
  8
0
100
AcDbLine
 10
1290.440257
 20
930.968227
 30
0.0
 11
1290.440257
 21
943.586227
 31
0.0
  0
LINE
  5
4B69
100
AcDbEntity
  8
0
100
AcDbLine
 10
1283.940257
 20
929.771227
 30
0.0
 11
1283.940257
 21
944.782227
 31
0.0
  0
LINE
  5
4B6A
100
AcDbEntity
  8
0
100
AcDbLine
 10
1283.940257
 20
930.526727
 30
0.0
 11
1283.940257
 21
944.026727
 31
0.0
  0
LINE
  5
4B6B
100
AcDbEntity
  8
0
100
AcDbLine
 10
1294.940257
 20
940.600227
 30
0.0
 11
1294.940257
 21
933.953227
 31
0.0
  0
ARC
  5
4B6C
100
AcDbEntity
  8
0
100
AcDbCircle
 10
1276.934778
 20
937.277227
 30
0.0
 40
13.352467
100
AcDbArc
 50
343.680297
 51
16.319703
  0
LINE
  5
4B6D
100
AcDbEntity
  8
0
100
AcDbLine
 10
1211.940257
 20
931.642753
 30
0.0
 11
1211.940257
 21
942.910702
 31
0.0
  0
LINE
  5
4B6E
100
AcDbEntity
  8
0
100
AcDbLine
 10
1219.940257
 20
930.526727
 30
0.0
 11
1219.940257
 21
944.026727
 31
0.0
  0
LINE
  5
4B6F
100
AcDbEntity
  8
0
100
AcDbLine
 10
1230.940257
 20
997.429271
 30
0.0
 11
1230.940257
 21
929.929271
 31
0.0
  0
LINE
  5
4B70
100
AcDbEntity
  8
0
100
AcDbLine
 10
1272.940257
 20
997.429271
 30
0.0
 11
1272.940257
 21
929.929271
 31
0.0
  0
LINE
  5
4B71
100
AcDbEntity
  8
0
100
AcDbLine
 10
1220.940257
 20
984.929271
 30
0.0
 11
1220.940257
 21
929.929271
 31
0.0
  0
LINE
  5
4B72
100
AcDbEntity
  8
0
100
AcDbLine
 10
1282.940257
 20
984.929271
 30
0.0
 11
1282.940257
 21
929.929271
 31
0.0
  0
LINE
  5
4B73
100
AcDbEntity
  8
0
100
AcDbLine
 10
1220.940257
 20
929.929271
 30
0.0
 11
1282.940257
 21
929.929271
 31
0.0
  0
LINE
  5
4B74
100
AcDbEntity
  8
0
100
AcDbLine
 10
1294.940257
 20
933.953227
 30
0.0
 11
1294.263757
 21
933.276727
 31
0.0
  0
LINE
  5
4B75
100
AcDbEntity
  8
0
100
AcDbLine
 10
1294.263757
 20
933.276727
 30
0.0
 11
1290.440257
 21
933.276727
 31
0.0
  0
LINE
  5
4B76
100
AcDbEntity
  8
0
100
AcDbLine
 10
1283.940257
 20
929.771227
 30
0.0
 11
1289.749257
 21
929.771227
 31
0.0
  0
LINE
  5
4B77
100
AcDbEntity
  8
0
100
AcDbLine
 10
1283.940257
 20
930.526727
 30
0.0
 11
1282.940257
 21
930.526727
 31
0.0
  0
LINE
  5
4B78
100
AcDbEntity
  8
0
100
AcDbLine
 10
1289.749257
 20
929.771227
 30
0.0
 11
1290.440257
 21
930.968227
 31
0.0
  0
ARC
  5
4B79
100
AcDbEntity
  8
0
100
AcDbCircle
 10
1286.746299
 20
931.648727
 30
0.0
 40
3.541047
100
AcDbArc
 50
327.999406
 51
32.000594
  0
LINE
  5
4B7A
100
AcDbEntity
  8
0
100
AcDbLine
 10
1289.749257
 20
933.525227
 30
0.0
 11
1283.940257
 21
933.525227
 31
0.0
  0
LINE
  5
4B7B
100
AcDbEntity
  8
0
100
AcDbLine
 10
1212.440257
 20
930.776727
 30
0.0
 11
1219.940257
 21
930.776727
 31
0.0
  0
LINE
  5
4B7C
100
AcDbEntity
  8
0
100
AcDbLine
 10
1219.940257
 20
930.526727
 30
0.0
 11
1220.940257
 21
930.526727
 31
0.0
  0
LINE
  5
4B7D
100
AcDbEntity
  8
0
100
AcDbLine
 10
1212.440257
 20
930.776727
 30
0.0
 11
1211.940257
 21
931.642753
 31
0.0
  0
LINE
  5
4B7E
100
AcDbEntity
  8
0
100
AcDbLine
 10
1226.284175
 20
999.429271
 30
0.0
 11
1203.440257
 21
999.429271
 31
0.0
  0
LINE
  5
4B7F
100
AcDbEntity
  8
0
100
AcDbLine
 10
1226.284175
 20
997.929271
 30
0.0
 11
1201.940257
 21
997.929271
 31
0.0
  0
LINE
  5
4B80
100
AcDbEntity
  8
0
100
AcDbLine
 10
1272.940257
 20
984.929271
 30
0.0
 11
1282.940257
 21
984.929271
 31
0.0
  0
ARC
  5
4B81
100
AcDbEntity
  8
0
100
AcDbCircle
 10
1276.934778
 20
977.581314
 30
0.0
 40
13.352467
100
AcDbArc
 50
343.680297
 51
16.319703
  0
LINE
  5
4B82
100
AcDbEntity
  8
0
100
AcDbLine
 10
1294.940257
 20
974.258314
 30
0.0
 11
1294.940257
 21
980.905314
 31
0.0
  0
LINE
  5
4B83
100
AcDbEntity
  8
0
100
AcDbLine
 10
1283.940257
 20
984.331814
 30
0.0
 11
1283.940257
 21
970.831814
 31
0.0
  0
LINE
  5
4B84
100
AcDbEntity
  8
0
100
AcDbLine
 10
1283.940257
 20
985.087314
 30
0.0
 11
1283.940257
 21
970.076314
 31
0.0
  0
LINE
  5
4B85
100
AcDbEntity
  8
0
100
AcDbLine
 10
1290.440257
 20
983.890314
 30
0.0
 11
1290.440257
 21
971.272314
 31
0.0
  0
LINE
  5
4B86
100
AcDbEntity
  8
0
100
AcDbLine
 10
1282.940257
 20
984.331814
 30
0.0
 11
1282.940257
 21
970.831814
 31
0.0
  0
LINE
  5
4B87
100
AcDbEntity
  8
0
100
AcDbLine
 10
1291.940257
 20
957.429271
 30
0.0
 11
1291.940257
 21
941.276727
 31
0.0
  0
ARC
  5
4B88
100
AcDbEntity
  8
0
100
AcDbCircle
 10
1286.746299
 20
942.905727
 30
0.0
 40
3.541047
100
AcDbArc
 50
327.999406
 51
32.000594
  0
LINE
  5
4B89
100
AcDbEntity
  8
0
100
AcDbLine
 10
1290.440257
 20
943.586227
 30
0.0
 11
1289.749257
 21
944.782227
 31
0.0
  0
LINE
  5
4B8A
100
AcDbEntity
  8
0
100
AcDbLine
 10
1289.749257
 20
944.782227
 30
0.0
 11
1283.940257
 21
944.782227
 31
0.0
  0
LINE
  5
4B8B
100
AcDbEntity
  8
0
100
AcDbLine
 10
1282.940257
 20
944.026727
 30
0.0
 11
1283.940257
 21
944.026727
 31
0.0
  0
LINE
  5
4B8C
100
AcDbEntity
  8
0
100
AcDbLine
 10
1290.440257
 20
941.276727
 30
0.0
 11
1294.263757
 21
941.276727
 31
0.0
  0
LINE
  5
4B8D
100
AcDbEntity
  8
0
100
AcDbLine
 10
1294.940257
 20
940.600227
 30
0.0
 11
1294.263757
 21
941.276727
 31
0.0
  0
LINE
  5
4B8E
100
AcDbEntity
  8
0
100
AcDbLine
 10
1289.749257
 20
941.029227
 30
0.0
 11
1283.940257
 21
941.029227
 31
0.0
  0
LINE
  5
4B8F
100
AcDbEntity
  8
0
100
AcDbLine
 10
1289.749257
 20
973.829314
 30
0.0
 11
1283.940257
 21
973.829314
 31
0.0
  0
LINE
  5
4B90
100
AcDbEntity
  8
0
100
AcDbLine
 10
1294.940257
 20
974.258314
 30
0.0
 11
1294.263757
 21
973.581814
 31
0.0
  0
LINE
  5
4B91
100
AcDbEntity
  8
0
100
AcDbLine
 10
1290.440257
 20
973.581814
 30
0.0
 11
1294.263757
 21
973.581814
 31
0.0
  0
LINE
  5
4B92
100
AcDbEntity
  8
0
100
AcDbLine
 10
1282.940257
 20
970.831814
 30
0.0
 11
1283.940257
 21
970.831814
 31
0.0
  0
LINE
  5
4B93
100
AcDbEntity
  8
0
100
AcDbLine
 10
1289.749257
 20
970.076314
 30
0.0
 11
1283.940257
 21
970.076314
 31
0.0
  0
LINE
  5
4B94
100
AcDbEntity
  8
0
100
AcDbLine
 10
1290.440257
 20
971.272314
 30
0.0
 11
1289.749257
 21
970.076314
 31
0.0
  0
ARC
  5
4B95
100
AcDbEntity
  8
0
100
AcDbCircle
 10
1286.746299
 20
971.952814
 30
0.0
 40
3.541047
100
AcDbArc
 50
327.999406
 51
32.000594
  0
LINE
  5
4B96
100
AcDbEntity
  8
0
100
AcDbLine
 10
1291.940257
 20
973.581814
 30
0.0
 11
1291.940257
 21
957.429271
 31
0.0
  0
LINE
  5
4B97
100
AcDbEntity
  8
0
100
AcDbLine
 10
1289.749257
 20
981.333314
 30
0.0
 11
1283.940257
 21
981.333314
 31
0.0
  0
ARC
  5
4B98
100
AcDbEntity
  8
0
100
AcDbCircle
 10
1286.746299
 20
983.209814
 30
0.0
 40
3.541047
100
AcDbArc
 50
327.999406
 51
32.000594
  0
LINE
  5
4B99
100
AcDbEntity
  8
0
100
AcDbLine
 10
1289.749257
 20
985.087314
 30
0.0
 11
1290.440257
 21
983.890314
 31
0.0
  0
LINE
  5
4B9A
100
AcDbEntity
  8
0
100
AcDbLine
 10
1283.940257
 20
984.331814
 30
0.0
 11
1282.940257
 21
984.331814
 31
0.0
  0
LINE
  5
4B9B
100
AcDbEntity
  8
0
100
AcDbLine
 10
1283.940257
 20
985.087314
 30
0.0
 11
1289.749257
 21
985.087314
 31
0.0
  0
LINE
  5
4B9C
100
AcDbEntity
  8
0
100
AcDbLine
 10
1294.263757
 20
981.581814
 30
0.0
 11
1290.440257
 21
981.581814
 31
0.0
  0
LINE
  5
4B9D
100
AcDbEntity
  8
0
100
AcDbLine
 10
1294.940257
 20
980.905314
 30
0.0
 11
1294.263757
 21
981.581814
 31
0.0
  0
LINE
  5
4B9E
100
AcDbEntity
  8
0
100
AcDbLine
 10
1201.940257
 20
997.929271
 30
0.0
 11
1201.940257
 21
1007.929271
 31
0.0
  0
LINE
  5
4B9F
100
AcDbEntity
  8
0
100
AcDbLine
 10
1203.440257
 20
999.429271
 30
0.0
 11
1203.440257
 21
1007.929271
 31
0.0
  0
LINE
  5
4BA0
100
AcDbEntity
  8
0
100
AcDbLine
 10
1203.440257
 20
1007.929271
 30
0.0
 11
1201.940257
 21
1007.929271
 31
0.0
  0
LINE
  5
4BA1
100
AcDbEntity
  8
0
100
AcDbLine
 10
1219.940257
 20
984.331814
 30
0.0
 11
1219.940257
 21
970.831814
 31
0.0
  0
LINE
  5
4BA2
100
AcDbEntity
  8
0
100
AcDbLine
 10
1211.940257
 20
983.215789
 30
0.0
 11
1211.940257
 21
971.947839
 31
0.0
  0
LINE
  5
4BA3
100
AcDbEntity
  8
0
100
AcDbLine
 10
1211.940257
 20
957.429271
 30
0.0
 11
1211.940257
 21
941.378506
 31
0.0
  0
LINE
  5
4BA4
100
AcDbEntity
  8
0
100
AcDbLine
 10
1212.440257
 20
943.776727
 30
0.0
 11
1219.940257
 21
943.776727
 31
0.0
  0
LINE
  5
4BA5
100
AcDbEntity
  8
0
100
AcDbLine
 10
1220.940257
 20
944.026727
 30
0.0
 11
1219.940257
 21
944.026727
 31
0.0
  0
LINE
  5
4BA6
100
AcDbEntity
  8
0
100
AcDbLine
 10
1212.440257
 20
943.776727
 30
0.0
 11
1211.940257
 21
942.910702
 31
0.0
  0
LINE
  5
4BA7
100
AcDbEntity
  8
0
100
AcDbLine
 10
1212.440257
 20
971.081814
 30
0.0
 11
1219.940257
 21
971.081814
 31
0.0
  0
LINE
  5
4BA8
100
AcDbEntity
  8
0
100
AcDbLine
 10
1220.940257
 20
970.831814
 30
0.0
 11
1219.940257
 21
970.831814
 31
0.0
  0
LINE
  5
4BA9
100
AcDbEntity
  8
0
100
AcDbLine
 10
1212.440257
 20
971.081814
 30
0.0
 11
1211.940257
 21
971.947839
 31
0.0
  0
LINE
  5
4BAA
100
AcDbEntity
  8
0
100
AcDbLine
 10
1211.940257
 20
973.480035
 30
0.0
 11
1211.940257
 21
957.429271
 31
0.0
  0
LINE
  5
4BAB
100
AcDbEntity
  8
0
100
AcDbLine
 10
1230.940257
 20
997.429271
 30
0.0
 11
1272.940257
 21
997.429271
 31
0.0
  0
LINE
  5
4BAC
100
AcDbEntity
  8
0
100
AcDbLine
 10
1230.940257
 20
997.429271
 30
0.0
 11
1272.940257
 21
997.429271
 31
0.0
  0
LINE
  5
4BAD
100
AcDbEntity
  8
0
100
AcDbLine
 10
1272.940257
 20
997.429271
 30
0.0
 11
1230.940257
 21
997.429271
 31
0.0
  0
LINE
  5
4BAE
100
AcDbEntity
  8
0
100
AcDbLine
 10
1272.940257
 20
988.429271
 30
0.0
 11
1230.940257
 21
988.429271
 31
0.0
  0
LINE
  5
4BAF
100
AcDbEntity
  8
0
100
AcDbLine
 10
1299.940257
 20
997.429271
 30
0.0
 11
1226.284175
 21
997.429271
 31
0.0
  0
LINE
  5
4BB0
100
AcDbEntity
  8
0
100
AcDbLine
 10
1245.440257
 20
979.829271
 30
0.0
 11
1258.440257
 21
979.829271
 31
0.0
  0
LINE
  5
4BB1
100
AcDbEntity
  8
0
100
AcDbLine
 10
1245.840257
 20
979.429271
 30
0.0
 11
1258.040257
 21
979.429271
 31
0.0
  0
LINE
  5
4BB2
100
AcDbEntity
  8
0
100
AcDbLine
 10
1245.190257
 20
987.429271
 30
0.0
 11
1258.690257
 21
987.429271
 31
0.0
  0
LINE
  5
4BB3
100
AcDbEntity
  8
0
100
AcDbLine
 10
1245.440257
 20
979.829271
 30
0.0
 11
1245.840257
 21
979.429271
 31
0.0
  0
LINE
  5
4BB4
100
AcDbEntity
  8
0
100
AcDbLine
 10
1245.440257
 20
979.829271
 30
0.0
 11
1245.440257
 21
987.429271
 31
0.0
  0
LINE
  5
4BB5
100
AcDbEntity
  8
0
100
AcDbLine
 10
1245.190257
 20
988.429271
 30
0.0
 11
1245.190257
 21
987.429271
 31
0.0
  0
LINE
  5
4BB6
100
AcDbEntity
  8
0
100
AcDbLine
 10
1258.440257
 20
979.829271
 30
0.0
 11
1258.040257
 21
979.429271
 31
0.0
  0
LINE
  5
4BB7
100
AcDbEntity
  8
0
100
AcDbLine
 10
1258.440257
 20
987.429271
 30
0.0
 11
1258.440257
 21
979.829271
 31
0.0
  0
LINE
  5
4BB8
100
AcDbEntity
  8
0
100
AcDbLine
 10
1258.690257
 20
988.429271
 30
0.0
 11
1258.690257
 21
987.429271
 31
0.0
  0
LINE
  5
4BB9
100
AcDbEntity
  8
0
100
AcDbLine
 10
1226.284175
 20
999.429271
 30
0.0
 11
1226.284175
 21
997.429271
 31
0.0
  0
LINE
  5
4BBA
100
AcDbEntity
  8
0
100
AcDbLine
 10
1212.440257
 20
984.081814
 30
0.0
 11
1219.940257
 21
984.081814
 31
0.0
  0
LINE
  5
4BBB
100
AcDbEntity
  8
0
100
AcDbLine
 10
1219.940257
 20
984.331814
 30
0.0
 11
1220.940257
 21
984.331814
 31
0.0
  0
LINE
  5
4BBC
100
AcDbEntity
  8
0
100
AcDbLine
 10
1230.940257
 20
984.929271
 30
0.0
 11
1220.940257
 21
984.929271
 31
0.0
  0
LINE
  5
4BBD
100
AcDbEntity
  8
0
100
AcDbLine
 10
1212.440257
 20
984.081814
 30
0.0
 11
1211.940257
 21
983.215789
 31
0.0
  0
LINE
  5
4BBE
100
AcDbEntity
  8
0
100
AcDbLine
 10
1309.631314
 20
1010.774799
 30
0.0
 11
1309.631314
 21
1003.083742
 31
0.0
  0
LINE
  5
4BBF
100
AcDbEntity
  8
0
100
AcDbLine
 10
1303.476842
 20
1010.774799
 30
0.0
 11
1303.476842
 21
1003.083742
 31
0.0
  0
LINE
  5
4BC0
100
AcDbEntity
  8
0
100
AcDbLine
 10
1309.631314
 20
1001.156913
 30
0.0
 11
1303.476842
 21
1001.156913
 31
0.0
  0
LINE
  5
4BC1
100
AcDbEntity
  8
0
100
AcDbLine
 10
1303.476842
 20
1003.083742
 30
0.0
 11
1309.631314
 21
1003.083742
 31
0.0
  0
LINE
  5
4BC2
100
AcDbEntity
  8
0
100
AcDbLine
 10
1309.631314
 20
996.929271
 30
0.0
 11
1299.940257
 21
996.929271
 31
0.0
  0
LINE
  5
4BC3
100
AcDbEntity
  8
0
100
AcDbLine
 10
1309.631314
 20
1001.156913
 30
0.0
 11
1309.631314
 21
996.929271
 31
0.0
  0
LINE
  5
4BC4
100
AcDbEntity
  8
0
100
AcDbLine
 10
1303.476842
 20
1001.156913
 30
0.0
 11
1303.476842
 21
996.929271
 31
0.0
  0
LINE
  5
4BC5
100
AcDbEntity
  8
0
100
AcDbLine
 10
1309.631314
 20
1010.774799
 30
0.0
 11
1303.476842
 21
1010.774799
 31
0.0
  0
LINE
  5
4BC6
100
AcDbEntity
  8
0
100
AcDbLine
 10
1303.476842
 20
1012.701628
 30
0.0
 11
1309.631314
 21
1012.701628
 31
0.0
  0
LINE
  5
4BC7
100
AcDbEntity
  8
0
100
AcDbLine
 10
1319.167899
 20
997.701628
 30
0.0
 11
1316.094729
 21
997.701628
 31
0.0
  0
LINE
  5
4BC8
100
AcDbEntity
  8
0
100
AcDbLine
 10
1313.315597
 20
998.381885
 30
0.0
 11
1314.24107
 21
998.465856
 31
0.0
  0
LINE
  5
4BC9
100
AcDbEntity
  8
0
100
AcDbLine
 10
1316.094729
 20
1000.002441
 30
0.0
 11
1314.24107
 21
1000.002441
 31
0.0
  0
LINE
  5
4BCA
100
AcDbEntity
  8
0
100
AcDbLine
 10
1319.940257
 20
998.84797
 30
0.0
 11
1319.167899
 21
997.701628
 31
0.0
  0
LINE
  5
4BCB
100
AcDbEntity
  8
0
100
AcDbLine
 10
1319.940257
 20
1012.449938
 30
0.0
 11
1316.094729
 21
1012.449938
 31
0.0
  0
LINE
  5
4BCC
100
AcDbEntity
  8
0
100
AcDbLine
 10
1319.940257
 20
1010.614986
 30
0.0
 11
1316.094729
 21
1010.614986
 31
0.0
  0
LINE
  5
4BCD
100
AcDbEntity
  8
0
100
AcDbLine
 10
1319.940257
 20
1003.243555
 30
0.0
 11
1316.094729
 21
1003.243555
 31
0.0
  0
LINE
  5
4BCE
100
AcDbEntity
  8
0
100
AcDbLine
 10
1319.940257
 20
1001.408603
 30
0.0
 11
1316.094729
 21
1001.408603
 31
0.0
  0
LINE
  5
4BCF
100
AcDbEntity
  8
0
100
AcDbLine
 10
1313.325292
 20
1015.855251
 30
0.0
 11
1309.631314
 21
1016.929271
 31
0.0
  0
LINE
  5
4BD0
100
AcDbEntity
  8
0
100
AcDbLine
 10
1297.040257
 20
1022.929271
 30
0.0
 11
1206.840257
 21
1022.929271
 31
0.0
  0
LINE
  5
4BD1
100
AcDbEntity
  8
0
100
AcDbLine
 10
1292.490903
 20
1074.928625
 30
0.0
 11
1211.389611
 21
1074.928625
 31
0.0
  0
LINE
  5
4BD2
100
AcDbEntity
  8
0
100
AcDbLine
 10
1286.190257
 20
1081.229271
 30
0.0
 11
1217.690257
 21
1081.229271
 31
0.0
  0
LINE
  5
4BD3
100
AcDbEntity
  8
0
100
AcDbLine
 10
1299.940257
 20
1017.429271
 30
0.0
 11
1206.840257
 21
1017.429271
 31
0.0
  0
LINE
  5
4BD4
100
AcDbEntity
  8
0
100
AcDbLine
 10
1206.840257
 20
1022.929271
 30
0.0
 11
1211.389611
 21
1074.928625
 31
0.0
  0
LINE
  5
4BD5
100
AcDbEntity
  8
0
100
AcDbLine
 10
1206.840257
 20
1022.929271
 30
0.0
 11
1206.840257
 21
1017.429271
 31
0.0
  0
LINE
  5
4BD6
100
AcDbEntity
  8
0
100
AcDbLine
 10
1211.389611
 20
1074.928625
 30
0.0
 11
1217.690257
 21
1081.229271
 31
0.0
  0
LINE
  5
4BD7
100
AcDbEntity
  8
0
100
AcDbLine
 10
1297.040257
 20
1022.929271
 30
0.0
 11
1292.490903
 21
1074.928625
 31
0.0
  0
LINE
  5
4BD8
100
AcDbEntity
  8
0
100
AcDbLine
 10
1297.040257
 20
1022.929271
 30
0.0
 11
1297.040257
 21
1017.429271
 31
0.0
  0
LINE
  5
4BD9
100
AcDbEntity
  8
0
100
AcDbLine
 10
1299.940257
 20
1016.929271
 30
0.0
 11
1309.631314
 21
1016.929271
 31
0.0
  0
LINE
  5
4BDA
100
AcDbEntity
  8
0
100
AcDbLine
 10
1292.490903
 20
1074.928625
 30
0.0
 11
1286.190257
 21
1081.229271
 31
0.0
  0
LINE
  5
4BDB
100
AcDbEntity
  8
0
100
AcDbLine
 10
1316.094729
 20
1016.156913
 30
0.0
 11
1319.167899
 21
1016.156913
 31
0.0
  0
LINE
  5
4BDC
100
AcDbEntity
  8
0
100
AcDbLine
 10
1314.24107
 20
1013.8561
 30
0.0
 11
1316.094729
 21
1013.8561
 31
0.0
  0
LINE
  5
4BDD
100
AcDbEntity
  8
0
100
AcDbLine
 10
1313.325292
 20
1015.855251
 30
0.0
 11
1314.24107
 21
1015.774799
 31
0.0
  0
LINE
  5
4BDE
100
AcDbEntity
  8
0
100
AcDbLine
 10
1319.167899
 20
1016.156913
 30
0.0
 11
1319.940257
 21
1015.010571
 31
0.0
  0
LINE
  5
4BDF
100
AcDbEntity
  8
0
100
AcDbLine
 10
1878.370474
 20
1017.429271
 30
0.0
 11
1878.370474
 21
999.429271
 31
0.0
  0
LINE
  5
4BE0
100
AcDbEntity
  8
0
100
AcDbLine
 10
1985.671287
 20
1015.774799
 30
0.0
 11
1985.671287
 21
998.465856
 31
0.0
  0
LINE
  5
4BE1
100
AcDbEntity
  8
0
100
AcDbLine
 10
1971.370474
 20
996.929271
 30
0.0
 11
1971.370474
 21
1017.429271
 31
0.0
  0
LINE
  5
4BE2
100
AcDbEntity
  8
0
100
AcDbLine
 10
1987.524945
 20
997.701628
 30
0.0
 11
1987.524945
 21
1016.156913
 31
0.0
  0
LINE
  5
4BE3
100
AcDbEntity
  8
0
100
AcDbLine
 10
1981.061531
 20
1016.929271
 30
0.0
 11
1981.061531
 21
1012.701628
 31
0.0
  0
LINE
  5
4BE4
100
AcDbEntity
  8
0
100
AcDbLine
 10
1974.907059
 20
1016.929271
 30
0.0
 11
1974.907059
 21
1012.701628
 31
0.0
  0
LINE
  5
4BE5
100
AcDbEntity
  8
0
100
AcDbLine
 10
1991.370474
 20
1015.010571
 30
0.0
 11
1991.370474
 21
998.84797
 31
0.0
  0
CIRCLE
  5
4BE6
100
AcDbEntity
  8
0
100
AcDbCircle
 10
1923.370474
 20
787.241482
 30
0.0
 40
34.25
  0
CIRCLE
  5
4BE7
100
AcDbEntity
  8
0
100
AcDbCircle
 10
1923.370474
 20
787.241482
 30
0.0
 40
45.0
  0
CIRCLE
  5
4BE8
100
AcDbEntity
  8
0
100
AcDbCircle
 10
1923.370474
 20
787.241482
 30
0.0
 40
40.550646
  0
LINE
  5
4BE9
100
AcDbEntity
  8
0
100
AcDbLine
 10
1862.216002
 20
782.436603
 30
0.0
 11
1865.679417
 21
781.469124
 31
0.0
  0
LINE
  5
4BEA
100
AcDbEntity
  8
0
100
AcDbLine
 10
1875.370474
 20
776.741482
 30
0.0
 11
1875.370474
 21
797.741482
 31
0.0
  0
LINE
  5
4BEB
100
AcDbEntity
  8
0
100
AcDbLine
 10
1859.216002
 20
778.013839
 30
0.0
 11
1859.216002
 21
796.469124
 31
0.0
  0
LINE
  5
4BEC
100
AcDbEntity
  8
0
100
AcDbLine
 10
1855.370474
 20
795.322782
 30
0.0
 11
1855.370474
 21
779.160181
 31
0.0
  0
LINE
  5
4BED
100
AcDbEntity
  8
0
100
AcDbLine
 10
1861.069661
 20
796.08701
 30
0.0
 11
1861.069661
 21
778.778067
 31
0.0
  0
LINE
  5
4BEE
100
AcDbEntity
  8
0
100
AcDbLine
 10
1855.370474
 20
779.160181
 30
0.0
 11
1856.142831
 21
778.013839
 31
0.0
  0
LINE
  5
4BEF
100
AcDbEntity
  8
0
100
AcDbLine
 10
1883.370474
 20
758.867618
 30
0.0
 11
1883.370474
 21
766.625953
 31
0.0
  0
LINE
  5
4BF0
100
AcDbEntity
  8
0
100
AcDbLine
 10
1883.770474
 20
758.467618
 30
0.0
 11
1883.370474
 21
758.867618
 31
0.0
  0
LINE
  5
4BF1
100
AcDbEntity
  8
0
100
AcDbLine
 10
1883.770474
 20
758.467618
 30
0.0
 11
1888.77185
 21
758.467618
 31
0.0
  0
LINE
  5
4BF2
100
AcDbEntity
  8
0
100
AcDbLine
 10
1878.063189
 20
776.741482
 30
0.0
 11
1875.370474
 21
776.741482
 31
0.0
  0
LINE
  5
4BF3
100
AcDbEntity
  8
0
100
AcDbLine
 10
1865.679417
 20
781.469124
 30
0.0
 11
1871.833888
 21
781.469124
 31
0.0
  0
LINE
  5
4BF4
100
AcDbEntity
  8
0
100
AcDbLine
 10
1861.995133
 20
778.694095
 30
0.0
 11
1861.069661
 21
778.778067
 31
0.0
  0
LINE
  5
4BF5
100
AcDbEntity
  8
0
100
AcDbLine
 10
1856.142831
 20
778.013839
 30
0.0
 11
1859.216002
 21
778.013839
 31
0.0
  0
LINE
  5
4BF6
100
AcDbEntity
  8
0
100
AcDbLine
 10
1859.216002
 20
780.314652
 30
0.0
 11
1861.069661
 21
780.314652
 31
0.0
  0
LINE
  5
4BF7
100
AcDbEntity
  8
0
100
AcDbLine
 10
1865.679417
 20
777.241482
 30
0.0
 11
1861.98836
 21
778.696766
 31
0.0
  0
LINE
  5
4BF8
100
AcDbEntity
  8
0
100
AcDbLine
 10
1865.679417
 20
781.469124
 30
0.0
 11
1865.679417
 21
777.241482
 31
0.0
  0
LINE
  5
4BF9
100
AcDbEntity
  8
0
100
AcDbLine
 10
1871.833888
 20
781.469124
 30
0.0
 11
1871.833888
 21
777.241482
 31
0.0
  0
LINE
  5
4BFA
100
AcDbEntity
  8
0
100
AcDbLine
 10
1865.679417
 20
777.241482
 30
0.0
 11
1875.370474
 21
777.241482
 31
0.0
  0
ARC
  5
4BFB
100
AcDbEntity
  8
0
100
AcDbCircle
 10
1878.063189
 20
774.741482
 30
0.0
 40
2.0
100
AcDbArc
 50
15.423852
 51
90.0
  0
LINE
  5
4BFC
100
AcDbEntity
  8
0
100
AcDbLine
 10
1881.912664
 20
769.741482
 30
0.0
 11
1880.370474
 21
769.741482
 31
0.0
  0
LINE
  5
4BFD
100
AcDbEntity
  8
0
100
AcDbLine
 10
1880.370474
 20
769.741482
 30
0.0
 11
1878.370474
 21
771.741482
 31
0.0
  0
LINE
  5
4BFE
100
AcDbEntity
  8
0
100
AcDbLine
 10
1878.370474
 20
776.717735
 30
0.0
 11
1878.370474
 21
771.741482
 31
0.0
  0
LINE
  5
4BFF
100
AcDbEntity
  8
0
100
AcDbLine
 10
1855.370474
 20
781.720814
 30
0.0
 11
1859.216002
 21
781.720814
 31
0.0
  0
LINE
  5
4C00
100
AcDbEntity
  8
0
100
AcDbLine
 10
1855.370474
 20
783.555766
 30
0.0
 11
1859.216002
 21
783.555766
 31
0.0
  0
LINE
  5
4C01
100
AcDbEntity
  8
0
100
AcDbLine
 10
1855.370474
 20
790.927197
 30
0.0
 11
1859.216002
 21
790.927197
 31
0.0
  0
LINE
  5
4C02
100
AcDbEntity
  8
0
100
AcDbLine
 10
1855.370474
 20
792.762149
 30
0.0
 11
1859.216002
 21
792.762149
 31
0.0
  0
LINE
  5
4C03
100
AcDbEntity
  8
0
100
AcDbLine
 10
1856.142831
 20
796.469124
 30
0.0
 11
1855.370474
 21
795.322782
 31
0.0
  0
LINE
  5
4C04
100
AcDbEntity
  8
0
100
AcDbLine
 10
1878.370474
 20
802.741482
 30
0.0
 11
1878.370474
 21
797.765228
 31
0.0
  0
LINE
  5
4C05
100
AcDbEntity
  8
0
100
AcDbLine
 10
1878.063189
 20
797.741482
 30
0.0
 11
1875.370474
 21
797.741482
 31
0.0
  0
LINE
  5
4C06
100
AcDbEntity
  8
0
100
AcDbLine
 10
1861.985439
 20
796.167462
 30
0.0
 11
1861.069661
 21
796.08701
 31
0.0
  0
LINE
  5
4C07
100
AcDbEntity
  8
0
100
AcDbLine
 10
1859.216002
 20
796.469124
 30
0.0
 11
1856.142831
 21
796.469124
 31
0.0
  0
LINE
  5
4C08
100
AcDbEntity
  8
0
100
AcDbLine
 10
1861.985439
 20
796.167462
 30
0.0
 11
1865.679417
 21
797.241482
 31
0.0
  0
LINE
  5
4C09
100
AcDbEntity
  8
0
100
AcDbLine
 10
1875.370474
 20
797.241482
 30
0.0
 11
1865.679417
 21
797.241482
 31
0.0
  0
LINE
  5
4C0A
100
AcDbEntity
  8
0
100
AcDbLine
 10
1871.833888
 20
793.013839
 30
0.0
 11
1865.679417
 21
793.013839
 31
0.0
  0
LINE
  5
4C0B
100
AcDbEntity
  8
0
100
AcDbLine
 10
1865.679417
 20
791.08701
 30
0.0
 11
1871.833888
 21
791.08701
 31
0.0
  0
LINE
  5
4C0C
100
AcDbEntity
  8
0
100
AcDbLine
 10
1871.833888
 20
783.395953
 30
0.0
 11
1865.679417
 21
783.395953
 31
0.0
  0
LINE
  5
4C0D
100
AcDbEntity
  8
0
100
AcDbLine
 10
1871.833888
 20
791.08701
 30
0.0
 11
1871.833888
 21
783.395953
 31
0.0
  0
LINE
  5
4C0E
100
AcDbEntity
  8
0
100
AcDbLine
 10
1865.679417
 20
791.08701
 30
0.0
 11
1865.679417
 21
783.395953
 31
0.0
  0
LINE
  5
4C0F
100
AcDbEntity
  8
0
100
AcDbLine
 10
1861.069661
 20
794.168311
 30
0.0
 11
1859.216002
 21
794.168311
 31
0.0
  0
LINE
  5
4C10
100
AcDbEntity
  8
0
100
AcDbLine
 10
1865.679417
 20
783.395953
 30
0.0
 11
1862.216002
 21
782.436603
 31
0.0
  0
LINE
  5
4C11
100
AcDbEntity
  8
0
100
AcDbLine
 10
1862.216002
 20
792.04636
 30
0.0
 11
1865.679417
 21
791.08701
 31
0.0
  0
LINE
  5
4C12
100
AcDbEntity
  8
0
100
AcDbLine
 10
1865.679417
 20
793.013839
 30
0.0
 11
1862.216002
 21
792.04636
 31
0.0
  0
LINE
  5
4C13
100
AcDbEntity
  8
0
100
AcDbLine
 10
1871.833888
 20
797.241482
 30
0.0
 11
1871.833888
 21
793.013839
 31
0.0
  0
LINE
  5
4C14
100
AcDbEntity
  8
0
100
AcDbLine
 10
1865.679417
 20
797.241482
 30
0.0
 11
1865.679417
 21
793.013839
 31
0.0
  0
ARC
  5
4C15
100
AcDbEntity
  8
0
100
AcDbCircle
 10
1878.063189
 20
799.741482
 30
0.0
 40
2.0
100
AcDbArc
 50
270.0
 51
344.576148
  0
LINE
  5
4C16
100
AcDbEntity
  8
0
100
AcDbLine
 10
1881.912664
 20
804.741482
 30
0.0
 11
1880.370474
 21
804.741482
 31
0.0
  0
LINE
  5
4C17
100
AcDbEntity
  8
0
100
AcDbLine
 10
1878.370474
 20
802.741482
 30
0.0
 11
1880.370474
 21
804.741482
 31
0.0
  0
LINE
  5
4C18
100
AcDbEntity
  8
0
100
AcDbLine
 10
1883.770474
 20
816.015345
 30
0.0
 11
1883.370474
 21
815.615345
 31
0.0
  0
LINE
  5
4C19
100
AcDbEntity
  8
0
100
AcDbLine
 10
1883.770474
 20
816.015345
 30
0.0
 11
1888.77185
 21
816.015345
 31
0.0
  0
LINE
  5
4C1A
100
AcDbEntity
  8
0
100
AcDbLine
 10
1883.370474
 20
815.615345
 30
0.0
 11
1883.370474
 21
807.85701
 31
0.0
  0
LINE
  5
4C1B
100
AcDbEntity
  8
0
100
AcDbLine
 10
1973.370474
 20
781.241482
 30
0.0
 11
1973.370474
 21
793.241482
 31
0.0
  0
LINE
  5
4C1C
100
AcDbEntity
  8
0
100
AcDbLine
 10
1971.870474
 20
781.241482
 30
0.0
 11
1971.870474
 21
793.241482
 31
0.0
  0
LINE
  5
4C1D
100
AcDbEntity
  8
0
100
AcDbLine
 10
1968.370474
 20
802.741482
 30
0.0
 11
1968.370474
 21
771.741482
 31
0.0
  0
ARC
  5
4C1E
100
AcDbEntity
  8
0
100
AcDbCircle
 10
1948.364994
 20
764.968118
 30
0.0
 40
13.352467
100
AcDbArc
 50
343.680297
 51
354.012313
  0
LINE
  5
4C1F
100
AcDbEntity
  8
0
100
AcDbLine
 10
1961.870474
 20
758.659118
 30
0.0
 11
1961.870474
 21
763.944486
 31
0.0
  0
LINE
  5
4C20
100
AcDbEntity
  8
0
100
AcDbLine
 10
1966.370474
 20
768.291118
 30
0.0
 11
1966.370474
 21
761.644118
 31
0.0
  0
LINE
  5
4C21
100
AcDbEntity
  8
0
100
AcDbLine
 10
1961.179474
 20
761.216118
 30
0.0
 11
1960.081241
 21
761.216118
 31
0.0
  0
LINE
  5
4C22
100
AcDbEntity
  8
0
100
AcDbLine
 10
1957.107538
 20
757.462118
 30
0.0
 11
1961.179474
 21
757.462118
 31
0.0
  0
LINE
  5
4C23
100
AcDbEntity
  8
0
100
AcDbLine
 10
1966.370474
 20
761.644118
 30
0.0
 11
1965.693974
 21
760.967618
 31
0.0
  0
LINE
  5
4C24
100
AcDbEntity
  8
0
100
AcDbLine
 10
1961.179474
 20
757.462118
 30
0.0
 11
1961.870474
 21
758.659118
 31
0.0
  0
ARC
  5
4C25
100
AcDbEntity
  8
0
100
AcDbCircle
 10
1958.176515
 20
759.339618
 30
0.0
 40
3.541047
100
AcDbArc
 50
327.999406
 51
32.000594
  0
LINE
  5
4C26
100
AcDbEntity
  8
0
100
AcDbLine
 10
1965.693974
 20
760.967618
 30
0.0
 11
1961.870474
 21
760.967618
 31
0.0
  0
LINE
  5
4C27
100
AcDbEntity
  8
0
100
AcDbLine
 10
1966.370474
 20
768.291118
 30
0.0
 11
1965.693974
 21
768.967618
 31
0.0
  0
LINE
  5
4C28
100
AcDbEntity
  8
0
100
AcDbLine
 10
1964.493045
 20
768.967618
 30
0.0
 11
1965.693974
 21
768.967618
 31
0.0
  0
LINE
  5
4C29
100
AcDbEntity
  8
0
100
AcDbLine
 10
1966.370474
 20
769.741482
 30
0.0
 11
1964.828284
 21
769.741482
 31
0.0
  0
LINE
  5
4C2A
100
AcDbEntity
  8
0
100
AcDbLine
 10
1966.370474
 20
769.741482
 30
0.0
 11
1968.370474
 21
771.741482
 31
0.0
  0
LINE
  5
4C2B
100
AcDbEntity
  8
0
100
AcDbLine
 10
1968.370474
 20
781.241482
 30
0.0
 11
1973.370474
 21
781.241482
 31
0.0
  0
LINE
  5
4C2C
100
AcDbEntity
  8
0
100
AcDbLine
 10
1968.370474
 20
793.241482
 30
0.0
 11
1973.370474
 21
793.241482
 31
0.0
  0
LINE
  5
4C2D
100
AcDbEntity
  8
0
100
AcDbLine
 10
1957.107538
 20
817.020845
 30
0.0
 11
1961.179474
 21
817.020845
 31
0.0
  0
LINE
  5
4C2E
100
AcDbEntity
  8
0
100
AcDbLine
 10
1961.179474
 20
813.266845
 30
0.0
 11
1960.081241
 21
813.266845
 31
0.0
  0
LINE
  5
4C2F
100
AcDbEntity
  8
0
100
AcDbLine
 10
1966.370474
 20
812.838845
 30
0.0
 11
1965.693974
 21
813.515345
 31
0.0
  0
LINE
  5
4C30
100
AcDbEntity
  8
0
100
AcDbLine
 10
1961.179474
 20
817.020845
 30
0.0
 11
1961.870474
 21
815.823845
 31
0.0
  0
ARC
  5
4C31
100
AcDbEntity
  8
0
100
AcDbCircle
 10
1948.364994
 20
809.514845
 30
0.0
 40
13.352467
100
AcDbArc
 50
5.987687
 51
16.319703
  0
ARC
  5
4C32
100
AcDbEntity
  8
0
100
AcDbCircle
 10
1958.176515
 20
815.143345
 30
0.0
 40
3.541047
100
AcDbArc
 50
327.999406
 51
32.000594
  0
LINE
  5
4C33
100
AcDbEntity
  8
0
100
AcDbLine
 10
1961.870474
 20
815.823845
 30
0.0
 11
1961.870474
 21
810.538477
 31
0.0
  0
LINE
  5
4C34
100
AcDbEntity
  8
0
100
AcDbLine
 10
1965.693974
 20
813.515345
 30
0.0
 11
1961.870474
 21
813.515345
 31
0.0
  0
LINE
  5
4C35
100
AcDbEntity
  8
0
100
AcDbLine
 10
1966.370474
 20
806.191845
 30
0.0
 11
1965.693974
 21
805.515345
 31
0.0
  0
LINE
  5
4C36
100
AcDbEntity
  8
0
100
AcDbLine
 10
1964.493045
 20
805.515345
 30
0.0
 11
1965.693974
 21
805.515345
 31
0.0
  0
LINE
  5
4C37
100
AcDbEntity
  8
0
100
AcDbLine
 10
1966.370474
 20
804.741482
 30
0.0
 11
1964.828284
 21
804.741482
 31
0.0
  0
LINE
  5
4C38
100
AcDbEntity
  8
0
100
AcDbLine
 10
1968.370474
 20
802.741482
 30
0.0
 11
1966.370474
 21
804.741482
 31
0.0
  0
LINE
  5
4C39
100
AcDbEntity
  8
0
100
AcDbLine
 10
1966.370474
 20
806.191845
 30
0.0
 11
1966.370474
 21
812.838845
 31
0.0
  0
LINE
  5
4C3A
100
AcDbEntity
  8
0
100
AcDbLine
 10
1971.370474
 20
997.429271
 30
0.0
 11
1897.714391
 21
997.429271
 31
0.0
  0
LINE
  5
4C3B
100
AcDbEntity
  8
0
100
AcDbLine
 10
1944.370474
 20
988.429271
 30
0.0
 11
1902.370474
 21
988.429271
 31
0.0
  0
LINE
  5
4C3C
100
AcDbEntity
  8
0
100
AcDbLine
 10
1892.370474
 20
927.429271
 30
0.0
 11
1954.370474
 21
927.429271
 31
0.0
  0
ARC
  5
4C3D
100
AcDbEntity
  8
0
100
AcDbCircle
 10
1948.364994
 20
935.155907
 30
0.0
 40
13.352467
100
AcDbArc
 50
343.680297
 51
16.319703
  0
LINE
  5
4C3E
100
AcDbEntity
  8
0
100
AcDbLine
 10
1961.870474
 20
928.846907
 30
0.0
 11
1961.870474
 21
941.464907
 31
0.0
  0
LINE
  5
4C3F
100
AcDbEntity
  8
0
100
AcDbLine
 10
1966.370474
 20
938.478907
 30
0.0
 11
1966.370474
 21
931.831907
 31
0.0
  0
LINE
  5
4C40
100
AcDbEntity
  8
0
100
AcDbLine
 10
1955.370474
 20
927.649907
 30
0.0
 11
1955.370474
 21
942.660907
 31
0.0
  0
LINE
  5
4C41
100
AcDbEntity
  8
0
100
AcDbLine
 10
1955.370474
 20
928.405407
 30
0.0
 11
1955.370474
 21
941.905407
 31
0.0
  0
LINE
  5
4C42
100
AcDbEntity
  8
0
100
AcDbLine
 10
1954.370474
 20
987.429271
 30
0.0
 11
1954.370474
 21
927.429271
 31
0.0
  0
LINE
  5
4C43
100
AcDbEntity
  8
0
100
AcDbLine
 10
1902.370474
 20
997.429271
 30
0.0
 11
1902.370474
 21
927.429271
 31
0.0
  0
LINE
  5
4C44
100
AcDbEntity
  8
0
100
AcDbLine
 10
1965.693974
 20
931.155407
 30
0.0
 11
1961.870474
 21
931.155407
 31
0.0
  0
ARC
  5
4C45
100
AcDbEntity
  8
0
100
AcDbCircle
 10
1958.176515
 20
929.527407
 30
0.0
 40
3.541047
100
AcDbArc
 50
327.999406
 51
32.000594
  0
LINE
  5
4C46
100
AcDbEntity
  8
0
100
AcDbLine
 10
1961.179474
 20
927.649907
 30
0.0
 11
1961.870474
 21
928.846907
 31
0.0
  0
LINE
  5
4C47
100
AcDbEntity
  8
0
100
AcDbLine
 10
1966.370474
 20
931.831907
 30
0.0
 11
1965.693974
 21
931.155407
 31
0.0
  0
LINE
  5
4C48
100
AcDbEntity
  8
0
100
AcDbLine
 10
1955.370474
 20
928.405407
 30
0.0
 11
1954.370474
 21
928.405407
 31
0.0
  0
LINE
  5
4C49
100
AcDbEntity
  8
0
100
AcDbLine
 10
1955.370474
 20
927.649907
 30
0.0
 11
1961.179474
 21
927.649907
 31
0.0
  0
LINE
  5
4C4A
100
AcDbEntity
  8
0
100
AcDbLine
 10
1961.179474
 20
931.403907
 30
0.0
 11
1955.370474
 21
931.403907
 31
0.0
  0
LINE
  5
4C4B
100
AcDbEntity
  8
0
100
AcDbLine
 10
1968.370474
 20
972.929271
 30
0.0
 11
1966.370474
 21
974.929271
 31
0.0
  0
LINE
  5
4C4C
100
AcDbEntity
  8
0
100
AcDbLine
 10
1961.870474
 20
986.011634
 30
0.0
 11
1961.870474
 21
973.393634
 31
0.0
  0
LINE
  5
4C4D
100
AcDbEntity
  8
0
100
AcDbLine
 10
1955.370474
 20
986.453134
 30
0.0
 11
1955.370474
 21
972.953134
 31
0.0
  0
LINE
  5
4C4E
100
AcDbEntity
  8
0
100
AcDbLine
 10
1955.370474
 20
987.208634
 30
0.0
 11
1955.370474
 21
972.197634
 31
0.0
  0
ARC
  5
4C4F
100
AcDbEntity
  8
0
100
AcDbCircle
 10
1958.176515
 20
974.074134
 30
0.0
 40
3.541047
100
AcDbArc
 50
327.999406
 51
32.000594
  0
LINE
  5
4C50
100
AcDbEntity
  8
0
100
AcDbLine
 10
1968.370474
 20
957.429271
 30
0.0
 11
1968.370474
 21
941.929271
 31
0.0
  0
LINE
  5
4C51
100
AcDbEntity
  8
0
100
AcDbLine
 10
1961.870474
 20
939.155407
 30
0.0
 11
1965.693974
 21
939.155407
 31
0.0
  0
LINE
  5
4C52
100
AcDbEntity
  8
0
100
AcDbLine
 10
1966.370474
 20
939.929271
 30
0.0
 11
1961.870474
 21
939.929271
 31
0.0
  0
LINE
  5
4C53
100
AcDbEntity
  8
0
100
AcDbLine
 10
1961.870474
 20
941.464907
 30
0.0
 11
1961.179474
 21
942.660907
 31
0.0
  0
ARC
  5
4C54
100
AcDbEntity
  8
0
100
AcDbCircle
 10
1958.176515
 20
940.784407
 30
0.0
 40
3.541047
100
AcDbArc
 50
327.999406
 51
32.000594
  0
LINE
  5
4C55
100
AcDbEntity
  8
0
100
AcDbLine
 10
1966.370474
 20
939.929271
 30
0.0
 11
1968.370474
 21
941.929271
 31
0.0
  0
LINE
  5
4C56
100
AcDbEntity
  8
0
100
AcDbLine
 10
1966.370474
 20
938.478907
 30
0.0
 11
1965.693974
 21
939.155407
 31
0.0
  0
LINE
  5
4C57
100
AcDbEntity
  8
0
100
AcDbLine
 10
1954.370474
 20
941.905407
 30
0.0
 11
1955.370474
 21
941.905407
 31
0.0
  0
LINE
  5
4C58
100
AcDbEntity
  8
0
100
AcDbLine
 10
1961.179474
 20
942.660907
 30
0.0
 11
1955.370474
 21
942.660907
 31
0.0
  0
LINE
  5
4C59
100
AcDbEntity
  8
0
100
AcDbLine
 10
1961.179474
 20
938.907907
 30
0.0
 11
1955.370474
 21
938.907907
 31
0.0
  0
LINE
  5
4C5A
100
AcDbEntity
  8
0
100
AcDbLine
 10
1954.370474
 20
972.953134
 30
0.0
 11
1955.370474
 21
972.953134
 31
0.0
  0
LINE
  5
4C5B
100
AcDbEntity
  8
0
100
AcDbLine
 10
1961.179474
 20
972.197634
 30
0.0
 11
1955.370474
 21
972.197634
 31
0.0
  0
LINE
  5
4C5C
100
AcDbEntity
  8
0
100
AcDbLine
 10
1968.370474
 20
957.429271
 30
0.0
 11
1968.370474
 21
972.929271
 31
0.0
  0
LINE
  5
4C5D
100
AcDbEntity
  8
0
100
AcDbLine
 10
1961.870474
 20
973.393634
 30
0.0
 11
1961.179474
 21
972.197634
 31
0.0
  0
LINE
  5
4C5E
100
AcDbEntity
  8
0
100
AcDbLine
 10
1944.370474
 20
987.429271
 30
0.0
 11
1954.370474
 21
987.429271
 31
0.0
  0
LINE
  5
4C5F
100
AcDbEntity
  8
0
100
AcDbLine
 10
1966.370474
 20
976.379634
 30
0.0
 11
1966.370474
 21
983.026634
 31
0.0
  0
LINE
  5
4C60
100
AcDbEntity
  8
0
100
AcDbLine
 10
1961.870474
 20
975.703134
 30
0.0
 11
1965.693974
 21
975.703134
 31
0.0
  0
LINE
  5
4C61
100
AcDbEntity
  8
0
100
AcDbLine
 10
1966.370474
 20
974.929271
 30
0.0
 11
1961.870474
 21
974.929271
 31
0.0
  0
LINE
  5
4C62
100
AcDbEntity
  8
0
100
AcDbLine
 10
1966.370474
 20
976.379634
 30
0.0
 11
1965.693974
 21
975.703134
 31
0.0
  0
LINE
  5
4C63
100
AcDbEntity
  8
0
100
AcDbLine
 10
1965.693974
 20
983.703134
 30
0.0
 11
1961.870474
 21
983.703134
 31
0.0
  0
LINE
  5
4C64
100
AcDbEntity
  8
0
100
AcDbLine
 10
1966.370474
 20
983.026634
 30
0.0
 11
1965.693974
 21
983.703134
 31
0.0
  0
LINE
  5
4C65
100
AcDbEntity
  8
0
100
AcDbLine
 10
1961.179474
 20
987.208634
 30
0.0
 11
1961.870474
 21
986.011634
 31
0.0
  0
ARC
  5
4C66
100
AcDbEntity
  8
0
100
AcDbCircle
 10
1958.176515
 20
985.331134
 30
0.0
 40
3.541047
100
AcDbArc
 50
327.999406
 51
32.000594
  0
ARC
  5
4C67
100
AcDbEntity
  8
0
100
AcDbCircle
 10
1948.364994
 20
979.702634
 30
0.0
 40
13.352467
100
AcDbArc
 50
343.680297
 51
16.319703
  0
LINE
  5
4C68
100
AcDbEntity
  8
0
100
AcDbLine
 10
1955.370474
 20
986.453134
 30
0.0
 11
1954.370474
 21
986.453134
 31
0.0
  0
LINE
  5
4C69
100
AcDbEntity
  8
0
100
AcDbLine
 10
1955.370474
 20
987.208634
 30
0.0
 11
1961.179474
 21
987.208634
 31
0.0
  0
LINE
  5
4C6A
100
AcDbEntity
  8
0
100
AcDbLine
 10
1961.179474
 20
983.454634
 30
0.0
 11
1955.370474
 21
983.454634
 31
0.0
  0
LINE
  5
4C6B
100
AcDbEntity
  8
0
100
AcDbLine
 10
1961.179474
 20
975.950634
 30
0.0
 11
1955.370474
 21
975.950634
 31
0.0
  0
LINE
  5
4C6C
100
AcDbEntity
  8
0
100
AcDbLine
 10
1897.714391
 20
999.429271
 30
0.0
 11
1874.870474
 21
999.429271
 31
0.0
  0
LINE
  5
4C6D
100
AcDbEntity
  8
0
100
AcDbLine
 10
1897.714391
 20
997.929271
 30
0.0
 11
1873.370474
 21
997.929271
 31
0.0
  0
LINE
  5
4C6E
100
AcDbEntity
  8
0
100
AcDbLine
 10
1873.370474
 20
997.929271
 30
0.0
 11
1873.370474
 21
1007.929271
 31
0.0
  0
LINE
  5
4C6F
100
AcDbEntity
  8
0
100
AcDbLine
 10
1874.870474
 20
999.429271
 30
0.0
 11
1874.870474
 21
1007.929271
 31
0.0
  0
LINE
  5
4C70
100
AcDbEntity
  8
0
100
AcDbLine
 10
1874.870474
 20
1007.929271
 30
0.0
 11
1873.370474
 21
1007.929271
 31
0.0
  0
LINE
  5
4C71
100
AcDbEntity
  8
0
100
AcDbLine
 10
1897.714391
 20
999.429271
 30
0.0
 11
1897.714391
 21
997.429271
 31
0.0
  0
LINE
  5
4C72
100
AcDbEntity
  8
0
100
AcDbLine
 10
1916.620474
 20
987.429271
 30
0.0
 11
1930.120474
 21
987.429271
 31
0.0
  0
LINE
  5
4C73
100
AcDbEntity
  8
0
100
AcDbLine
 10
1916.870474
 20
979.829271
 30
0.0
 11
1929.870474
 21
979.829271
 31
0.0
  0
LINE
  5
4C74
100
AcDbEntity
  8
0
100
AcDbLine
 10
1917.270474
 20
979.429271
 30
0.0
 11
1929.470474
 21
979.429271
 31
0.0
  0
LINE
  5
4C75
100
AcDbEntity
  8
0
100
AcDbLine
 10
1916.620474
 20
988.429271
 30
0.0
 11
1916.620474
 21
987.429271
 31
0.0
  0
LINE
  5
4C76
100
AcDbEntity
  8
0
100
AcDbLine
 10
1916.870474
 20
979.829271
 30
0.0
 11
1917.270474
 21
979.429271
 31
0.0
  0
LINE
  5
4C77
100
AcDbEntity
  8
0
100
AcDbLine
 10
1916.870474
 20
979.829271
 30
0.0
 11
1916.870474
 21
987.429271
 31
0.0
  0
LINE
  5
4C78
100
AcDbEntity
  8
0
100
AcDbLine
 10
1930.120474
 20
988.429271
 30
0.0
 11
1930.120474
 21
987.429271
 31
0.0
  0
LINE
  5
4C79
100
AcDbEntity
  8
0
100
AcDbLine
 10
1929.870474
 20
979.829271
 30
0.0
 11
1929.470474
 21
979.429271
 31
0.0
  0
LINE
  5
4C7A
100
AcDbEntity
  8
0
100
AcDbLine
 10
1929.870474
 20
987.429271
 30
0.0
 11
1929.870474
 21
979.829271
 31
0.0
  0
LINE
  5
4C7B
100
AcDbEntity
  8
0
100
AcDbLine
 10
1883.370474
 20
929.055407
 30
0.0
 11
1883.370474
 21
941.255407
 31
0.0
  0
LINE
  5
4C7C
100
AcDbEntity
  8
0
100
AcDbLine
 10
1891.370474
 20
928.655407
 30
0.0
 11
1891.370474
 21
941.655407
 31
0.0
  0
LINE
  5
4C7D
100
AcDbEntity
  8
0
100
AcDbLine
 10
1891.370474
 20
928.405407
 30
0.0
 11
1891.370474
 21
941.905407
 31
0.0
  0
LINE
  5
4C7E
100
AcDbEntity
  8
0
100
AcDbLine
 10
1892.370474
 20
927.429271
 30
0.0
 11
1892.370474
 21
987.429271
 31
0.0
  0
LINE
  5
4C7F
100
AcDbEntity
  8
0
100
AcDbLine
 10
1944.370474
 20
997.429271
 30
0.0
 11
1944.370474
 21
927.429271
 31
0.0
  0
LINE
  5
4C80
100
AcDbEntity
  8
0
100
AcDbLine
 10
1883.770474
 20
928.655407
 30
0.0
 11
1891.370474
 21
928.655407
 31
0.0
  0
LINE
  5
4C81
100
AcDbEntity
  8
0
100
AcDbLine
 10
1891.370474
 20
928.405407
 30
0.0
 11
1892.370474
 21
928.405407
 31
0.0
  0
LINE
  5
4C82
100
AcDbEntity
  8
0
100
AcDbLine
 10
1883.770474
 20
928.655407
 30
0.0
 11
1883.370474
 21
929.055407
 31
0.0
  0
LINE
  5
4C83
100
AcDbEntity
  8
0
100
AcDbLine
 10
1878.370474
 20
972.929271
 30
0.0
 11
1880.370474
 21
974.929271
 31
0.0
  0
LINE
  5
4C84
100
AcDbEntity
  8
0
100
AcDbLine
 10
1891.370474
 20
986.203134
 30
0.0
 11
1891.370474
 21
973.203134
 31
0.0
  0
LINE
  5
4C85
100
AcDbEntity
  8
0
100
AcDbLine
 10
1883.370474
 20
985.803134
 30
0.0
 11
1883.370474
 21
973.603134
 31
0.0
  0
LINE
  5
4C86
100
AcDbEntity
  8
0
100
AcDbLine
 10
1891.370474
 20
986.453134
 30
0.0
 11
1891.370474
 21
972.953134
 31
0.0
  0
LINE
  5
4C87
100
AcDbEntity
  8
0
100
AcDbLine
 10
1878.370474
 20
957.429271
 30
0.0
 11
1878.370474
 21
941.929271
 31
0.0
  0
LINE
  5
4C88
100
AcDbEntity
  8
0
100
AcDbLine
 10
1891.370474
 20
941.655407
 30
0.0
 11
1883.770474
 21
941.655407
 31
0.0
  0
LINE
  5
4C89
100
AcDbEntity
  8
0
100
AcDbLine
 10
1892.370474
 20
941.905407
 30
0.0
 11
1891.370474
 21
941.905407
 31
0.0
  0
LINE
  5
4C8A
100
AcDbEntity
  8
0
100
AcDbLine
 10
1880.370474
 20
939.929271
 30
0.0
 11
1878.370474
 21
941.929271
 31
0.0
  0
LINE
  5
4C8B
100
AcDbEntity
  8
0
100
AcDbLine
 10
1883.370474
 20
939.929271
 30
0.0
 11
1880.370474
 21
939.929271
 31
0.0
  0
LINE
  5
4C8C
100
AcDbEntity
  8
0
100
AcDbLine
 10
1883.770474
 20
941.655407
 30
0.0
 11
1883.370474
 21
941.255407
 31
0.0
  0
LINE
  5
4C8D
100
AcDbEntity
  8
0
100
AcDbLine
 10
1891.370474
 20
973.203134
 30
0.0
 11
1883.770474
 21
973.203134
 31
0.0
  0
LINE
  5
4C8E
100
AcDbEntity
  8
0
100
AcDbLine
 10
1892.370474
 20
972.953134
 30
0.0
 11
1891.370474
 21
972.953134
 31
0.0
  0
LINE
  5
4C8F
100
AcDbEntity
  8
0
100
AcDbLine
 10
1883.770474
 20
973.203134
 30
0.0
 11
1883.370474
 21
973.603134
 31
0.0
  0
LINE
  5
4C90
100
AcDbEntity
  8
0
100
AcDbLine
 10
1878.370474
 20
972.929271
 30
0.0
 11
1878.370474
 21
957.429271
 31
0.0
  0
LINE
  5
4C91
100
AcDbEntity
  8
0
100
AcDbLine
 10
1981.061531
 20
1003.083742
 30
0.0
 11
1984.524945
 21
1002.124393
 31
0.0
  0
LINE
  5
4C92
100
AcDbEntity
  8
0
100
AcDbLine
 10
1984.524945
 20
1002.124393
 30
0.0
 11
1981.061531
 21
1001.156913
 31
0.0
  0
LINE
  5
4C93
100
AcDbEntity
  8
0
100
AcDbLine
 10
1981.061531
 20
996.929271
 30
0.0
 11
1984.752587
 21
998.384555
 31
0.0
  0
LINE
  5
4C94
100
AcDbEntity
  8
0
100
AcDbLine
 10
1981.061531
 20
1012.701628
 30
0.0
 11
1984.524945
 21
1011.734149
 31
0.0
  0
LINE
  5
4C95
100
AcDbEntity
  8
0
100
AcDbLine
 10
1984.524945
 20
1011.734149
 30
0.0
 11
1981.061531
 21
1010.774799
 31
0.0
  0
LINE
  5
4C96
100
AcDbEntity
  8
0
100
AcDbLine
 10
1883.770474
 20
986.203134
 30
0.0
 11
1891.370474
 21
986.203134
 31
0.0
  0
LINE
  5
4C97
100
AcDbEntity
  8
0
100
AcDbLine
 10
1892.370474
 20
987.429271
 30
0.0
 11
1902.370474
 21
987.429271
 31
0.0
  0
LINE
  5
4C98
100
AcDbEntity
  8
0
100
AcDbLine
 10
1891.370474
 20
986.453134
 30
0.0
 11
1892.370474
 21
986.453134
 31
0.0
  0
LINE
  5
4C99
100
AcDbEntity
  8
0
100
AcDbLine
 10
1883.370474
 20
974.929271
 30
0.0
 11
1880.370474
 21
974.929271
 31
0.0
  0
LINE
  5
4C9A
100
AcDbEntity
  8
0
100
AcDbLine
 10
1883.770474
 20
986.203134
 30
0.0
 11
1883.370474
 21
985.803134
 31
0.0
  0
LINE
  5
4C9B
100
AcDbEntity
  8
0
100
AcDbLine
 10
1981.061531
 20
1010.774799
 30
0.0
 11
1981.061531
 21
1003.083742
 31
0.0
  0
LINE
  5
4C9C
100
AcDbEntity
  8
0
100
AcDbLine
 10
1974.907059
 20
1010.774799
 30
0.0
 11
1974.907059
 21
1003.083742
 31
0.0
  0
LINE
  5
4C9D
100
AcDbEntity
  8
0
100
AcDbLine
 10
1981.061531
 20
996.929271
 30
0.0
 11
1971.370474
 21
996.929271
 31
0.0
  0
LINE
  5
4C9E
100
AcDbEntity
  8
0
100
AcDbLine
 10
1974.907059
 20
1001.156913
 30
0.0
 11
1974.907059
 21
996.929271
 31
0.0
  0
LINE
  5
4C9F
100
AcDbEntity
  8
0
100
AcDbLine
 10
1981.061531
 20
1001.156913
 30
0.0
 11
1981.061531
 21
996.929271
 31
0.0
  0
LINE
  5
4CA0
100
AcDbEntity
  8
0
100
AcDbLine
 10
1981.061531
 20
1001.156913
 30
0.0
 11
1974.907059
 21
1001.156913
 31
0.0
  0
LINE
  5
4CA1
100
AcDbEntity
  8
0
100
AcDbLine
 10
1974.907059
 20
1003.083742
 30
0.0
 11
1981.061531
 21
1003.083742
 31
0.0
  0
LINE
  5
4CA2
100
AcDbEntity
  8
0
100
AcDbLine
 10
1981.061531
 20
1010.774799
 30
0.0
 11
1974.907059
 21
1010.774799
 31
0.0
  0
LINE
  5
4CA3
100
AcDbEntity
  8
0
100
AcDbLine
 10
1974.907059
 20
1012.701628
 30
0.0
 11
1981.061531
 21
1012.701628
 31
0.0
  0
LINE
  5
4CA4
100
AcDbEntity
  8
0
100
AcDbLine
 10
1990.598116
 20
997.701628
 30
0.0
 11
1987.524945
 21
997.701628
 31
0.0
  0
LINE
  5
4CA5
100
AcDbEntity
  8
0
100
AcDbLine
 10
1984.745814
 20
998.381885
 30
0.0
 11
1985.671287
 21
998.465856
 31
0.0
  0
LINE
  5
4CA6
100
AcDbEntity
  8
0
100
AcDbLine
 10
1987.524945
 20
1000.002441
 30
0.0
 11
1985.671287
 21
1000.002441
 31
0.0
  0
LINE
  5
4CA7
100
AcDbEntity
  8
0
100
AcDbLine
 10
1991.370474
 20
998.84797
 30
0.0
 11
1990.598116
 21
997.701628
 31
0.0
  0
LINE
  5
4CA8
100
AcDbEntity
  8
0
100
AcDbLine
 10
1991.370474
 20
1012.449938
 30
0.0
 11
1987.524945
 21
1012.449938
 31
0.0
  0
LINE
  5
4CA9
100
AcDbEntity
  8
0
100
AcDbLine
 10
1991.370474
 20
1010.614986
 30
0.0
 11
1987.524945
 21
1010.614986
 31
0.0
  0
LINE
  5
4CAA
100
AcDbEntity
  8
0
100
AcDbLine
 10
1991.370474
 20
1003.243555
 30
0.0
 11
1987.524945
 21
1003.243555
 31
0.0
  0
LINE
  5
4CAB
100
AcDbEntity
  8
0
100
AcDbLine
 10
1991.370474
 20
1001.408603
 30
0.0
 11
1987.524945
 21
1001.408603
 31
0.0
  0
LINE
  5
4CAC
100
AcDbEntity
  8
0
100
AcDbLine
 10
1968.470474
 20
1022.929271
 30
0.0
 11
1878.270474
 21
1022.929271
 31
0.0
  0
LINE
  5
4CAD
100
AcDbEntity
  8
0
100
AcDbLine
 10
1971.370474
 20
1017.429271
 30
0.0
 11
1878.270474
 21
1017.429271
 31
0.0
  0
LINE
  5
4CAE
100
AcDbEntity
  8
0
100
AcDbLine
 10
1963.92112
 20
1074.928625
 30
0.0
 11
1882.819828
 21
1074.928625
 31
0.0
  0
LINE
  5
4CAF
100
AcDbEntity
  8
0
100
AcDbLine
 10
1957.620474
 20
1081.229271
 30
0.0
 11
1889.120474
 21
1081.229271
 31
0.0
  0
LINE
  5
4CB0
100
AcDbEntity
  8
0
100
AcDbLine
 10
1878.270474
 20
1022.929271
 30
0.0
 11
1882.819828
 21
1074.928625
 31
0.0
  0
LINE
  5
4CB1
100
AcDbEntity
  8
0
100
AcDbLine
 10
1878.270474
 20
1022.929271
 30
0.0
 11
1878.270474
 21
1017.429271
 31
0.0
  0
LINE
  5
4CB2
100
AcDbEntity
  8
0
100
AcDbLine
 10
1882.819828
 20
1074.928625
 30
0.0
 11
1889.120474
 21
1081.229271
 31
0.0
  0
LINE
  5
4CB3
100
AcDbEntity
  8
0
100
AcDbLine
 10
1968.470474
 20
1022.929271
 30
0.0
 11
1963.92112
 21
1074.928625
 31
0.0
  0
LINE
  5
4CB4
100
AcDbEntity
  8
0
100
AcDbLine
 10
1984.755508
 20
1015.855251
 30
0.0
 11
1981.061531
 21
1016.929271
 31
0.0
  0
LINE
  5
4CB5
100
AcDbEntity
  8
0
100
AcDbLine
 10
1971.370474
 20
1016.929271
 30
0.0
 11
1981.061531
 21
1016.929271
 31
0.0
  0
LINE
  5
4CB6
100
AcDbEntity
  8
0
100
AcDbLine
 10
1968.470474
 20
1022.929271
 30
0.0
 11
1968.470474
 21
1017.429271
 31
0.0
  0
LINE
  5
4CB7
100
AcDbEntity
  8
0
100
AcDbLine
 10
1985.671287
 20
1013.8561
 30
0.0
 11
1987.524945
 21
1013.8561
 31
0.0
  0
LINE
  5
4CB8
100
AcDbEntity
  8
0
100
AcDbLine
 10
1987.524945
 20
1016.156913
 30
0.0
 11
1990.598116
 21
1016.156913
 31
0.0
  0
LINE
  5
4CB9
100
AcDbEntity
  8
0
100
AcDbLine
 10
1984.755508
 20
1015.855251
 30
0.0
 11
1985.671287
 21
1015.774799
 31
0.0
  0
LINE
  5
4CBA
100
AcDbEntity
  8
0
100
AcDbLine
 10
1990.598116
 20
1016.156913
 30
0.0
 11
1991.370474
 21
1015.010571
 31
0.0
  0
LINE
  5
4CBB
100
AcDbEntity
  8
0
100
AcDbLine
 10
1963.92112
 20
1074.928625
 30
0.0
 11
1957.620474
 21
1081.229271
 31
0.0
  0
VIEWPORT
  5
41
100
AcDbEntity
 67
     1
  8
0
100
AcDbViewport
 10
117.358407
 20
73.5
 30
0.0
 40
234.716814
 41
147.0
 68
    -1
 69
     1
1001
ACAD
1000
MVIEW
1002
{
1070
    16
1010
0.0
1020
0.0
1030
0.0
1010
0.0
1020
0.0
1030
1.0
1040
0.0
1040
147.0
1040
117.358407
1040
73.5
1040
50.0
1040
0.0
1040
0.0
1070
     0
1070
   100
1070
     1
1070
     1
1070
     0
1070
     0
1070
     0
1070
     0
1040
0.0
1040
0.0
1040
0.0
1040
1.0
1040
1.0
1040
0.0
1040
0.0
1070
     0
1002
{
1002
}
1002
}
  0
ENDSEC
  0
SECTION
  2
OBJECTS
  0
DICTIONARY
  5
C
100
AcDbDictionary
  3
ACAD_GROUP
350
D
  3
ACAD_MLINESTYLE
350
E
  0
DICTIONARY
  5
D
102
{ACAD_REACTORS
330
C
102
}
100
AcDbDictionary
  0
DICTIONARY
  5
E
102
{ACAD_REACTORS
330
C
102
}
100
AcDbDictionary
  3
STANDARD
350
1B
  0
MLINESTYLE
  5
1B
102
{ACAD_REACTORS
330
E
102
}
100
AcDbMlineStyle
  2
STANDARD
 70
     0
  3

 62
     0
 51
90.0
 52
90.0
 71
     2
 49
0.5
 62
   256
  6
BYLAYER
 49
-0.5
 62
   256
  6
BYLAYER
  0
ENDSEC
  0
EOF
