  0
SECTION
  2
HEADER
  9
$ACADVER
  1
AC1009
  9
$INSBASE
 10
0.0
 20
0.0
 30
0.0
  9
$EXTMIN
 10
32.999999999999993
 20
15.0
 30
0.0
  9
$EXTMAX
 10
857.99999999999977
 20
572.99999999999977
 30
0.0
  9
$LIMMIN
 10
0.0
 20
0.0
  9
$LIMMAX
 10
891.0
 20
630.0
  9
$ORTHOMODE
 70
     1
  9
$REGENMODE
 70
     1
  9
$FILLMODE
 70
     1
  9
$QTEXTMODE
 70
     0
  9
$MIRRTEXT
 70
     1
  9
$DRAGMODE
 70
     2
  9
$LTSCALE
 40
12.0
  9
$OSMODE
 70
   163
  9
$ATTMODE
 70
     1
  9
$TEXTSIZE
 40
12.0
  9
$TRACEWID
 40
0.05
  9
$TEXTSTYLE
  7
STANDARD
  9
$CLAYER
  8
0
  9
$CELTYPE
  6
BYLAYER
  9
$CECOLOR
 62
   256
  9
$DIMSCALE
 40
3.0
  9
$DIMASZ
 40
2.7999999999999989
  9
$DIMEXO
 40
1.0
  9
$DIMDLI
 40
5.0
  9
$DIMRND
 40
0.1
  9
$DIMDLE
 40
0.0
  9
$DIMEXE
 40
1.0
  9
$DIMTP
 40
0.0
  9
$DIMTM
 40
0.0
  9
$DIMTXT
 40
2.5
  9
$DIMCEN
 40
0.0
  9
$DIMTSZ
 40
0.0
  9
$DIMTOL
 70
     0
  9
$DIMLIM
 70
     0
  9
$DIMTIH
 70
     0
  9
$DIMTOH
 70
     0
  9
$DIMSE1
 70
     0
  9
$DIMSE2
 70
     0
  9
$DIMTAD
 70
     3
  9
$DIMZIN
 70
     8
  9
$DIMBLK
  1

  9
$DIMASO
 70
     1
  9
$DIMSHO
 70
     1
  9
$DIMPOST
  1

  9
$DIMAPOST
  1

  9
$DIMALT
 70
     0
  9
$DIMALTD
 70
     2
  9
$DIMALTF
 40
1.0
  9
$DIMLFAC
 40
1.0
  9
$DIMTOFL
 70
     1
  9
$DIMTVP
 40
0.0
  9
$DIMTIX
 70
     0
  9
$DIMSOXD
 70
     0
  9
$DIMSAH
 70
     1
  9
$DIMBLK1
  1
OPEN
  9
$DIMBLK2
  1
OPEN
  9
$DIMSTYLE
  2
DIM1
  9
$DIMCLRD
 70
     2
  9
$DIMCLRE
 70
     2
  9
$DIMCLRT
 70
     2
  9
$DIMTFAC
 40
0.7
  9
$DIMGAP
 40
0.85
  9
$LUNITS
 70
     2
  9
$LUPREC
 70
     4
  9
$SKETCHINC
 40
0.1
  9
$FILLETRAD
 40
0.0
  9
$AUNITS
 70
     0
  9
$AUPREC
 70
     0
  9
$MENU
  1
C:\ACADR13\WIN\SUPPORT\ACAD.mnc
  9
$ELEVATION
 40
0.0
  9
$PELEVATION
 40
0.0
  9
$THICKNESS
 40
0.0
  9
$LIMCHECK
 70
     0
  9
$BLIPMODE
 70
     0
  9
$CHAMFERA
 40
0.0
  9
$CHAMFERB
 40
0.0
  9
$SKPOLY
 70
     0
  9
$TDCREATE
 40
2451564.3677891549
  9
$TDUPDATE
 40
2455601.629210799
  9
$TDINDWG
 40
0.2801124884
  9
$TDUSRTIMER
 40
0.2801124884
  9
$USRTIMER
 70
     1
  9
$ANGBASE
 50
0.0
  9
$ANGDIR
 70
     0
  9
$PDMODE
 70
     0
  9
$PDSIZE
 40
0.0
  9
$PLINEWID
 40
0.0
  9
$COORDS
 70
     0
  9
$SPLFRAME
 70
     0
  9
$SPLINETYPE
 70
     6
  9
$SPLINESEGS
 70
     8
  9
$ATTDIA
 70
     0
  9
$ATTREQ
 70
     1
  9
$HANDLING
 70
     1
  9
$HANDSEED
  5
513F
  9
$SURFTAB1
 70
     6
  9
$SURFTAB2
 70
     6
  9
$SURFTYPE
 70
     6
  9
$SURFU
 70
     6
  9
$SURFV
 70
     6
  9
$UCSNAME
  2

  9
$UCSORG
 10
0.0
 20
0.0
 30
0.0
  9
$UCSXDIR
 10
1.0
 20
0.0
 30
0.0
  9
$UCSYDIR
 10
0.0
 20
1.0
 30
0.0
  9
$PUCSNAME
  2

  9
$PUCSORG
 10
0.0
 20
0.0
 30
0.0
  9
$PUCSXDIR
 10
1.0
 20
0.0
 30
0.0
  9
$PUCSYDIR
 10
0.0
 20
1.0
 30
0.0
  9
$USERI1
 70
     0
  9
$USERI2
 70
     0
  9
$USERI3
 70
     0
  9
$USERI4
 70
     0
  9
$USERI5
 70
     0
  9
$USERR1
 40
0.0
  9
$USERR2
 40
0.0
  9
$USERR3
 40
0.0
  9
$USERR4
 40
0.0
  9
$USERR5
 40
0.0
  9
$WORLDVIEW
 70
     1
  9
$SHADEDGE
 70
     3
  9
$SHADEDIF
 70
    70
  9
$TILEMODE
 70
     1
  9
$MAXACTVP
 70
    16
  9
$PLIMCHECK
 70
     0
  9
$PEXTMIN
 10
1.0000000000000000E+020
 20
1.0000000000000000E+020
 30
1.0000000000000000E+020
  9
$PEXTMAX
 10
-1.0000000000000000E+020
 20
-1.0000000000000000E+020
 30
-1.0000000000000000E+020
  9
$PLIMMIN
 10
0.0
 20
0.0
  9
$PLIMMAX
 10
20.0
 20
147.0
  9
$UNITMODE
 70
     0
  9
$VISRETAIN
 70
     0
  9
$PLINEGEN
 70
     0
  9
$PSLTSCALE
 70
     1
  0
ENDSEC
  0
SECTION
  2
TABLES
  0
TABLE
  2
VPORT
 70
     1
  0
VPORT
  2
*ACTIVE
 70
     0
 10
0.0
 20
0.0
 11
1.0
 21
1.0
 12
518.82241186956344
 22
314.99999999999989
 13
0.0
 23
0.0
 14
1.0
 24
1.0
 15
0.0
 25
0.0
 16
0.0
 26
0.0
 36
1.0
 17
0.0
 27
0.0
 37
0.0
 40
636.82065386270574
 41
1.632843791722296
 42
50.0
 43
0.0
 44
0.0
 50
0.0
 51
0.0
 71
     0
 72
   100
 73
     1
 74
     1
 75
     0
 76
     0
 77
     0
 78
     0
  0
ENDTAB
  0
TABLE
  2
LTYPE
 70
     1
  0
LTYPE
  2
CONTINUOUS
 70
     0
  3
Solid line
 72
    65
 73
     0
 40
0.0
  0
ENDTAB
  0
TABLE
  2
LAYER
 70
     1
  0
LAYER
  2
0
 70
     0
 62
     7
  6
CONTINUOUS
  0
ENDTAB
  0
TABLE
  2
STYLE
 70
     3
  0
STYLE
  2
STANDARD
 70
     0
 40
0.0
 41
0.8
 50
0.0
 71
     0
 42
12.0
  3
simplex
  4
extfont
  0
STYLE
  2
PTSH
 70
     0
 40
0.0
 41
0.9
 50
0.0
 71
     0
 42
4.0
  3
SIMPLEX
  4
EXTFONT
  0
STYLE
  2
DIM
 70
     0
 40
0.0
 41
0.8
 50
0.0
 71
     0
 42
4.0
  3
simplex
  4
extfont
  0
ENDTAB
  0
TABLE
  2
VIEW
 70
     0
  0
ENDTAB
  0
TABLE
  2
UCS
 70
     0
  0
ENDTAB
  0
TABLE
  2
APPID
 70
     4
  0
APPID
  2
ACAD
 70
     0
  0
APPID
  2
ACAD_MLEADERVER
 70
     0
  0
APPID
  2
ACAD_PSEXT
 70
     0
  0
APPID
  2
ACAD_EXEMPT_FROM_CAD_STANDARDS
 70
     0
  0
ENDTAB
  0
TABLE
  2
DIMSTYLE
 70
     1
  0
DIMSTYLE
  2
DIM1
 70
     0
  3

  4

  5

  6
OPEN
  7
OPEN
 40
3.0
 41
2.7999999999999989
 42
1.0
 43
5.0
 44
1.0
 45
0.1
 46
0.0
 47
0.0
 48
0.0
140
2.5
141
0.0
142
0.0
143
1.0
144
1.0
145
0.0
146
0.7
147
0.85
 71
     0
 72
     0
 73
     0
 74
     0
 75
     0
 76
     0
 77
     3
 78
     8
170
     0
171
     2
172
     1
173
     1
174
     0
175
     0
176
     2
177
     2
178
     2
  0
ENDTAB
  0
ENDSEC
  0
SECTION
  2
BLOCKS
  0
BLOCK
  8
0
  2
$MODEL_SPACE
 70
     0
 10
0.0
 20
0.0
 30
0.0
  3
$MODEL_SPACE
  1

  0
ENDBLK
  5
3D
  8
0
  0
BLOCK
 67
     1
  8
0
  2
$PAPER_SPACE
 70
     0
 10
0.0
 20
0.0
 30
0.0
  3
$PAPER_SPACE
  1

  0
ENDBLK
  5
3B
 67
     1
  8
0
  0
BLOCK
  8
0
  2
_OPEN
 70
     0
 10
0.0
 20
0.0
 30
0.0
  3
_OPEN
  1
H1111.DWG
  0
LINE
  5
244A
  8
0
  6
BYBLOCK
 62
     0
 10
-1.0
 20
0.1666666666666666
 30
0.0
 11
0.0
 21
0.0
 31
0.0
  0
LINE
  5
244B
  8
0
  6
BYBLOCK
 62
     0
 10
0.0
 20
0.0
 30
0.0
 11
-1.0
 21
-0.1666666666666666
 31
0.0
  0
LINE
  5
244C
  8
0
  6
BYBLOCK
 62
     0
 10
0.0
 20
0.0
 30
0.0
 11
-1.0
 21
0.0
 31
0.0
  0
ENDBLK
  5
244D
  8
0
  0
ENDSEC
  0
SECTION
  2
ENTITIES
  0
TEXT
  5
2529
  8
0
  6
CONTINUOUS
 10
795.94285714285706
 20
20.281665901261281
 30
0.0
 40
8.9999999999999982
  1
P46SRW
 41
0.9
  7
PTSH
 72
     2
 11
842.99999999999989
 21
24.781665901261281
 31
0.0
 73
     2
  0
POLYLINE
  5
2563
  8
0
 66
     1
 10
0.0
 20
0.0
 30
0.0
 70
     1
  0
VERTEX
  5
3776
  8
0
 10
32.999999999999993
 20
15.0
 30
0.0
  0
VERTEX
  5
3777
  8
0
 10
857.99999999999977
 20
15.0
 30
0.0
  0
VERTEX
  5
3778
  8
0
 10
857.99999999999977
 20
572.99999999999977
 30
0.0
  0
VERTEX
  5
3779
  8
0
 10
32.999999999999993
 20
572.99999999999977
 30
0.0
  0
SEQEND
  5
377A
  8
0
  0
TEXT
  5
336E
  8
0
 10
352.5990344059727
 20
36.470791351527417
 30
0.0
 40
10.5
  1
TLV  P46SRW (Screw¥SW)
  0
LINE
  5
3CC3
  8
0
 10
367.1497684693777
 20
325.89750719586908
 30
0.0
 11
373.5892684693772
 21
319.59525719586941
 31
0.0
  0
LINE
  5
3CC4
  8
0
 10
373.5892684693772
 20
319.59525719586941
 30
0.0
 11
342.07689346937701
 21
319.59525719586941
 31
0.0
  0
LINE
  5
3CC5
  8
0
 10
365.81441511313551
 20
190.47583074755579
 30
0.0
 11
372.25391511313501
 21
184.17358074755609
 31
0.0
  0
LINE
  5
3CC6
  8
0
 10
372.25391511313501
 20
184.17358074755609
 30
0.0
 11
340.7415401131347
 21
184.17358074755609
 31
0.0
  0
POLYLINE
  5
3CCB
  8
0
 10
257.20424451046421
 20
145.5727207212999
 30
0.0
 66
     1
 70
     8
  0
VERTEX
  8
0
  5
4E33
 10
257.204
 20
145.573
 30
0.000000
  70
    32
  0
VERTEX
  8
0
  5
4E34
 10
257.209
 20
145.278
 30
0.000000
  70
    32
  0
VERTEX
  8
0
  5
4E35
 10
257.225
 20
144.983
 30
0.000000
  70
    32
  0
VERTEX
  8
0
  5
4E36
 10
257.250
 20
144.688
 30
0.000000
  70
    32
  0
VERTEX
  8
0
  5
4E37
 10
257.286
 20
144.394
 30
0.000000
  70
    32
  0
VERTEX
  8
0
  5
4E38
 10
257.332
 20
144.101
 30
0.000000
  70
    32
  0
VERTEX
  8
0
  5
4E39
 10
257.388
 20
143.809
 30
0.000000
  70
    32
  0
VERTEX
  8
0
  5
4E3A
 10
257.455
 20
143.518
 30
0.000000
  70
    32
  0
VERTEX
  8
0
  5
4E3B
 10
257.531
 20
143.228
 30
0.000000
  70
    32
  0
VERTEX
  8
0
  5
4E3C
 10
257.617
 20
142.939
 30
0.000000
  70
    32
  0
VERTEX
  8
0
  5
4E3D
 10
257.714
 20
142.652
 30
0.000000
  70
    32
  0
VERTEX
  8
0
  5
4E3E
 10
257.820
 20
142.367
 30
0.000000
  70
    32
  0
VERTEX
  8
0
  5
4E3F
 10
257.936
 20
142.083
 30
0.000000
  70
    32
  0
VERTEX
  8
0
  5
4E40
 10
258.062
 20
141.802
 30
0.000000
  70
    32
  0
VERTEX
  8
0
  5
4E41
 10
258.198
 20
141.523
 30
0.000000
  70
    32
  0
VERTEX
  8
0
  5
4E42
 10
258.343
 20
141.246
 30
0.000000
  70
    32
  0
VERTEX
  8
0
  5
4E43
 10
258.498
 20
140.973
 30
0.000000
  70
    32
  0
VERTEX
  8
0
  5
4E44
 10
258.663
 20
140.701
 30
0.000000
  70
    32
  0
VERTEX
  8
0
  5
4E45
 10
258.836
 20
140.433
 30
0.000000
  70
    32
  0
VERTEX
  8
0
  5
4E46
 10
259.019
 20
140.168
 30
0.000000
  70
    32
  0
VERTEX
  8
0
  5
4E47
 10
259.212
 20
139.906
 30
0.000000
  70
    32
  0
VERTEX
  8
0
  5
4E48
 10
259.413
 20
139.648
 30
0.000000
  70
    32
  0
VERTEX
  8
0
  5
4E49
 10
259.623
 20
139.393
 30
0.000000
  70
    32
  0
VERTEX
  8
0
  5
4E4A
 10
259.842
 20
139.142
 30
0.000000
  70
    32
  0
VERTEX
  8
0
  5
4E4B
 10
260.069
 20
138.894
 30
0.000000
  70
    32
  0
VERTEX
  8
0
  5
4E4C
 10
260.305
 20
138.651
 30
0.000000
  70
    32
  0
VERTEX
  8
0
  5
4E4D
 10
260.550
 20
138.412
 30
0.000000
  70
    32
  0
VERTEX
  8
0
  5
4E4E
 10
260.802
 20
138.177
 30
0.000000
  70
    32
  0
VERTEX
  8
0
  5
4E4F
 10
261.063
 20
137.947
 30
0.000000
  70
    32
  0
VERTEX
  8
0
  5
4E50
 10
261.332
 20
137.721
 30
0.000000
  70
    32
  0
VERTEX
  8
0
  5
4E51
 10
261.608
 20
137.500
 30
0.000000
  70
    32
  0
VERTEX
  8
0
  5
4E52
 10
261.892
 20
137.284
 30
0.000000
  70
    32
  0
VERTEX
  8
0
  5
4E53
 10
262.183
 20
137.073
 30
0.000000
  70
    32
  0
VERTEX
  8
0
  5
4E54
 10
262.482
 20
136.867
 30
0.000000
  70
    32
  0
VERTEX
  8
0
  5
4E55
 10
262.788
 20
136.666
 30
0.000000
  70
    32
  0
VERTEX
  8
0
  5
4E56
 10
263.100
 20
136.470
 30
0.000000
  70
    32
  0
VERTEX
  8
0
  5
4E57
 10
263.420
 20
136.281
 30
0.000000
  70
    32
  0
VERTEX
  8
0
  5
4E58
 10
263.745
 20
136.096
 30
0.000000
  70
    32
  0
VERTEX
  8
0
  5
4E59
 10
264.077
 20
135.918
 30
0.000000
  70
    32
  0
VERTEX
  8
0
  5
4E5A
 10
264.416
 20
135.745
 30
0.000000
  70
    32
  0
VERTEX
  8
0
  5
4E5B
 10
264.760
 20
135.578
 30
0.000000
  70
    32
  0
VERTEX
  8
0
  5
4E5C
 10
265.109
 20
135.417
 30
0.000000
  70
    32
  0
VERTEX
  8
0
  5
4E5D
 10
265.464
 20
135.262
 30
0.000000
  70
    32
  0
VERTEX
  8
0
  5
4E5E
 10
265.825
 20
135.114
 30
0.000000
  70
    32
  0
VERTEX
  8
0
  5
4E5F
 10
266.190
 20
134.971
 30
0.000000
  70
    32
  0
VERTEX
  8
0
  5
4E60
 10
266.561
 20
134.835
 30
0.000000
  70
    32
  0
VERTEX
  8
0
  5
4E61
 10
266.936
 20
134.706
 30
0.000000
  70
    32
  0
VERTEX
  8
0
  5
4E62
 10
267.315
 20
134.583
 30
0.000000
  70
    32
  0
VERTEX
  8
0
  5
4E63
 10
267.699
 20
134.467
 30
0.000000
  70
    32
  0
VERTEX
  8
0
  5
4E64
 10
268.086
 20
134.357
 30
0.000000
  70
    32
  0
VERTEX
  8
0
  5
4E65
 10
268.477
 20
134.255
 30
0.000000
  70
    32
  0
VERTEX
  8
0
  5
4E66
 10
268.872
 20
134.159
 30
0.000000
  70
    32
  0
VERTEX
  8
0
  5
4E67
 10
269.269
 20
134.070
 30
0.000000
  70
    32
  0
VERTEX
  8
0
  5
4E68
 10
269.670
 20
133.987
 30
0.000000
  70
    32
  0
VERTEX
  8
0
  5
4E69
 10
270.074
 20
133.912
 30
0.000000
  70
    32
  0
VERTEX
  8
0
  5
4E6A
 10
270.480
 20
133.844
 30
0.000000
  70
    32
  0
VERTEX
  8
0
  5
4E6B
 10
270.888
 20
133.783
 30
0.000000
  70
    32
  0
VERTEX
  8
0
  5
4E6C
 10
271.298
 20
133.729
 30
0.000000
  70
    32
  0
VERTEX
  8
0
  5
4E6D
 10
271.710
 20
133.682
 30
0.000000
  70
    32
  0
VERTEX
  8
0
  5
4E6E
 10
272.123
 20
133.642
 30
0.000000
  70
    32
  0
VERTEX
  8
0
  5
4E6F
 10
272.538
 20
133.610
 30
0.000000
  70
    32
  0
VERTEX
  8
0
  5
4E70
 10
272.954
 20
133.584
 30
0.000000
  70
    32
  0
VERTEX
  8
0
  5
4E71
 10
273.370
 20
133.566
 30
0.000000
  70
    32
  0
VERTEX
  8
0
  5
4E72
 10
273.787
 20
133.556
 30
0.000000
  70
    32
  0
VERTEX
  8
0
  5
4E73
 10
274.204
 20
133.552
 30
0.000000
  70
    32
  0
VERTEX
  8
0
  5
4E74
 10
274.621
 20
133.556
 30
0.000000
  70
    32
  0
VERTEX
  8
0
  5
4E75
 10
275.038
 20
133.566
 30
0.000000
  70
    32
  0
VERTEX
  8
0
  5
4E76
 10
275.455
 20
133.584
 30
0.000000
  70
    32
  0
VERTEX
  8
0
  5
4E77
 10
275.871
 20
133.610
 30
0.000000
  70
    32
  0
VERTEX
  8
0
  5
4E78
 10
276.285
 20
133.642
 30
0.000000
  70
    32
  0
VERTEX
  8
0
  5
4E79
 10
276.699
 20
133.682
 30
0.000000
  70
    32
  0
VERTEX
  8
0
  5
4E7A
 10
277.111
 20
133.729
 30
0.000000
  70
    32
  0
VERTEX
  8
0
  5
4E7B
 10
277.521
 20
133.783
 30
0.000000
  70
    32
  0
VERTEX
  8
0
  5
4E7C
 10
277.929
 20
133.844
 30
0.000000
  70
    32
  0
VERTEX
  8
0
  5
4E7D
 10
278.335
 20
133.912
 30
0.000000
  70
    32
  0
VERTEX
  8
0
  5
4E7E
 10
278.738
 20
133.987
 30
0.000000
  70
    32
  0
VERTEX
  8
0
  5
4E7F
 10
279.139
 20
134.070
 30
0.000000
  70
    32
  0
VERTEX
  8
0
  5
4E80
 10
279.537
 20
134.159
 30
0.000000
  70
    32
  0
VERTEX
  8
0
  5
4E81
 10
279.931
 20
134.255
 30
0.000000
  70
    32
  0
VERTEX
  8
0
  5
4E82
 10
280.322
 20
134.357
 30
0.000000
  70
    32
  0
VERTEX
  8
0
  5
4E83
 10
280.710
 20
134.467
 30
0.000000
  70
    32
  0
VERTEX
  8
0
  5
4E84
 10
281.093
 20
134.583
 30
0.000000
  70
    32
  0
VERTEX
  8
0
  5
4E85
 10
281.473
 20
134.706
 30
0.000000
  70
    32
  0
VERTEX
  8
0
  5
4E86
 10
281.848
 20
134.835
 30
0.000000
  70
    32
  0
VERTEX
  8
0
  5
4E87
 10
282.218
 20
134.971
 30
0.000000
  70
    32
  0
VERTEX
  8
0
  5
4E88
 10
282.584
 20
135.114
 30
0.000000
  70
    32
  0
VERTEX
  8
0
  5
4E89
 10
282.944
 20
135.262
 30
0.000000
  70
    32
  0
VERTEX
  8
0
  5
4E8A
 10
283.299
 20
135.417
 30
0.000000
  70
    32
  0
VERTEX
  8
0
  5
4E8B
 10
283.649
 20
135.578
 30
0.000000
  70
    32
  0
VERTEX
  8
0
  5
4E8C
 10
283.993
 20
135.745
 30
0.000000
  70
    32
  0
VERTEX
  8
0
  5
4E8D
 10
284.331
 20
135.918
 30
0.000000
  70
    32
  0
VERTEX
  8
0
  5
4E8E
 10
284.663
 20
136.096
 30
0.000000
  70
    32
  0
VERTEX
  8
0
  5
4E8F
 10
284.989
 20
136.281
 30
0.000000
  70
    32
  0
VERTEX
  8
0
  5
4E90
 10
285.308
 20
136.470
 30
0.000000
  70
    32
  0
VERTEX
  8
0
  5
4E91
 10
285.621
 20
136.666
 30
0.000000
  70
    32
  0
VERTEX
  8
0
  5
4E92
 10
285.926
 20
136.867
 30
0.000000
  70
    32
  0
VERTEX
  8
0
  5
4E93
 10
286.225
 20
137.073
 30
0.000000
  70
    32
  0
VERTEX
  8
0
  5
4E94
 10
286.516
 20
137.284
 30
0.000000
  70
    32
  0
VERTEX
  8
0
  5
4E95
 10
286.800
 20
137.500
 30
0.000000
  70
    32
  0
VERTEX
  8
0
  5
4E96
 10
287.077
 20
137.721
 30
0.000000
  70
    32
  0
VERTEX
  8
0
  5
4E97
 10
287.345
 20
137.947
 30
0.000000
  70
    32
  0
VERTEX
  8
0
  5
4E98
 10
287.606
 20
138.177
 30
0.000000
  70
    32
  0
VERTEX
  8
0
  5
4E99
 10
287.859
 20
138.412
 30
0.000000
  70
    32
  0
VERTEX
  8
0
  5
4E9A
 10
288.103
 20
138.651
 30
0.000000
  70
    32
  0
VERTEX
  8
0
  5
4E9B
 10
288.339
 20
138.894
 30
0.000000
  70
    32
  0
VERTEX
  8
0
  5
4E9C
 10
288.567
 20
139.142
 30
0.000000
  70
    32
  0
VERTEX
  8
0
  5
4E9D
 10
288.786
 20
139.393
 30
0.000000
  70
    32
  0
VERTEX
  8
0
  5
4E9E
 10
288.996
 20
139.648
 30
0.000000
  70
    32
  0
VERTEX
  8
0
  5
4E9F
 10
289.197
 20
139.906
 30
0.000000
  70
    32
  0
VERTEX
  8
0
  5
4EA0
 10
289.389
 20
140.168
 30
0.000000
  70
    32
  0
VERTEX
  8
0
  5
4EA1
 10
289.572
 20
140.433
 30
0.000000
  70
    32
  0
VERTEX
  8
0
  5
4EA2
 10
289.746
 20
140.701
 30
0.000000
  70
    32
  0
VERTEX
  8
0
  5
4EA3
 10
289.910
 20
140.973
 30
0.000000
  70
    32
  0
VERTEX
  8
0
  5
4EA4
 10
290.065
 20
141.246
 30
0.000000
  70
    32
  0
VERTEX
  8
0
  5
4EA5
 10
290.210
 20
141.523
 30
0.000000
  70
    32
  0
VERTEX
  8
0
  5
4EA6
 10
290.346
 20
141.802
 30
0.000000
  70
    32
  0
VERTEX
  8
0
  5
4EA7
 10
290.472
 20
142.083
 30
0.000000
  70
    32
  0
VERTEX
  8
0
  5
4EA8
 10
290.588
 20
142.367
 30
0.000000
  70
    32
  0
VERTEX
  8
0
  5
4EA9
 10
290.695
 20
142.652
 30
0.000000
  70
    32
  0
VERTEX
  8
0
  5
4EAA
 10
290.791
 20
142.939
 30
0.000000
  70
    32
  0
VERTEX
  8
0
  5
4EAB
 10
290.878
 20
143.228
 30
0.000000
  70
    32
  0
VERTEX
  8
0
  5
4EAC
 10
290.954
 20
143.518
 30
0.000000
  70
    32
  0
VERTEX
  8
0
  5
4EAD
 10
291.020
 20
143.809
 30
0.000000
  70
    32
  0
VERTEX
  8
0
  5
4EAE
 10
291.076
 20
144.101
 30
0.000000
  70
    32
  0
VERTEX
  8
0
  5
4EAF
 10
291.122
 20
144.394
 30
0.000000
  70
    32
  0
VERTEX
  8
0
  5
4EB0
 10
291.158
 20
144.688
 30
0.000000
  70
    32
  0
VERTEX
  8
0
  5
4EB1
 10
291.184
 20
144.983
 30
0.000000
  70
    32
  0
VERTEX
  8
0
  5
4EB2
 10
291.199
 20
145.278
 30
0.000000
  70
    32
  0
VERTEX
  8
0
  5
4EB3
 10
291.204
 20
145.573
 30
0.000000
  70
    32
  0
SEQEND
  8
0
  5
4EB4
  0
ARC
  5
3CCC
  8
0
 10
274.20424451046438
 20
161.16626454716291
 30
0.0
 40
21.957504856540769
 50
223.22413192538079
 51
316.7758680746191
  0
POLYLINE
  5
3CCD
  8
0
 10
258.20424451046352
 20
153.87738061073694
 30
0.0
 66
     1
 70
     8
  0
VERTEX
  8
0
  5
4EB5
 10
258.204
 20
153.877
 30
0.000000
  70
    32
  0
VERTEX
  8
0
  5
4EB6
 10
258.040
 20
153.537
 30
0.000000
  70
    32
  0
VERTEX
  8
0
  5
4EB7
 10
257.889
 20
153.193
 30
0.000000
  70
    32
  0
VERTEX
  8
0
  5
4EB8
 10
257.754
 20
152.847
 30
0.000000
  70
    32
  0
VERTEX
  8
0
  5
4EB9
 10
257.633
 20
152.497
 30
0.000000
  70
    32
  0
VERTEX
  8
0
  5
4EBA
 10
257.527
 20
152.145
 30
0.000000
  70
    32
  0
VERTEX
  8
0
  5
4EBB
 10
257.435
 20
151.791
 30
0.000000
  70
    32
  0
VERTEX
  8
0
  5
4EBC
 10
257.359
 20
151.436
 30
0.000000
  70
    32
  0
VERTEX
  8
0
  5
4EBD
 10
257.298
 20
151.078
 30
0.000000
  70
    32
  0
VERTEX
  8
0
  5
4EBE
 10
257.252
 20
150.720
 30
0.000000
  70
    32
  0
VERTEX
  8
0
  5
4EBF
 10
257.222
 20
150.361
 30
0.000000
  70
    32
  0
VERTEX
  8
0
  5
4EC0
 10
257.206
 20
150.001
 30
0.000000
  70
    32
  0
VERTEX
  8
0
  5
4EC1
 10
257.206
 20
149.642
 30
0.000000
  70
    32
  0
VERTEX
  8
0
  5
4EC2
 10
257.221
 20
149.282
 30
0.000000
  70
    32
  0
VERTEX
  8
0
  5
4EC3
 10
257.251
 20
148.923
 30
0.000000
  70
    32
  0
VERTEX
  8
0
  5
4EC4
 10
257.297
 20
148.565
 30
0.000000
  70
    32
  0
VERTEX
  8
0
  5
4EC5
 10
257.357
 20
148.207
 30
0.000000
  70
    32
  0
VERTEX
  8
0
  5
4EC6
 10
257.433
 20
147.852
 30
0.000000
  70
    32
  0
VERTEX
  8
0
  5
4EC7
 10
257.523
 20
147.498
 30
0.000000
  70
    32
  0
VERTEX
  8
0
  5
4EC8
 10
257.629
 20
147.146
 30
0.000000
  70
    32
  0
VERTEX
  8
0
  5
4EC9
 10
257.749
 20
146.796
 30
0.000000
  70
    32
  0
VERTEX
  8
0
  5
4ECA
 10
257.884
 20
146.449
 30
0.000000
  70
    32
  0
VERTEX
  8
0
  5
4ECB
 10
258.034
 20
146.105
 30
0.000000
  70
    32
  0
VERTEX
  8
0
  5
4ECC
 10
258.198
 20
145.765
 30
0.000000
  70
    32
  0
VERTEX
  8
0
  5
4ECD
 10
258.377
 20
145.428
 30
0.000000
  70
    32
  0
VERTEX
  8
0
  5
4ECE
 10
258.570
 20
145.095
 30
0.000000
  70
    32
  0
VERTEX
  8
0
  5
4ECF
 10
258.777
 20
144.766
 30
0.000000
  70
    32
  0
VERTEX
  8
0
  5
4ED0
 10
258.997
 20
144.442
 30
0.000000
  70
    32
  0
VERTEX
  8
0
  5
4ED1
 10
259.231
 20
144.123
 30
0.000000
  70
    32
  0
VERTEX
  8
0
  5
4ED2
 10
259.479
 20
143.808
 30
0.000000
  70
    32
  0
VERTEX
  8
0
  5
4ED3
 10
259.740
 20
143.500
 30
0.000000
  70
    32
  0
VERTEX
  8
0
  5
4ED4
 10
260.013
 20
143.196
 30
0.000000
  70
    32
  0
VERTEX
  8
0
  5
4ED5
 10
260.300
 20
142.899
 30
0.000000
  70
    32
  0
VERTEX
  8
0
  5
4ED6
 10
260.599
 20
142.608
 30
0.000000
  70
    32
  0
VERTEX
  8
0
  5
4ED7
 10
260.910
 20
142.323
 30
0.000000
  70
    32
  0
VERTEX
  8
0
  5
4ED8
 10
261.233
 20
142.045
 30
0.000000
  70
    32
  0
VERTEX
  8
0
  5
4ED9
 10
261.568
 20
141.774
 30
0.000000
  70
    32
  0
VERTEX
  8
0
  5
4EDA
 10
261.914
 20
141.511
 30
0.000000
  70
    32
  0
VERTEX
  8
0
  5
4EDB
 10
262.271
 20
141.254
 30
0.000000
  70
    32
  0
VERTEX
  8
0
  5
4EDC
 10
262.638
 20
141.005
 30
0.000000
  70
    32
  0
VERTEX
  8
0
  5
4EDD
 10
263.016
 20
140.765
 30
0.000000
  70
    32
  0
VERTEX
  8
0
  5
4EDE
 10
263.404
 20
140.532
 30
0.000000
  70
    32
  0
VERTEX
  8
0
  5
4EDF
 10
263.802
 20
140.308
 30
0.000000
  70
    32
  0
VERTEX
  8
0
  5
4EE0
 10
264.209
 20
140.092
 30
0.000000
  70
    32
  0
VERTEX
  8
0
  5
4EE1
 10
264.625
 20
139.885
 30
0.000000
  70
    32
  0
VERTEX
  8
0
  5
4EE2
 10
265.050
 20
139.686
 30
0.000000
  70
    32
  0
VERTEX
  8
0
  5
4EE3
 10
265.482
 20
139.497
 30
0.000000
  70
    32
  0
VERTEX
  8
0
  5
4EE4
 10
265.923
 20
139.317
 30
0.000000
  70
    32
  0
VERTEX
  8
0
  5
4EE5
 10
266.371
 20
139.147
 30
0.000000
  70
    32
  0
VERTEX
  8
0
  5
4EE6
 10
266.826
 20
138.986
 30
0.000000
  70
    32
  0
VERTEX
  8
0
  5
4EE7
 10
267.288
 20
138.834
 30
0.000000
  70
    32
  0
VERTEX
  8
0
  5
4EE8
 10
267.755
 20
138.693
 30
0.000000
  70
    32
  0
VERTEX
  8
0
  5
4EE9
 10
268.229
 20
138.562
 30
0.000000
  70
    32
  0
VERTEX
  8
0
  5
4EEA
 10
268.708
 20
138.440
 30
0.000000
  70
    32
  0
VERTEX
  8
0
  5
4EEB
 10
269.192
 20
138.329
 30
0.000000
  70
    32
  0
VERTEX
  8
0
  5
4EEC
 10
269.680
 20
138.228
 30
0.000000
  70
    32
  0
VERTEX
  8
0
  5
4EED
 10
270.173
 20
138.137
 30
0.000000
  70
    32
  0
VERTEX
  8
0
  5
4EEE
 10
270.669
 20
138.057
 30
0.000000
  70
    32
  0
VERTEX
  8
0
  5
4EEF
 10
271.168
 20
137.988
 30
0.000000
  70
    32
  0
VERTEX
  8
0
  5
4EF0
 10
271.670
 20
137.929
 30
0.000000
  70
    32
  0
VERTEX
  8
0
  5
4EF1
 10
272.174
 20
137.881
 30
0.000000
  70
    32
  0
VERTEX
  8
0
  5
4EF2
 10
272.680
 20
137.843
 30
0.000000
  70
    32
  0
VERTEX
  8
0
  5
4EF3
 10
273.187
 20
137.816
 30
0.000000
  70
    32
  0
VERTEX
  8
0
  5
4EF4
 10
273.696
 20
137.800
 30
0.000000
  70
    32
  0
VERTEX
  8
0
  5
4EF5
 10
274.204
 20
137.795
 30
0.000000
  70
    32
  0
VERTEX
  8
0
  5
4EF6
 10
274.713
 20
137.800
 30
0.000000
  70
    32
  0
VERTEX
  8
0
  5
4EF7
 10
275.221
 20
137.816
 30
0.000000
  70
    32
  0
VERTEX
  8
0
  5
4EF8
 10
275.729
 20
137.843
 30
0.000000
  70
    32
  0
VERTEX
  8
0
  5
4EF9
 10
276.235
 20
137.881
 30
0.000000
  70
    32
  0
VERTEX
  8
0
  5
4EFA
 10
276.739
 20
137.929
 30
0.000000
  70
    32
  0
VERTEX
  8
0
  5
4EFB
 10
277.241
 20
137.988
 30
0.000000
  70
    32
  0
VERTEX
  8
0
  5
4EFC
 10
277.740
 20
138.057
 30
0.000000
  70
    32
  0
VERTEX
  8
0
  5
4EFD
 10
278.236
 20
138.137
 30
0.000000
  70
    32
  0
VERTEX
  8
0
  5
4EFE
 10
278.728
 20
138.228
 30
0.000000
  70
    32
  0
VERTEX
  8
0
  5
4EFF
 10
279.217
 20
138.329
 30
0.000000
  70
    32
  0
VERTEX
  8
0
  5
4F00
 10
279.701
 20
138.440
 30
0.000000
  70
    32
  0
VERTEX
  8
0
  5
4F01
 10
280.179
 20
138.562
 30
0.000000
  70
    32
  0
VERTEX
  8
0
  5
4F02
 10
280.653
 20
138.693
 30
0.000000
  70
    32
  0
VERTEX
  8
0
  5
4F03
 10
281.121
 20
138.834
 30
0.000000
  70
    32
  0
VERTEX
  8
0
  5
4F04
 10
281.583
 20
138.986
 30
0.000000
  70
    32
  0
VERTEX
  8
0
  5
4F05
 10
282.038
 20
139.147
 30
0.000000
  70
    32
  0
VERTEX
  8
0
  5
4F06
 10
282.486
 20
139.317
 30
0.000000
  70
    32
  0
VERTEX
  8
0
  5
4F07
 10
282.926
 20
139.497
 30
0.000000
  70
    32
  0
VERTEX
  8
0
  5
4F08
 10
283.359
 20
139.686
 30
0.000000
  70
    32
  0
VERTEX
  8
0
  5
4F09
 10
283.783
 20
139.885
 30
0.000000
  70
    32
  0
VERTEX
  8
0
  5
4F0A
 10
284.199
 20
140.092
 30
0.000000
  70
    32
  0
VERTEX
  8
0
  5
4F0B
 10
284.606
 20
140.308
 30
0.000000
  70
    32
  0
VERTEX
  8
0
  5
4F0C
 10
285.004
 20
140.532
 30
0.000000
  70
    32
  0
VERTEX
  8
0
  5
4F0D
 10
285.392
 20
140.765
 30
0.000000
  70
    32
  0
VERTEX
  8
0
  5
4F0E
 10
285.770
 20
141.005
 30
0.000000
  70
    32
  0
VERTEX
  8
0
  5
4F0F
 10
286.138
 20
141.254
 30
0.000000
  70
    32
  0
VERTEX
  8
0
  5
4F10
 10
286.495
 20
141.511
 30
0.000000
  70
    32
  0
VERTEX
  8
0
  5
4F11
 10
286.841
 20
141.774
 30
0.000000
  70
    32
  0
VERTEX
  8
0
  5
4F12
 10
287.175
 20
142.045
 30
0.000000
  70
    32
  0
VERTEX
  8
0
  5
4F13
 10
287.498
 20
142.323
 30
0.000000
  70
    32
  0
VERTEX
  8
0
  5
4F14
 10
287.810
 20
142.608
 30
0.000000
  70
    32
  0
VERTEX
  8
0
  5
4F15
 10
288.109
 20
142.899
 30
0.000000
  70
    32
  0
VERTEX
  8
0
  5
4F16
 10
288.395
 20
143.196
 30
0.000000
  70
    32
  0
VERTEX
  8
0
  5
4F17
 10
288.669
 20
143.500
 30
0.000000
  70
    32
  0
VERTEX
  8
0
  5
4F18
 10
288.930
 20
143.808
 30
0.000000
  70
    32
  0
VERTEX
  8
0
  5
4F19
 10
289.177
 20
144.123
 30
0.000000
  70
    32
  0
VERTEX
  8
0
  5
4F1A
 10
289.411
 20
144.442
 30
0.000000
  70
    32
  0
VERTEX
  8
0
  5
4F1B
 10
289.632
 20
144.766
 30
0.000000
  70
    32
  0
VERTEX
  8
0
  5
4F1C
 10
289.839
 20
145.095
 30
0.000000
  70
    32
  0
VERTEX
  8
0
  5
4F1D
 10
290.032
 20
145.428
 30
0.000000
  70
    32
  0
VERTEX
  8
0
  5
4F1E
 10
290.210
 20
145.765
 30
0.000000
  70
    32
  0
VERTEX
  8
0
  5
4F1F
 10
290.374
 20
146.105
 30
0.000000
  70
    32
  0
VERTEX
  8
0
  5
4F20
 10
290.524
 20
146.449
 30
0.000000
  70
    32
  0
VERTEX
  8
0
  5
4F21
 10
290.659
 20
146.796
 30
0.000000
  70
    32
  0
VERTEX
  8
0
  5
4F22
 10
290.780
 20
147.146
 30
0.000000
  70
    32
  0
VERTEX
  8
0
  5
4F23
 10
290.885
 20
147.498
 30
0.000000
  70
    32
  0
VERTEX
  8
0
  5
4F24
 10
290.976
 20
147.852
 30
0.000000
  70
    32
  0
VERTEX
  8
0
  5
4F25
 10
291.051
 20
148.207
 30
0.000000
  70
    32
  0
VERTEX
  8
0
  5
4F26
 10
291.112
 20
148.565
 30
0.000000
  70
    32
  0
VERTEX
  8
0
  5
4F27
 10
291.157
 20
148.923
 30
0.000000
  70
    32
  0
VERTEX
  8
0
  5
4F28
 10
291.188
 20
149.282
 30
0.000000
  70
    32
  0
VERTEX
  8
0
  5
4F29
 10
291.202
 20
149.642
 30
0.000000
  70
    32
  0
VERTEX
  8
0
  5
4F2A
 10
291.202
 20
150.001
 30
0.000000
  70
    32
  0
VERTEX
  8
0
  5
4F2B
 10
291.187
 20
150.361
 30
0.000000
  70
    32
  0
VERTEX
  8
0
  5
4F2C
 10
291.156
 20
150.720
 30
0.000000
  70
    32
  0
VERTEX
  8
0
  5
4F2D
 10
291.110
 20
151.078
 30
0.000000
  70
    32
  0
VERTEX
  8
0
  5
4F2E
 10
291.049
 20
151.436
 30
0.000000
  70
    32
  0
VERTEX
  8
0
  5
4F2F
 10
290.973
 20
151.791
 30
0.000000
  70
    32
  0
VERTEX
  8
0
  5
4F30
 10
290.882
 20
152.145
 30
0.000000
  70
    32
  0
VERTEX
  8
0
  5
4F31
 10
290.776
 20
152.497
 30
0.000000
  70
    32
  0
VERTEX
  8
0
  5
4F32
 10
290.655
 20
152.847
 30
0.000000
  70
    32
  0
VERTEX
  8
0
  5
4F33
 10
290.519
 20
153.193
 30
0.000000
  70
    32
  0
VERTEX
  8
0
  5
4F34
 10
290.369
 20
153.537
 30
0.000000
  70
    32
  0
VERTEX
  8
0
  5
4F35
 10
290.204
 20
153.877
 30
0.000000
  70
    32
  0
SEQEND
  8
0
  5
4F36
  0
POLYLINE
  5
3CCE
  8
0
 66
     1
 10
0.0
 20
0.0
 30
0.0
  0
VERTEX
  5
3CCF
  8
0
 10
287.65718496035947
 20
132.30294758431631
 30
0.0
  0
VERTEX
  5
3CD0
  8
0
 10
275.75130406056911
 20
127.5150792325294
 30
0.0
  0
SEQEND
  5
3CD1
  8
0
  0
POLYLINE
  5
3CD2
  8
0
 66
     1
 10
0.0
 20
0.0
 30
0.0
 70
     1
  0
VERTEX
  5
3CD3
  8
0
 10
296.7042445104646
 20
176.069406707506
 30
0.0
  0
VERTEX
  5
3CD4
  8
0
 10
274.20424451046478
 20
163.07902565073891
 30
0.0
  0
VERTEX
  5
3CD5
  8
0
 10
251.7042445104648
 20
176.0694067075051
 30
0.0
  0
VERTEX
  5
3CD6
  8
0
 10
251.70424451046389
 20
202.0501688210384
 30
0.0
  0
VERTEX
  5
3CD7
  8
0
 10
274.20424451046392
 20
215.0405498778054
 30
0.0
  0
VERTEX
  5
3CD8
  8
0
 10
296.70424451046421
 20
202.05016882103931
 30
0.0
  0
SEQEND
  5
3CD9
  8
0
  0
CIRCLE
  5
3CDA
  8
0
 10
274.20424451046438
 20
189.05978776427261
 30
0.0
 40
22.0
  0
LINE
  5
3CDB
  8
0
 10
258.20424451046438
 20
172.31662995777279
 30
0.0
 11
258.20424451046438
 21
146.12857790576069
 31
0.0
  0
LINE
  5
3CDC
  8
0
 10
274.20424451046438
 20
163.0790256507384
 30
0.0
 11
274.20424451046438
 21
139.2087596906222
 31
0.0
  0
POLYLINE
  5
3CDD
  8
0
 66
     1
 10
0.0
 20
0.0
 30
0.0
  0
VERTEX
  5
3CDE
  8
0
 10
272.6571849603593
 20
127.5150792325294
 30
0.0
  0
VERTEX
  5
3CDF
  8
0
 10
260.75130406056883
 20
132.30294758431631
 30
0.0
  0
SEQEND
  5
3CE0
  8
0
  0
ARC
  5
3CE1
  8
0
 10
272.7234589485974
 20
143.65713215816641
 30
0.0
 40
16.5
 50
214.9805877286442
 51
223.48245323852731
  0
LINE
  5
3CE2
  8
0
 10
260.75130406056911
 20
132.30294758431631
 30
0.0
 11
260.75130406056911
 21
138.2236257684649
 31
0.0
  0
POLYLINE
  5
3CE3
  8
0
 66
     1
 10
0.0
 20
0.0
 30
0.0
  0
VERTEX
  5
3CE4
  8
0
 10
259.20424451046421
 20
134.19770083404771
 30
0.0
  0
VERTEX
  5
3CE5
  8
0
 10
259.20424451046421
 20
139.91586647180739
 30
0.0
  0
SEQEND
  5
3CE6
  8
0
  0
ARC
  5
3CE7
  8
0
 10
274.20424451046438
 20
143.9423920605127
 30
0.0
 40
16.5
 50
264.61997732865387
 51
275.38002267134613
  0
LINE
  5
3CE8
  8
0
 10
275.75130406056911
 20
127.5150792325294
 30
0.0
 11
275.75130406056911
 21
133.6017849444188
 31
0.0
  0
LINE
  5
3CE9
  8
0
 10
272.6571849603593
 20
127.5150792325294
 30
0.0
 11
272.6571849603593
 21
133.6017849444188
 31
0.0
  0
LINE
  5
3CEA
  8
0
 10
257.20424451046438
 20
149.81536140841899
 30
0.0
 11
257.20424451046438
 21
145.5727207212999
 31
0.0
  0
ARC
  5
3CEB
  8
0
 10
247.70424451046441
 20
209.0597877642731
 30
0.0
 40
6.0
 50
180.0
 51
270.0
  0
LINE
  5
3CEC
  8
0
 10
241.70424451046441
 20
223.55978776427219
 30
0.0
 11
241.70424451046441
 21
209.0597877642731
 31
0.0
  0
LINE
  5
3CED
  8
0
 10
248.70424451046441
 20
203.0597877642731
 30
0.0
 11
247.70424451046441
 21
203.0597877642731
 31
0.0
  0
ARC
  5
3CEE
  8
0
 10
248.70424451046441
 20
200.0597877642731
 30
0.0
 40
3.0
 50
359.99999999999352
 51
90.0
  0
LINE
  5
3CEF
  8
0
 10
281.53482306263589
 20
216.0597877642717
 30
0.0
 11
281.53482306263589
 21
210.80823837739351
 31
0.0
  0
LINE
  5
3CF0
  8
0
 10
266.8736659582928
 20
216.05978776427219
 30
0.0
 11
266.8736659582928
 21
210.80823837739351
 31
0.0
  0
LINE
  5
3CF1
  8
0
 10
281.53482306263589
 20
216.0597877642717
 30
0.0
 11
266.8736659582928
 21
216.05978776427131
 31
0.0
  0
LINE
  5
3CF2
  8
0
 10
290.20424451046438
 20
172.31662995777279
 30
0.0
 11
290.20424451046438
 21
146.12857790576021
 31
0.0
  0
ARC
  5
3CF3
  8
0
 10
301.17639939849278
 20
122.843516260195
 30
0.0
 40
16.5
 50
136.5175467614726
 51
145.0194122713558
  0
LINE
  5
3CF4
  8
0
 10
287.6571849603597
 20
132.30294758431631
 30
0.0
 11
287.6571849603597
 21
138.2236257684649
 31
0.0
  0
POLYLINE
  5
3CF5
  8
0
 66
     1
 10
0.0
 20
0.0
 30
0.0
  0
VERTEX
  5
3CF6
  8
0
 10
289.20424451046421
 20
139.91586647180969
 30
0.0
  0
VERTEX
  5
3CF7
  8
0
 10
289.20424451046421
 20
134.19770083404501
 30
0.0
  0
SEQEND
  5
3CF8
  8
0
  0
LINE
  5
3CF9
  8
0
 10
291.20424451046438
 20
149.81536140841899
 30
0.0
 11
291.20424451046438
 21
145.5727207212999
 31
0.0
  0
ARC
  5
3CFA
  8
0
 10
300.70424451046438
 20
209.0597877642731
 30
0.0
 40
6.0
 50
270.0
 51
0.0
  0
LINE
  5
3CFB
  8
0
 10
300.70424451046438
 20
203.0597877642731
 30
0.0
 11
299.70424451046438
 21
203.0597877642731
 31
0.0
  0
ARC
  5
3CFC
  8
0
 10
299.70424451046438
 20
200.0597877642731
 30
0.0
 40
3.0
 50
90.0
 51
180.0
  0
LINE
  5
3CFD
  8
0
 10
306.70424451046438
 20
223.55978776427219
 30
0.0
 11
306.70424451046438
 21
209.0597877642731
 31
0.0
  0
LINE
  5
3CFE
  8
0
 10
334.43929011313497
 20
190.47583074755579
 30
0.0
 11
353.34604011313507
 21
190.47583074755579
 31
0.0
  0
LINE
  5
3CFF
  8
0
 10
340.7415401131347
 20
184.17358074755609
 30
0.0
 11
334.43929011313497
 21
190.47583074755579
 31
0.0
  0
LINE
  5
3D00
  8
0
 10
356.49829011313523
 20
187.32470574755641
 30
0.0
 11
365.81441511313551
 21
187.32470574755641
 31
0.0
  0
LINE
  5
3D01
  8
0
 10
365.81441511313551
 20
187.32470574755641
 30
0.0
 11
365.81441511313551
 21
190.47583074755579
 31
0.0
  0
LINE
  5
3D02
  8
0
 10
353.34604011313507
 20
190.47583074755579
 30
0.0
 11
356.49829011313523
 21
187.32470574755641
 31
0.0
  0
LINE
  5
3D06
  8
0
 10
335.77464346937722
 20
325.89750719586908
 30
0.0
 11
354.68139346937733
 21
325.89750719586908
 31
0.0
  0
LINE
  5
3D07
  8
0
 10
342.07689346937701
 20
319.59525719586941
 30
0.0
 11
335.77464346937722
 21
325.89750719586908
 31
0.0
  0
LINE
  5
3D08
  8
0
 10
357.83364346937742
 20
322.74638219586973
 30
0.0
 11
367.1497684693777
 21
322.74638219586973
 31
0.0
  0
LINE
  5
3D09
  8
0
 10
367.1497684693777
 20
322.74638219586973
 30
0.0
 11
367.1497684693777
 21
325.89750719586908
 31
0.0
  0
LINE
  5
3D0A
  8
0
 10
354.68139346937733
 20
325.89750719586908
 30
0.0
 11
357.83364346937742
 21
322.74638219586973
 31
0.0
  0
LINE
  5
3D52
  8
0
 10
612.44040695094645
 20
211.05978776427219
 30
0.0
 11
592.39108949712409
 21
211.05978776427219
 31
0.0
  0
ARC
  5
3D53
  8
0
 10
607.81127513681076
 20
209.0597877642731
 30
0.0
 40
6.0
 50
270.0
 51
0.0
  0
LINE
  5
3D55
  8
0
 10
597.31127513681065
 20
172.31662995777279
 30
0.0
 11
597.31127513681065
 21
153.87738061073969
 31
0.0
  0
LINE
  5
3D56
  8
0
 10
565.31127513681065
 20
172.31662995777279
 30
0.0
 11
565.31127513681065
 21
153.87738061073469
 31
0.0
  0
POLYLINE
  5
3D57
  8
0
 66
     1
 10
0.0
 20
0.0
 30
0.0
 70
     1
  0
VERTEX
  5
3D58
  8
0
 10
558.81127513681054
 20
176.069406707506
 30
0.0
  0
VERTEX
  5
3D59
  8
0
 10
581.31127513681031
 20
163.07902565073891
 30
0.0
  0
VERTEX
  5
3D5A
  8
0
 10
603.81127513681031
 20
176.0694067075051
 30
0.0
  0
VERTEX
  5
3D5B
  8
0
 10
603.81127513681122
 20
202.0501688210384
 30
0.0
  0
VERTEX
  5
3D5C
  8
0
 10
581.31127513681122
 20
215.0405498778054
 30
0.0
  0
VERTEX
  5
3D5D
  8
0
 10
558.81127513681088
 20
202.05016882103931
 30
0.0
  0
SEQEND
  5
3D5E
  8
0
  0
CIRCLE
  5
3D5F
  8
0
 10
581.31127513681065
 20
189.05978776427261
 30
0.0
 40
22.0
  0
POLYLINE
  5
3D60
  8
0
 66
     1
 10
0.0
 20
0.0
 30
0.0
  0
VERTEX
  5
3D61
  8
0
 10
567.85833468691567
 20
132.30294758431631
 30
0.0
  0
VERTEX
  5
3D62
  8
0
 10
579.76421558670609
 20
127.5150792325294
 30
0.0
  0
SEQEND
  5
3D63
  8
0
  0
POLYLINE
  5
3D64
  8
0
 66
     1
 10
0.0
 20
0.0
 30
0.0
  0
VERTEX
  5
3D65
  8
0
 10
579.76421558670575
 20
150.601433483178
 30
0.0
  0
VERTEX
  5
3D66
  8
0
 10
567.85833468691544
 20
145.81356513138729
 30
0.0
  0
SEQEND
  5
3D67
  8
0
  0
POLYLINE
  5
3D68
  8
0
 10
566.56127513681099
 20
138.93766778949649
 30
0.0
 66
     1
 70
     8
  0
VERTEX
  8
0
  5
4F37
 10
566.561
 20
138.938
 30
0.000000
  70
    32
  0
VERTEX
  8
0
  5
4F38
 10
566.579
 20
138.426
 30
0.000000
  70
    32
  0
VERTEX
  8
0
  5
4F39
 10
566.632
 20
137.915
 30
0.000000
  70
    32
  0
VERTEX
  8
0
  5
4F3A
 10
566.721
 20
137.407
 30
0.000000
  70
    32
  0
VERTEX
  8
0
  5
4F3B
 10
566.845
 20
136.903
 30
0.000000
  70
    32
  0
VERTEX
  8
0
  5
4F3C
 10
567.003
 20
136.403
 30
0.000000
  70
    32
  0
VERTEX
  8
0
  5
4F3D
 10
567.196
 20
135.910
 30
0.000000
  70
    32
  0
VERTEX
  8
0
  5
4F3E
 10
567.424
 20
135.424
 30
0.000000
  70
    32
  0
VERTEX
  8
0
  5
4F3F
 10
567.684
 20
134.946
 30
0.000000
  70
    32
  0
VERTEX
  8
0
  5
4F40
 10
567.977
 20
134.478
 30
0.000000
  70
    32
  0
VERTEX
  8
0
  5
4F41
 10
568.303
 20
134.021
 30
0.000000
  70
    32
  0
VERTEX
  8
0
  5
4F42
 10
568.660
 20
133.576
 30
0.000000
  70
    32
  0
VERTEX
  8
0
  5
4F43
 10
569.047
 20
133.143
 30
0.000000
  70
    32
  0
VERTEX
  8
0
  5
4F44
 10
569.464
 20
132.725
 30
0.000000
  70
    32
  0
VERTEX
  8
0
  5
4F45
 10
569.909
 20
132.321
 30
0.000000
  70
    32
  0
VERTEX
  8
0
  5
4F46
 10
570.382
 20
131.933
 30
0.000000
  70
    32
  0
VERTEX
  8
0
  5
4F47
 10
570.881
 20
131.563
 30
0.000000
  70
    32
  0
VERTEX
  8
0
  5
4F48
 10
571.406
 20
131.210
 30
0.000000
  70
    32
  0
VERTEX
  8
0
  5
4F49
 10
571.954
 20
130.875
 30
0.000000
  70
    32
  0
VERTEX
  8
0
  5
4F4A
 10
572.525
 20
130.560
 30
0.000000
  70
    32
  0
VERTEX
  8
0
  5
4F4B
 10
573.117
 20
130.266
 30
0.000000
  70
    32
  0
VERTEX
  8
0
  5
4F4C
 10
573.728
 20
129.992
 30
0.000000
  70
    32
  0
VERTEX
  8
0
  5
4F4D
 10
574.358
 20
129.739
 30
0.000000
  70
    32
  0
VERTEX
  8
0
  5
4F4E
 10
575.005
 20
129.509
 30
0.000000
  70
    32
  0
VERTEX
  8
0
  5
4F4F
 10
575.667
 20
129.302
 30
0.000000
  70
    32
  0
VERTEX
  8
0
  5
4F50
 10
576.342
 20
129.118
 30
0.000000
  70
    32
  0
VERTEX
  8
0
  5
4F51
 10
577.030
 20
128.957
 30
0.000000
  70
    32
  0
VERTEX
  8
0
  5
4F52
 10
577.727
 20
128.820
 30
0.000000
  70
    32
  0
VERTEX
  8
0
  5
4F53
 10
578.434
 20
128.708
 30
0.000000
  70
    32
  0
VERTEX
  8
0
  5
4F54
 10
579.147
 20
128.621
 30
0.000000
  70
    32
  0
VERTEX
  8
0
  5
4F55
 10
579.866
 20
128.558
 30
0.000000
  70
    32
  0
VERTEX
  8
0
  5
4F56
 10
580.588
 20
128.520
 30
0.000000
  70
    32
  0
VERTEX
  8
0
  5
4F57
 10
581.311
 20
128.508
 30
0.000000
  70
    32
  0
VERTEX
  8
0
  5
4F58
 10
582.035
 20
128.520
 30
0.000000
  70
    32
  0
VERTEX
  8
0
  5
4F59
 10
582.757
 20
128.558
 30
0.000000
  70
    32
  0
VERTEX
  8
0
  5
4F5A
 10
583.476
 20
128.621
 30
0.000000
  70
    32
  0
VERTEX
  8
0
  5
4F5B
 10
584.189
 20
128.708
 30
0.000000
  70
    32
  0
VERTEX
  8
0
  5
4F5C
 10
584.895
 20
128.820
 30
0.000000
  70
    32
  0
VERTEX
  8
0
  5
4F5D
 10
585.593
 20
128.957
 30
0.000000
  70
    32
  0
VERTEX
  8
0
  5
4F5E
 10
586.280
 20
129.118
 30
0.000000
  70
    32
  0
VERTEX
  8
0
  5
4F5F
 10
586.956
 20
129.302
 30
0.000000
  70
    32
  0
VERTEX
  8
0
  5
4F60
 10
587.618
 20
129.509
 30
0.000000
  70
    32
  0
VERTEX
  8
0
  5
4F61
 10
588.264
 20
129.739
 30
0.000000
  70
    32
  0
VERTEX
  8
0
  5
4F62
 10
588.894
 20
129.992
 30
0.000000
  70
    32
  0
VERTEX
  8
0
  5
4F63
 10
589.506
 20
130.266
 30
0.000000
  70
    32
  0
VERTEX
  8
0
  5
4F64
 10
590.098
 20
130.560
 30
0.000000
  70
    32
  0
VERTEX
  8
0
  5
4F65
 10
590.669
 20
130.875
 30
0.000000
  70
    32
  0
VERTEX
  8
0
  5
4F66
 10
591.217
 20
131.210
 30
0.000000
  70
    32
  0
VERTEX
  8
0
  5
4F67
 10
591.741
 20
131.563
 30
0.000000
  70
    32
  0
VERTEX
  8
0
  5
4F68
 10
592.240
 20
131.933
 30
0.000000
  70
    32
  0
VERTEX
  8
0
  5
4F69
 10
592.713
 20
132.321
 30
0.000000
  70
    32
  0
VERTEX
  8
0
  5
4F6A
 10
593.159
 20
132.725
 30
0.000000
  70
    32
  0
VERTEX
  8
0
  5
4F6B
 10
593.575
 20
133.143
 30
0.000000
  70
    32
  0
VERTEX
  8
0
  5
4F6C
 10
593.963
 20
133.576
 30
0.000000
  70
    32
  0
VERTEX
  8
0
  5
4F6D
 10
594.320
 20
134.021
 30
0.000000
  70
    32
  0
VERTEX
  8
0
  5
4F6E
 10
594.645
 20
134.478
 30
0.000000
  70
    32
  0
VERTEX
  8
0
  5
4F6F
 10
594.938
 20
134.946
 30
0.000000
  70
    32
  0
VERTEX
  8
0
  5
4F70
 10
595.199
 20
135.424
 30
0.000000
  70
    32
  0
VERTEX
  8
0
  5
4F71
 10
595.426
 20
135.910
 30
0.000000
  70
    32
  0
VERTEX
  8
0
  5
4F72
 10
595.619
 20
136.403
 30
0.000000
  70
    32
  0
VERTEX
  8
0
  5
4F73
 10
595.778
 20
136.903
 30
0.000000
  70
    32
  0
VERTEX
  8
0
  5
4F74
 10
595.902
 20
137.407
 30
0.000000
  70
    32
  0
VERTEX
  8
0
  5
4F75
 10
595.990
 20
137.915
 30
0.000000
  70
    32
  0
VERTEX
  8
0
  5
4F76
 10
596.044
 20
138.426
 30
0.000000
  70
    32
  0
VERTEX
  8
0
  5
4F77
 10
596.061
 20
138.938
 30
0.000000
  70
    32
  0
VERTEX
  8
0
  5
4F78
 10
596.044
 20
139.449
 30
0.000000
  70
    32
  0
VERTEX
  8
0
  5
4F79
 10
595.990
 20
139.960
 30
0.000000
  70
    32
  0
VERTEX
  8
0
  5
4F7A
 10
595.902
 20
140.468
 30
0.000000
  70
    32
  0
VERTEX
  8
0
  5
4F7B
 10
595.778
 20
140.972
 30
0.000000
  70
    32
  0
VERTEX
  8
0
  5
4F7C
 10
595.619
 20
141.472
 30
0.000000
  70
    32
  0
VERTEX
  8
0
  5
4F7D
 10
595.426
 20
141.965
 30
0.000000
  70
    32
  0
VERTEX
  8
0
  5
4F7E
 10
595.199
 20
142.451
 30
0.000000
  70
    32
  0
VERTEX
  8
0
  5
4F7F
 10
594.938
 20
142.929
 30
0.000000
  70
    32
  0
VERTEX
  8
0
  5
4F80
 10
594.645
 20
143.397
 30
0.000000
  70
    32
  0
VERTEX
  8
0
  5
4F81
 10
594.320
 20
143.854
 30
0.000000
  70
    32
  0
VERTEX
  8
0
  5
4F82
 10
593.963
 20
144.300
 30
0.000000
  70
    32
  0
VERTEX
  8
0
  5
4F83
 10
593.575
 20
144.732
 30
0.000000
  70
    32
  0
VERTEX
  8
0
  5
4F84
 10
593.159
 20
145.151
 30
0.000000
  70
    32
  0
VERTEX
  8
0
  5
4F85
 10
592.713
 20
145.554
 30
0.000000
  70
    32
  0
VERTEX
  8
0
  5
4F86
 10
592.240
 20
145.942
 30
0.000000
  70
    32
  0
VERTEX
  8
0
  5
4F87
 10
591.741
 20
146.313
 30
0.000000
  70
    32
  0
VERTEX
  8
0
  5
4F88
 10
591.217
 20
146.666
 30
0.000000
  70
    32
  0
VERTEX
  8
0
  5
4F89
 10
590.669
 20
147.000
 30
0.000000
  70
    32
  0
VERTEX
  8
0
  5
4F8A
 10
590.098
 20
147.315
 30
0.000000
  70
    32
  0
VERTEX
  8
0
  5
4F8B
 10
589.506
 20
147.610
 30
0.000000
  70
    32
  0
VERTEX
  8
0
  5
4F8C
 10
588.894
 20
147.884
 30
0.000000
  70
    32
  0
VERTEX
  8
0
  5
4F8D
 10
588.264
 20
148.136
 30
0.000000
  70
    32
  0
VERTEX
  8
0
  5
4F8E
 10
587.618
 20
148.366
 30
0.000000
  70
    32
  0
VERTEX
  8
0
  5
4F8F
 10
586.956
 20
148.574
 30
0.000000
  70
    32
  0
VERTEX
  8
0
  5
4F90
 10
586.280
 20
148.758
 30
0.000000
  70
    32
  0
VERTEX
  8
0
  5
4F91
 10
585.593
 20
148.918
 30
0.000000
  70
    32
  0
VERTEX
  8
0
  5
4F92
 10
584.895
 20
149.055
 30
0.000000
  70
    32
  0
VERTEX
  8
0
  5
4F93
 10
584.189
 20
149.167
 30
0.000000
  70
    32
  0
VERTEX
  8
0
  5
4F94
 10
583.476
 20
149.255
 30
0.000000
  70
    32
  0
VERTEX
  8
0
  5
4F95
 10
582.757
 20
149.317
 30
0.000000
  70
    32
  0
VERTEX
  8
0
  5
4F96
 10
582.035
 20
149.355
 30
0.000000
  70
    32
  0
VERTEX
  8
0
  5
4F97
 10
581.311
 20
149.367
 30
0.000000
  70
    32
  0
VERTEX
  8
0
  5
4F98
 10
580.588
 20
149.355
 30
0.000000
  70
    32
  0
VERTEX
  8
0
  5
4F99
 10
579.866
 20
149.317
 30
0.000000
  70
    32
  0
VERTEX
  8
0
  5
4F9A
 10
579.147
 20
149.255
 30
0.000000
  70
    32
  0
VERTEX
  8
0
  5
4F9B
 10
578.434
 20
149.167
 30
0.000000
  70
    32
  0
VERTEX
  8
0
  5
4F9C
 10
577.727
 20
149.055
 30
0.000000
  70
    32
  0
VERTEX
  8
0
  5
4F9D
 10
577.030
 20
148.918
 30
0.000000
  70
    32
  0
VERTEX
  8
0
  5
4F9E
 10
576.342
 20
148.758
 30
0.000000
  70
    32
  0
VERTEX
  8
0
  5
4F9F
 10
575.667
 20
148.574
 30
0.000000
  70
    32
  0
VERTEX
  8
0
  5
4FA0
 10
575.005
 20
148.366
 30
0.000000
  70
    32
  0
VERTEX
  8
0
  5
4FA1
 10
574.358
 20
148.136
 30
0.000000
  70
    32
  0
VERTEX
  8
0
  5
4FA2
 10
573.728
 20
147.884
 30
0.000000
  70
    32
  0
VERTEX
  8
0
  5
4FA3
 10
573.117
 20
147.610
 30
0.000000
  70
    32
  0
VERTEX
  8
0
  5
4FA4
 10
572.525
 20
147.315
 30
0.000000
  70
    32
  0
VERTEX
  8
0
  5
4FA5
 10
571.954
 20
147.000
 30
0.000000
  70
    32
  0
VERTEX
  8
0
  5
4FA6
 10
571.406
 20
146.666
 30
0.000000
  70
    32
  0
VERTEX
  8
0
  5
4FA7
 10
570.881
 20
146.313
 30
0.000000
  70
    32
  0
VERTEX
  8
0
  5
4FA8
 10
570.382
 20
145.942
 30
0.000000
  70
    32
  0
VERTEX
  8
0
  5
4FA9
 10
569.909
 20
145.554
 30
0.000000
  70
    32
  0
VERTEX
  8
0
  5
4FAA
 10
569.464
 20
145.151
 30
0.000000
  70
    32
  0
VERTEX
  8
0
  5
4FAB
 10
569.047
 20
144.732
 30
0.000000
  70
    32
  0
VERTEX
  8
0
  5
4FAC
 10
568.660
 20
144.300
 30
0.000000
  70
    32
  0
VERTEX
  8
0
  5
4FAD
 10
568.303
 20
143.854
 30
0.000000
  70
    32
  0
VERTEX
  8
0
  5
4FAE
 10
567.977
 20
143.397
 30
0.000000
  70
    32
  0
VERTEX
  8
0
  5
4FAF
 10
567.684
 20
142.929
 30
0.000000
  70
    32
  0
VERTEX
  8
0
  5
4FB0
 10
567.424
 20
142.451
 30
0.000000
  70
    32
  0
VERTEX
  8
0
  5
4FB1
 10
567.196
 20
141.965
 30
0.000000
  70
    32
  0
VERTEX
  8
0
  5
4FB2
 10
567.003
 20
141.472
 30
0.000000
  70
    32
  0
VERTEX
  8
0
  5
4FB3
 10
566.845
 20
140.972
 30
0.000000
  70
    32
  0
VERTEX
  8
0
  5
4FB4
 10
566.721
 20
140.468
 30
0.000000
  70
    32
  0
VERTEX
  8
0
  5
4FB5
 10
566.632
 20
139.960
 30
0.000000
  70
    32
  0
VERTEX
  8
0
  5
4FB6
 10
566.579
 20
139.449
 30
0.000000
  70
    32
  0
VERTEX
  8
0
  5
4FB7
 10
566.561
 20
138.938
 30
0.000000
  70
    32
  0
SEQEND
  8
0
  5
4FB8
  0
POLYLINE
  5
3D69
  8
0
 10
598.31127513681099
 20
149.81536140841899
 30
0.0
 66
     1
 70
     8
  0
VERTEX
  8
0
  5
4FB9
 10
598.311
 20
149.815
 30
0.000000
  70
    32
  0
VERTEX
  8
0
  5
4FBA
 10
598.306
 20
150.110
 30
0.000000
  70
    32
  0
VERTEX
  8
0
  5
4FBB
 10
598.291
 20
150.405
 30
0.000000
  70
    32
  0
VERTEX
  8
0
  5
4FBC
 10
598.265
 20
150.700
 30
0.000000
  70
    32
  0
VERTEX
  8
0
  5
4FBD
 10
598.229
 20
150.994
 30
0.000000
  70
    32
  0
VERTEX
  8
0
  5
4FBE
 10
598.183
 20
151.287
 30
0.000000
  70
    32
  0
VERTEX
  8
0
  5
4FBF
 10
598.127
 20
151.579
 30
0.000000
  70
    32
  0
VERTEX
  8
0
  5
4FC0
 10
598.061
 20
151.870
 30
0.000000
  70
    32
  0
VERTEX
  8
0
  5
4FC1
 10
597.985
 20
152.161
 30
0.000000
  70
    32
  0
VERTEX
  8
0
  5
4FC2
 10
597.898
 20
152.449
 30
0.000000
  70
    32
  0
VERTEX
  8
0
  5
4FC3
 10
597.802
 20
152.736
 30
0.000000
  70
    32
  0
VERTEX
  8
0
  5
4FC4
 10
597.695
 20
153.021
 30
0.000000
  70
    32
  0
VERTEX
  8
0
  5
4FC5
 10
597.579
 20
153.305
 30
0.000000
  70
    32
  0
VERTEX
  8
0
  5
4FC6
 10
597.453
 20
153.586
 30
0.000000
  70
    32
  0
VERTEX
  8
0
  5
4FC7
 10
597.318
 20
153.865
 30
0.000000
  70
    32
  0
VERTEX
  8
0
  5
4FC8
 10
597.172
 20
154.142
 30
0.000000
  70
    32
  0
VERTEX
  8
0
  5
4FC9
 10
597.017
 20
154.416
 30
0.000000
  70
    32
  0
VERTEX
  8
0
  5
4FCA
 10
596.853
 20
154.687
 30
0.000000
  70
    32
  0
VERTEX
  8
0
  5
4FCB
 10
596.679
 20
154.955
 30
0.000000
  70
    32
  0
VERTEX
  8
0
  5
4FCC
 10
596.496
 20
155.220
 30
0.000000
  70
    32
  0
VERTEX
  8
0
  5
4FCD
 10
596.304
 20
155.482
 30
0.000000
  70
    32
  0
VERTEX
  8
0
  5
4FCE
 10
596.103
 20
155.740
 30
0.000000
  70
    32
  0
VERTEX
  8
0
  5
4FCF
 10
595.893
 20
155.995
 30
0.000000
  70
    32
  0
VERTEX
  8
0
  5
4FD0
 10
595.674
 20
156.246
 30
0.000000
  70
    32
  0
VERTEX
  8
0
  5
4FD1
 10
595.446
 20
156.494
 30
0.000000
  70
    32
  0
VERTEX
  8
0
  5
4FD2
 10
595.210
 20
156.737
 30
0.000000
  70
    32
  0
VERTEX
  8
0
  5
4FD3
 10
594.966
 20
156.976
 30
0.000000
  70
    32
  0
VERTEX
  8
0
  5
4FD4
 10
594.713
 20
157.211
 30
0.000000
  70
    32
  0
VERTEX
  8
0
  5
4FD5
 10
594.452
 20
157.441
 30
0.000000
  70
    32
  0
VERTEX
  8
0
  5
4FD6
 10
594.184
 20
157.667
 30
0.000000
  70
    32
  0
VERTEX
  8
0
  5
4FD7
 10
593.907
 20
157.888
 30
0.000000
  70
    32
  0
VERTEX
  8
0
  5
4FD8
 10
593.623
 20
158.104
 30
0.000000
  70
    32
  0
VERTEX
  8
0
  5
4FD9
 10
593.332
 20
158.315
 30
0.000000
  70
    32
  0
VERTEX
  8
0
  5
4FDA
 10
593.033
 20
158.521
 30
0.000000
  70
    32
  0
VERTEX
  8
0
  5
4FDB
 10
592.728
 20
158.722
 30
0.000000
  70
    32
  0
VERTEX
  8
0
  5
4FDC
 10
592.415
 20
158.918
 30
0.000000
  70
    32
  0
VERTEX
  8
0
  5
4FDD
 10
592.096
 20
159.108
 30
0.000000
  70
    32
  0
VERTEX
  8
0
  5
4FDE
 10
591.770
 20
159.292
 30
0.000000
  70
    32
  0
VERTEX
  8
0
  5
4FDF
 10
591.438
 20
159.471
 30
0.000000
  70
    32
  0
VERTEX
  8
0
  5
4FE0
 10
591.100
 20
159.643
 30
0.000000
  70
    32
  0
VERTEX
  8
0
  5
4FE1
 10
590.756
 20
159.810
 30
0.000000
  70
    32
  0
VERTEX
  8
0
  5
4FE2
 10
590.406
 20
159.971
 30
0.000000
  70
    32
  0
VERTEX
  8
0
  5
4FE3
 10
590.051
 20
160.126
 30
0.000000
  70
    32
  0
VERTEX
  8
0
  5
4FE4
 10
589.691
 20
160.275
 30
0.000000
  70
    32
  0
VERTEX
  8
0
  5
4FE5
 10
589.325
 20
160.417
 30
0.000000
  70
    32
  0
VERTEX
  8
0
  5
4FE6
 10
588.955
 20
160.553
 30
0.000000
  70
    32
  0
VERTEX
  8
0
  5
4FE7
 10
588.580
 20
160.682
 30
0.000000
  70
    32
  0
VERTEX
  8
0
  5
4FE8
 10
588.200
 20
160.805
 30
0.000000
  70
    32
  0
VERTEX
  8
0
  5
4FE9
 10
587.817
 20
160.921
 30
0.000000
  70
    32
  0
VERTEX
  8
0
  5
4FEA
 10
587.429
 20
161.031
 30
0.000000
  70
    32
  0
VERTEX
  8
0
  5
4FEB
 10
587.038
 20
161.133
 30
0.000000
  70
    32
  0
VERTEX
  8
0
  5
4FEC
 10
586.644
 20
161.229
 30
0.000000
  70
    32
  0
VERTEX
  8
0
  5
4FED
 10
586.246
 20
161.319
 30
0.000000
  70
    32
  0
VERTEX
  8
0
  5
4FEE
 10
585.845
 20
161.401
 30
0.000000
  70
    32
  0
VERTEX
  8
0
  5
4FEF
 10
585.442
 20
161.476
 30
0.000000
  70
    32
  0
VERTEX
  8
0
  5
4FF0
 10
585.036
 20
161.544
 30
0.000000
  70
    32
  0
VERTEX
  8
0
  5
4FF1
 10
584.628
 20
161.605
 30
0.000000
  70
    32
  0
VERTEX
  8
0
  5
4FF2
 10
584.218
 20
161.659
 30
0.000000
  70
    32
  0
VERTEX
  8
0
  5
4FF3
 10
583.806
 20
161.706
 30
0.000000
  70
    32
  0
VERTEX
  8
0
  5
4FF4
 10
583.392
 20
161.746
 30
0.000000
  70
    32
  0
VERTEX
  8
0
  5
4FF5
 10
582.978
 20
161.778
 30
0.000000
  70
    32
  0
VERTEX
  8
0
  5
4FF6
 10
582.562
 20
161.804
 30
0.000000
  70
    32
  0
VERTEX
  8
0
  5
4FF7
 10
582.145
 20
161.822
 30
0.000000
  70
    32
  0
VERTEX
  8
0
  5
4FF8
 10
581.728
 20
161.833
 30
0.000000
  70
    32
  0
VERTEX
  8
0
  5
4FF9
 10
581.311
 20
161.836
 30
0.000000
  70
    32
  0
VERTEX
  8
0
  5
4FFA
 10
580.894
 20
161.833
 30
0.000000
  70
    32
  0
VERTEX
  8
0
  5
4FFB
 10
580.477
 20
161.822
 30
0.000000
  70
    32
  0
VERTEX
  8
0
  5
4FFC
 10
580.061
 20
161.804
 30
0.000000
  70
    32
  0
VERTEX
  8
0
  5
4FFD
 10
579.645
 20
161.778
 30
0.000000
  70
    32
  0
VERTEX
  8
0
  5
4FFE
 10
579.230
 20
161.746
 30
0.000000
  70
    32
  0
VERTEX
  8
0
  5
4FFF
 10
578.817
 20
161.706
 30
0.000000
  70
    32
  0
VERTEX
  8
0
  5
5000
 10
578.405
 20
161.659
 30
0.000000
  70
    32
  0
VERTEX
  8
0
  5
5001
 10
577.995
 20
161.605
 30
0.000000
  70
    32
  0
VERTEX
  8
0
  5
5002
 10
577.587
 20
161.544
 30
0.000000
  70
    32
  0
VERTEX
  8
0
  5
5003
 10
577.181
 20
161.476
 30
0.000000
  70
    32
  0
VERTEX
  8
0
  5
5004
 10
576.777
 20
161.401
 30
0.000000
  70
    32
  0
VERTEX
  8
0
  5
5005
 10
576.376
 20
161.319
 30
0.000000
  70
    32
  0
VERTEX
  8
0
  5
5006
 10
575.979
 20
161.229
 30
0.000000
  70
    32
  0
VERTEX
  8
0
  5
5007
 10
575.584
 20
161.133
 30
0.000000
  70
    32
  0
VERTEX
  8
0
  5
5008
 10
575.193
 20
161.031
 30
0.000000
  70
    32
  0
VERTEX
  8
0
  5
5009
 10
574.806
 20
160.921
 30
0.000000
  70
    32
  0
VERTEX
  8
0
  5
500A
 10
574.422
 20
160.805
 30
0.000000
  70
    32
  0
VERTEX
  8
0
  5
500B
 10
574.043
 20
160.682
 30
0.000000
  70
    32
  0
VERTEX
  8
0
  5
500C
 10
573.668
 20
160.553
 30
0.000000
  70
    32
  0
VERTEX
  8
0
  5
500D
 10
573.298
 20
160.417
 30
0.000000
  70
    32
  0
VERTEX
  8
0
  5
500E
 10
572.932
 20
160.275
 30
0.000000
  70
    32
  0
VERTEX
  8
0
  5
500F
 10
572.572
 20
160.126
 30
0.000000
  70
    32
  0
VERTEX
  8
0
  5
5010
 10
572.216
 20
159.971
 30
0.000000
  70
    32
  0
VERTEX
  8
0
  5
5011
 10
571.867
 20
159.810
 30
0.000000
  70
    32
  0
VERTEX
  8
0
  5
5012
 10
571.523
 20
159.643
 30
0.000000
  70
    32
  0
VERTEX
  8
0
  5
5013
 10
571.184
 20
159.471
 30
0.000000
  70
    32
  0
VERTEX
  8
0
  5
5014
 10
570.852
 20
159.292
 30
0.000000
  70
    32
  0
VERTEX
  8
0
  5
5015
 10
570.527
 20
159.108
 30
0.000000
  70
    32
  0
VERTEX
  8
0
  5
5016
 10
570.207
 20
158.918
 30
0.000000
  70
    32
  0
VERTEX
  8
0
  5
5017
 10
569.895
 20
158.722
 30
0.000000
  70
    32
  0
VERTEX
  8
0
  5
5018
 10
569.589
 20
158.521
 30
0.000000
  70
    32
  0
VERTEX
  8
0
  5
5019
 10
569.290
 20
158.315
 30
0.000000
  70
    32
  0
VERTEX
  8
0
  5
501A
 10
568.999
 20
158.104
 30
0.000000
  70
    32
  0
VERTEX
  8
0
  5
501B
 10
568.715
 20
157.888
 30
0.000000
  70
    32
  0
VERTEX
  8
0
  5
501C
 10
568.439
 20
157.667
 30
0.000000
  70
    32
  0
VERTEX
  8
0
  5
501D
 10
568.170
 20
157.441
 30
0.000000
  70
    32
  0
VERTEX
  8
0
  5
501E
 10
567.909
 20
157.211
 30
0.000000
  70
    32
  0
VERTEX
  8
0
  5
501F
 10
567.657
 20
156.976
 30
0.000000
  70
    32
  0
VERTEX
  8
0
  5
5020
 10
567.412
 20
156.737
 30
0.000000
  70
    32
  0
VERTEX
  8
0
  5
5021
 10
567.176
 20
156.494
 30
0.000000
  70
    32
  0
VERTEX
  8
0
  5
5022
 10
566.949
 20
156.246
 30
0.000000
  70
    32
  0
VERTEX
  8
0
  5
5023
 10
566.730
 20
155.995
 30
0.000000
  70
    32
  0
VERTEX
  8
0
  5
5024
 10
566.520
 20
155.740
 30
0.000000
  70
    32
  0
VERTEX
  8
0
  5
5025
 10
566.319
 20
155.482
 30
0.000000
  70
    32
  0
VERTEX
  8
0
  5
5026
 10
566.126
 20
155.220
 30
0.000000
  70
    32
  0
VERTEX
  8
0
  5
5027
 10
565.943
 20
154.955
 30
0.000000
  70
    32
  0
VERTEX
  8
0
  5
5028
 10
565.770
 20
154.687
 30
0.000000
  70
    32
  0
VERTEX
  8
0
  5
5029
 10
565.605
 20
154.416
 30
0.000000
  70
    32
  0
VERTEX
  8
0
  5
502A
 10
565.450
 20
154.142
 30
0.000000
  70
    32
  0
VERTEX
  8
0
  5
502B
 10
565.305
 20
153.865
 30
0.000000
  70
    32
  0
VERTEX
  8
0
  5
502C
 10
565.169
 20
153.586
 30
0.000000
  70
    32
  0
VERTEX
  8
0
  5
502D
 10
565.043
 20
153.305
 30
0.000000
  70
    32
  0
VERTEX
  8
0
  5
502E
 10
564.927
 20
153.021
 30
0.000000
  70
    32
  0
VERTEX
  8
0
  5
502F
 10
564.821
 20
152.736
 30
0.000000
  70
    32
  0
VERTEX
  8
0
  5
5030
 10
564.724
 20
152.449
 30
0.000000
  70
    32
  0
VERTEX
  8
0
  5
5031
 10
564.638
 20
152.161
 30
0.000000
  70
    32
  0
VERTEX
  8
0
  5
5032
 10
564.562
 20
151.870
 30
0.000000
  70
    32
  0
VERTEX
  8
0
  5
5033
 10
564.495
 20
151.579
 30
0.000000
  70
    32
  0
VERTEX
  8
0
  5
5034
 10
564.439
 20
151.287
 30
0.000000
  70
    32
  0
VERTEX
  8
0
  5
5035
 10
564.393
 20
150.994
 30
0.000000
  70
    32
  0
VERTEX
  8
0
  5
5036
 10
564.357
 20
150.700
 30
0.000000
  70
    32
  0
VERTEX
  8
0
  5
5037
 10
564.332
 20
150.405
 30
0.000000
  70
    32
  0
VERTEX
  8
0
  5
5038
 10
564.316
 20
150.110
 30
0.000000
  70
    32
  0
VERTEX
  8
0
  5
5039
 10
564.311
 20
149.815
 30
0.000000
  70
    32
  0
SEQEND
  8
0
  5
503A
  0
POLYLINE
  5
3D6A
  8
0
 10
596.31127513681099
 20
140.9286100031072
 30
0.0
 66
     1
 70
     8
  0
VERTEX
  8
0
  5
503B
 10
596.311
 20
140.929
 30
0.000000
  70
    32
  0
VERTEX
  8
0
  5
503C
 10
596.472
 20
141.250
 30
0.000000
  70
    32
  0
VERTEX
  8
0
  5
503D
 10
596.619
 20
141.574
 30
0.000000
  70
    32
  0
VERTEX
  8
0
  5
503E
 10
596.752
 20
141.901
 30
0.000000
  70
    32
  0
VERTEX
  8
0
  5
503F
 10
596.871
 20
142.231
 30
0.000000
  70
    32
  0
VERTEX
  8
0
  5
5040
 10
596.976
 20
142.563
 30
0.000000
  70
    32
  0
VERTEX
  8
0
  5
5041
 10
597.067
 20
142.898
 30
0.000000
  70
    32
  0
VERTEX
  8
0
  5
5042
 10
597.144
 20
143.234
 30
0.000000
  70
    32
  0
VERTEX
  8
0
  5
5043
 10
597.206
 20
143.571
 30
0.000000
  70
    32
  0
VERTEX
  8
0
  5
5044
 10
597.254
 20
143.910
 30
0.000000
  70
    32
  0
VERTEX
  8
0
  5
5045
 10
597.288
 20
144.250
 30
0.000000
  70
    32
  0
VERTEX
  8
0
  5
5046
 10
597.307
 20
144.590
 30
0.000000
  70
    32
  0
VERTEX
  8
0
  5
5047
 10
597.311
 20
144.931
 30
0.000000
  70
    32
  0
VERTEX
  8
0
  5
5048
 10
597.301
 20
145.271
 30
0.000000
  70
    32
  0
VERTEX
  8
0
  5
5049
 10
597.277
 20
145.611
 30
0.000000
  70
    32
  0
VERTEX
  8
0
  5
504A
 10
597.238
 20
145.950
 30
0.000000
  70
    32
  0
VERTEX
  8
0
  5
504B
 10
597.184
 20
146.289
 30
0.000000
  70
    32
  0
VERTEX
  8
0
  5
504C
 10
597.116
 20
146.626
 30
0.000000
  70
    32
  0
VERTEX
  8
0
  5
504D
 10
597.034
 20
146.961
 30
0.000000
  70
    32
  0
VERTEX
  8
0
  5
504E
 10
596.938
 20
147.295
 30
0.000000
  70
    32
  0
VERTEX
  8
0
  5
504F
 10
596.828
 20
147.627
 30
0.000000
  70
    32
  0
VERTEX
  8
0
  5
5050
 10
596.703
 20
147.955
 30
0.000000
  70
    32
  0
VERTEX
  8
0
  5
5051
 10
596.565
 20
148.282
 30
0.000000
  70
    32
  0
VERTEX
  8
0
  5
5052
 10
596.412
 20
148.605
 30
0.000000
  70
    32
  0
VERTEX
  8
0
  5
5053
 10
596.246
 20
148.924
 30
0.000000
  70
    32
  0
VERTEX
  8
0
  5
5054
 10
596.067
 20
149.240
 30
0.000000
  70
    32
  0
VERTEX
  8
0
  5
5055
 10
595.874
 20
149.552
 30
0.000000
  70
    32
  0
VERTEX
  8
0
  5
5056
 10
595.668
 20
149.860
 30
0.000000
  70
    32
  0
VERTEX
  8
0
  5
5057
 10
595.449
 20
150.163
 30
0.000000
  70
    32
  0
VERTEX
  8
0
  5
5058
 10
595.217
 20
150.462
 30
0.000000
  70
    32
  0
VERTEX
  8
0
  5
5059
 10
594.973
 20
150.755
 30
0.000000
  70
    32
  0
VERTEX
  8
0
  5
505A
 10
594.716
 20
151.043
 30
0.000000
  70
    32
  0
VERTEX
  8
0
  5
505B
 10
594.447
 20
151.325
 30
0.000000
  70
    32
  0
VERTEX
  8
0
  5
505C
 10
594.166
 20
151.602
 30
0.000000
  70
    32
  0
VERTEX
  8
0
  5
505D
 10
593.873
 20
151.872
 30
0.000000
  70
    32
  0
VERTEX
  8
0
  5
505E
 10
593.570
 20
152.137
 30
0.000000
  70
    32
  0
VERTEX
  8
0
  5
505F
 10
593.255
 20
152.394
 30
0.000000
  70
    32
  0
VERTEX
  8
0
  5
5060
 10
592.929
 20
152.645
 30
0.000000
  70
    32
  0
VERTEX
  8
0
  5
5061
 10
592.592
 20
152.889
 30
0.000000
  70
    32
  0
VERTEX
  8
0
  5
5062
 10
592.246
 20
153.125
 30
0.000000
  70
    32
  0
VERTEX
  8
0
  5
5063
 10
591.889
 20
153.354
 30
0.000000
  70
    32
  0
VERTEX
  8
0
  5
5064
 10
591.523
 20
153.575
 30
0.000000
  70
    32
  0
VERTEX
  8
0
  5
5065
 10
591.148
 20
153.789
 30
0.000000
  70
    32
  0
VERTEX
  8
0
  5
5066
 10
590.764
 20
153.994
 30
0.000000
  70
    32
  0
VERTEX
  8
0
  5
5067
 10
590.371
 20
154.191
 30
0.000000
  70
    32
  0
VERTEX
  8
0
  5
5068
 10
589.970
 20
154.379
 30
0.000000
  70
    32
  0
VERTEX
  8
0
  5
5069
 10
589.561
 20
154.559
 30
0.000000
  70
    32
  0
VERTEX
  8
0
  5
506A
 10
589.145
 20
154.730
 30
0.000000
  70
    32
  0
VERTEX
  8
0
  5
506B
 10
588.722
 20
154.893
 30
0.000000
  70
    32
  0
VERTEX
  8
0
  5
506C
 10
588.292
 20
155.046
 30
0.000000
  70
    32
  0
VERTEX
  8
0
  5
506D
 10
587.855
 20
155.190
 30
0.000000
  70
    32
  0
VERTEX
  8
0
  5
506E
 10
587.413
 20
155.324
 30
0.000000
  70
    32
  0
VERTEX
  8
0
  5
506F
 10
586.965
 20
155.449
 30
0.000000
  70
    32
  0
VERTEX
  8
0
  5
5070
 10
586.512
 20
155.565
 30
0.000000
  70
    32
  0
VERTEX
  8
0
  5
5071
 10
586.054
 20
155.671
 30
0.000000
  70
    32
  0
VERTEX
  8
0
  5
5072
 10
585.592
 20
155.767
 30
0.000000
  70
    32
  0
VERTEX
  8
0
  5
5073
 10
585.127
 20
155.853
 30
0.000000
  70
    32
  0
VERTEX
  8
0
  5
5074
 10
584.657
 20
155.929
 30
0.000000
  70
    32
  0
VERTEX
  8
0
  5
5075
 10
584.185
 20
155.995
 30
0.000000
  70
    32
  0
VERTEX
  8
0
  5
5076
 10
583.710
 20
156.051
 30
0.000000
  70
    32
  0
VERTEX
  8
0
  5
5077
 10
583.233
 20
156.097
 30
0.000000
  70
    32
  0
VERTEX
  8
0
  5
5078
 10
582.754
 20
156.133
 30
0.000000
  70
    32
  0
VERTEX
  8
0
  5
5079
 10
582.274
 20
156.159
 30
0.000000
  70
    32
  0
VERTEX
  8
0
  5
507A
 10
581.793
 20
156.174
 30
0.000000
  70
    32
  0
VERTEX
  8
0
  5
507B
 10
581.311
 20
156.179
 30
0.000000
  70
    32
  0
VERTEX
  8
0
  5
507C
 10
580.830
 20
156.174
 30
0.000000
  70
    32
  0
VERTEX
  8
0
  5
507D
 10
580.349
 20
156.159
 30
0.000000
  70
    32
  0
VERTEX
  8
0
  5
507E
 10
579.869
 20
156.133
 30
0.000000
  70
    32
  0
VERTEX
  8
0
  5
507F
 10
579.390
 20
156.097
 30
0.000000
  70
    32
  0
VERTEX
  8
0
  5
5080
 10
578.913
 20
156.051
 30
0.000000
  70
    32
  0
VERTEX
  8
0
  5
5081
 10
578.438
 20
155.995
 30
0.000000
  70
    32
  0
VERTEX
  8
0
  5
5082
 10
577.965
 20
155.929
 30
0.000000
  70
    32
  0
VERTEX
  8
0
  5
5083
 10
577.496
 20
155.853
 30
0.000000
  70
    32
  0
VERTEX
  8
0
  5
5084
 10
577.030
 20
155.767
 30
0.000000
  70
    32
  0
VERTEX
  8
0
  5
5085
 10
576.568
 20
155.671
 30
0.000000
  70
    32
  0
VERTEX
  8
0
  5
5086
 10
576.110
 20
155.565
 30
0.000000
  70
    32
  0
VERTEX
  8
0
  5
5087
 10
575.657
 20
155.449
 30
0.000000
  70
    32
  0
VERTEX
  8
0
  5
5088
 10
575.210
 20
155.324
 30
0.000000
  70
    32
  0
VERTEX
  8
0
  5
5089
 10
574.767
 20
155.190
 30
0.000000
  70
    32
  0
VERTEX
  8
0
  5
508A
 10
574.331
 20
155.046
 30
0.000000
  70
    32
  0
VERTEX
  8
0
  5
508B
 10
573.901
 20
154.893
 30
0.000000
  70
    32
  0
VERTEX
  8
0
  5
508C
 10
573.477
 20
154.730
 30
0.000000
  70
    32
  0
VERTEX
  8
0
  5
508D
 10
573.061
 20
154.559
 30
0.000000
  70
    32
  0
VERTEX
  8
0
  5
508E
 10
572.652
 20
154.379
 30
0.000000
  70
    32
  0
VERTEX
  8
0
  5
508F
 10
572.251
 20
154.191
 30
0.000000
  70
    32
  0
VERTEX
  8
0
  5
5090
 10
571.859
 20
153.994
 30
0.000000
  70
    32
  0
VERTEX
  8
0
  5
5091
 10
571.474
 20
153.789
 30
0.000000
  70
    32
  0
VERTEX
  8
0
  5
5092
 10
571.099
 20
153.575
 30
0.000000
  70
    32
  0
VERTEX
  8
0
  5
5093
 10
570.733
 20
153.354
 30
0.000000
  70
    32
  0
VERTEX
  8
0
  5
5094
 10
570.377
 20
153.125
 30
0.000000
  70
    32
  0
VERTEX
  8
0
  5
5095
 10
570.030
 20
152.889
 30
0.000000
  70
    32
  0
VERTEX
  8
0
  5
5096
 10
569.694
 20
152.645
 30
0.000000
  70
    32
  0
VERTEX
  8
0
  5
5097
 10
569.368
 20
152.394
 30
0.000000
  70
    32
  0
VERTEX
  8
0
  5
5098
 10
569.053
 20
152.137
 30
0.000000
  70
    32
  0
VERTEX
  8
0
  5
5099
 10
568.749
 20
151.872
 30
0.000000
  70
    32
  0
VERTEX
  8
0
  5
509A
 10
568.457
 20
151.602
 30
0.000000
  70
    32
  0
VERTEX
  8
0
  5
509B
 10
568.176
 20
151.325
 30
0.000000
  70
    32
  0
VERTEX
  8
0
  5
509C
 10
567.907
 20
151.043
 30
0.000000
  70
    32
  0
VERTEX
  8
0
  5
509D
 10
567.650
 20
150.755
 30
0.000000
  70
    32
  0
VERTEX
  8
0
  5
509E
 10
567.406
 20
150.462
 30
0.000000
  70
    32
  0
VERTEX
  8
0
  5
509F
 10
567.174
 20
150.163
 30
0.000000
  70
    32
  0
VERTEX
  8
0
  5
50A0
 10
566.955
 20
149.860
 30
0.000000
  70
    32
  0
VERTEX
  8
0
  5
50A1
 10
566.749
 20
149.552
 30
0.000000
  70
    32
  0
VERTEX
  8
0
  5
50A2
 10
566.556
 20
149.240
 30
0.000000
  70
    32
  0
VERTEX
  8
0
  5
50A3
 10
566.376
 20
148.924
 30
0.000000
  70
    32
  0
VERTEX
  8
0
  5
50A4
 10
566.210
 20
148.605
 30
0.000000
  70
    32
  0
VERTEX
  8
0
  5
50A5
 10
566.058
 20
148.282
 30
0.000000
  70
    32
  0
VERTEX
  8
0
  5
50A6
 10
565.920
 20
147.955
 30
0.000000
  70
    32
  0
VERTEX
  8
0
  5
50A7
 10
565.795
 20
147.627
 30
0.000000
  70
    32
  0
VERTEX
  8
0
  5
50A8
 10
565.685
 20
147.295
 30
0.000000
  70
    32
  0
VERTEX
  8
0
  5
50A9
 10
565.588
 20
146.961
 30
0.000000
  70
    32
  0
VERTEX
  8
0
  5
50AA
 10
565.506
 20
146.626
 30
0.000000
  70
    32
  0
VERTEX
  8
0
  5
50AB
 10
565.438
 20
146.289
 30
0.000000
  70
    32
  0
VERTEX
  8
0
  5
50AC
 10
565.385
 20
145.950
 30
0.000000
  70
    32
  0
VERTEX
  8
0
  5
50AD
 10
565.346
 20
145.611
 30
0.000000
  70
    32
  0
VERTEX
  8
0
  5
50AE
 10
565.322
 20
145.271
 30
0.000000
  70
    32
  0
VERTEX
  8
0
  5
50AF
 10
565.312
 20
144.931
 30
0.000000
  70
    32
  0
VERTEX
  8
0
  5
50B0
 10
565.316
 20
144.590
 30
0.000000
  70
    32
  0
VERTEX
  8
0
  5
50B1
 10
565.335
 20
144.250
 30
0.000000
  70
    32
  0
VERTEX
  8
0
  5
50B2
 10
565.368
 20
143.910
 30
0.000000
  70
    32
  0
VERTEX
  8
0
  5
50B3
 10
565.416
 20
143.571
 30
0.000000
  70
    32
  0
VERTEX
  8
0
  5
50B4
 10
565.479
 20
143.234
 30
0.000000
  70
    32
  0
VERTEX
  8
0
  5
50B5
 10
565.555
 20
142.898
 30
0.000000
  70
    32
  0
VERTEX
  8
0
  5
50B6
 10
565.646
 20
142.563
 30
0.000000
  70
    32
  0
VERTEX
  8
0
  5
50B7
 10
565.751
 20
142.231
 30
0.000000
  70
    32
  0
VERTEX
  8
0
  5
50B8
 10
565.870
 20
141.901
 30
0.000000
  70
    32
  0
VERTEX
  8
0
  5
50B9
 10
566.003
 20
141.574
 30
0.000000
  70
    32
  0
VERTEX
  8
0
  5
50BA
 10
566.151
 20
141.250
 30
0.000000
  70
    32
  0
VERTEX
  8
0
  5
50BB
 10
566.311
 20
140.929
 30
0.000000
  70
    32
  0
SEQEND
  8
0
  5
50BC
  0
POLYLINE
  5
3D6B
  8
0
 10
596.31127513681088
 20
139.91586647180753
 30
0.0
 66
     1
 70
     8
  0
VERTEX
  8
0
  5
50BD
 10
596.311
 20
139.916
 30
0.000000
  70
    32
  0
VERTEX
  8
0
  5
50BE
 10
596.561
 20
140.260
 30
0.000000
  70
    32
  0
VERTEX
  8
0
  5
50BF
 10
596.795
 20
140.610
 30
0.000000
  70
    32
  0
VERTEX
  8
0
  5
50C0
 10
597.013
 20
140.965
 30
0.000000
  70
    32
  0
VERTEX
  8
0
  5
50C1
 10
597.215
 20
141.325
 30
0.000000
  70
    32
  0
VERTEX
  8
0
  5
50C2
 10
597.400
 20
141.689
 30
0.000000
  70
    32
  0
VERTEX
  8
0
  5
50C3
 10
597.568
 20
142.058
 30
0.000000
  70
    32
  0
VERTEX
  8
0
  5
50C4
 10
597.720
 20
142.429
 30
0.000000
  70
    32
  0
VERTEX
  8
0
  5
50C5
 10
597.854
 20
142.805
 30
0.000000
  70
    32
  0
VERTEX
  8
0
  5
50C6
 10
597.972
 20
143.183
 30
0.000000
  70
    32
  0
VERTEX
  8
0
  5
50C7
 10
598.072
 20
143.563
 30
0.000000
  70
    32
  0
VERTEX
  8
0
  5
50C8
 10
598.155
 20
143.946
 30
0.000000
  70
    32
  0
VERTEX
  8
0
  5
50C9
 10
598.220
 20
144.330
 30
0.000000
  70
    32
  0
VERTEX
  8
0
  5
50CA
 10
598.268
 20
144.716
 30
0.000000
  70
    32
  0
VERTEX
  8
0
  5
50CB
 10
598.298
 20
145.102
 30
0.000000
  70
    32
  0
VERTEX
  8
0
  5
50CC
 10
598.311
 20
145.489
 30
0.000000
  70
    32
  0
VERTEX
  8
0
  5
50CD
 10
598.306
 20
145.876
 30
0.000000
  70
    32
  0
VERTEX
  8
0
  5
50CE
 10
598.283
 20
146.263
 30
0.000000
  70
    32
  0
VERTEX
  8
0
  5
50CF
 10
598.243
 20
146.649
 30
0.000000
  70
    32
  0
VERTEX
  8
0
  5
50D0
 10
598.185
 20
147.034
 30
0.000000
  70
    32
  0
VERTEX
  8
0
  5
50D1
 10
598.110
 20
147.417
 30
0.000000
  70
    32
  0
VERTEX
  8
0
  5
50D2
 10
598.017
 20
147.798
 30
0.000000
  70
    32
  0
VERTEX
  8
0
  5
50D3
 10
597.907
 20
148.178
 30
0.000000
  70
    32
  0
VERTEX
  8
0
  5
50D4
 10
597.780
 20
148.554
 30
0.000000
  70
    32
  0
VERTEX
  8
0
  5
50D5
 10
597.636
 20
148.927
 30
0.000000
  70
    32
  0
VERTEX
  8
0
  5
50D6
 10
597.475
 20
149.297
 30
0.000000
  70
    32
  0
VERTEX
  8
0
  5
50D7
 10
597.297
 20
149.663
 30
0.000000
  70
    32
  0
VERTEX
  8
0
  5
50D8
 10
597.102
 20
150.025
 30
0.000000
  70
    32
  0
VERTEX
  8
0
  5
50D9
 10
596.891
 20
150.382
 30
0.000000
  70
    32
  0
VERTEX
  8
0
  5
50DA
 10
596.664
 20
150.734
 30
0.000000
  70
    32
  0
VERTEX
  8
0
  5
50DB
 10
596.421
 20
151.081
 30
0.000000
  70
    32
  0
VERTEX
  8
0
  5
50DC
 10
596.163
 20
151.422
 30
0.000000
  70
    32
  0
VERTEX
  8
0
  5
50DD
 10
595.889
 20
151.757
 30
0.000000
  70
    32
  0
VERTEX
  8
0
  5
50DE
 10
595.600
 20
152.086
 30
0.000000
  70
    32
  0
VERTEX
  8
0
  5
50DF
 10
595.296
 20
152.408
 30
0.000000
  70
    32
  0
VERTEX
  8
0
  5
50E0
 10
594.977
 20
152.723
 30
0.000000
  70
    32
  0
VERTEX
  8
0
  5
50E1
 10
594.645
 20
153.030
 30
0.000000
  70
    32
  0
VERTEX
  8
0
  5
50E2
 10
594.298
 20
153.330
 30
0.000000
  70
    32
  0
VERTEX
  8
0
  5
50E3
 10
593.938
 20
153.621
 30
0.000000
  70
    32
  0
VERTEX
  8
0
  5
50E4
 10
593.565
 20
153.905
 30
0.000000
  70
    32
  0
VERTEX
  8
0
  5
50E5
 10
593.179
 20
154.179
 30
0.000000
  70
    32
  0
VERTEX
  8
0
  5
50E6
 10
592.781
 20
154.445
 30
0.000000
  70
    32
  0
VERTEX
  8
0
  5
50E7
 10
592.372
 20
154.701
 30
0.000000
  70
    32
  0
VERTEX
  8
0
  5
50E8
 10
591.950
 20
154.949
 30
0.000000
  70
    32
  0
VERTEX
  8
0
  5
50E9
 10
591.518
 20
155.186
 30
0.000000
  70
    32
  0
VERTEX
  8
0
  5
50EA
 10
591.075
 20
155.413
 30
0.000000
  70
    32
  0
VERTEX
  8
0
  5
50EB
 10
590.622
 20
155.630
 30
0.000000
  70
    32
  0
VERTEX
  8
0
  5
50EC
 10
590.159
 20
155.837
 30
0.000000
  70
    32
  0
VERTEX
  8
0
  5
50ED
 10
589.687
 20
156.033
 30
0.000000
  70
    32
  0
VERTEX
  8
0
  5
50EE
 10
589.207
 20
156.218
 30
0.000000
  70
    32
  0
VERTEX
  8
0
  5
50EF
 10
588.718
 20
156.393
 30
0.000000
  70
    32
  0
VERTEX
  8
0
  5
50F0
 10
588.221
 20
156.556
 30
0.000000
  70
    32
  0
VERTEX
  8
0
  5
50F1
 10
587.718
 20
156.707
 30
0.000000
  70
    32
  0
VERTEX
  8
0
  5
50F2
 10
587.207
 20
156.847
 30
0.000000
  70
    32
  0
VERTEX
  8
0
  5
50F3
 10
586.691
 20
156.976
 30
0.000000
  70
    32
  0
VERTEX
  8
0
  5
50F4
 10
586.169
 20
157.092
 30
0.000000
  70
    32
  0
VERTEX
  8
0
  5
50F5
 10
585.642
 20
157.197
 30
0.000000
  70
    32
  0
VERTEX
  8
0
  5
50F6
 10
585.111
 20
157.289
 30
0.000000
  70
    32
  0
VERTEX
  8
0
  5
50F7
 10
584.575
 20
157.370
 30
0.000000
  70
    32
  0
VERTEX
  8
0
  5
50F8
 10
584.036
 20
157.438
 30
0.000000
  70
    32
  0
VERTEX
  8
0
  5
50F9
 10
583.495
 20
157.494
 30
0.000000
  70
    32
  0
VERTEX
  8
0
  5
50FA
 10
582.951
 20
157.537
 30
0.000000
  70
    32
  0
VERTEX
  8
0
  5
50FB
 10
582.405
 20
157.569
 30
0.000000
  70
    32
  0
VERTEX
  8
0
  5
50FC
 10
581.859
 20
157.587
 30
0.000000
  70
    32
  0
VERTEX
  8
0
  5
50FD
 10
581.311
 20
157.594
 30
0.000000
  70
    32
  0
VERTEX
  8
0
  5
50FE
 10
580.764
 20
157.587
 30
0.000000
  70
    32
  0
VERTEX
  8
0
  5
50FF
 10
580.217
 20
157.569
 30
0.000000
  70
    32
  0
VERTEX
  8
0
  5
5100
 10
579.672
 20
157.537
 30
0.000000
  70
    32
  0
VERTEX
  8
0
  5
5101
 10
579.128
 20
157.494
 30
0.000000
  70
    32
  0
VERTEX
  8
0
  5
5102
 10
578.586
 20
157.438
 30
0.000000
  70
    32
  0
VERTEX
  8
0
  5
5103
 10
578.047
 20
157.370
 30
0.000000
  70
    32
  0
VERTEX
  8
0
  5
5104
 10
577.512
 20
157.289
 30
0.000000
  70
    32
  0
VERTEX
  8
0
  5
5105
 10
576.980
 20
157.197
 30
0.000000
  70
    32
  0
VERTEX
  8
0
  5
5106
 10
576.453
 20
157.092
 30
0.000000
  70
    32
  0
VERTEX
  8
0
  5
5107
 10
575.931
 20
156.976
 30
0.000000
  70
    32
  0
VERTEX
  8
0
  5
5108
 10
575.415
 20
156.847
 30
0.000000
  70
    32
  0
VERTEX
  8
0
  5
5109
 10
574.905
 20
156.707
 30
0.000000
  70
    32
  0
VERTEX
  8
0
  5
510A
 10
574.401
 20
156.556
 30
0.000000
  70
    32
  0
VERTEX
  8
0
  5
510B
 10
573.905
 20
156.393
 30
0.000000
  70
    32
  0
VERTEX
  8
0
  5
510C
 10
573.416
 20
156.218
 30
0.000000
  70
    32
  0
VERTEX
  8
0
  5
510D
 10
572.935
 20
156.033
 30
0.000000
  70
    32
  0
VERTEX
  8
0
  5
510E
 10
572.463
 20
155.837
 30
0.000000
  70
    32
  0
VERTEX
  8
0
  5
510F
 10
572.001
 20
155.630
 30
0.000000
  70
    32
  0
VERTEX
  8
0
  5
5110
 10
571.548
 20
155.413
 30
0.000000
  70
    32
  0
VERTEX
  8
0
  5
5111
 10
571.105
 20
155.186
 30
0.000000
  70
    32
  0
VERTEX
  8
0
  5
5112
 10
570.672
 20
154.949
 30
0.000000
  70
    32
  0
VERTEX
  8
0
  5
5113
 10
570.251
 20
154.701
 30
0.000000
  70
    32
  0
VERTEX
  8
0
  5
5114
 10
569.841
 20
154.445
 30
0.000000
  70
    32
  0
VERTEX
  8
0
  5
5115
 10
569.443
 20
154.179
 30
0.000000
  70
    32
  0
VERTEX
  8
0
  5
5116
 10
569.057
 20
153.905
 30
0.000000
  70
    32
  0
VERTEX
  8
0
  5
5117
 10
568.684
 20
153.621
 30
0.000000
  70
    32
  0
VERTEX
  8
0
  5
5118
 10
568.324
 20
153.330
 30
0.000000
  70
    32
  0
VERTEX
  8
0
  5
5119
 10
567.978
 20
153.030
 30
0.000000
  70
    32
  0
VERTEX
  8
0
  5
511A
 10
567.645
 20
152.723
 30
0.000000
  70
    32
  0
VERTEX
  8
0
  5
511B
 10
567.327
 20
152.408
 30
0.000000
  70
    32
  0
VERTEX
  8
0
  5
511C
 10
567.023
 20
152.086
 30
0.000000
  70
    32
  0
VERTEX
  8
0
  5
511D
 10
566.734
 20
151.757
 30
0.000000
  70
    32
  0
VERTEX
  8
0
  5
511E
 10
566.460
 20
151.422
 30
0.000000
  70
    32
  0
VERTEX
  8
0
  5
511F
 10
566.201
 20
151.081
 30
0.000000
  70
    32
  0
VERTEX
  8
0
  5
5120
 10
565.958
 20
150.734
 30
0.000000
  70
    32
  0
VERTEX
  8
0
  5
5121
 10
565.731
 20
150.382
 30
0.000000
  70
    32
  0
VERTEX
  8
0
  5
5122
 10
565.520
 20
150.025
 30
0.000000
  70
    32
  0
VERTEX
  8
0
  5
5123
 10
565.326
 20
149.663
 30
0.000000
  70
    32
  0
VERTEX
  8
0
  5
5124
 10
565.148
 20
149.297
 30
0.000000
  70
    32
  0
VERTEX
  8
0
  5
5125
 10
564.987
 20
148.927
 30
0.000000
  70
    32
  0
VERTEX
  8
0
  5
5126
 10
564.842
 20
148.554
 30
0.000000
  70
    32
  0
VERTEX
  8
0
  5
5127
 10
564.715
 20
148.178
 30
0.000000
  70
    32
  0
VERTEX
  8
0
  5
5128
 10
564.605
 20
147.798
 30
0.000000
  70
    32
  0
VERTEX
  8
0
  5
5129
 10
564.513
 20
147.417
 30
0.000000
  70
    32
  0
VERTEX
  8
0
  5
512A
 10
564.437
 20
147.034
 30
0.000000
  70
    32
  0
VERTEX
  8
0
  5
512B
 10
564.380
 20
146.649
 30
0.000000
  70
    32
  0
VERTEX
  8
0
  5
512C
 10
564.339
 20
146.263
 30
0.000000
  70
    32
  0
VERTEX
  8
0
  5
512D
 10
564.317
 20
145.876
 30
0.000000
  70
    32
  0
VERTEX
  8
0
  5
512E
 10
564.312
 20
145.489
 30
0.000000
  70
    32
  0
VERTEX
  8
0
  5
512F
 10
564.324
 20
145.102
 30
0.000000
  70
    32
  0
VERTEX
  8
0
  5
5130
 10
564.355
 20
144.716
 30
0.000000
  70
    32
  0
VERTEX
  8
0
  5
5131
 10
564.402
 20
144.330
 30
0.000000
  70
    32
  0
VERTEX
  8
0
  5
5132
 10
564.468
 20
143.946
 30
0.000000
  70
    32
  0
VERTEX
  8
0
  5
5133
 10
564.551
 20
143.563
 30
0.000000
  70
    32
  0
VERTEX
  8
0
  5
5134
 10
564.651
 20
143.183
 30
0.000000
  70
    32
  0
VERTEX
  8
0
  5
5135
 10
564.768
 20
142.805
 30
0.000000
  70
    32
  0
VERTEX
  8
0
  5
5136
 10
564.903
 20
142.429
 30
0.000000
  70
    32
  0
VERTEX
  8
0
  5
5137
 10
565.054
 20
142.058
 30
0.000000
  70
    32
  0
VERTEX
  8
0
  5
5138
 10
565.223
 20
141.689
 30
0.000000
  70
    32
  0
VERTEX
  8
0
  5
5139
 10
565.408
 20
141.325
 30
0.000000
  70
    32
  0
VERTEX
  8
0
  5
513A
 10
565.610
 20
140.965
 30
0.000000
  70
    32
  0
VERTEX
  8
0
  5
513B
 10
565.828
 20
140.610
 30
0.000000
  70
    32
  0
VERTEX
  8
0
  5
513C
 10
566.062
 20
140.260
 30
0.000000
  70
    32
  0
VERTEX
  8
0
  5
513D
 10
566.311
 20
139.916
 30
0.000000
  70
    32
  0
SEQEND
  8
0
  5
513E
  0
POLYLINE
  5
3D6C
  8
0
 66
     1
 10
0.0
 20
0.0
 30
0.0
  0
VERTEX
  5
3D6D
  8
0
 10
579.76421558670575
 20
154.88876754347439
 30
0.0
  0
VERTEX
  5
3D6E
  8
0
 10
567.85833468691544
 20
150.10089919168371
 30
0.0
  0
SEQEND
  5
3D6F
  8
0
  0
POLYLINE
  5
3D70
  8
0
 66
     1
 10
0.0
 20
0.0
 30
0.0
  0
VERTEX
  5
3D71
  8
0
 10
566.31127513681088
 20
143.9188118816578
 30
0.0
  0
VERTEX
  5
3D72
  8
0
 10
566.31127513681088
 20
134.19770083404501
 30
0.0
  0
SEQEND
  5
3D73
  8
0
  0
ARC
  5
3D74
  8
0
 10
554.33912024878225
 20
122.843516260195
 30
0.0
 40
16.5
 50
34.980587728644181
 51
43.482453238527363
  0
LINE
  5
3D75
  8
0
 10
566.31127513681076
 20
148.20614594195419
 30
0.0
 11
566.31127513681076
 21
143.9188118816578
 31
0.0
  0
ARC
  5
3D76
  8
0
 10
579.83048957494611
 20
134.45938055753911
 30
0.0
 40
16.5
 50
136.51754676148639
 51
145.01941227136891
  0
LINE
  5
3D77
  8
0
 10
567.85833468691544
 20
150.10089919168371
 30
0.0
 11
567.85833468691544
 21
145.81356513138729
 31
0.0
  0
ARC
  5
3D78
  8
0
 10
579.83048957494611
 20
138.74671461783549
 30
0.0
 40
16.5
 50
136.51754676148639
 51
145.01941227136891
  0
LINE
  5
3D79
  8
0
 10
564.31127513681065
 20
149.81536140841899
 30
0.0
 11
564.31127513681065
 21
145.5727207212999
 31
0.0
  0
POLYLINE
  5
3D7A
  8
0
 66
     1
 10
0.0
 20
0.0
 30
0.0
  0
VERTEX
  5
3D7B
  8
0
 10
596.31127513681065
 20
134.19770083404771
 30
0.0
  0
VERTEX
  5
3D7C
  8
0
 10
596.31127513681065
 20
143.91881188165499
 30
0.0
  0
SEQEND
  5
3D7D
  8
0
  0
POLYLINE
  5
3D7E
  8
0
 66
     1
 10
0.0
 20
0.0
 30
0.0
  0
VERTEX
  5
3D7F
  8
0
 10
582.8583346869159
 20
127.5150792325294
 30
0.0
  0
VERTEX
  5
3D80
  8
0
 10
594.76421558670597
 20
132.30294758431631
 30
0.0
  0
SEQEND
  5
3D81
  8
0
  0
ARC
  5
3D82
  8
0
 10
581.31127513681065
 20
143.9423920605127
 30
0.0
 40
16.5
 50
264.61997732865387
 51
275.38002267134613
  0
ARC
  5
3D83
  8
0
 10
582.79206069867769
 20
143.65713215816641
 30
0.0
 40
16.5
 50
316.51754676147272
 51
325.0194122713558
  0
POLYLINE
  5
3D84
  8
0
 66
     1
 10
0.0
 20
0.0
 30
0.0
  0
VERTEX
  5
3D85
  8
0
 10
594.76421558670597
 20
145.81356513138729
 30
0.0
  0
VERTEX
  5
3D86
  8
0
 10
582.85833468691555
 20
150.601433483178
 30
0.0
  0
SEQEND
  5
3D87
  8
0
  0
POLYLINE
  5
3D88
  8
0
 66
     1
 10
0.0
 20
0.0
 30
0.0
  0
VERTEX
  5
3D89
  8
0
 10
594.76421558670597
 20
150.10089919168371
 30
0.0
  0
VERTEX
  5
3D8A
  8
0
 10
582.85833468691555
 20
154.88876754347439
 30
0.0
  0
SEQEND
  5
3D8B
  8
0
  0
ARC
  5
3D8C
  8
0
 10
581.31127513681065
 20
138.46145471549099
 30
0.0
 40
16.5
 50
84.619977328653917
 51
95.380022671346055
  0
ARC
  5
3D8D
  8
0
 10
581.31127513681065
 20
134.1741206551946
 30
0.0
 40
16.5
 50
84.619977328653917
 51
95.380022671346055
  0
LINE
  5
3D8E
  8
0
 10
582.85833468691544
 20
154.88876754347439
 30
0.0
 11
582.85833468691544
 21
150.601433483178
 31
0.0
  0
LINE
  5
3D8F
  8
0
 10
579.76421558670609
 20
154.88876754347439
 30
0.0
 11
579.76421558670609
 21
150.601433483178
 31
0.0
  0
LINE
  5
3D90
  8
0
 10
596.31127513681065
 20
148.20614594195419
 30
0.0
 11
596.31127513681065
 21
143.91881188165499
 31
0.0
  0
ARC
  5
3D91
  8
0
 10
608.28343002484144
 20
155.27299645550599
 30
0.0
 40
16.5
 50
214.98058772863109
 51
223.4824532385135
  0
LINE
  5
3D92
  8
0
 10
594.76421558670063
 20
150.10089919168601
 30
0.0
 11
594.76421558670597
 21
145.81356513138729
 31
0.0
  0
ARC
  5
3D93
  8
0
 10
608.28343002484144
 20
159.56033051580241
 30
0.0
 40
16.5
 50
214.98058772863109
 51
223.4824532385135
  0
LINE
  5
3D94
  8
0
 10
598.31127513681065
 20
149.81536140841899
 30
0.0
 11
598.31127513681065
 21
145.5727207212999
 31
0.0
  0
LINE
  5
3D95
  8
0
 10
550.18214332267496
 20
211.05978776427219
 30
0.0
 11
570.23146077649744
 21
211.05978776427219
 31
0.0
  0
ARC
  5
3D96
  8
0
 10
554.81127513681065
 20
209.0597877642731
 30
0.0
 40
6.0
 50
180.0
 51
270.0
  0
LINE
  5
3D97
  8
0
 10
548.81127513681065
 20
223.55978776427219
 30
0.0
 11
548.81127513681065
 21
209.0597877642731
 31
0.0
  0
LINE
  5
3D98
  8
0
 10
554.81127513681065
 20
203.0597877642731
 30
0.0
 11
555.81127513681065
 21
203.0597877642731
 31
0.0
  0
ARC
  5
3D99
  8
0
 10
555.81127513681065
 20
200.0597877642731
 30
0.0
 40
3.0
 50
0.0
 51
90.0
  0
LINE
  5
3D9A
  8
0
 10
606.81127513681065
 20
203.0597877642731
 30
0.0
 11
607.81127513681076
 21
203.0597877642731
 31
0.0
  0
ARC
  5
3D9B
  8
0
 10
606.81127513681065
 20
200.0597877642731
 30
0.0
 40
3.0
 50
90.0
 51
180.00000000000651
  0
LINE
  5
3D9C
  8
0
 10
613.81127513681065
 20
223.55978776427219
 30
0.0
 11
613.81127513681065
 21
209.0597877642731
 31
0.0
  0
LINE
  5
3DE0
  8
0
 10
528.57079977476485
 20
452.24015755976529
 30
0.0
 11
534.8730497747647
 21
458.54240755976502
 31
0.0
  0
LINE
  5
3DE1
  8
0
 10
534.8730497747647
 20
458.54240755976502
 30
0.0
 11
515.96629977476459
 21
458.54240755976502
 31
0.0
  0
LINE
  5
3DF9
  8
0
 10
512.8140497747645
 20
455.3912825597651
 30
0.0
 11
503.4979247747641
 21
455.3912825597651
 31
0.0
  0
LINE
  5
3DFA
  8
0
 10
497.0584247747646
 20
452.24015755976529
 30
0.0
 11
528.57079977476485
 21
452.24015755976529
 31
0.0
  0
LINE
  5
3DFB
  8
0
 10
503.4979247747641
 20
455.3912825597651
 30
0.0
 11
503.4979247747641
 21
458.54240755976502
 31
0.0
  0
LINE
  5
3DFC
  8
0
 10
503.4979247747641
 20
458.54240755976502
 30
0.0
 11
497.0584247747646
 21
452.24015755976529
 31
0.0
  0
LINE
  5
3DFD
  8
0
 10
515.96629977476459
 20
458.54240755976502
 30
0.0
 11
512.8140497747645
 21
455.3912825597651
 31
0.0
  0
TEXT
  5
3E02
  8
0
 10
429.63902766695941
 20
91.753845353876642
 30
0.0
 40
10.5
  1
25
 72
     4
 11
438.13902766695941
 21
97.003845353876642
 31
0.0
  0
TEXT
  5
3E03
  8
0
 10
436.88902766695941
 20
70.61531915806998
 30
0.0
 40
10.5
  1
1
 72
     4
 11
438.13902766695941
 21
75.86531915806998
 31
0.0
  0
LINE
  5
458D
  8
0
 10
462.08334801952009
 20
230.05978776427219
 30
0.0
 11
400.08294801952019
 21
230.05978776427219
 31
0.0
  0
LINE
  5
458E
  8
0
 10
404.0833480195202
 20
234.05978776427219
 30
0.0
 11
404.0833480195202
 21
230.05978776427239
 31
0.0
  0
LINE
  5
458F
  8
0
 10
458.0833480195202
 20
234.05978776427219
 30
0.0
 11
458.0833480195202
 21
230.05978776427239
 31
0.0
  0
LINE
  5
4590
  8
0
 10
461.08334801952032
 20
242.82773695670329
 30
0.0
 11
461.08334801951997
 21
235.791838571841
 31
0.0
  0
LINE
  5
4591
  8
0
 10
458.5833480195202
 20
244.27111262967739
 30
0.0
 11
461.08334801952032
 21
242.82773695670329
 31
0.0
  0
ARC
  5
4592
  8
0
 10
406.83334801952122
 20
251.27111262967631
 30
0.0
 40
3.2999999999999989
 50
89.999999999986969
 51
179.99999999998701
  0
LINE
  5
4593
  8
0
 10
403.53334801952121
 20
251.27111262967679
 30
0.0
 11
403.53334801952002
 21
244.25978776427201
 31
0.0
  0
LINE
  5
4594
  8
0
 10
455.33334801952179
 20
254.57111262966851
 30
0.0
 11
406.83334801952179
 21
254.57111262967621
 31
0.0
  0
ARC
  5
4595
  8
0
 10
455.33334801952122
 20
251.27111262966849
 30
0.0
 40
3.2999999999999989
 50
359.99999999998698
 51
89.999999999986969
  0
LINE
  5
4596
  8
0
 10
458.63334801952118
 20
251.2711126296681
 30
0.0
 11
458.63334801952021
 21
244.2597877642722
 31
0.0
  0
LINE
  5
4597
  8
0
 10
451.0833480195202
 20
254.5711126296724
 30
0.0
 11
411.0833480195202
 21
254.5711126296724
 31
0.0
  0
LINE
  5
4598
  8
0
 10
411.0833480195202
 20
255.07011262967239
 30
0.0
 11
451.0833480195202
 21
255.07011262967239
 31
0.0
  0
LINE
  5
4599
  8
0
 10
411.0833480195202
 20
254.5711126296724
 30
0.0
 11
411.0833480195202
 21
255.07011262967239
 31
0.0
  0
ARC
  5
459A
  8
0
 10
431.08284801952169
 20
255.07011262967239
 30
0.0
 40
0.9975000000000022
 50
0.0
 51
180.0
  0
LINE
  5
459B
  8
0
 10
451.0833480195202
 20
255.07011262967239
 30
0.0
 11
451.0833480195202
 21
254.5711126296724
 31
0.0
  0
LINE
  5
459C
  8
0
 10
461.59114801952018
 20
157.59278776427209
 30
0.0
 11
437.5491480195202
 21
133.55178776427209
 31
0.0
  0
LINE
  5
459D
  8
0
 10
429.08314801952008
 20
230.05978776427219
 30
0.0
 11
429.08314801952008
 21
227.05978776427219
 31
0.0
  0
LINE
  5
459E
  8
0
 10
433.08314801952008
 20
230.05978776427219
 30
0.0
 11
433.08314801952008
 21
227.05978776427219
 31
0.0
  0
LINE
  5
459F
  8
0
 10
413.50014801952022
 20
169.42978776427211
 30
0.0
 11
437.55714801952018
 21
145.37278776427229
 31
0.0
  0
LINE
  5
45A0
  8
0
 10
389.3811480195202
 20
202.0497877642722
 30
0.0
 11
472.78503842213252
 21
202.0497877642722
 31
0.0
  0
LINE
  5
45A1
  8
0
 10
472.78503842213252
 20
176.0687877642722
 30
0.0
 11
389.3811480195202
 21
176.0687877642722
 31
0.0
  0
LINE
  5
45A2
  8
0
 10
462.08314801952008
 20
223.55978776427219
 30
0.0
 11
400.08314801952008
 21
223.55978776427219
 31
0.0
  0
LINE
  5
45A3
  8
0
 10
429.08314801952008
 20
227.05978776427219
 30
0.0
 11
400.08314801952008
 21
227.05978776427219
 31
0.0
  0
LINE
  5
45A4
  8
0
 10
462.08314801952008
 20
227.05978776427219
 30
0.0
 11
433.08314801952008
 21
227.05978776427219
 31
0.0
  0
LINE
  5
45A5
  8
0
 10
429.08314801952008
 20
228.55978776427219
 30
0.0
 11
398.58314801952019
 21
228.55978776427219
 31
0.0
  0
LINE
  5
45A6
  8
0
 10
463.58314801952019
 20
228.55978776427219
 30
0.0
 11
433.08314801952008
 21
228.55978776427219
 31
0.0
  0
LINE
  5
45A7
  8
0
 10
459.08314801952019
 20
163.07878776427219
 30
0.0
 11
459.08314801952019
 21
169.42978776427211
 31
0.0
  0
LINE
  5
45A8
  8
0
 10
459.08314801952019
 20
169.42978776427211
 30
0.0
 11
413.50014801952022
 21
169.42978776427211
 31
0.0
  0
LINE
  5
45A9
  8
0
 10
413.50014801952022
 20
169.42978776427211
 30
0.0
 11
410.85114801952022
 21
163.07878776427219
 31
0.0
  0
LINE
  5
45AA
  8
0
 10
433.31914801952018
 20
139.1967877642721
 30
0.0
 11
449.59014801952009
 21
155.46778776427209
 31
0.0
  0
LINE
  5
45AB
  8
0
 10
449.59014801952009
 20
155.46778776427209
 30
0.0
 11
450.53114801952012
 21
154.52678776427231
 31
0.0
  0
LINE
  5
45AC
  8
0
 10
450.53114801952012
 20
154.52678776427231
 30
0.0
 11
459.00914801952018
 21
163.00378776427209
 31
0.0
  0
LINE
  5
45AD
  8
0
 10
398.58314801952019
 20
223.55978776427219
 30
0.0
 11
398.58314801952019
 21
218.04278776427211
 31
0.0
  0
LINE
  5
45AE
  8
0
 10
389.3811480195202
 20
215.03978776427221
 30
0.0
 11
387.08314801952019
 21
211.05978776427219
 31
0.0
  0
LINE
  5
45AF
  8
0
 10
387.08314801952019
 20
167.05978776427219
 30
0.0
 11
389.3811480195202
 21
163.07878776427219
 31
0.0
  0
LINE
  5
45B0
  8
0
 10
389.3811480195202
 20
163.07878776427219
 30
0.0
 11
410.85114801952022
 21
163.07878776427219
 31
0.0
  0
LINE
  5
45B1
  8
0
 10
410.85114801952022
 20
163.07878776427219
 30
0.0
 11
433.31914801952018
 21
140.61078776427209
 31
0.0
  0
LINE
  5
45B2
  8
0
 10
433.31914801952018
 20
140.61078776427209
 30
0.0
 11
433.31914801952018
 21
140.61078776427209
 31
0.0
  0
LINE
  5
45B3
  8
0
 10
433.31914801952018
 20
140.61078776427209
 30
0.0
 11
433.41414801952021
 21
140.50078776427219
 31
0.0
  0
LINE
  5
45B4
  8
0
 10
433.41414801952021
 20
140.50078776427219
 30
0.0
 11
433.49514801952017
 21
140.37178776427211
 31
0.0
  0
LINE
  5
45B5
  8
0
 10
433.49514801952017
 20
140.37178776427211
 30
0.0
 11
433.55814801952022
 21
140.2257877642721
 31
0.0
  0
LINE
  5
45B6
  8
0
 10
433.55814801952022
 20
140.2257877642721
 30
0.0
 11
433.59814801952018
 21
140.0677877642722
 31
0.0
  0
LINE
  5
45B7
  8
0
 10
433.59814801952018
 20
140.0677877642722
 30
0.0
 11
433.61214801952019
 21
139.90378776427221
 31
0.0
  0
LINE
  5
45B8
  8
0
 10
433.61214801952019
 20
139.90378776427221
 30
0.0
 11
433.59814801952018
 21
139.7387877642723
 31
0.0
  0
LINE
  5
45B9
  8
0
 10
433.59814801952018
 20
139.7387877642723
 30
0.0
 11
433.55814801952022
 21
139.58078776427209
 31
0.0
  0
LINE
  5
45BA
  8
0
 10
433.55814801952022
 20
139.58078776427209
 30
0.0
 11
433.49514801952017
 21
139.43578776427211
 31
0.0
  0
LINE
  5
45BB
  8
0
 10
433.49514801952017
 20
139.43578776427211
 30
0.0
 11
433.31914801952018
 21
139.1967877642721
 31
0.0
  0
LINE
  5
45BC
  8
0
 10
433.31914801952018
 20
139.1967877642721
 30
0.0
 11
433.31914801952018
 21
139.1967877642721
 31
0.0
  0
LINE
  5
45BD
  8
0
 10
433.31914801952018
 20
139.1967877642721
 30
0.0
 11
433.31914801952018
 21
139.1967877642721
 31
0.0
  0
LINE
  5
45BE
  8
0
 10
433.31914801952018
 20
139.1967877642721
 30
0.0
 11
433.2241480195201
 21
139.0867877642722
 31
0.0
  0
LINE
  5
45BF
  8
0
 10
433.2241480195201
 20
139.0867877642722
 30
0.0
 11
433.14214801952022
 21
138.9577877642721
 31
0.0
  0
LINE
  5
45C0
  8
0
 10
433.14214801952022
 20
138.9577877642721
 30
0.0
 11
433.07914801952012
 21
138.81178776427211
 31
0.0
  0
LINE
  5
45C1
  8
0
 10
433.07914801952012
 20
138.81178776427211
 30
0.0
 11
433.03914801952021
 21
138.65378776427221
 31
0.0
  0
LINE
  5
45C2
  8
0
 10
433.03914801952021
 20
138.65378776427221
 30
0.0
 11
433.02614801952018
 21
138.48978776427219
 31
0.0
  0
LINE
  5
45C3
  8
0
 10
433.02614801952018
 20
138.48978776427219
 30
0.0
 11
433.03914801952021
 21
138.32478776427229
 31
0.0
  0
LINE
  5
45C4
  8
0
 10
433.03914801952021
 20
138.32478776427229
 30
0.0
 11
433.07914801952012
 21
138.1667877642721
 31
0.0
  0
LINE
  5
45C5
  8
0
 10
433.07914801952012
 20
138.1667877642721
 30
0.0
 11
433.14214801952022
 21
138.0217877642722
 31
0.0
  0
LINE
  5
45C6
  8
0
 10
433.14214801952022
 20
138.0217877642722
 30
0.0
 11
433.31914801952018
 21
137.78278776427209
 31
0.0
  0
LINE
  5
45C7
  8
0
 10
433.31914801952018
 20
137.78278776427209
 30
0.0
 11
437.5491480195202
 21
133.55178776427209
 31
0.0
  0
LINE
  5
45C8
  8
0
 10
437.5491480195202
 20
133.55178776427209
 30
0.0
 11
438.96414801952011
 21
133.55178776427209
 31
0.0
  0
LINE
  5
45C9
  8
0
 10
438.96414801952011
 20
133.55178776427209
 30
0.0
 11
461.59114801952018
 21
156.1787877642723
 31
0.0
  0
LINE
  5
45CA
  8
0
 10
461.59114801952018
 20
156.1787877642723
 30
0.0
 11
461.59114801952018
 21
157.59278776427209
 31
0.0
  0
LINE
  5
45CB
  8
0
 10
461.59114801952018
 20
157.59278776427209
 30
0.0
 11
459.00914801952018
 21
160.17578776427209
 31
0.0
  0
LINE
  5
45CC
  8
0
 10
459.00914801952018
 20
160.17578776427209
 30
0.0
 11
459.00914801952018
 21
160.17578776427209
 31
0.0
  0
LINE
  5
45CD
  8
0
 10
459.00914801952018
 20
160.17578776427209
 30
0.0
 11
458.81914801952013
 21
160.3957877642722
 31
0.0
  0
LINE
  5
45CE
  8
0
 10
458.81914801952013
 20
160.3957877642722
 30
0.0
 11
458.65514801952008
 21
160.65378776427221
 31
0.0
  0
LINE
  5
45CF
  8
0
 10
458.65514801952008
 20
160.65378776427221
 30
0.0
 11
458.5301480195202
 21
160.94478776427221
 31
0.0
  0
LINE
  5
45D0
  8
0
 10
458.5301480195202
 20
160.94478776427221
 30
0.0
 11
458.45014801952033
 21
161.26078776427221
 31
0.0
  0
LINE
  5
45D1
  8
0
 10
458.45014801952033
 20
161.26078776427221
 30
0.0
 11
458.42314801952023
 21
161.5897877642721
 31
0.0
  0
LINE
  5
45D2
  8
0
 10
458.42314801952023
 20
161.5897877642721
 30
0.0
 11
458.45014801952033
 21
161.91878776427211
 31
0.0
  0
LINE
  5
45D3
  8
0
 10
458.45014801952033
 20
161.91878776427211
 30
0.0
 11
458.5301480195202
 21
162.23478776427211
 31
0.0
  0
LINE
  5
45D4
  8
0
 10
458.5301480195202
 20
162.23478776427211
 30
0.0
 11
458.65514801952008
 21
162.52578776427231
 31
0.0
  0
LINE
  5
45D5
  8
0
 10
458.65514801952008
 20
162.52578776427231
 30
0.0
 11
459.00914801952018
 21
163.00378776427209
 31
0.0
  0
LINE
  5
45D6
  8
0
 10
459.00914801952018
 20
163.00378776427209
 30
0.0
 11
459.08314801952019
 21
163.07878776427219
 31
0.0
  0
LINE
  5
45D7
  8
0
 10
459.08314801952019
 20
163.07878776427219
 30
0.0
 11
472.78503842213252
 21
163.07878776427219
 31
0.0
  0
LINE
  5
45D8
  8
0
 10
472.78503842213252
 20
215.03978776427221
 30
0.0
 11
466.58314801952008
 21
215.03978776427221
 31
0.0
  0
LINE
  5
45D9
  8
0
 10
463.58314801952019
 20
218.03978776427221
 30
0.0
 11
463.58314801952019
 21
223.55978776427219
 31
0.0
  0
LINE
  5
45DA
  8
0
 10
463.58314801952019
 20
223.55978776427219
 30
0.0
 11
462.08314801952008
 21
223.55978776427219
 31
0.0
  0
LINE
  5
45DB
  8
0
 10
462.08314801952008
 20
223.55978776427219
 30
0.0
 11
462.08314801952008
 21
227.05978776427219
 31
0.0
  0
LINE
  5
45DC
  8
0
 10
462.08314801952008
 20
227.05978776427219
 30
0.0
 11
463.58314801952019
 21
227.05978776427219
 31
0.0
  0
LINE
  5
45DD
  8
0
 10
463.58314801952019
 20
227.05978776427219
 30
0.0
 11
463.58314801952019
 21
228.55978776427219
 31
0.0
  0
LINE
  5
45DE
  8
0
 10
463.58314801952019
 20
228.55978776427219
 30
0.0
 11
462.08314801952008
 21
230.05978776427219
 31
0.0
  0
LINE
  5
45DF
  8
0
 10
400.08314801952008
 20
230.05978776427219
 30
0.0
 11
398.58314801952019
 21
228.55978776427219
 31
0.0
  0
LINE
  5
45E0
  8
0
 10
398.58314801952019
 20
228.55978776427219
 30
0.0
 11
398.58314801952019
 21
227.05978776427219
 31
0.0
  0
LINE
  5
45E1
  8
0
 10
398.58314801952019
 20
227.05978776427219
 30
0.0
 11
400.08314801952008
 21
227.05978776427219
 31
0.0
  0
LINE
  5
45E2
  8
0
 10
400.08314801952008
 20
227.05978776427219
 30
0.0
 11
400.08314801952008
 21
223.55978776427219
 31
0.0
  0
LINE
  5
45E3
  8
0
 10
400.08314801952008
 20
223.55978776427219
 30
0.0
 11
398.58314801952019
 21
223.55978776427219
 31
0.0
  0
LINE
  5
45E4
  8
0
 10
398.58314801952019
 20
223.55978776427219
 30
0.0
 11
398.59313817391569
 21
218.04522253796199
 31
0.0
  0
CIRCLE
  5
45E5
  8
0
 10
431.08314801952019
 20
207.0497877642722
 30
0.0
 40
1.5
  0
ARC
  5
45E6
  8
0
 10
397.41050048076897
 20
208.54478776427229
 30
0.0
 40
10.32741622802927
 50
158.96648943961631
 51
218.96964055579051
  0
ARC
  5
45E8
  8
0
 10
397.41050048076897
 20
169.574787764272
 30
0.0
 40
10.32741622802927
 50
141.03035944420489
 51
201.03351056039821
  0
LINE
  5
45E9
  8
0
 10
387.08314801952019
 20
211.05978776427219
 30
0.0
 11
387.08314801952019
 21
167.05978776427219
 31
0.0
  0
LINE
  5
45EA
  8
0
 10
472.78525379425611
 20
215.03961797872029
 30
0.0
 11
475.08323759010409
 21
211.0596086226987
 31
0.0
  0
LINE
  5
45EB
  8
0
 10
475.08305844893619
 20
167.05960862306321
 30
0.0
 11
472.7850422407509
 21
163.07861797915101
 31
0.0
  0
ARC
  5
45EC
  8
0
 10
464.75587488939482
 20
208.54465066940111
 30
0.0
 40
10.32741622802927
 50
321.03012617074319
 51
21.03327728691329
  0
ARC
  5
45EE
  8
0
 10
464.75571622731928
 20
169.57465066972389
 30
0.0
 40
10.32741622802927
 50
338.9662561661296
 51
38.969407282312069
  0
LINE
  5
45EF
  8
0
 10
475.08323759010409
 20
211.0596086226987
 30
0.0
 11
475.08305844893619
 21
167.05960862306321
 31
0.0
  0
LINE
  5
45F0
  8
0
 10
389.3811480195202
 20
215.03978776427221
 30
0.0
 11
395.59314309671362
 21
215.0397877642713
 31
0.0
  0
ARC
  5
45F1
  8
0
 10
395.5931430967139
 20
218.0397877642713
 30
0.0
 40
3.0
 50
269.99999999999352
 51
0.1037965884674245
  0
ARC
  5
45F2
  8
0
 10
466.57281318281912
 20
218.03760377442271
 30
0.0
 40
2.9999999999999991
 50
179.89267751741119
 51
269.9964741058813
  0
ARC
  5
45F3
  8
0
 10
416.8233874846398
 20
221.77046520550971
 30
0.0
 40
19.264806140576152
 50
203.02364624776479
 51
242.67173276093959
  0
ARC
  5
45F4
  8
0
 10
445.34290855440048
 20
221.77046520550971
 30
0.0
 40
19.264806140576152
 50
297.32826723906038
 51
336.9763537522353
  0
LINE
  5
45F5
  8
0
 10
401.0833480195202
 20
242.81641209129791
 30
0.0
 11
401.0833480195202
 21
235.5031634372462
 31
0.0
  0
LINE
  5
45F6
  8
0
 10
461.08334801952032
 20
242.81641209129819
 30
0.0
 11
461.08334801952032
 21
235.5031634372462
 31
0.0
  0
LINE
  5
45F7
  8
0
 10
403.5833480195202
 20
234.05978776427219
 30
0.0
 11
458.5833480195202
 21
234.05978776427219
 31
0.0
  0
LINE
  5
45F8
  8
0
 10
403.5833480195202
 20
244.25978776427201
 30
0.0
 11
458.5833480195202
 21
244.2597877642722
 31
0.0
  0
LINE
  5
45F9
  8
0
 10
443.07292682780201
 20
242.81641209129819
 30
0.0
 11
443.07292682780201
 21
235.5031634372462
 31
0.0
  0
LINE
  5
45FA
  8
0
 10
448.90425721945149
 20
242.81641209129839
 30
0.0
 11
448.90425721945149
 21
235.5031634372462
 31
0.0
  0
LINE
  5
45FB
  8
0
 10
419.09376921123851
 20
242.81641209129819
 30
0.0
 11
419.09376921123851
 21
235.5031634372462
 31
0.0
  0
LINE
  5
45FC
  8
0
 10
413.26243881958868
 20
242.81641209129819
 30
0.0
 11
413.26243881958868
 21
235.503163437246
 31
0.0
  0
LINE
  5
45FD
  8
0
 10
458.5833480195202
 20
244.2597877642722
 30
0.0
 11
461.08334801952032
 21
242.81641209129819
 31
0.0
  0
LINE
  5
45FE
  8
0
 10
458.5833480195202
 20
234.05978776427219
 30
0.0
 11
461.08334801952032
 21
235.5031634372462
 31
0.0
  0
LINE
  5
45FF
  8
0
 10
448.90425721945149
 20
235.5031634372462
 30
0.0
 11
443.07292682780201
 21
235.5031634372462
 31
0.0
  0
LINE
  5
4600
  8
0
 10
419.09376921123828
 20
235.5031634372462
 30
0.0
 11
413.26243881958868
 21
235.5031634372462
 31
0.0
  0
ARC
  5
4601
  8
0
 10
454.99380261948602
 20
247.62723007632641
 30
0.0
 40
13.56744467642805
 50
243.33103023467859
 51
296.66896976532138
  0
ARC
  5
4602
  8
0
 10
431.0833480195202
 20
284.5779363183662
 30
0.0
 40
50.518148554094068
 50
256.27086732458361
 51
283.72913267541639
  0
ARC
  5
4603
  8
0
 10
407.1728934195545
 20
247.62723007632621
 30
0.0
 40
13.56744467642805
 50
243.33103023467859
 51
296.66896976532138
  0
LINE
  5
4604
  8
0
 10
403.5833480195202
 20
244.25978776427201
 30
0.0
 11
401.0833480195202
 21
242.81641209129791
 31
0.0
  0
LINE
  5
4605
  8
0
 10
403.5833480195202
 20
234.05978776427219
 30
0.0
 11
401.0833480195202
 21
235.5031634372462
 31
0.0
  0
LINE
  5
4606
  8
0
 10
448.90425721945149
 20
242.81641209129839
 30
0.0
 11
443.07292682780201
 21
242.81641209129819
 31
0.0
  0
LINE
  5
4607
  8
0
 10
419.09376921123828
 20
242.81641209129819
 30
0.0
 11
413.26243881958868
 21
242.81641209129819
 31
0.0
  0
ARC
  5
4608
  8
0
 10
454.99380261948602
 20
230.69234545221821
 30
0.0
 40
13.56744467642805
 50
63.3310302346786
 51
116.66896976532141
  0
ARC
  5
4609
  8
0
 10
431.08334801952049
 20
193.74163921017811
 30
0.0
 40
50.518148554094068
 50
76.270867324583634
 51
103.7291326754163
  0
ARC
  5
460A
  8
0
 10
407.1728934195545
 20
230.69234545221801
 30
0.0
 40
13.56744467642805
 50
63.3310302346786
 51
116.66896976532141
  0
CIRCLE
  5
460B
  8
0
 10
431.08334801952049
 20
247.7592877642671
 30
0.0
 40
1.5494999999999659
  0
ARC
  5
460C
  8
0
 10
468.70585865366081
 20
126.43707713012449
 30
0.0
 40
24.880184541946139
 50
118.9617727598952
 51
151.03822724010399
  0
LINE
  5
460D
  8
0
 10
440.68308642437597
 20
133.60019931440581
 30
0.0
 11
461.54273646937912
 21
154.45984935940879
 31
0.0
  0
LINE
  5
460E
  8
0
 10
446.3399406738684
 20
127.9433450649134
 30
0.0
 11
467.19959071887149
 21
148.8029951099164
 31
0.0
  0
ARC
  5
460F
  8
0
 10
439.17681848954749
 20
155.96611729423859
 30
0.0
 40
24.880184542003899
 50
298.96177275993313
 51
331.03822724006773
  0
LINE
  5
4610
  8
0
 10
446.93711601767001
 20
138.48470871850341
 30
0.0
 11
451.2244500779683
 21
134.197374658206
 31
0.0
  0
ARC
  5
4611
  8
0
 10
442.85352867173538
 20
133.88498405494181
 30
0.0
 40
6.666680248538392
 50
289.97817380300688
 51
346.26958135680837
  0
LINE
  5
4612
  8
0
 10
451.2244500779683
 20
134.197374658206
 30
0.0
 11
449.32969682823961
 21
132.30262140847739
 31
0.0
  0
LINE
  5
4613
  8
0
 10
446.93711601767001
 20
138.48470871850341
 30
0.0
 11
445.04236276794143
 21
136.5899554687752
 31
0.0
  0
LINE
  5
4614
  8
0
 10
440.85986311967679
 20
133.77697600970561
 30
0.0
 11
440.02459969231433
 21
134.6122394370685
 31
0.0
  0
LINE
  5
4615
  8
0
 10
446.33994067386942
 20
127.9433450649129
 30
0.0
 11
444.46914130443412
 21
127.4420658846719
 31
0.0
  0
LINE
  5
4616
  8
0
 10
440.18180724413588
 20
131.72939994496971
 30
0.0
 11
444.46914130443412
 21
127.4420658846719
 31
0.0
  0
LINE
  5
4617
  8
0
 10
440.68308642437688
 20
133.6001993144053
 30
0.0
 11
440.18180724413588
 21
131.72939994496971
 31
0.0
  0
LINE
  5
4618
  8
0
 10
445.04236276794143
 20
136.5899554687752
 30
0.0
 11
449.32969682823961
 21
132.30262140847739
 31
0.0
  0
ARC
  5
4619
  8
0
 10
446.62472541440849
 20
130.1137873122687
 30
0.0
 40
6.666680248538392
 50
103.73041864319831
 51
160.0218261973119
  0
LINE
  5
461A
  8
0
 10
461.54273646937912
 20
154.45984935940879
 30
0.0
 11
463.41353583881698
 21
154.9611285396503
 31
0.0
  0
LINE
  5
461B
  8
0
 10
467.19959071887149
 20
148.8029951099164
 30
0.0
 11
467.7008698991134
 21
150.67379447935389
 31
0.0
  0
ARC
  5
461C
  8
0
 10
461.25795172884352
 20
152.2894071120507
 30
0.0
 40
6.666680248538392
 50
283.73041864319828
 51
340.02182619699971
  0
LINE
  5
461D
  8
0
 10
463.41353583881698
 20
154.9611285396503
 30
0.0
 11
467.7008698991134
 21
150.67379447935389
 31
0.0
  0
LINE
  5
461E
  8
0
 10
456.65822706528189
 20
148.20581976611521
 30
0.0
 11
458.5529803150115
 21
150.10057301584479
 31
0.0
  0
LINE
  5
461F
  8
0
 10
456.65822706528189
 20
148.20581976611521
 30
0.0
 11
460.94556112558018
 21
143.91848570581789
 31
0.0
  0
LINE
  5
4620
  8
0
 10
462.84031437530967
 20
145.81323895554661
 30
0.0
 11
460.94556112558018
 21
143.91848570581701
 31
0.0
  0
ARC
  5
4621
  8
0
 10
465.02914847151652
 20
148.51821036937861
 30
0.0
 40
6.666680248538392
 50
109.9781738026948
 51
166.26958135680201
  0
LINE
  5
4622
  8
0
 10
458.5529803150115
 20
150.10057301584479
 30
0.0
 11
462.84031437530967
 21
145.81323895554661
 31
0.0
  0
LINE
  5
4623
  8
0
 10
461.36595977408638
 20
154.28307266411619
 30
0.0
 11
460.53069634672681
 21
155.11833609147641
 31
0.0
  0
POLYLINE
  5
4C4C
  8
0
 66
     1
 10
0.0
 20
0.0
 30
0.0
  0
VERTEX
  5
4E21
  8
0
 10
419.09529686814432
 20
293.98939801712982
 30
0.0
  0
VERTEX
  5
4E22
  8
0
 10
443.07445448470793
 20
293.98939801712982
 30
0.0
  0
SEQEND
  5
4E23
  8
0
  0
POLYLINE
  5
4C4D
  8
0
 66
     1
 10
0.0
 20
0.0
 30
0.0
  0
VERTEX
  5
4E24
  8
0
 10
443.07445448470793
 20
348.98939801712982
 30
0.0
  0
VERTEX
  5
4E25
  8
0
 10
419.09529686814432
 20
348.98939801712982
 30
0.0
  0
SEQEND
  5
4E26
  8
0
  0
POLYLINE
  5
4C4E
  8
0
 66
     1
 10
0.0
 20
0.0
 30
0.0
  0
VERTEX
  5
4E27
  8
0
 10
401.27438766821331
 20
318.12267784577722
 30
0.0
  0
VERTEX
  5
4E28
  8
0
 10
413.2639664764946
 20
297.35611818848253
 30
0.0
  0
SEQEND
  5
4E29
  8
0
  0
POLYLINE
  5
4C4F
  8
0
 66
     1
 10
0.0
 20
0.0
 30
0.0
  0
VERTEX
  5
4E2A
  8
0
 10
460.89536368463922
 20
324.8561181884819
 30
0.0
  0
VERTEX
  5
4E2B
  8
0
 10
448.90578487635719
 20
345.62267784577762
 30
0.0
  0
SEQEND
  5
4E2C
  8
0
  0
POLYLINE
  5
4C50
  8
0
 66
     1
 10
0.0
 20
0.0
 30
0.0
  0
VERTEX
  5
4E2D
  8
0
 10
413.26396647649523
 20
345.62267784577762
 30
0.0
  0
VERTEX
  5
4E2E
  8
0
 10
401.27438766821302
 20
324.85611818848201
 30
0.0
  0
SEQEND
  5
4E2F
  8
0
  0
ARC
  5
4C51
  8
0
 10
431.08487567642612
 20
321.48939801712982
 30
0.0
 40
30.0
 50
113.5564643091015
 51
126.4435356908953
  0
POLYLINE
  5
4C52
  8
0
 66
     1
 10
0.0
 20
0.0
 30
0.0
  0
VERTEX
  5
4E30
  8
0
 10
448.90578487635759
 20
297.35611818848253
 30
0.0
  0
VERTEX
  5
4E31
  8
0
 10
460.89536368463888
 20
318.12267784577688
 30
0.0
  0
SEQEND
  5
4E32
  8
0
  0
ARC
  5
4C53
  8
0
 10
431.08487567642612
 20
321.48939801712982
 30
0.0
 40
30.0
 50
173.5564643091034
 51
186.44353569090319
  0
ARC
  5
4C54
  8
0
 10
431.08487567642612
 20
321.48939801712982
 30
0.0
 40
30.0
 50
233.55646430910471
 51
246.44353569089839
  0
ARC
  5
4C55
  8
0
 10
431.08487567642612
 20
321.48939801712982
 30
0.0
 40
30.0
 50
293.55646430910161
 51
306.44353569089532
  0
ARC
  5
4C56
  8
0
 10
431.08487567642612
 20
321.48939801712982
 30
0.0
 40
30.0
 50
353.55646430909678
 51
6.4435356908966206
  0
ARC
  5
4C57
  8
0
 10
431.08487567642612
 20
321.48939801712982
 30
0.0
 40
30.0
 50
53.556464309104697
 51
66.443535690898443
  0
LINE
  5
4C5C
  8
0
 10
553.81127513681122
 20
244.25978776427229
 30
0.0
 11
553.81127513681122
 21
234.05978776427239
 31
0.0
  0
LINE
  5
4C5D
  8
0
 10
608.81127513681122
 20
244.25978776427229
 30
0.0
 11
608.81127513681122
 21
234.05978776427199
 31
0.0
  0
LINE
  5
4C5E
  8
0
 10
553.81127513681122
 20
244.25978776427229
 30
0.0
 11
608.81127513681122
 21
244.25978776427229
 31
0.0
  0
LINE
  5
4C5F
  8
0
 10
553.81127513681122
 20
242.81641209129839
 30
0.0
 11
557.17799530816387
 21
242.81641209129839
 31
0.0
  0
LINE
  5
4C60
  8
0
 10
577.94455496545891
 20
242.81641209129839
 30
0.0
 11
584.67799530816353
 21
242.81641209129819
 31
0.0
  0
LINE
  5
4C61
  8
0
 10
605.44455496545868
 20
242.81641209129839
 30
0.0
 11
608.81127513681122
 21
242.81641209129839
 31
0.0
  0
LINE
  5
4C62
  8
0
 10
553.81127513681122
 20
234.05978776427239
 30
0.0
 11
608.81127513681122
 21
234.05978776427199
 31
0.0
  0
LINE
  5
4C63
  8
0
 10
553.81127513681122
 20
235.50316343724629
 30
0.0
 11
557.17799530816364
 21
235.50316343724629
 31
0.0
  0
LINE
  5
4C64
  8
0
 10
577.94455496545902
 20
235.50316343724609
 30
0.0
 11
584.67799530816353
 21
235.50316343724609
 31
0.0
  0
LINE
  5
4C65
  8
0
 10
605.44455496545743
 20
235.50316343724609
 30
0.0
 11
608.81127513681122
 21
235.5031634372458
 31
0.0
  0
LINE
  5
4C66
  8
0
 10
584.67799530816353
 20
242.81641209129839
 30
0.0
 11
584.67799530816353
 21
235.50316343724609
 31
0.0
  0
LINE
  5
4C67
  8
0
 10
577.94455496545902
 20
242.81641209129839
 30
0.0
 11
577.94455496545902
 21
235.50316343724609
 31
0.0
  0
ARC
  5
4C68
  8
0
 10
567.56127513681133
 20
206.19075438957569
 30
0.0
 40
38.069033374696573
 50
74.172103069782764
 51
105.82789693021719
  0
ARC
  5
4C69
  8
0
 10
567.56127513681133
 20
272.12882113896899
 30
0.0
 40
38.069033374696573
 50
254.17210306978279
 51
285.82789693021732
  0
ARC
  5
4C6A
  8
0
 10
595.0612751368111
 20
206.19075438957569
 30
0.0
 40
38.069033374696573
 50
74.172103069782764
 51
105.82789693021719
  0
ARC
  5
4C6B
  8
0
 10
595.0612751368111
 20
272.12882113896899
 30
0.0
 40
38.069033374696573
 50
254.17210306978279
 51
285.82789693021732
  0
LINE
  5
4C6C
  8
0
 10
557.17799530816387
 20
242.81641209129839
 30
0.0
 11
557.17799530816296
 21
235.50316343724651
 31
0.0
  0
LINE
  5
4C6D
  8
0
 10
605.44455496545947
 20
242.81641209129819
 30
0.0
 11
605.44455496545947
 21
235.50316343724651
 31
0.0
  0
CIRCLE
  5
4C80
  8
0
 10
431.08487567642612
 20
321.48939801712982
 30
0.0
 40
27.5
  0
CIRCLE
  5
4C82
  8
0
 10
431.08487567642612
 20
321.48939801712982
 30
0.0
 40
20.0
  0
CIRCLE
  5
4C83
  8
0
 10
431.08487567642612
 20
321.48939801712982
 30
0.0
 40
0.9979999999985125
  0
CIRCLE
  5
4C84
  8
0
 10
431.08487567642612
 20
321.48939801712982
 30
0.0
 40
31.0
  0
CIRCLE
  5
4C85
  8
0
 10
431.08487567642612
 20
321.48939801712982
 30
0.0
 40
32.5
  0
ARC
  5
4C86
  8
0
 10
451.7185043132485
 20
332.73939801712891
 30
0.0
 40
23.364643706271782
 50
331.21679720616538
 51
28.783202793840172
  0
LINE
  5
4C87
  8
0
 10
475.08314801952008
 20
321.48939801712982
 30
0.0
 11
475.08314801952008
 21
343.48939801712982
 31
0.0
  0
ARC
  5
4C89
  8
0
 10
396.08314801952019
 20
321.48939801712982
 30
0.0
 40
5.0
 50
92.565098703631165
 51
267.43490129636882
  0
ARC
  5
4C8A
  8
0
 10
410.4369664082314
 20
332.73939801712709
 30
0.0
 40
23.355156461323499
 50
151.204010053205
 51
208.79598994677639
  0
LINE
  5
4C8B
  8
0
 10
387.08314801952019
 20
321.48939801712982
 30
0.0
 11
387.08314801952019
 21
343.48939801712982
 31
0.0
  0
LINE
  5
4C8C
  8
0
 10
389.96989936546828
 20
298.98939801713033
 30
0.0
 11
387.08314801952019
 21
299.48939801713033
 31
0.0
  0
ARC
  5
4C8D
  8
0
 10
410.44779172578592
 20
310.23939801712891
 30
0.0
 40
23.364643706265749
 50
151.21679720615421
 51
208.7832027938401
  0
LINE
  5
4C8E
  8
0
 10
387.08314801952019
 20
321.48939801712982
 30
0.0
 11
387.08314801952019
 21
299.48939801712982
 31
0.0
  0
LINE
  5
4C8F
  8
0
 10
391.08314801952019
 20
321.48939801712982
 30
0.0
 11
389.96989936546828
 21
321.48939801712982
 31
0.0
  0
LINE
  5
4C90
  8
0
 10
407.63279687730841
 20
298.98939801713033
 30
0.0
 11
389.96989936546828
 21
298.98939801712982
 31
0.0
  0
LINE
  5
4C92
  8
0
 10
463.58487567642612
 20
321.48939801712982
 30
0.0
 11
472.19639667357291
 21
321.48939801713033
 31
0.0
  0
LINE
  5
4C93
  8
0
 10
472.19639667357239
 20
298.98939801713033
 30
0.0
 11
454.53695447554333
 21
298.98939801712987
 31
0.0
  0
LINE
  5
4C94
  8
0
 10
472.19639667357239
 20
298.98939801713033
 30
0.0
 11
475.08314801952059
 21
299.48939801713033
 31
0.0
  0
ARC
  5
4C95
  8
0
 10
451.71850431325578
 20
310.23939801712851
 30
0.0
 40
23.364643706264541
 50
331.21679720615981
 51
28.78320279384576
  0
LINE
  5
4C96
  8
0
 10
475.08314801952008
 20
321.48939801712982
 30
0.0
 11
475.08314801952008
 21
299.48939801712982
 31
0.0
  0
LINE
  5
4C97
  8
0
 10
387.08314801952019
 20
343.48939801712942
 30
0.0
 11
389.96989936546828
 21
343.9893980171293
 31
0.0
  0
LINE
  5
4C98
  8
0
 10
407.63279687730932
 20
343.98939801713033
 30
0.0
 11
389.96989936546828
 21
343.98939801712982
 31
0.0
  0
LINE
  5
4C99
  8
0
 10
472.19639667357387
 20
343.98939801712982
 30
0.0
 11
454.53695447554333
 21
343.98939801712982
 31
0.0
  0
LINE
  5
4C9A
  8
0
 10
475.08314801952008
 20
343.48939801712982
 30
0.0
 11
472.196396673572
 21
343.98939801712982
 31
0.0
  0
LINE
  5
4C9B
  8
0
 10
395.8593756980917
 20
326.48438810202123
 30
0.0
 11
396.49687004524691
 21
326.48438810202123
 31
0.0
  0
ARC
  5
4C9C
  8
0
 10
396.49687004524691
 20
329.48438810202123
 30
0.0
 40
3.0
 50
270.0
 51
346.98471465986319
  0
LINE
  5
4C9E
  8
0
 10
395.8593756980917
 20
316.49440793223852
 30
0.0
 11
396.49687004524691
 21
316.49440793223852
 31
0.0
  0
ARC
  5
4C9F
  8
0
 10
396.49687004524691
 20
313.49440793223852
 30
0.0
 40
3.0
 50
13.01528534013678
 51
90.000000000000028
  0
LINE
  5
4CA4
  8
0
 10
612.31147513681105
 20
230.05978776427219
 30
0.0
 11
550.31107513681127
 21
230.05978776427219
 31
0.0
  0
LINE
  5
4CA5
  8
0
 10
554.31147513681117
 20
234.05978776427219
 30
0.0
 11
554.31147513681117
 21
230.05978776427239
 31
0.0
  0
LINE
  5
4CA6
  8
0
 10
608.31147513681117
 20
234.05978776427219
 30
0.0
 11
608.31147513681117
 21
230.05978776427239
 31
0.0
  0
ARC
  5
4CA9
  8
0
 10
557.06147513681231
 20
251.27111262967631
 30
0.0
 40
3.2999999999999989
 50
89.999999999986969
 51
179.99999999998701
  0
LINE
  5
4CAA
  8
0
 10
553.76147513681224
 20
251.27111262967679
 30
0.0
 11
553.7614751368111
 21
244.25978776427201
 31
0.0
  0
LINE
  5
4CAB
  8
0
 10
605.56147513681276
 20
254.57111262966851
 30
0.0
 11
557.06147513681276
 21
254.57111262967629
 31
0.0
  0
ARC
  5
4CAC
  8
0
 10
605.56147513681231
 20
251.27111262966861
 30
0.0
 40
3.2999999999999989
 50
359.99999999998698
 51
89.999999999986969
  0
LINE
  5
4CAD
  8
0
 10
608.86147513681226
 20
251.2711126296681
 30
0.0
 11
608.86147513681124
 21
244.25978776427229
 31
0.0
  0
LINE
  5
4CAE
  8
0
 10
601.31147513681128
 20
254.5711126296724
 30
0.0
 11
561.31147513681117
 21
254.5711126296724
 31
0.0
  0
LINE
  5
4CAF
  8
0
 10
561.31147513681117
 20
255.07011262967239
 30
0.0
 11
601.31147513681128
 21
255.07011262967239
 31
0.0
  0
LINE
  5
4CB0
  8
0
 10
561.31147513681117
 20
254.5711126296724
 30
0.0
 11
561.31147513681117
 21
255.07011262967239
 31
0.0
  0
ARC
  5
4CB1
  8
0
 10
581.31097513681266
 20
255.07011262967239
 30
0.0
 40
0.9975000000000022
 50
0.0
 51
180.0
  0
LINE
  5
4CB2
  8
0
 10
601.31147513681128
 20
255.07011262967239
 30
0.0
 11
601.31147513681128
 21
254.5711126296724
 31
0.0
  0
LINE
  5
4CB3
  8
0
 10
579.31127513681122
 20
230.05978776427219
 30
0.0
 11
579.31127513681122
 21
227.05978776427219
 31
0.0
  0
LINE
  5
4CB4
  8
0
 10
583.31127513681122
 20
230.05978776427219
 30
0.0
 11
583.31127513681122
 21
227.05978776427219
 31
0.0
  0
LINE
  5
4CB5
  8
0
 10
612.31127513681122
 20
223.55978776427219
 30
0.0
 11
550.31127513681122
 21
223.55978776427219
 31
0.0
  0
LINE
  5
4CB6
  8
0
 10
579.31127513681122
 20
227.05978776427219
 30
0.0
 11
550.31127513681122
 21
227.05978776427219
 31
0.0
  0
LINE
  5
4CB7
  8
0
 10
612.31127513681122
 20
227.05978776427219
 30
0.0
 11
583.31127513681122
 21
227.05978776427219
 31
0.0
  0
LINE
  5
4CB8
  8
0
 10
579.31127513681122
 20
228.55978776427219
 30
0.0
 11
548.81127513681122
 21
228.55978776427219
 31
0.0
  0
LINE
  5
4CB9
  8
0
 10
613.81127513681122
 20
228.55978776427219
 30
0.0
 11
583.31127513681122
 21
228.55978776427219
 31
0.0
  0
LINE
  5
4CBA
  8
0
 10
613.81127513681122
 20
223.55978776427219
 30
0.0
 11
612.31127513681122
 21
223.55978776427219
 31
0.0
  0
LINE
  5
4CBB
  8
0
 10
612.31127513681122
 20
223.55978776427219
 30
0.0
 11
612.31127513681122
 21
227.05978776427219
 31
0.0
  0
LINE
  5
4CBC
  8
0
 10
612.31127513681122
 20
227.05978776427219
 30
0.0
 11
613.81127513681122
 21
227.05978776427219
 31
0.0
  0
LINE
  5
4CBD
  8
0
 10
613.81127513681122
 20
227.05978776427219
 30
0.0
 11
613.81127513681122
 21
228.55978776427219
 31
0.0
  0
LINE
  5
4CBE
  8
0
 10
613.81127513681122
 20
228.55978776427219
 30
0.0
 11
612.31127513681122
 21
230.05978776427219
 31
0.0
  0
LINE
  5
4CBF
  8
0
 10
550.31127513681122
 20
230.05978776427219
 30
0.0
 11
548.81127513681122
 21
228.55978776427219
 31
0.0
  0
LINE
  5
4CC0
  8
0
 10
548.81127513681122
 20
228.55978776427219
 30
0.0
 11
548.81127513681122
 21
227.05978776427219
 31
0.0
  0
LINE
  5
4CC1
  8
0
 10
548.81127513681122
 20
227.05978776427219
 30
0.0
 11
550.31127513681122
 21
227.05978776427219
 31
0.0
  0
LINE
  5
4CC2
  8
0
 10
550.31127513681122
 20
227.05978776427219
 30
0.0
 11
550.31127513681122
 21
223.55978776427219
 31
0.0
  0
LINE
  5
4CC3
  8
0
 10
550.31127513681122
 20
223.55978776427219
 30
0.0
 11
548.81127513681122
 21
223.55978776427219
 31
0.0
  0
CIRCLE
  5
4CDA
  8
0
 10
581.3114751368114
 20
247.7592877642671
 30
0.0
 40
1.5494999999999659
  0
LINE
  5
4CDD
  8
0
 10
246.7042445104648
 20
244.25978776427229
 30
0.0
 11
246.7042445104648
 21
234.05978776427239
 31
0.0
  0
LINE
  5
4CDE
  8
0
 10
301.70424451046478
 20
244.25978776427229
 30
0.0
 11
301.70424451046478
 21
234.05978776427199
 31
0.0
  0
LINE
  5
4CDF
  8
0
 10
246.7042445104648
 20
244.25978776427229
 30
0.0
 11
301.70424451046478
 21
244.25978776427229
 31
0.0
  0
LINE
  5
4CE0
  8
0
 10
246.7042445104648
 20
242.81641209129839
 30
0.0
 11
250.0709646818176
 21
242.81641209129839
 31
0.0
  0
LINE
  5
4CE1
  8
0
 10
270.83752433911252
 20
242.81641209129839
 30
0.0
 11
277.57096468181709
 21
242.81641209129819
 31
0.0
  0
LINE
  5
4CE2
  8
0
 10
298.33752433911241
 20
242.81641209129839
 30
0.0
 11
301.70424451046478
 21
242.81641209129839
 31
0.0
  0
LINE
  5
4CE3
  8
0
 10
246.7042445104648
 20
234.05978776427239
 30
0.0
 11
301.70424451046478
 21
234.05978776427199
 31
0.0
  0
LINE
  5
4CE4
  8
0
 10
246.7042445104648
 20
235.50316343724629
 30
0.0
 11
250.0709646818172
 21
235.50316343724629
 31
0.0
  0
LINE
  5
4CE5
  8
0
 10
270.83752433911269
 20
235.50316343724609
 30
0.0
 11
277.57096468181709
 21
235.50316343724609
 31
0.0
  0
LINE
  5
4CE6
  8
0
 10
298.33752433911098
 20
235.50316343724609
 30
0.0
 11
301.70424451046478
 21
235.5031634372458
 31
0.0
  0
LINE
  5
4CE7
  8
0
 10
277.57096468181709
 20
242.81641209129839
 30
0.0
 11
277.57096468181709
 21
235.50316343724609
 31
0.0
  0
LINE
  5
4CE8
  8
0
 10
270.83752433911269
 20
242.81641209129839
 30
0.0
 11
270.83752433911269
 21
235.50316343724609
 31
0.0
  0
ARC
  5
4CE9
  8
0
 10
260.45424451046489
 20
206.19075438957569
 30
0.0
 40
38.069033374696573
 50
74.172103069782551
 51
105.82789693021741
  0
ARC
  5
4CEA
  8
0
 10
260.45424451046489
 20
272.12882113896899
 30
0.0
 40
38.069033374696573
 50
254.17210306978251
 51
285.82789693021738
  0
ARC
  5
4CEB
  8
0
 10
287.95424451046472
 20
206.19075438957569
 30
0.0
 40
38.069033374696573
 50
74.172103069782551
 51
105.82789693021741
  0
ARC
  5
4CEC
  8
0
 10
287.95424451046472
 20
272.12882113896899
 30
0.0
 40
38.069033374696573
 50
254.17210306978251
 51
285.82789693021738
  0
LINE
  5
4CED
  8
0
 10
250.0709646818176
 20
242.81641209129839
 30
0.0
 11
250.07096468181669
 21
235.50316343724651
 31
0.0
  0
LINE
  5
4CEE
  8
0
 10
298.3375243391132
 20
242.81641209129819
 30
0.0
 11
298.3375243391132
 21
235.50316343724651
 31
0.0
  0
LINE
  5
4CEF
  8
0
 10
305.20444451046478
 20
230.05978776427219
 30
0.0
 11
243.20404451046491
 21
230.05978776427219
 31
0.0
  0
LINE
  5
4CF0
  8
0
 10
247.2044445104649
 20
234.05978776427219
 30
0.0
 11
247.2044445104649
 21
230.05978776427239
 31
0.0
  0
LINE
  5
4CF1
  8
0
 10
301.2044445104649
 20
234.05978776427219
 30
0.0
 11
301.2044445104649
 21
230.05978776427239
 31
0.0
  0
ARC
  5
4CF2
  8
0
 10
249.95444451046589
 20
251.27111262967631
 30
0.0
 40
3.2999999999999989
 50
89.999999999986969
 51
179.99999999998701
  0
LINE
  5
4CF3
  8
0
 10
246.65444451046591
 20
251.27111262967679
 30
0.0
 11
246.65444451046471
 21
244.25978776427201
 31
0.0
  0
LINE
  5
4CF4
  8
0
 10
298.45444451046649
 20
254.57111262966851
 30
0.0
 11
249.95444451046649
 21
254.57111262967629
 31
0.0
  0
ARC
  5
4CF5
  8
0
 10
298.45444451046592
 20
251.27111262966861
 30
0.0
 40
3.2999999999999989
 50
359.99999999998698
 51
89.999999999986969
  0
LINE
  5
4CF6
  8
0
 10
301.75444451046587
 20
251.2711126296681
 30
0.0
 11
301.75444451046491
 21
244.25978776427229
 31
0.0
  0
LINE
  5
4CF7
  8
0
 10
294.2044445104649
 20
254.5711126296724
 30
0.0
 11
254.2044445104649
 21
254.5711126296724
 31
0.0
  0
LINE
  5
4CF8
  8
0
 10
254.2044445104649
 20
255.07011262967239
 30
0.0
 11
294.2044445104649
 21
255.07011262967239
 31
0.0
  0
LINE
  5
4CF9
  8
0
 10
254.2044445104649
 20
254.5711126296724
 30
0.0
 11
254.2044445104649
 21
255.07011262967239
 31
0.0
  0
ARC
  5
4CFA
  8
0
 10
274.20394451046639
 20
255.07011262967239
 30
0.0
 40
0.9975000000000022
 50
0.0
 51
180.0
  0
LINE
  5
4CFB
  8
0
 10
294.2044445104649
 20
255.07011262967239
 30
0.0
 11
294.2044445104649
 21
254.5711126296724
 31
0.0
  0
LINE
  5
4CFC
  8
0
 10
272.20424451046478
 20
230.05978776427219
 30
0.0
 11
272.20424451046478
 21
227.05978776427219
 31
0.0
  0
LINE
  5
4CFD
  8
0
 10
276.20424451046478
 20
230.05978776427219
 30
0.0
 11
276.20424451046478
 21
227.05978776427219
 31
0.0
  0
LINE
  5
4CFE
  8
0
 10
306.70424451046438
 20
223.55978776427219
 30
0.0
 11
241.70424451046441
 21
223.55978776427219
 31
0.0
  0
LINE
  5
4CFF
  8
0
 10
272.20424451046478
 20
227.05978776427219
 30
0.0
 11
243.2042445104648
 21
227.05978776427219
 31
0.0
  0
LINE
  5
4D00
  8
0
 10
305.20424451046478
 20
227.05978776427219
 30
0.0
 11
276.20424451046478
 21
227.05978776427219
 31
0.0
  0
LINE
  5
4D01
  8
0
 10
272.20424451046478
 20
228.55978776427219
 30
0.0
 11
241.7042445104648
 21
228.55978776427219
 31
0.0
  0
LINE
  5
4D02
  8
0
 10
306.70424451046478
 20
228.55978776427219
 30
0.0
 11
276.20424451046478
 21
228.55978776427219
 31
0.0
  0
LINE
  5
4D04
  8
0
 10
305.20424451046478
 20
223.55978776427219
 30
0.0
 11
305.20424451046478
 21
227.05978776427219
 31
0.0
  0
LINE
  5
4D05
  8
0
 10
305.20424451046478
 20
227.05978776427219
 30
0.0
 11
306.70424451046478
 21
227.05978776427219
 31
0.0
  0
LINE
  5
4D06
  8
0
 10
306.70424451046478
 20
227.05978776427219
 30
0.0
 11
306.70424451046478
 21
228.55978776427219
 31
0.0
  0
LINE
  5
4D07
  8
0
 10
306.70424451046478
 20
228.55978776427219
 30
0.0
 11
305.20424451046478
 21
230.05978776427219
 31
0.0
  0
LINE
  5
4D08
  8
0
 10
243.2042445104648
 20
230.05978776427219
 30
0.0
 11
241.7042445104648
 21
228.55978776427219
 31
0.0
  0
LINE
  5
4D09
  8
0
 10
241.7042445104648
 20
228.55978776427219
 30
0.0
 11
241.7042445104648
 21
227.05978776427219
 31
0.0
  0
LINE
  5
4D0A
  8
0
 10
241.7042445104648
 20
227.05978776427219
 30
0.0
 11
243.2042445104648
 21
227.05978776427219
 31
0.0
  0
LINE
  5
4D0B
  8
0
 10
243.2042445104648
 20
227.05978776427219
 30
0.0
 11
243.2042445104648
 21
223.55978776427219
 31
0.0
  0
CIRCLE
  5
4D0D
  8
0
 10
274.20444451046512
 20
247.7592877642671
 30
0.0
 40
1.5494999999999659
  0
ARC
  5
4D64
  8
0
 10
437.21959188405913
 20
189.05976278019281
 30
0.0
 40
37.863556135774871
 50
339.93549957145461
 51
20.06403388159476
  0
ARC
  5
4D65
  8
0
 10
424.94953052604149
 20
189.05928776427109
 30
0.0
 40
37.866382509822429
 50
159.93648939698531
 51
200.0635106030123
  0
LINE
  5
4D66
  8
0
 10
400.08283842213262
 20
494.87786353224232
 30
0.0
 11
462.08323842213252
 21
494.87786353224232
 31
0.0
  0
LINE
  5
4D67
  8
0
 10
458.0828384221324
 20
498.87786353224232
 30
0.0
 11
458.0828384221324
 21
494.87786353224249
 31
0.0
  0
LINE
  5
4D68
  8
0
 10
404.0828384221324
 20
498.87786353224232
 30
0.0
 11
404.0828384221324
 21
494.87786353224249
 31
0.0
  0
LINE
  5
4D69
  8
0
 10
401.08283842213251
 20
507.64581272467348
 30
0.0
 11
401.08283842213262
 21
500.6099143398111
 31
0.0
  0
LINE
  5
4D6A
  8
0
 10
403.5828384221324
 20
509.0891883976476
 30
0.0
 11
401.08283842213251
 21
507.64581272467348
 31
0.0
  0
ARC
  5
4D6B
  8
0
 10
455.33283842213137
 20
516.08918839764635
 30
0.0
 40
3.2999999999999989
 50
0.0000000000130346
 51
90.000000000013031
  0
LINE
  5
4D6C
  8
0
 10
458.6328384221315
 20
516.08918839764692
 30
0.0
 11
458.63283842213258
 21
509.07786353224208
 31
0.0
  0
LINE
  5
4D6D
  8
0
 10
406.83283842213081
 20
519.38918839763869
 30
0.0
 11
455.33283842213081
 21
519.38918839764642
 31
0.0
  0
ARC
  5
4D6E
  8
0
 10
406.83283842213137
 20
516.08918839763874
 30
0.0
 40
3.2999999999999989
 50
90.000000000013031
 51
180.00000000001299
  0
LINE
  5
4D6F
  8
0
 10
403.53283842213148
 20
516.08918839763828
 30
0.0
 11
403.53283842213239
 21
509.07786353224242
 31
0.0
  0
LINE
  5
4D70
  8
0
 10
411.0828384221324
 20
519.38918839764256
 30
0.0
 11
451.08283842213251
 21
519.38918839764256
 31
0.0
  0
LINE
  5
4D71
  8
0
 10
451.08283842213251
 20
519.88818839764247
 30
0.0
 11
411.0828384221324
 21
519.88818839764247
 31
0.0
  0
LINE
  5
4D72
  8
0
 10
451.08283842213251
 20
519.38918839764256
 30
0.0
 11
451.08283842213251
 21
519.88818839764247
 31
0.0
  0
ARC
  5
4D73
  8
0
 10
431.08333842213091
 20
519.88818839764247
 30
0.0
 40
0.9975000000000022
 50
0.000000000000007
 51
180.0
  0
LINE
  5
4D74
  8
0
 10
411.0828384221324
 20
519.88818839764247
 30
0.0
 11
411.0828384221324
 21
519.38918839764256
 31
0.0
  0
LINE
  5
4D75
  8
0
 10
400.57503842213242
 20
422.41086353224222
 30
0.0
 11
424.61703842213251
 21
398.36986353224239
 31
0.0
  0
LINE
  5
4D76
  8
0
 10
433.08303842213252
 20
494.87786353224232
 30
0.0
 11
433.08303842213252
 21
491.87786353224232
 31
0.0
  0
LINE
  5
4D77
  8
0
 10
429.08303842213252
 20
494.87786353224232
 30
0.0
 11
429.08303842213252
 21
491.87786353224232
 31
0.0
  0
LINE
  5
4D78
  8
0
 10
448.66603842213237
 20
434.24786353224221
 30
0.0
 11
424.60903842213241
 21
410.19086353224242
 31
0.0
  0
LINE
  5
4D79
  8
0
 10
472.78503842213252
 20
466.86786353224232
 30
0.0
 11
389.3811480195202
 21
466.86786353224232
 31
0.0
  0
LINE
  5
4D7A
  8
0
 10
389.3811480195202
 20
440.88686353224239
 30
0.0
 11
472.78503842213252
 21
440.88686353224239
 31
0.0
  0
LINE
  5
4D7B
  8
0
 10
400.08303842213252
 20
488.37786353224232
 30
0.0
 11
462.08303842213252
 21
488.37786353224232
 31
0.0
  0
LINE
  5
4D7C
  8
0
 10
433.08303842213252
 20
491.87786353224232
 30
0.0
 11
462.08303842213252
 21
491.87786353224232
 31
0.0
  0
LINE
  5
4D7D
  8
0
 10
400.08303842213252
 20
491.87786353224232
 30
0.0
 11
429.08303842213252
 21
491.87786353224232
 31
0.0
  0
LINE
  5
4D7E
  8
0
 10
433.08303842213252
 20
493.37786353224237
 30
0.0
 11
463.58303842213252
 21
493.37786353224237
 31
0.0
  0
LINE
  5
4D7F
  8
0
 10
398.58303842213252
 20
493.37786353224237
 30
0.0
 11
429.08303842213252
 21
493.37786353224237
 31
0.0
  0
LINE
  5
4D80
  8
0
 10
403.0830384221324
 20
427.89686353224232
 30
0.0
 11
403.0830384221324
 21
434.24786353224221
 31
0.0
  0
LINE
  5
4D81
  8
0
 10
403.0830384221324
 20
434.24786353224221
 30
0.0
 11
448.66603842213237
 21
434.24786353224221
 31
0.0
  0
LINE
  5
4D82
  8
0
 10
448.66603842213237
 20
434.24786353224221
 30
0.0
 11
451.31503842213249
 21
427.89686353224232
 31
0.0
  0
LINE
  5
4D83
  8
0
 10
428.84703842213253
 20
404.01486353224232
 30
0.0
 11
412.57603842213251
 21
420.28586353224227
 31
0.0
  0
LINE
  5
4D84
  8
0
 10
412.57603842213251
 20
420.28586353224227
 30
0.0
 11
411.63503842213248
 21
419.34486353224241
 31
0.0
  0
LINE
  5
4D85
  8
0
 10
411.63503842213248
 20
419.34486353224241
 30
0.0
 11
403.15703842213242
 21
427.82186353224228
 31
0.0
  0
LINE
  5
4D86
  8
0
 10
463.58303842213252
 20
488.37786353224232
 30
0.0
 11
463.58303842213252
 21
482.86086353224232
 31
0.0
  0
LINE
  5
4D87
  8
0
 10
472.78503842213252
 20
479.85786353224239
 30
0.0
 11
475.08303842213252
 21
475.87786353224232
 31
0.0
  0
LINE
  5
4D88
  8
0
 10
475.08303842213252
 20
431.87786353224237
 30
0.0
 11
472.78503842213252
 21
427.89686353224232
 31
0.0
  0
LINE
  5
4D89
  8
0
 10
472.78503842213252
 20
427.89686353224232
 30
0.0
 11
451.31503842213249
 21
427.89686353224232
 31
0.0
  0
LINE
  5
4D8A
  8
0
 10
451.31503842213249
 20
427.89686353224232
 30
0.0
 11
428.84703842213253
 21
405.42886353224219
 31
0.0
  0
LINE
  5
4D8B
  8
0
 10
428.84703842213253
 20
405.42886353224219
 30
0.0
 11
428.84703842213253
 21
405.42886353224219
 31
0.0
  0
LINE
  5
4D8C
  8
0
 10
428.84703842213253
 20
405.42886353224219
 30
0.0
 11
428.75203842213239
 21
405.3188635322424
 31
0.0
  0
LINE
  5
4D8D
  8
0
 10
428.75203842213239
 20
405.3188635322424
 30
0.0
 11
428.67103842213248
 21
405.18986353224221
 31
0.0
  0
LINE
  5
4D8E
  8
0
 10
428.67103842213248
 20
405.18986353224221
 30
0.0
 11
428.60803842213249
 21
405.0438635322422
 31
0.0
  0
LINE
  5
4D8F
  8
0
 10
428.60803842213249
 20
405.0438635322422
 30
0.0
 11
428.56803842213247
 21
404.88586353224241
 31
0.0
  0
LINE
  5
4D90
  8
0
 10
428.56803842213247
 20
404.88586353224241
 30
0.0
 11
428.55403842213252
 21
404.72186353224231
 31
0.0
  0
LINE
  5
4D91
  8
0
 10
428.55403842213252
 20
404.72186353224231
 30
0.0
 11
428.56803842213247
 21
404.5568635322424
 31
0.0
  0
LINE
  5
4D92
  8
0
 10
428.56803842213247
 20
404.5568635322424
 30
0.0
 11
428.60803842213249
 21
404.39886353224227
 31
0.0
  0
LINE
  5
4D93
  8
0
 10
428.60803842213249
 20
404.39886353224227
 30
0.0
 11
428.67103842213248
 21
404.25386353224229
 31
0.0
  0
LINE
  5
4D94
  8
0
 10
428.67103842213248
 20
404.25386353224229
 30
0.0
 11
428.84703842213253
 21
404.01486353224232
 31
0.0
  0
LINE
  5
4D95
  8
0
 10
428.84703842213253
 20
404.01486353224232
 30
0.0
 11
428.84703842213253
 21
404.01486353224232
 31
0.0
  0
LINE
  5
4D96
  8
0
 10
428.84703842213253
 20
404.01486353224232
 30
0.0
 11
428.84703842213253
 21
404.01486353224232
 31
0.0
  0
LINE
  5
4D97
  8
0
 10
428.84703842213253
 20
404.01486353224232
 30
0.0
 11
428.9420384221325
 21
403.90486353224242
 31
0.0
  0
LINE
  5
4D98
  8
0
 10
428.9420384221325
 20
403.90486353224242
 30
0.0
 11
429.02403842213238
 21
403.77586353224228
 31
0.0
  0
LINE
  5
4D99
  8
0
 10
429.02403842213238
 20
403.77586353224228
 30
0.0
 11
429.08703842213248
 21
403.62986353224233
 31
0.0
  0
LINE
  5
4D9A
  8
0
 10
429.08703842213248
 20
403.62986353224233
 30
0.0
 11
429.12703842213239
 21
403.47186353224242
 31
0.0
  0
LINE
  5
4D9B
  8
0
 10
429.12703842213239
 20
403.47186353224242
 30
0.0
 11
429.14003842213242
 21
403.30786353224238
 31
0.0
  0
LINE
  5
4D9C
  8
0
 10
429.14003842213242
 20
403.30786353224238
 30
0.0
 11
429.12703842213239
 21
403.14286353224242
 31
0.0
  0
LINE
  5
4D9D
  8
0
 10
429.12703842213239
 20
403.14286353224242
 30
0.0
 11
429.08703842213248
 21
402.98486353224229
 31
0.0
  0
LINE
  5
4D9E
  8
0
 10
429.08703842213248
 20
402.98486353224229
 30
0.0
 11
429.02403842213238
 21
402.8398635322423
 31
0.0
  0
LINE
  5
4D9F
  8
0
 10
429.02403842213238
 20
402.8398635322423
 30
0.0
 11
428.84703842213253
 21
402.60086353224227
 31
0.0
  0
LINE
  5
4DA0
  8
0
 10
428.84703842213253
 20
402.60086353224227
 30
0.0
 11
424.61703842213251
 21
398.36986353224239
 31
0.0
  0
LINE
  5
4DA1
  8
0
 10
424.61703842213251
 20
398.36986353224239
 30
0.0
 11
423.20203842213249
 21
398.36986353224239
 31
0.0
  0
LINE
  5
4DA2
  8
0
 10
423.20203842213249
 20
398.36986353224239
 30
0.0
 11
400.57503842213242
 21
420.9968635322424
 31
0.0
  0
LINE
  5
4DA3
  8
0
 10
400.57503842213242
 20
420.9968635322424
 30
0.0
 11
400.57503842213242
 21
422.41086353224222
 31
0.0
  0
LINE
  5
4DA4
  8
0
 10
400.57503842213242
 20
422.41086353224222
 30
0.0
 11
403.15703842213242
 21
424.9938635322423
 31
0.0
  0
LINE
  5
4DA5
  8
0
 10
403.15703842213242
 20
424.9938635322423
 30
0.0
 11
403.15703842213242
 21
424.9938635322423
 31
0.0
  0
LINE
  5
4DA6
  8
0
 10
403.15703842213242
 20
424.9938635322423
 30
0.0
 11
403.34703842213253
 21
425.21386353224233
 31
0.0
  0
LINE
  5
4DA7
  8
0
 10
403.34703842213253
 20
425.21386353224233
 30
0.0
 11
403.51103842213251
 21
425.47186353224242
 31
0.0
  0
LINE
  5
4DA8
  8
0
 10
403.51103842213251
 20
425.47186353224242
 30
0.0
 11
403.63603842213251
 21
425.76286353224231
 31
0.0
  0
LINE
  5
4DA9
  8
0
 10
403.63603842213251
 20
425.76286353224231
 30
0.0
 11
403.71603842213239
 21
426.07886353224228
 31
0.0
  0
LINE
  5
4DAA
  8
0
 10
403.71603842213239
 20
426.07886353224228
 30
0.0
 11
403.74303842213237
 21
426.40786353224229
 31
0.0
  0
LINE
  5
4DAB
  8
0
 10
403.74303842213237
 20
426.40786353224229
 30
0.0
 11
403.71603842213239
 21
426.7368635322423
 31
0.0
  0
LINE
  5
4DAC
  8
0
 10
403.71603842213239
 20
426.7368635322423
 30
0.0
 11
403.63603842213251
 21
427.05286353224233
 31
0.0
  0
LINE
  5
4DAD
  8
0
 10
403.63603842213251
 20
427.05286353224233
 30
0.0
 11
403.51103842213251
 21
427.34386353224249
 31
0.0
  0
LINE
  5
4DAE
  8
0
 10
403.51103842213251
 20
427.34386353224249
 30
0.0
 11
403.15703842213242
 21
427.82186353224228
 31
0.0
  0
LINE
  5
4DAF
  8
0
 10
403.15703842213242
 20
427.82186353224228
 30
0.0
 11
403.0830384221324
 21
427.89686353224232
 31
0.0
  0
LINE
  5
4DB0
  8
0
 10
403.0830384221324
 20
427.89686353224232
 30
0.0
 11
389.3811480195202
 21
427.89686353224232
 31
0.0
  0
LINE
  5
4DB1
  8
0
 10
389.3811480195202
 20
479.85786353224239
 30
0.0
 11
395.58303842213252
 21
479.85786353224239
 31
0.0
  0
LINE
  5
4DB2
  8
0
 10
398.58303842213252
 20
482.85786353224239
 30
0.0
 11
398.58303842213252
 21
488.37786353224232
 31
0.0
  0
LINE
  5
4DB3
  8
0
 10
398.58303842213252
 20
488.37786353224232
 30
0.0
 11
400.08303842213252
 21
488.37786353224232
 31
0.0
  0
LINE
  5
4DB4
  8
0
 10
400.08303842213252
 20
488.37786353224232
 30
0.0
 11
400.08303842213252
 21
491.87786353224232
 31
0.0
  0
LINE
  5
4DB5
  8
0
 10
400.08303842213252
 20
491.87786353224232
 30
0.0
 11
398.58303842213252
 21
491.87786353224232
 31
0.0
  0
LINE
  5
4DB6
  8
0
 10
398.58303842213252
 20
491.87786353224232
 30
0.0
 11
398.58303842213252
 21
493.37786353224237
 31
0.0
  0
LINE
  5
4DB7
  8
0
 10
398.58303842213252
 20
493.37786353224237
 30
0.0
 11
400.08303842213252
 21
494.87786353224232
 31
0.0
  0
LINE
  5
4DB8
  8
0
 10
462.08303842213252
 20
494.87786353224232
 30
0.0
 11
463.58303842213252
 21
493.37786353224237
 31
0.0
  0
LINE
  5
4DB9
  8
0
 10
463.58303842213252
 20
493.37786353224237
 30
0.0
 11
463.58303842213252
 21
491.87786353224232
 31
0.0
  0
LINE
  5
4DBA
  8
0
 10
463.58303842213252
 20
491.87786353224232
 30
0.0
 11
462.08303842213252
 21
491.87786353224232
 31
0.0
  0
LINE
  5
4DBB
  8
0
 10
462.08303842213252
 20
491.87786353224232
 30
0.0
 11
462.08303842213252
 21
488.37786353224232
 31
0.0
  0
LINE
  5
4DBC
  8
0
 10
462.08303842213252
 20
488.37786353224232
 30
0.0
 11
463.58303842213252
 21
488.37786353224232
 31
0.0
  0
LINE
  5
4DBD
  8
0
 10
463.58303842213252
 20
488.37786353224232
 30
0.0
 11
463.57304826773702
 21
482.86329830593212
 31
0.0
  0
CIRCLE
  5
4DBE
  8
0
 10
431.08303842213252
 20
471.86786353224232
 30
0.0
 40
1.5
  0
ARC
  5
4DBF
  8
0
 10
464.75568596088368
 20
473.3628635322425
 30
0.0
 40
10.32741622802927
 50
321.0303594442093
 51
21.033510560383629
  0
ARC
  5
4DC0
  8
0
 10
464.75568596088368
 20
434.39286353224219
 30
0.0
 40
10.32741622802927
 50
338.96648943960179
 51
38.969640555793262
  0
LINE
  5
4DC1
  8
0
 10
475.08303842213252
 20
475.87786353224232
 30
0.0
 11
475.08303842213252
 21
431.87786353224237
 31
0.0
  0
LINE
  5
4DC2
  8
0
 10
389.38093264739661
 20
479.85769374669047
 30
0.0
 11
387.08294885154851
 21
475.87768439066889
 31
0.0
  0
LINE
  5
4DC3
  8
0
 10
387.08312799271653
 20
431.87768439103343
 30
0.0
 11
389.38114420090182
 21
427.89669374712111
 31
0.0
  0
ARC
  5
4DC4
  8
0
 10
397.41031155225789
 20
473.36272643737129
 30
0.0
 40
10.32741622802927
 50
158.96672271308671
 51
218.9698738292567
  0
ARC
  5
4DC5
  8
0
 10
397.41047021433337
 20
434.39272643769408
 30
0.0
 40
10.32741622802927
 50
141.0305927176878
 51
201.03374383387029
  0
LINE
  5
4DC6
  8
0
 10
387.08294885154851
 20
475.87768439066889
 30
0.0
 11
387.08312799271653
 21
431.87768439103343
 31
0.0
  0
LINE
  5
4DC7
  8
0
 10
472.78503842213252
 20
479.85786353224239
 30
0.0
 11
466.57304334493909
 21
479.85786353224148
 31
0.0
  0
ARC
  5
4DC8
  8
0
 10
466.57304334493881
 20
482.85786353224142
 30
0.0
 40
3.0
 50
179.89620341153261
 51
270.00000000000648
  0
ARC
  5
4DC9
  8
0
 10
395.59337325883359
 20
482.85567954239281
 30
0.0
 40
2.9999999999999991
 50
270.0035258941187
 51
0.1073224825887885
  0
ARC
  5
4DCA
  8
0
 10
445.3427989570128
 20
486.58854097347989
 30
0.0
 40
19.264806140576152
 50
297.32826723906061
 51
336.9763537522353
  0
ARC
  5
4DCB
  8
0
 10
416.82327788725212
 20
486.58854097347989
 30
0.0
 40
19.264806140576152
 50
203.02364624776479
 51
242.67173276093939
  0
LINE
  5
4DCC
  8
0
 10
461.0828384221324
 20
507.63448785926812
 30
0.0
 11
461.0828384221324
 21
500.32123920521639
 31
0.0
  0
LINE
  5
4DCD
  8
0
 10
401.08283842213251
 20
507.63448785926829
 30
0.0
 11
401.08283842213251
 21
500.32123920521639
 31
0.0
  0
LINE
  5
4DCE
  8
0
 10
458.5828384221324
 20
498.87786353224232
 30
0.0
 11
403.5828384221324
 21
498.87786353224232
 31
0.0
  0
LINE
  5
4DCF
  8
0
 10
458.5828384221324
 20
509.07786353224208
 30
0.0
 11
403.5828384221324
 21
509.07786353224242
 31
0.0
  0
LINE
  5
4DD0
  8
0
 10
419.09325961385071
 20
507.63448785926829
 30
0.0
 11
419.09325961385071
 21
500.32123920521639
 31
0.0
  0
LINE
  5
4DD1
  8
0
 10
413.2619292222011
 20
507.63448785926852
 30
0.0
 11
413.2619292222011
 21
500.32123920521639
 31
0.0
  0
LINE
  5
4DD2
  8
0
 10
443.0724172304142
 20
507.63448785926829
 30
0.0
 11
443.0724172304142
 21
500.32123920521639
 31
0.0
  0
LINE
  5
4DD3
  8
0
 10
448.90374762206392
 20
507.63448785926829
 30
0.0
 11
448.90374762206392
 21
500.3212392052161
 31
0.0
  0
LINE
  5
4DD4
  8
0
 10
403.5828384221324
 20
509.07786353224242
 30
0.0
 11
401.08283842213251
 21
507.63448785926829
 31
0.0
  0
LINE
  5
4DD5
  8
0
 10
403.5828384221324
 20
498.87786353224232
 30
0.0
 11
401.08283842213251
 21
500.32123920521639
 31
0.0
  0
LINE
  5
4DD6
  8
0
 10
413.2619292222011
 20
500.32123920521639
 30
0.0
 11
419.09325961385071
 21
500.32123920521639
 31
0.0
  0
LINE
  5
4DD7
  8
0
 10
443.07241723041437
 20
500.32123920521639
 30
0.0
 11
448.90374762206392
 21
500.32123920521639
 31
0.0
  0
ARC
  5
4DD8
  8
0
 10
407.17238382216658
 20
512.44530584429651
 30
0.0
 40
13.56744467642805
 50
243.33103023467879
 51
296.66896976532132
  0
ARC
  5
4DD9
  8
0
 10
431.0828384221324
 20
549.39601208633644
 30
0.0
 40
50.518148554094068
 50
256.27086732458361
 51
283.72913267541639
  0
ARC
  5
4DDA
  8
0
 10
454.99329302209821
 20
512.4453058442964
 30
0.0
 40
13.56744467642805
 50
243.33103023467879
 51
296.66896976532132
  0
LINE
  5
4DDB
  8
0
 10
458.5828384221324
 20
509.07786353224208
 30
0.0
 11
461.0828384221324
 21
507.63448785926812
 31
0.0
  0
LINE
  5
4DDC
  8
0
 10
458.5828384221324
 20
498.87786353224232
 30
0.0
 11
461.0828384221324
 21
500.32123920521639
 31
0.0
  0
LINE
  5
4DDD
  8
0
 10
413.2619292222011
 20
507.63448785926852
 30
0.0
 11
419.09325961385071
 21
507.63448785926829
 31
0.0
  0
LINE
  5
4DDE
  8
0
 10
443.07241723041437
 20
507.63448785926829
 30
0.0
 11
448.90374762206392
 21
507.63448785926829
 31
0.0
  0
ARC
  5
4DDF
  8
0
 10
407.17238382216658
 20
495.51042122018839
 30
0.0
 40
13.56744467642805
 50
63.331030234678771
 51
116.66896976532119
  0
ARC
  5
4DE0
  8
0
 10
431.08283842213223
 20
458.55971497814841
 30
0.0
 40
50.518148554094068
 50
76.270867324583548
 51
103.72913267541639
  0
ARC
  5
4DE1
  8
0
 10
454.99329302209821
 20
495.51042122018811
 30
0.0
 40
13.56744467642805
 50
63.331030234678771
 51
116.66896976532119
  0
CIRCLE
  5
4DE2
  8
0
 10
431.08283842213223
 20
512.57736353223731
 30
0.0
 40
1.5494999999999659
  0
ARC
  5
4DE3
  8
0
 10
393.4603277879919
 20
391.25515289809471
 30
0.0
 40
24.880184541946139
 50
28.961772759894458
 51
61.03822724010427
  0
LINE
  5
4DE4
  8
0
 10
421.48310001727663
 20
398.418275082376
 30
0.0
 11
400.62344997227359
 21
419.27792512737898
 31
0.0
  0
LINE
  5
4DE5
  8
0
 10
415.8262457677842
 20
392.76142083288357
 30
0.0
 11
394.96659572278122
 21
413.6210708778865
 31
0.0
  0
ARC
  5
4DE6
  8
0
 10
422.98936795210511
 20
420.78419306220877
 30
0.0
 40
24.880184542003899
 50
208.9617727599323
 51
241.03822724006719
  0
LINE
  5
4DE7
  8
0
 10
415.22907042398259
 20
403.30278448647363
 30
0.0
 11
410.9417363636843
 21
399.0154504261763
 31
0.0
  0
ARC
  5
4DE8
  8
0
 10
419.31265776991722
 20
398.703059822912
 30
0.0
 40
6.666680248538392
 50
193.73041864319089
 51
250.02182619699329
  0
LINE
  5
4DE9
  8
0
 10
410.9417363636843
 20
399.0154504261763
 30
0.0
 11
412.83648961341299
 21
397.12069717644761
 31
0.0
  0
LINE
  5
4DEA
  8
0
 10
415.22907042398259
 20
403.30278448647363
 30
0.0
 11
417.12382367371129
 21
401.40803123674527
 31
0.0
  0
LINE
  5
4DEB
  8
0
 10
421.30632332197592
 20
398.59505177767591
 30
0.0
 11
422.14158674933827
 21
399.43031520503871
 31
0.0
  0
LINE
  5
4DEC
  8
0
 10
415.82624576778329
 20
392.76142083288312
 30
0.0
 11
417.69704513721848
 21
392.26014165264212
 31
0.0
  0
LINE
  5
4DED
  8
0
 10
421.98437919751677
 20
396.5474757129399
 30
0.0
 11
417.69704513721848
 21
392.26014165264212
 31
0.0
  0
LINE
  5
4DEE
  8
0
 10
421.48310001727577
 20
398.4182750823756
 30
0.0
 11
421.98437919751677
 21
396.5474757129399
 31
0.0
  0
LINE
  5
4DEF
  8
0
 10
417.12382367371129
 20
401.40803123674527
 30
0.0
 11
412.83648961341299
 21
397.12069717644761
 31
0.0
  0
ARC
  5
4DF0
  8
0
 10
415.54146102724411
 20
394.93186308023888
 30
0.0
 40
6.666680248538392
 50
19.978173802688119
 51
76.26958135680178
  0
LINE
  5
4DF1
  8
0
 10
400.62344997227359
 20
419.27792512737898
 30
0.0
 11
398.75265060283567
 21
419.77920430762038
 31
0.0
  0
LINE
  5
4DF2
  8
0
 10
394.96659572278122
 20
413.6210708778865
 30
0.0
 11
394.46531654253931
 21
415.49187024732402
 31
0.0
  0
ARC
  5
4DF3
  8
0
 10
400.90823471280908
 20
417.10748288002088
 30
0.0
 40
6.666680248538392
 50
199.97817380299921
 51
256.26958135680178
  0
LINE
  5
4DF4
  8
0
 10
398.75265060283567
 20
419.77920430762038
 30
0.0
 11
394.46531654253931
 21
415.49187024732402
 31
0.0
  0
LINE
  5
4DF5
  8
0
 10
405.50795937637071
 20
413.0238955340854
 30
0.0
 11
403.61320612664122
 21
414.91864878381489
 31
0.0
  0
LINE
  5
4DF6
  8
0
 10
405.50795937637071
 20
413.0238955340854
 30
0.0
 11
401.22062531607253
 21
408.73656147378807
 31
0.0
  0
LINE
  5
4DF7
  8
0
 10
399.32587206634298
 20
410.63131472351682
 30
0.0
 11
401.22062531607253
 21
408.73656147378722
 31
0.0
  0
ARC
  5
4DF8
  8
0
 10
397.13703797013608
 20
413.33628613734879
 30
0.0
 40
6.666680248538392
 50
13.730418643198719
 51
70.021826197305103
  0
LINE
  5
4DF9
  8
0
 10
403.61320612664122
 20
414.91864878381489
 30
0.0
 11
399.32587206634298
 21
410.63131472351682
 31
0.0
  0
LINE
  5
4DFA
  8
0
 10
400.80022666756622
 20
419.1011484320864
 30
0.0
 11
401.63549009492579
 21
419.93641185944648
 31
0.0
  0
ARC
  5
4DFB
  8
0
 10
424.94659455759353
 20
453.87783854816291
 30
0.0
 40
37.863556135774871
 50
159.9359661184063
 51
200.0645004285474
  0
ARC
  5
4DFC
  8
0
 10
437.21665591561111
 20
453.8773635322413
 30
0.0
 40
37.866382509822429
 50
339.93648939698761
 51
20.063510603015359
  0
VIEWPORT
  5
41
 67
     1
  8
0
 10
117.358407079646
 20
73.5
 30
0.0
 40
234.716814159292
 41
147.0
 68
     1
 69
     1
1001
ACAD
1000
MVIEW
1002
{
1070
    16
1010
0.0
1020
0.0
1030
0.0
1010
0.0
1020
0.0
1030
1.0
1040
0.0
1040
147.0
1040
117.358407079646
1040
73.5
1040
50.0
1040
0.0
1040
0.0
1070
     0
1070
   100
1070
     1
1070
     1
1070
     0
1070
     0
1070
     0
1070
     0
1040
0.0
1040
0.0
1040
0.0
1040
1.0
1040
1.0
1040
0.0
1040
0.0
1070
     0
1002
{
1002
}
1002
}
  0
ENDSEC
  0
EOF
