  0
SECTION
  2
HEADER
  9
$ACADVER
  1
AC1009
  9
$INSBASE
 10
0.0
 20
0.0
 30
0.0
  9
$EXTMIN
 10
33.0
 20
15.0
 30
0.0
  9
$EXTMAX
 10
858.0
 20
573.0
 30
0.0
  9
$LIMMIN
 10
0.0
 20
0.0
  9
$LIMMAX
 10
891.0
 20
630.0
  9
$ORTHOMODE
 70
     1
  9
$REGENMODE
 70
     1
  9
$FILLMODE
 70
     1
  9
$QTEXTMODE
 70
     0
  9
$MIRRTEXT
 70
     1
  9
$DRAGMODE
 70
     2
  9
$LTSCALE
 40
12.0
  9
$OSMODE
 70
   163
  9
$ATTMODE
 70
     1
  9
$TEXTSIZE
 40
12.0
  9
$TRACEWID
 40
0.05
  9
$TEXTSTYLE
  7
STANDARD
  9
$CLAYER
  8
0
  9
$CELTYPE
  6
BYLAYER
  9
$CECOLOR
 62
   256
  9
$DIMSCALE
 40
3.0
  9
$DIMASZ
 40
2.8
  9
$DIMEXO
 40
1.0
  9
$DIMDLI
 40
5.0
  9
$DIMRND
 40
0.1
  9
$DIMDLE
 40
0.0
  9
$DIMEXE
 40
1.0
  9
$DIMTP
 40
0.0
  9
$DIMTM
 40
0.0
  9
$DIMTXT
 40
2.5
  9
$DIMCEN
 40
0.0
  9
$DIMTSZ
 40
0.0
  9
$DIMTOL
 70
     0
  9
$DIMLIM
 70
     0
  9
$DIMTIH
 70
     0
  9
$DIMTOH
 70
     0
  9
$DIMSE1
 70
     0
  9
$DIMSE2
 70
     0
  9
$DIMTAD
 70
     3
  9
$DIMZIN
 70
     8
  9
$DIMBLK
  1

  9
$DIMASO
 70
     1
  9
$DIMSHO
 70
     1
  9
$DIMPOST
  1
 
  9
$DIMAPOST
  1

  9
$DIMALT
 70
     0
  9
$DIMALTD
 70
     2
  9
$DIMALTF
 40
1.0
  9
$DIMLFAC
 40
1.0
  9
$DIMTOFL
 70
     1
  9
$DIMTVP
 40
0.0
  9
$DIMTIX
 70
     0
  9
$DIMSOXD
 70
     0
  9
$DIMSAH
 70
     1
  9
$DIMBLK1
  1
_OPEN
  9
$DIMBLK2
  1
_OPEN
  9
$DIMSTYLE
  2
DIM1
  9
$DIMCLRD
 70
     2
  9
$DIMCLRE
 70
     2
  9
$DIMCLRT
 70
     2
  9
$DIMTFAC
 40
0.7
  9
$DIMGAP
 40
0.85
  9
$LUNITS
 70
     2
  9
$LUPREC
 70
     4
  9
$SKETCHINC
 40
0.1
  9
$FILLETRAD
 40
0.5
  9
$AUNITS
 70
     0
  9
$AUPREC
 70
     0
  9
$MENU
  1
C:\ACADR13\WIN\SUPPORT\ACAD.mnc
  9
$ELEVATION
 40
0.0
  9
$PELEVATION
 40
0.0
  9
$THICKNESS
 40
0.0
  9
$LIMCHECK
 70
     0
  9
$BLIPMODE
 70
     1
  9
$CHAMFERA
 40
0.0
  9
$CHAMFERB
 40
0.0
  9
$SKPOLY
 70
     0
  9
$TDCREATE
 40
2451564.587412
  9
$TDUPDATE
 40
2451673.460434
  9
$TDINDWG
 40
0.116005
  9
$TDUSRTIMER
 40
0.116005
  9
$USRTIMER
 70
     1
  9
$ANGBASE
 50
0.0
  9
$ANGDIR
 70
     0
  9
$PDMODE
 70
     0
  9
$PDSIZE
 40
0.0
  9
$PLINEWID
 40
0.0
  9
$COORDS
 70
     1
  9
$SPLFRAME
 70
     0
  9
$SPLINETYPE
 70
     6
  9
$SPLINESEGS
 70
     8
  9
$ATTDIA
 70
     0
  9
$ATTREQ
 70
     1
  9
$HANDLING
 70
     1
  9
$HANDSEED
  5
50FA
  9
$SURFTAB1
 70
     6
  9
$SURFTAB2
 70
     6
  9
$SURFTYPE
 70
     6
  9
$SURFU
 70
     6
  9
$SURFV
 70
     6
  9
$UCSNAME
  2

  9
$UCSORG
 10
0.0
 20
0.0
 30
0.0
  9
$UCSXDIR
 10
1.0
 20
0.0
 30
0.0
  9
$UCSYDIR
 10
0.0
 20
1.0
 30
0.0
  9
$PUCSNAME
  2

  9
$PUCSORG
 10
0.0
 20
0.0
 30
0.0
  9
$PUCSXDIR
 10
1.0
 20
0.0
 30
0.0
  9
$PUCSYDIR
 10
0.0
 20
1.0
 30
0.0
  9
$USERI1
 70
     0
  9
$USERI2
 70
     0
  9
$USERI3
 70
     0
  9
$USERI4
 70
     0
  9
$USERI5
 70
     0
  9
$USERR1
 40
0.0
  9
$USERR2
 40
0.0
  9
$USERR3
 40
0.0
  9
$USERR4
 40
0.0
  9
$USERR5
 40
0.0
  9
$WORLDVIEW
 70
     1
  9
$SHADEDGE
 70
     3
  9
$SHADEDIF
 70
    70
  9
$TILEMODE
 70
     1
  9
$MAXACTVP
 70
    16
  9
$PLIMCHECK
 70
     0
  9
$PEXTMIN
 10
1.000000E+020
 20
1.000000E+020
 30
1.000000E+020
  9
$PEXTMAX
 10
-1.000000E+020
 20
-1.000000E+020
 30
-1.000000E+020
  9
$PLIMMIN
 10
0.0
 20
0.0
  9
$PLIMMAX
 10
20.0
 20
147.0
  9
$UNITMODE
 70
     0
  9
$VISRETAIN
 70
     0
  9
$PLINEGEN
 70
     0
  9
$PSLTSCALE
 70
     1
  0
ENDSEC
  0
SECTION
  2
TABLES
  0
TABLE
  2
VPORT
 70
     2
  0
VPORT
  2
*ACTIVE
 70
     0
 10
0.0
 20
0.0
 11
1.0
 21
1.0
 12
574.727428
 22
326.167313
 13
0.0
 23
0.0
 14
1.0
 24
1.0
 15
0.0
 25
0.0
 16
0.0
 26
0.0
 36
1.0
 17
0.0
 27
0.0
 37
0.0
 40
652.334625
 41
1.762063
 42
50.0
 43
0.0
 44
0.0
 50
0.0
 51
0.0
 71
     0
 72
   100
 73
     1
 74
     1
 75
     0
 76
     0
 77
     0
 78
     0
  0
ENDTAB
  0
TABLE
  2
LTYPE
 70
     5
  0
LTYPE
  2
CONTINUOUS
 70
     0
  3
Solid line
 72
    65
 73
     0
 40
0.0
  0
LTYPE
  2
DASHED
 70
     0
  3
__ __ __ __ __ __ __ __ __ __ __ __ __ __ __ __
 72
    65
 73
     2
 40
0.75
 49
0.5
 49
-0.25
  0
LTYPE
  2
HIDDEN
 70
     0
  3
__ __ __ __ __ __ __ __ __ __ __ __ __ __ __ __
 72
    65
 73
     2
 40
0.375
 49
0.25
 49
-0.125
  0
LTYPE
  2
CENTER
 70
     0
  3
____ _ ____ _ ____ _ ____ _ ____ _ ____ _ ____ 
 72
    65
 73
     4
 40
2.0
 49
1.25
 49
-0.25
 49
0.25
 49
-0.25
  0
LTYPE
  2
PHANTOM
 70
     0
  3
______  __  __  ______  __  __  ______  __  __ 
 72
    65
 73
     6
 40
2.5
 49
1.25
 49
-0.25
 49
0.25
 49
-0.25
 49
0.25
 49
-0.25
  0
ENDTAB
  0
TABLE
  2
LAYER
 70
    15
  0
LAYER
  2
0
 70
     0
 62
     7
  6
CONTINUOUS
  0
LAYER
  2
5
 70
     0
 62
     2
  6
CONTINUOUS
  0
LAYER
  2
1
 70
     0
 62
     4
  6
DASHED
  0
LAYER
  2
2
 70
     0
 62
     3
  6
CENTER
  0
LAYER
  2
3
 70
     0
 62
     5
  6
CONTINUOUS
  0
LAYER
  2
4
 70
     0
 62
     4
  6
PHANTOM
  0
LAYER
  2
HOJO
 70
     0
 62
     4
  6
HIDDEN
  0
LAYER
  2
6-TEX1
 70
     0
 62
     2
  6
CONTINUOUS
  0
LAYER
  2
8-TEX3
 70
     0
 62
     5
  6
CONTINUOUS
  0
LAYER
  2
7-TEX2
 70
     0
 62
     7
  6
CONTINUOUS
  0
LAYER
  2
DIM
 70
     0
 62
     2
  6
CONTINUOUS
  0
LAYER
  2
FORM
 70
     4
 62
     1
  6
CONTINUOUS
  0
LAYER
  2
BLK
 70
     0
 62
     7
  6
CONTINUOUS
  0
LAYER
  2
DUST
 70
     0
 62
     1
  6
CONTINUOUS
  0
LAYER
  2
DEFPOINTS
 70
     0
 62
     7
  6
CONTINUOUS
  0
ENDTAB
  0
TABLE
  2
STYLE
 70
     3
  0
STYLE
  2
STANDARD
 70
     0
 40
0.0
 41
0.8
 50
0.0
 71
     0
 42
12.0
  3
simplex
  4
extfont
  0
STYLE
  2
PTSH
 70
     0
 40
0.0
 41
0.9
 50
0.0
 71
     0
 42
4.0
  3
SIMPLEX
  4
EXTFONT
  0
STYLE
  2
DIM
 70
     0
 40
0.0
 41
0.8
 50
0.0
 71
     0
 42
4.0
  3
simplex
  4
extfont
  0
ENDTAB
  0
TABLE
  2
VIEW
 70
     0
  0
ENDTAB
  0
TABLE
  2
UCS
 70
     0
  0
ENDTAB
  0
TABLE
  2
APPID
 70
     1
  0
APPID
  2
ACAD
 70
     0
  0
ENDTAB
  0
TABLE
  2
DIMSTYLE
 70
     7
  0
DIMSTYLE
  2
DIM1
 70
     0
  3
 
  4

  5

  6
_OPEN
  7
_OPEN
 40
3.0
 41
2.8
 42
1.0
 43
5.0
 44
1.0
 45
0.1
 46
0.0
 47
0.0
 48
0.0
140
2.5
141
0.0
142
0.0
143
1.0
144
1.0
145
0.0
146
0.7
147
0.85
 71
     0
 72
     0
 73
     0
 74
     0
 75
     0
 76
     0
 77
     3
 78
     8
170
     0
171
     2
172
     1
173
     1
174
     0
175
     0
176
     2
177
     2
178
     2
  0
DIMSTYLE
  2
USER1
 70
     0
  3

  4

  5

  6
_OPEN
  7
_OPEN
 40
1.0
 41
2.8
 42
1.0
 43
5.0
 44
1.0
 45
0.1
 46
0.0
 47
0.0
 48
0.0
140
2.5
141
0.0
142
0.0
143
1.0
144
1.0
145
0.0
146
0.7
147
0.85
 71
     0
 72
     0
 73
     0
 74
     0
 75
     0
 76
     0
 77
     3
 78
     8
170
     0
171
     2
172
     1
173
     1
174
     0
175
     0
176
     2
177
     2
178
     2
  0
DIMSTYLE
  2
USER2
 70
     0
  3

  4

  5

  6
_OPEN
  7
_OPEN
 40
1.0
 41
2.8
 42
1.0
 43
5.0
 44
1.0
 45
0.1
 46
0.0
 47
0.0
 48
0.0
140
2.5
141
0.0
142
0.0
143
1.0
144
1.0
145
0.0
146
0.7
147
0.85
 71
     0
 72
     0
 73
     0
 74
     0
 75
     0
 76
     0
 77
     3
 78
     8
170
     0
171
     2
172
     1
173
     1
174
     0
175
     0
176
     2
177
     2
178
     2
  0
DIMSTYLE
  2
USER3
 70
     0
  3

  4

  5

  6
_OPEN
  7
_OPEN
 40
1.0
 41
2.8
 42
1.0
 43
5.0
 44
1.0
 45
0.1
 46
0.0
 47
0.0
 48
0.0
140
2.5
141
0.0
142
0.0
143
1.0
144
1.0
145
0.0
146
0.7
147
0.85
 71
     0
 72
     0
 73
     0
 74
     0
 75
     0
 76
     0
 77
     3
 78
     8
170
     0
171
     2
172
     1
173
     1
174
     0
175
     0
176
     2
177
     2
178
     2
  0
DIMSTYLE
  2
USER4
 70
     0
  3

  4

  5

  6
_OPEN
  7
_OPEN
 40
1.0
 41
2.8
 42
1.0
 43
5.0
 44
1.0
 45
0.1
 46
0.0
 47
0.0
 48
0.0
140
2.5
141
0.0
142
0.0
143
1.0
144
1.0
145
0.0
146
0.7
147
0.85
 71
     0
 72
     0
 73
     0
 74
     0
 75
     0
 76
     0
 77
     3
 78
     8
170
     0
171
     2
172
     1
173
     1
174
     0
175
     0
176
     2
177
     2
178
     2
  0
DIMSTYLE
  2
USER5
 70
     0
  3

  4

  5

  6
_OPEN
  7
_OPEN
 40
1.0
 41
2.8
 42
1.0
 43
5.0
 44
1.0
 45
0.1
 46
0.0
 47
0.0
 48
0.0
140
2.5
141
0.0
142
0.0
143
1.0
144
1.0
145
0.0
146
0.7
147
0.85
 71
     0
 72
     0
 73
     0
 74
     0
 75
     0
 76
     0
 77
     3
 78
     8
170
     0
171
     2
172
     1
173
     1
174
     0
175
     0
176
     2
177
     2
178
     2
  0
DIMSTYLE
  2
JIS1
 70
     0
  3

  4

  5

  6

  7

 40
1.0
 41
2.5
 42
0.0625
 43
0.38
 44
0.18
 45
0.1
 46
0.0
 47
0.0
 48
0.0
140
2.5
141
0.09
142
0.0
143
25.4
144
1.0
145
0.0
146
1.0
147
0.09
 71
     0
 72
     0
 73
     1
 74
     1
 75
     0
 76
     0
 77
     1
 78
    12
170
     0
171
     2
172
     0
173
     0
174
     0
175
     0
176
     0
177
     0
178
     0
  0
ENDTAB
  0
ENDSEC
  0
SECTION
  2
BLOCKS
  0
BLOCK
  8
0
  2
$MODEL_SPACE
 70
     0
 10
0.0
 20
0.0
 30
0.0
  3
$MODEL_SPACE
  1

  0
ENDBLK
  5
3D
  8
0
  0
BLOCK
 67
     1
  8
0
  2
$PAPER_SPACE
 70
     0
 10
0.0
 20
0.0
 30
0.0
  3
$PAPER_SPACE
  1

  0
ENDBLK
  5
3B
 67
     1
  8
0
  0
BLOCK
  8
0
  2
_OPEN
 70
     0
 10
0.0
 20
0.0
 30
0.0
  3
_OPEN
  1
H1111.DWG
  0
LINE
  5
244A
  8
0
  6
BYBLOCK
 62
     0
 10
-1.0
 20
0.166667
 30
0.0
 11
0.0
 21
0.0
 31
0.0
  0
LINE
  5
244B
  8
0
  6
BYBLOCK
 62
     0
 10
0.0
 20
0.0
 30
0.0
 11
-1.0
 21
-0.166667
 31
0.0
  0
LINE
  5
244C
  8
0
  6
BYBLOCK
 62
     0
 10
0.0
 20
0.0
 30
0.0
 11
-1.0
 21
0.0
 31
0.0
  0
ENDBLK
  5
244D
  8
0
  0
BLOCK
  8
0
  2
39FFF
 70
     0
 10
0.0
 20
0.0
 30
0.0
  3
39FFF
  1

  0
LINE
  5
4E8D
  8
0
 10
25.0
 20
362.2
 30
0.0
 11
135.0
 21
362.2
 31
0.0
  0
LINE
  5
4E8E
  8
0
 10
35.0
 20
363.2
 30
0.0
 11
125.0
 21
363.2
 31
0.0
  0
ARC
  5
4E8F
  8
0
 10
95.0
 20
225.5
 30
0.0
 40
30.0
 50
360.0
 51
90.0
  0
ARC
  5
4E90
  8
0
 10
102.0
 20
204.465098
 30
0.0
 40
3.0
 50
360.0
 51
90.0
  0
ARC
  5
4E91
  8
0
 10
102.0
 20
175.465098
 30
0.0
 40
3.0
 50
270.0
 51
0.0
  0
LINE
  5
4E92
  8
0
 10
35.0
 20
271.5
 30
0.0
 11
125.0
 21
271.5
 31
0.0
  0
LINE
  5
4E93
  8
0
 10
-4.0
 20
271.7
 30
0.0
 11
135.0
 21
271.7
 31
0.0
  0
LINE
  5
4E94
  8
0
 10
-27.5
 20
321.7
 30
0.0
 11
187.5
 21
321.7
 31
0.0
  0
LINE
  5
4E95
  8
0
 10
-27.5
 20
330.7
 30
0.0
 11
187.5
 21
330.7
 31
0.0
  0
LINE
  5
4E96
  8
0
 10
-27.5
 20
337.7
 30
0.0
 11
187.5
 21
337.7
 31
0.0
  0
LINE
  5
4E97
  8
0
 10
-27.5
 20
328.7
 30
0.0
 11
187.5
 21
328.7
 31
0.0
  0
LINE
  5
4E98
  8
0
 10
50.0
 20
96.5
 30
0.0
 11
110.0
 21
96.5
 31
0.0
  0
LINE
  5
4E99
  8
0
 10
40.0
 20
65.0
 30
0.0
 11
120.0
 21
65.0
 31
0.0
  0
LINE
  5
4E9A
  8
0
 10
40.0
 20
77.0
 30
0.0
 11
120.0
 21
77.0
 31
0.0
  0
LINE
  5
4E9B
  8
0
 10
52.0
 20
90.0
 30
0.0
 11
108.0
 21
90.0
 31
0.0
  0
LINE
  5
4E9C
  8
0
 10
52.0
 20
96.5
 30
0.0
 11
108.0
 21
96.5
 31
0.0
  0
LINE
  5
4E9D
  8
0
 10
40.0
 20
65.0
 30
0.0
 11
120.0
 21
65.0
 31
0.0
  0
LINE
  5
4E9E
  8
0
 10
40.0
 20
53.0
 30
0.0
 11
120.0
 21
53.0
 31
0.0
  0
ARC
  5
4E9F
  8
0
 10
80.0
 20
79.0
 30
0.0
 40
116.0
 50
247.174177
 51
282.709033
  0
ARC
  5
4EA0
  8
0
 10
95.0
 20
149.0
 30
0.0
 40
30.0
 50
270.0
 51
0.0
  0
LINE
  5
4EA1
  8
0
 10
27.0
 20
172.687329
 30
0.0
 11
27.0
 21
149.0
 31
0.0
  0
LINE
  5
4EA2
  8
0
 10
35.0
 20
180.641
 30
0.0
 11
35.0
 21
149.0
 31
0.0
  0
LINE
  5
4EA3
  8
0
 10
-12.225
 20
168.161
 30
0.0
 11
-12.225
 21
113.75
 31
0.0
  0
LINE
  5
4EA4
  8
0
 10
-1.725
 20
175.245
 30
0.0
 11
-1.725
 21
121.109
 31
0.0
  0
LINE
  5
4EA5
  8
0
 10
-18.525
 20
168.084
 30
0.0
 11
-18.525
 21
123.209
 31
0.0
  0
LINE
  5
4EA6
  8
0
 10
-68.925
 20
123.209
 30
0.0
 11
-68.925
 21
168.084
 31
0.0
  0
LINE
  5
4EA7
  8
0
 10
-75.225
 20
113.75
 30
0.0
 11
-75.225
 21
168.161
 31
0.0
  0
LINE
  5
4EA8
  8
0
 10
-85.725
 20
121.109
 30
0.0
 11
-85.725
 21
175.245
 31
0.0
  0
LINE
  5
4EA9
  8
0
 10
-111.45
 20
139.099
 30
0.0
 11
-111.45
 21
235.401
 31
0.0
  0
LINE
  5
4EAA
  8
0
 10
-89.145
 20
254.45
 30
0.0
 11
-89.145
 21
120.05
 31
0.0
  0
LINE
  5
4EAB
  8
0
 10
-147.524
 20
215.289
 30
0.0
 11
-147.524
 21
113.75
 31
0.0
  0
LINE
  5
4EAC
  8
0
 10
-108.3
 20
235.401
 30
0.0
 11
-108.3
 21
139.099
 31
0.0
  0
LINE
  5
4EAD
  8
0
 10
1.695
 20
254.45
 30
0.0
 11
1.695
 21
120.05
 31
0.0
  0
LINE
  5
4EAE
  8
0
 10
20.85
 20
139.099
 30
0.0
 11
20.85
 21
235.401
 31
0.0
  0
LINE
  5
4EAF
  8
0
 10
24.0
 20
235.401
 30
0.0
 11
24.0
 21
139.099
 31
0.0
  0
LINE
  5
4EB0
  8
0
 10
85.0
 20
119.0
 30
0.0
 11
85.0
 21
159.099072
 31
0.0
  0
LINE
  5
4EB1
  8
0
 10
75.0
 20
119.0
 30
0.0
 11
75.0
 21
159.099072
 31
0.0
  0
LINE
  5
4EB2
  8
0
 10
0.0
 20
0.0
 30
0.0
 11
0.0
 21
-62.0
 31
0.0
  0
LINE
  5
4EB3
  8
0
 10
20.0
 20
62.0
 30
0.0
 11
20.0
 21
-62.0
 31
0.0
  0
TEXT
  5
4EB4
  8
0
 10
-76.882484
 20
-102.706444
 30
0.0
 40
15.0
  1
TLV-CV16-1"
  0
LINE
  5
4EB5
  8
0
 10
0.0
 20
-62.0
 30
0.0
 11
20.0
 21
-62.0
 31
0.0
  0
ARC
  5
4EB6
  8
0
 10
-35.325013
 20
103.146159
 30
0.0
 40
3.150013
 50
359.997102
 51
83.675325
  0
ARC
  5
4EB7
  8
0
 10
-38.475
 20
74.711
 30
0.0
 40
23.134124
 50
231.056474
 51
308.927495
  0
LINE
  5
4EB8
  8
0
 10
-48.975
 20
20.2999
 30
0.0
 11
-27.975
 21
20.2999
 31
0.0
  0
ARC
  5
4EB9
  8
0
 10
-38.475
 20
74.711
 30
0.0
 40
30.445979
 50
230.255467
 51
309.864719
  0
CIRCLE
  5
4EBA
  8
0
 10
-38.475
 20
74.711
 30
0.0
 40
39.0392
  0
CIRCLE
  5
4EBB
  8
0
 10
-38.475
 20
74.711
 30
0.0
 40
19.7901
  0
LINE
  5
4EBC
  8
0
 10
-1.349
 20
113.75
 30
0.0
 11
-86.101
 21
113.75
 31
0.0
  0
LINE
  5
4EBD
  8
0
 10
-20.625
 20
121.109
 30
0.0
 11
-66.825
 21
121.109
 31
0.0
  0
LINE
  5
4EBE
  8
0
 10
-5.925
 20
113.75
 30
0.0
 11
-81.525
 21
113.75
 31
0.0
  0
ARC
  5
4EBF
  8
0
 10
-136.125
 20
36.4627
 30
0.0
 40
13.78738
 50
315.002056
 51
225.000882
  0
CIRCLE
  5
4EC0
  8
0
 10
-136.125
 20
36.4627
 30
0.0
 40
18.5
  0
CIRCLE
  5
4EC1
  8
0
 10
-136.125
 20
36.4627
 30
0.0
 40
1.99999
  0
LINE
  5
4EC2
  8
0
 10
-138.073
 20
36.0104
 30
0.0
 11
-145.874
 21
26.7134
 31
0.0
  0
LINE
  5
4EC3
  8
0
 10
-145.874
 20
26.7134
 30
0.0
 11
-136.577
 21
34.5145
 31
0.0
  0
LINE
  5
4EC4
  8
0
 10
-133.493
 20
41.4687
 30
0.0
 11
-136.018
 21
38.4598
 31
0.0
  0
LINE
  5
4EC5
  8
0
 10
-133.199
 20
39.3884
 30
0.0
 11
-133.493
 21
41.4687
 31
0.0
  0
LINE
  5
4EC6
  8
0
 10
-134.128
 20
36.5698
 30
0.0
 11
-131.08
 21
39.1271
 31
0.0
  0
LINE
  5
4EC7
  8
0
 10
-131.08
 20
39.1271
 30
0.0
 11
-133.199
 21
39.3884
 31
0.0
  0
ARC
  5
4EC8
  8
0
 10
-48.94759
 20
23.47731
 30
0.0
 40
3.177528
 50
180.494244
 51
269.505756
  0
LINE
  5
4EC9
  8
0
 10
-52.125
 20
38.1356
 30
0.0
 11
-52.125
 21
23.4499
 31
0.0
  0
LINE
  5
4ECA
  8
0
 10
-103.05
 20
124.25
 30
0.0
 11
-98.85
 21
124.25
 31
0.0
  0
ARC
  5
4ECB
  8
0
 10
-100.949
 20
124.25
 30
0.0
 40
6.300321
 50
135.0
 51
315.0
  0
CIRCLE
  5
4ECC
  8
0
 10
-100.95
 20
124.25
 30
0.0
 40
4.72501
  0
LINE
  5
4ECD
  8
0
 10
-127.625
 20
107.904
 30
0.0
 11
-127.625
 21
97.904
 31
0.0
  0
LINE
  5
4ECE
  8
0
 10
-136.125
 20
107.112
 30
0.0
 11
-136.125
 21
98.696
 31
0.0
  0
LINE
  5
4ECF
  8
0
 10
-144.625
 20
97.904
 30
0.0
 11
-144.625
 21
107.904
 31
0.0
  0
LINE
  5
4ED0
  8
0
 10
-136.125
 20
91.963
 30
0.0
 11
-147.722
 21
91.963
 31
0.0
  0
CIRCLE
  5
4ED1
  8
0
 10
-136.125
 20
73.963
 30
0.0
 40
16.3312
  0
LINE
  5
4ED2
  8
0
 10
-147.722
 20
55.963
 30
0.0
 11
-124.528
 21
55.963
 31
0.0
  0
LINE
  5
4ED3
  8
0
 10
-151.125
 20
94.963
 30
0.0
 11
-121.125
 21
94.963
 31
0.0
  0
CIRCLE
  5
4ED4
  8
0
 10
-136.125
 20
73.963
 30
0.0
 40
5.51961
  0
LINE
  5
4ED5
  8
0
 10
-127.625
 20
97.904
 30
0.0
 11
-144.625
 21
97.904
 31
0.0
  0
LINE
  5
4ED6
  8
0
 10
-158.625
 20
50.126
 30
0.0
 11
-158.625
 21
85.725
 31
0.0
  0
LINE
  5
4ED7
  8
0
 10
-157.125
 20
76.561
 30
0.0
 11
-157.125
 21
88.963
 31
0.0
  0
LINE
  5
4ED8
  8
0
 10
-155.625
 20
85.56
 30
0.0
 11
-155.625
 21
76.963
 31
0.0
  0
ARC
  5
4ED9
  8
0
 10
-155.625
 20
73.963
 30
0.0
 40
3.0
 50
90.0
 51
270.0
  0
LINE
  5
4EDA
  8
0
 10
-151.722
 20
62.366
 30
0.0
 11
-155.625
 21
62.366
 31
0.0
  0
ARC
  5
4EDB
  8
0
 10
-151.075411
 20
59.012589
 30
0.0
 40
6.049793
 50
180.469651
 51
269.530349
  0
LINE
  5
4EDC
  8
0
 10
-148.598
 20
50.126
 30
0.0
 11
-158.625
 21
50.126
 31
0.0
  0
CIRCLE
  5
4EDD
  8
0
 10
-151.722
 20
58.366
 30
0.0
 40
3.0
  0
LINE
  5
4EDE
  8
0
 10
-153.558
 20
58.366
 30
0.0
 11
-149.886
 21
58.366
 31
0.0
  0
CIRCLE
  5
4EDF
  8
0
 10
-155.625
 20
73.963
 30
0.0
 40
1.5
  0
LINE
  5
4EE0
  8
0
 10
-155.625
 20
70.963
 30
0.0
 11
-155.625
 21
62.366
 31
0.0
  0
LINE
  5
4EE1
  8
0
 10
-157.125
 20
58.963
 30
0.0
 11
-157.125
 21
71.365
 31
0.0
  0
LINE
  5
4EE2
  8
0
 10
-147.722
 20
55.963
 30
0.0
 11
-147.722
 21
58.366
 31
0.0
  0
LINE
  5
4EE3
  8
0
 10
-151.73
 20
62.366
 30
0.0
 11
-151.722
 21
62.366
 31
0.0
  0
LINE
  5
4EE4
  8
0
 10
-151.722
 20
62.366
 30
0.0
 11
-151.722
 21
62.366
 31
0.0
  0
LINE
  5
4EE5
  8
0
 10
-151.722
 20
56.561
 30
0.0
 11
-151.722
 21
60.171
 31
0.0
  0
ARC
  5
4EE6
  8
0
 10
-151.722
 20
58.366
 30
0.0
 40
4.0
 50
0.0
 51
90.0
  0
LINE
  5
4EE7
  8
0
 10
-144.491
 20
52.963
 30
0.0
 11
-151.125
 21
52.963
 31
0.0
  0
LINE
  5
4EE8
  8
0
 10
-151.722
 20
85.56
 30
0.0
 11
-155.625
 21
85.56
 31
0.0
  0
ARC
  5
4EE9
  8
0
 10
-151.075411
 20
88.913411
 30
0.0
 40
6.049793
 50
90.469651
 51
179.530349
  0
CIRCLE
  5
4EEA
  8
0
 10
-151.722
 20
89.56
 30
0.0
 40
3.0
  0
LINE
  5
4EEB
  8
0
 10
-153.558
 20
89.56
 30
0.0
 11
-149.886
 21
89.56
 31
0.0
  0
LINE
  5
4EEC
  8
0
 10
-158.625
 20
85.725
 30
0.0
 11
-157.125
 21
85.725
 31
0.0
  0
LINE
  5
4EED
  8
0
 10
-142.703
 20
97.904
 30
0.0
 11
-142.612088
 21
94.963
 31
0.0
  0
LINE
  5
4EEE
  8
0
 10
-147.722
 20
91.963
 30
0.0
 11
-147.722
 21
89.56
 31
0.0
  0
LINE
  5
4EEF
  8
0
 10
-151.722
 20
91.365
 30
0.0
 11
-151.722
 21
87.755
 31
0.0
  0
ARC
  5
4EF0
  8
0
 10
-151.722
 20
89.56
 30
0.0
 40
4.0
 50
270.0
 51
0.0
  0
LINE
  5
4EF1
  8
0
 10
-113.625
 20
85.725
 30
0.0
 11
-113.625
 21
50.126
 31
0.0
  0
LINE
  5
4EF2
  8
0
 10
-115.125
 20
88.963
 30
0.0
 11
-115.125
 21
76.561
 31
0.0
  0
LINE
  5
4EF3
  8
0
 10
-116.625
 20
76.963
 30
0.0
 11
-116.625
 21
85.56
 31
0.0
  0
LINE
  5
4EF4
  8
0
 10
-120.528
 20
62.366
 30
0.0
 11
-116.625
 21
62.366
 31
0.0
  0
ARC
  5
4EF5
  8
0
 10
-116.625
 20
73.963
 30
0.0
 40
3.0
 50
270.0
 51
90.0
  0
ARC
  5
4EF6
  8
0
 10
-121.174589
 20
59.012589
 30
0.0
 40
6.049793
 50
270.469651
 51
359.530349
  0
LINE
  5
4EF7
  8
0
 10
-118.692
 20
58.366
 30
0.0
 11
-122.364
 21
58.366
 31
0.0
  0
LINE
  5
4EF8
  8
0
 10
-113.625
 20
50.126
 30
0.0
 11
-123.652
 21
50.126
 31
0.0
  0
CIRCLE
  5
4EF9
  8
0
 10
-120.528
 20
58.366
 30
0.0
 40
3.0
  0
LINE
  5
4EFA
  8
0
 10
-120.528
 20
56.561
 30
0.0
 11
-120.528
 21
60.171
 31
0.0
  0
LINE
  5
4EFB
  8
0
 10
-124.528
 20
55.963
 30
0.0
 11
-124.528
 21
58.366
 31
0.0
  0
LINE
  5
4EFC
  8
0
 10
-121.125
 20
52.963
 30
0.0
 11
-127.758
 21
52.963
 31
0.0
  0
ARC
  5
4EFD
  8
0
 10
-120.528
 20
58.366
 30
0.0
 40
4.0
 50
90.0
 51
180.0
  0
LINE
  5
4EFE
  8
0
 10
-116.625
 20
62.366
 30
0.0
 11
-116.625
 21
70.963
 31
0.0
  0
CIRCLE
  5
4EFF
  8
0
 10
-116.625
 20
73.963
 30
0.0
 40
1.5
  0
LINE
  5
4F00
  8
0
 10
-115.125
 20
71.365
 30
0.0
 11
-115.125
 21
58.963
 31
0.0
  0
LINE
  5
4F01
  8
0
 10
-120.528
 20
85.56
 30
0.0
 11
-116.625
 21
85.56
 31
0.0
  0
CIRCLE
  5
4F02
  8
0
 10
-120.528
 20
89.56
 30
0.0
 40
3.0
  0
LINE
  5
4F03
  8
0
 10
-118.692
 20
89.56
 30
0.0
 11
-122.364
 21
89.56
 31
0.0
  0
ARC
  5
4F04
  8
0
 10
-121.174589
 20
88.913411
 30
0.0
 40
6.049793
 50
0.469651
 51
89.530349
  0
LINE
  5
4F05
  8
0
 10
-129.546
 20
97.904
 30
0.0
 11
-129.638427
 21
94.963
 31
0.0
  0
LINE
  5
4F06
  8
0
 10
-120.528
 20
91.365
 30
0.0
 11
-120.528
 21
87.755
 31
0.0
  0
LINE
  5
4F07
  8
0
 10
-124.528
 20
91.963
 30
0.0
 11
-124.528
 21
89.56
 31
0.0
  0
ARC
  5
4F08
  8
0
 10
-120.528
 20
89.56
 30
0.0
 40
4.0
 50
180.0
 51
270.0
  0
LINE
  5
4F09
  8
0
 10
-124.528
 20
91.963
 30
0.0
 11
-136.125
 21
91.963
 31
0.0
  0
LINE
  5
4F0A
  8
0
 10
-115.125
 20
85.725
 30
0.0
 11
-113.625
 21
85.725
 31
0.0
  0
LINE
  5
4F0B
  8
0
 10
-144.625
 20
107.904
 30
0.0
 11
-127.625
 21
107.904
 31
0.0
  0
CIRCLE
  5
4F0C
  8
0
 10
-132.867
 20
141.992
 30
0.0
 40
7.77145
  0
LINE
  5
4F0D
  8
0
 10
-147.524
 20
131.492
 30
0.0
 11
-119.672
 21
131.492
 31
0.0
  0
LINE
  5
4F0E
  8
0
 10
-144.374
 20
110.6
 30
0.0
 11
-127.875
 21
110.6
 31
0.0
  0
CIRCLE
  5
4F0F
  8
0
 10
-132.867
 20
141.992
 30
0.0
 40
4.68496
  0
LINE
  5
4F10
  8
0
 10
-119.672
 20
152.492
 30
0.0
 11
-147.524
 21
152.492
 31
0.0
  0
LINE
  5
4F11
  8
0
 10
-142.703
 20
107.904
 30
0.0
 11
-142.619
 21
110.6
 31
0.0
  0
ARC
  5
4F12
  8
0
 10
-144.374388
 20
113.749612
 30
0.0
 40
3.149612
 50
179.99294
 51
270.00706
  0
LINE
  5
4F13
  8
0
 10
-147.524
 20
148.292
 30
0.0
 11
-143.789
 21
148.292
 31
0.0
  0
ARC
  5
4F14
  8
0
 10
-143.79032
 20
145.14068
 30
0.0
 40
3.15132
 50
0.023996
 51
89.976004
  0
LINE
  5
4F15
  8
0
 10
-143.789
 20
135.692
 30
0.0
 11
-147.524
 21
135.692
 31
0.0
  0
ARC
  5
4F16
  8
0
 10
-143.79032
 20
138.84332
 30
0.0
 40
3.15132
 50
270.023996
 51
359.976004
  0
LINE
  5
4F17
  8
0
 10
-140.639
 20
145.142
 30
0.0
 11
-140.639
 21
138.842
 31
0.0
  0
LINE
  5
4F18
  8
0
 10
-106.147
 20
133.902
 30
0.0
 11
-103.177
 21
130.932
 31
0.0
  0
LINE
  5
4F19
  8
0
 10
-105.405
 20
128.705
 30
0.0
 11
-108.374
 21
131.675
 31
0.0
  0
ARC
  5
4F1A
  8
0
 10
-119.67153
 20
135.69153
 30
0.0
 40
4.19953
 50
269.993585
 51
0.006415
  0
ARC
  5
4F1B
  8
0
 10
-100.856338
 20
139.137623
 30
0.0
 40
10.592733
 50
180.20891
 51
224.789489
  0
LINE
  5
4F1C
  8
0
 10
-124.725
 20
113.75
 30
0.0
 11
-124.725
 21
131.492
 31
0.0
  0
LINE
  5
4F1D
  8
0
 10
-129.546
 20
107.904
 30
0.0
 11
-129.63
 21
110.6
 31
0.0
  0
ARC
  5
4F1E
  8
0
 10
-127.874612
 20
113.749612
 30
0.0
 40
3.149612
 50
269.99294
 51
0.00706
  0
LINE
  5
4F1F
  8
0
 10
-103.177
 20
130.932
 30
0.0
 11
-105.405
 21
128.705
 31
0.0
  0
ARC
  5
4F20
  8
0
 10
-119.67153
 20
148.29247
 30
0.0
 40
4.19953
 50
359.993585
 51
90.006415
  0
LINE
  5
4F21
  8
0
 10
-115.472
 20
148.292
 30
0.0
 11
-111.45
 21
148.292
 31
0.0
  0
ARC
  5
4F22
  8
0
 10
-100.953263
 20
139.097704
 30
0.0
 40
7.345737
 50
179.989888
 51
225.016363
  0
LINE
  5
4F23
  8
0
 10
-115.472
 20
135.692
 30
0.0
 11
-110.882
 21
135.692
 31
0.0
  0
LINE
  5
4F24
  8
0
 10
-115.472
 20
135.692
 30
0.0
 11
-115.472
 21
148.292
 31
0.0
  0
ARC
  5
4F25
  8
0
 10
-41.625006
 20
103.146176
 30
0.0
 40
3.149994
 50
96.324375
 51
180.003198
  0
ARC
  5
4F26
  8
0
 10
-47.924671
 20
100.31907
 30
0.0
 40
3.149671
 50
359.998733
 51
110.253367
  0
ARC
  5
4F27
  8
0
 10
-38.475
 20
74.711
 30
0.0
 40
30.445979
 50
110.254267
 51
189.848338
  0
ARC
  5
4F28
  8
0
 10
-64.675609
 20
63.221489
 30
0.0
 40
3.149789
 50
120.010419
 51
203.688842
  0
ARC
  5
4F29
  8
0
 10
-65.37752
 20
70.090705
 30
0.0
 40
3.150022
 50
189.754619
 51
300.010693
  0
CIRCLE
  5
4F2A
  8
0
 10
-67.977
 20
57.677
 30
0.0
 40
1.91877
  0
ARC
  5
4F2B
  8
0
 10
-68.334991
 20
57.470999
 30
0.0
 40
3.514182
 50
125.666667
 51
294.333183
  0
LINE
  5
4F2C
  8
0
 10
-67.56
 20
61.956
 30
0.0
 11
-70.384
 21
60.326
 31
0.0
  0
ARC
  5
4F2D
  8
0
 10
-38.475
 20
74.711
 30
0.0
 40
23.134124
 50
110.960531
 51
188.92986
  0
ARC
  5
4F2E
  8
0
 10
-64.440979
 20
70.631154
 30
0.0
 40
3.15014
 50
299.998083
 51
8.927371
  0
ARC
  5
4F2F
  8
0
 10
-64.441015
 20
70.631171
 30
0.0
 40
3.150173
 50
299.998501
 51
8.926953
  0
LINE
  5
4F30
  8
0
 10
-62.866
 20
67.903
 30
0.0
 11
-66.251
 21
65.949
 31
0.0
  0
LINE
  5
4F31
  8
0
 10
-59.951
 20
55.037
 30
0.0
 11
-56.565
 21
56.991
 31
0.0
  0
ARC
  5
4F32
  8
0
 10
-55.927034
 20
53.723035
 30
0.0
 40
3.14997
 50
119.999603
 51
230.255858
  0
LINE
  5
4F33
  8
0
 10
-66.887
 20
54.269
 30
0.0
 11
-64.064
 21
55.899
 31
0.0
  0
ARC
  5
4F34
  8
0
 10
-61.526116
 20
57.764905
 30
0.0
 40
3.149993
 50
216.324093
 51
300.002516
  0
ARC
  5
4F35
  8
0
 10
-54.989789
 20
54.263487
 30
0.0
 40
3.149701
 50
51.079131
 51
120.007583
  0
ARC
  5
4F36
  8
0
 10
-54.989789
 20
54.263487
 30
0.0
 40
3.149701
 50
51.079131
 51
120.007583
  0
LINE
  5
4F37
  8
0
 10
-44.775
 20
103.146
 30
0.0
 11
-44.775
 21
99.237
 31
0.0
  0
ARC
  5
4F38
  8
0
 10
-47.924532
 20
99.236864
 30
0.0
 40
3.149532
 50
291.074856
 51
0.002472
  0
ARC
  5
4F39
  8
0
 10
-47.924549
 20
99.236876
 30
0.0
 40
3.149549
 50
291.075065
 51
0.002263
  0
ARC
  5
4F3A
  8
0
 10
-66.823383
 20
123.210617
 30
0.0
 40
2.101617
 50
180.04408
 51
269.95592
  0
LINE
  5
4F3B
  8
0
 10
-69.975
 20
105.6
 30
0.0
 11
-62.347
 21
105.6
 31
0.0
  0
LINE
  5
4F3C
  8
0
 10
-86.1
 20
116.9
 30
0.0
 11
-81.525
 21
116.9
 31
0.0
  0
LINE
  5
4F3D
  8
0
 10
-81.525
 20
121.109
 30
0.0
 11
-85.725
 21
121.109
 31
0.0
  0
ARC
  5
4F3E
  8
0
 10
-85.989761
 20
120.051527
 30
0.0
 40
3.154239
 50
180.027744
 51
272.375922
  0
ARC
  5
4F3F
  8
0
 10
-86.073322
 20
124.313264
 30
0.0
 40
7.413312
 50
225.199942
 51
269.793808
  0
LINE
  5
4F40
  8
0
 10
-100.95
 20
126.35
 30
0.0
 11
-100.95
 21
122.15
 31
0.0
  0
LINE
  5
4F41
  8
0
 10
-93.525
 20
116.825
 30
0.0
 11
-96.495
 21
119.795
 31
0.0
  0
LINE
  5
4F42
  8
0
 10
-96.495
 20
119.795
 30
0.0
 11
-93.802
 21
121.557
 31
0.0
  0
ARC
  5
4F43
  8
0
 10
-86.056754
 20
124.356253
 30
0.0
 40
10.606341
 50
225.240674
 51
269.766383
  0
LINE
  5
4F44
  8
0
 10
-93.802
 20
121.557
 30
0.0
 11
-91.298
 21
119.053
 31
0.0
  0
LINE
  5
4F45
  8
0
 10
-81.525
 20
113.75
 30
0.0
 11
-81.525
 21
121.109
 31
0.0
  0
LINE
  5
4F46
  8
0
 10
-69.975
 20
113.75
 30
0.0
 11
-69.975
 21
105.6
 31
0.0
  0
ARC
  5
4F47
  8
0
 10
-38.475
 20
74.711
 30
0.0
 40
31.760029
 50
83.678519
 51
96.321481
  0
LINE
  5
4F48
  8
0
 10
0.0
 20
61.061
 30
0.0
 11
0.0
 21
0.0
 31
0.0
  0
LINE
  5
4F49
  8
0
 10
49.0
 20
53.0
 30
0.0
 11
42.158776
 21
-20.811755
 31
0.0
  0
LINE
  5
4F4A
  8
0
 10
21.18029
 20
21.599495
 30
0.0
 11
35.0
 21
11.055713
 31
0.0
  0
LINE
  5
4F4B
  8
0
 10
24.018798
 20
-23.951015
 30
0.0
 11
35.0
 21
-27.915855
 31
0.0
  0
ARC
  5
4F4C
  8
0
 10
23.0
 20
-26.772726
 30
0.0
 40
3.0
 50
70.147529
 51
180.0
  0
ARC
  5
4F4D
  8
0
 10
-28.00241
 20
23.47731
 30
0.0
 40
3.177528
 50
270.494244
 51
359.505756
  0
LINE
  5
4F4E
  8
0
 10
-24.825
 20
23.4499
 30
0.0
 11
-24.825
 21
38.1356
 31
0.0
  0
ARC
  5
4F4F
  8
0
 10
23.0
 20
23.984585
 30
0.0
 40
3.0
 50
180.0
 51
232.658089
  0
ARC
  5
4F50
  8
0
 10
58.003328
 20
-18.544668
 30
0.0
 40
16.005921
 50
188.142787
 51
257.283535
  0
ARC
  5
4F51
  8
0
 10
40.369032
 20
14.055755
 30
0.0
 40
5.0
 50
243.665192
 51
354.704684
  0
ARC
  5
4F52
  8
0
 10
0.0
 20
-67.5
 30
0.0
 40
86.0
 50
63.665192
 51
65.98494
  0
ARC
  5
4F53
  8
0
 10
65.0
 20
149.0
 30
0.0
 40
38.0
 50
180.0
 51
238.611834
  0
ARC
  5
4F54
  8
0
 10
65.0
 20
149.0
 30
0.0
 40
30.0
 50
180.0
 51
270.0
  0
ARC
  5
4F55
  8
0
 10
-29.024829
 20
100.318721
 30
0.0
 40
3.150171
 50
69.740296
 51
179.994929
  0
ARC
  5
4F56
  8
0
 10
-38.475
 20
74.711
 30
0.0
 40
30.445979
 50
350.151153
 51
69.744123
  0
LINE
  5
4F57
  8
0
 10
-1.9
 20
88.361
 30
0.0
 11
10.875
 21
88.361
 31
0.0
  0
LINE
  5
4F58
  8
0
 10
10.875
 20
61.061
 30
0.0
 11
-1.9
 21
61.061
 31
0.0
  0
ARC
  5
4F59
  8
0
 10
-38.475
 20
74.711
 30
0.0
 40
23.134124
 50
351.07014
 51
68.92852
  0
ARC
  5
4F5A
  8
0
 10
-15.423889
 20
57.764929
 30
0.0
 40
3.150011
 50
239.997784
 51
323.675607
  0
ARC
  5
4F5B
  8
0
 10
-21.959216
 20
54.263548
 30
0.0
 40
3.149651
 50
59.99179
 51
128.921497
  0
ARC
  5
4F5C
  8
0
 10
-21.959216
 20
54.263548
 30
0.0
 40
3.149651
 50
59.99179
 51
128.921497
  0
ARC
  5
4F5D
  8
0
 10
-21.02202
 20
53.72303
 30
0.0
 40
3.150001
 50
309.744953
 51
59.999586
  0
LINE
  5
4F5E
  8
0
 10
-20.384
 20
56.991
 30
0.0
 11
-16.999
 21
55.037
 31
0.0
  0
ARC
  5
4F5F
  8
0
 10
-11.571985
 20
70.090367
 30
0.0
 40
3.149477
 50
239.994193
 51
350.249907
  0
LINE
  5
4F60
  8
0
 10
-10.699
 20
65.949
 30
0.0
 11
-14.084
 21
67.903
 31
0.0
  0
ARC
  5
4F61
  8
0
 10
-12.273914
 20
63.220923
 30
0.0
 40
3.150041
 50
336.324414
 51
60.002237
  0
ARC
  5
4F62
  8
0
 10
-38.475
 20
74.711
 30
0.0
 40
31.760029
 50
323.678176
 51
336.32142
  0
ARC
  5
4F63
  8
0
 10
-12.509003
 20
70.631163
 30
0.0
 40
3.150157
 50
171.072838
 51
240.001708
  0
ARC
  5
4F64
  8
0
 10
-12.508966
 20
70.63118
 30
0.0
 40
3.15019
 50
171.073256
 51
240.00129
  0
ARC
  5
4F65
  8
0
 10
-29.024968
 20
99.237593
 30
0.0
 40
3.150032
 50
180.010779
 51
248.938395
  0
ARC
  5
4F66
  8
0
 10
-29.02501
 20
99.237564
 30
0.0
 40
3.14999
 50
180.010256
 51
248.938917
  0
LINE
  5
4F67
  8
0
 10
-32.175
 20
99.237
 30
0.0
 11
-32.175
 21
103.146
 31
0.0
  0
LINE
  5
4F68
  8
0
 10
14.025
 20
85.211
 30
0.0
 11
14.025
 21
64.211
 31
0.0
  0
LINE
  5
4F69
  8
0
 10
13.103524
 20
62.0
 30
0.0
 11
20.0
 21
62.0
 31
0.0
  0
ARC
  5
4F6A
  8
0
 10
10.848765
 20
64.237235
 30
0.0
 40
3.176343
 50
270.473231
 51
359.526769
  0
ARC
  5
4F6B
  8
0
 10
10.848765
 20
85.184765
 30
0.0
 40
3.176343
 50
0.473231
 51
89.526769
  0
ARC
  5
4F6C
  8
0
 10
-1.459239
 20
120.051527
 30
0.0
 40
3.154239
 50
267.624078
 51
359.972256
  0
ARC
  5
4F6D
  8
0
 10
-1.375678
 20
124.313264
 30
0.0
 40
7.413312
 50
270.206192
 51
314.800058
  0
ARC
  5
4F6E
  8
0
 10
-1.392246
 20
124.356253
 30
0.0
 40
10.606341
 50
270.233617
 51
314.759326
  0
ARC
  5
4F6F
  8
0
 10
-20.626617
 20
123.210617
 30
0.0
 40
2.101617
 50
270.04408
 51
359.95592
  0
LINE
  5
4F70
  8
0
 10
-5.925
 20
121.109
 30
0.0
 11
-5.925
 21
113.75
 31
0.0
  0
LINE
  5
4F71
  8
0
 10
-5.925
 20
116.9
 30
0.0
 11
-1.349
 21
116.9
 31
0.0
  0
LINE
  5
4F72
  8
0
 10
-1.725
 20
121.109
 30
0.0
 11
-5.925
 21
121.109
 31
0.0
  0
LINE
  5
4F73
  8
0
 10
-14.602
 20
105.6
 30
0.0
 11
-6.975
 21
105.6
 31
0.0
  0
LINE
  5
4F74
  8
0
 10
-6.975
 20
105.6
 30
0.0
 11
-6.975
 21
113.75
 31
0.0
  0
LINE
  5
4F75
  8
0
 10
16.071
 20
131.275
 30
0.0
 11
18.697
 21
133.902
 31
0.0
  0
LINE
  5
4F76
  8
0
 10
20.925
 20
131.675
 30
0.0
 11
17.955
 21
128.705
 31
0.0
  0
ARC
  5
4F77
  8
0
 10
13.407338
 20
139.137623
 30
0.0
 40
10.592733
 50
315.210511
 51
359.79109
  0
LINE
  5
4F78
  8
0
 10
17.955
 20
128.705
 30
0.0
 11
16.071
 21
131.275
 31
0.0
  0
ARC
  5
4F79
  8
0
 10
13.5
 20
124.25
 30
0.0
 40
6.300321
 50
225.0
 51
45.0
  0
CIRCLE
  5
4F7A
  8
0
 10
13.5
 20
124.25
 30
0.0
 40
4.72499
  0
LINE
  5
4F7B
  8
0
 10
13.5
 20
126.35
 30
0.0
 11
13.5
 21
122.15
 31
0.0
  0
LINE
  5
4F7C
  8
0
 10
9.045
 20
119.795
 30
0.0
 11
6.076
 21
116.825
 31
0.0
  0
LINE
  5
4F7D
  8
0
 10
6.818
 20
122.023
 30
0.0
 11
9.045
 21
119.795
 31
0.0
  0
LINE
  5
4F7E
  8
0
 10
3.848
 20
119.053
 30
0.0
 11
6.818
 21
122.023
 31
0.0
  0
LINE
  5
4F7F
  8
0
 10
11.4
 20
124.25
 30
0.0
 11
15.6
 21
124.25
 31
0.0
  0
ARC
  5
4F80
  8
0
 10
13.504263
 20
139.097704
 30
0.0
 40
7.345737
 50
314.983637
 51
0.010112
  0
LINE
  5
4F81
  8
0
 10
24.276082
 20
147.25
 30
0.0
 11
24.0
 21
147.25
 31
0.0
  0
ARC
  5
4F82
  8
0
 10
24.276082
 20
144.25
 30
0.0
 40
3.0
 50
6.652865
 51
90.0
  0
LINE
  5
4F83
  8
0
 10
50.0
 20
108.024398
 30
0.0
 11
50.0
 21
96.5
 31
0.0
  0
ARC
  5
4F84
  8
0
 10
61.0
 20
80.0
 30
0.0
 40
3.0
 50
270.0
 51
360.0
  0
LINE
  5
4F85
  8
0
 10
40.0
 20
77.0
 30
0.0
 11
40.0
 21
65.0
 31
0.0
  0
LINE
  5
4F86
  8
0
 10
40.0
 20
65.0
 30
0.0
 11
40.0
 21
53.0
 31
0.0
  0
ARC
  5
4F87
  8
0
 10
61.0
 20
87.0
 30
0.0
 40
3.0
 50
360.0
 51
90.0
  0
LINE
  5
4F88
  8
0
 10
52.0
 20
96.5
 30
0.0
 11
52.0
 21
90.0
 31
0.0
  0
LINE
  5
4F89
  8
0
 10
64.0
 20
87.0
 30
0.0
 11
64.0
 21
80.0
 31
0.0
  0
ARC
  5
4F8A
  8
0
 10
99.0
 20
80.0
 30
0.0
 40
3.0
 50
180.0
 51
270.0
  0
ARC
  5
4F8B
  8
0
 10
99.0
 20
87.0
 30
0.0
 40
3.0
 50
90.0
 51
180.0
  0
LINE
  5
4F8C
  8
0
 10
96.0
 20
87.0
 30
0.0
 11
96.0
 21
80.0
 31
0.0
  0
LINE
  5
4F8D
  8
0
 10
65.0
 20
119.0
 30
0.0
 11
95.0
 21
119.0
 31
0.0
  0
LINE
  5
4F8E
  8
0
 10
65.0
 20
119.0
 30
0.0
 11
95.0
 21
119.0
 31
0.0
  0
LINE
  5
4F8F
  8
0
 10
68.0
 20
119.6
 30
0.0
 11
92.0
 21
119.6
 31
0.0
  0
ARC
  5
4F90
  8
0
 10
40.0
 20
108.024398
 30
0.0
 40
10.0
 50
0.0
 51
58.611834
  0
LINE
  5
4F91
  8
0
 10
68.0
 20
119.6
 30
0.0
 11
68.0
 21
119.0
 31
0.0
  0
LINE
  5
4F92
  8
0
 10
69.75
 20
132.6
 30
0.0
 11
69.75
 21
119.6
 31
0.0
  0
LINE
  5
4F93
  8
0
 10
74.858623
 20
132.1
 30
0.0
 11
74.858623
 21
119.6
 31
0.0
  0
LINE
  5
4F94
  8
0
 10
90.25
 20
132.6
 30
0.0
 11
90.25
 21
119.6
 31
0.0
  0
LINE
  5
4F95
  8
0
 10
85.141377
 20
132.1
 30
0.0
 11
85.141377
 21
119.6
 31
0.0
  0
LINE
  5
4F96
  8
0
 10
92.0
 20
119.6
 30
0.0
 11
92.0
 21
119.0
 31
0.0
  0
ARC
  5
4F97
  8
0
 10
87.695689
 20
125.825494
 30
0.0
 40
6.774506
 50
67.849076
 51
112.150924
  0
LINE
  5
4F98
  8
0
 10
69.75
 20
132.6
 30
0.0
 11
90.25
 21
132.6
 31
0.0
  0
ARC
  5
4F99
  8
0
 10
72.304311
 20
125.825494
 30
0.0
 40
6.774506
 50
67.849076
 51
112.150924
  0
ARC
  5
4F9A
  8
0
 10
80.0
 20
105.916238
 30
0.0
 40
26.683762
 50
78.890882
 51
101.109118
  0
LINE
  5
4F9B
  8
0
 10
-15.762953
 20
382.2
 30
0.0
 11
-15.762953
 21
349.2
 31
0.0
  0
LINE
  5
4F9C
  8
0
 10
-7.762953
 20
382.2
 30
0.0
 11
-7.762953
 21
349.2
 31
0.0
  0
LINE
  5
4F9D
  8
0
 10
-15.762953
 20
359.256349
 30
0.0
 11
-138.762953
 21
359.256349
 31
0.0
  0
LINE
  5
4F9E
  8
0
 10
-15.762953
 20
367.256349
 30
0.0
 11
-138.762953
 21
367.256349
 31
0.0
  0
LINE
  5
4F9F
  8
0
 10
-86.1
 20
260.75
 30
0.0
 11
-1.349
 21
260.75
 31
0.0
  0
LINE
  5
4FA0
  8
0
 10
-64.725
 20
178.661
 30
0.0
 11
-22.725
 21
178.661
 31
0.0
  0
LINE
  5
4FA1
  8
0
 10
-68.925
 20
192.045
 30
0.0
 11
-18.525
 21
192.045
 31
0.0
  0
LINE
  5
4FA2
  8
0
 10
-1.349
 20
257.6
 30
0.0
 11
-86.1
 21
257.6
 31
0.0
  0
LINE
  5
4FA3
  8
0
 10
-66.825
 20
170.184
 30
0.0
 11
-20.625
 21
170.184
 31
0.0
  0
LINE
  5
4FA4
  8
0
 10
-152.762953
 20
345.256349
 30
0.0
 11
-152.762953
 21
237.833
 31
0.0
  0
LINE
  5
4FA5
  8
0
 10
-160.762953
 20
345.256349
 30
0.0
 11
-160.762953
 21
237.833
 31
0.0
  0
ARC
  5
4FA6
  8
0
 10
-100.949
 20
250.25
 30
0.0
 40
6.300321
 50
45.0
 51
225.0
  0
CIRCLE
  5
4FA7
  8
0
 10
-100.95
 20
250.25
 30
0.0
 40
4.72501
  0
LINE
  5
4FA8
  8
0
 10
-103.05
 20
250.25
 30
0.0
 11
-98.85
 21
250.25
 31
0.0
  0
CIRCLE
  5
4FA9
  8
0
 10
-132.867
 20
228.2
 30
0.0
 40
19.5323
  0
LINE
  5
4FAA
  8
0
 10
-114.379
 20
190.4
 30
0.0
 11
-114.379
 21
177.8
 31
0.0
  0
LINE
  5
4FAB
  8
0
 10
-114.379
 20
177.8
 30
0.0
 11
-111.45
 21
177.8
 31
0.0
  0
LINE
  5
4FAC
  8
0
 10
-111.45
 20
190.4
 30
0.0
 11
-114.379
 21
190.4
 31
0.0
  0
LINE
  5
4FAD
  8
0
 10
-139.6915
 20
216.379
 30
0.0
 11
-133.7765
 21
228.725
 31
0.0
  0
LINE
  5
4FAE
  8
0
 10
-131.9575
 20
227.675
 30
0.0
 11
-139.6915
 21
216.379
 31
0.0
  0
ARC
  5
4FAF
  8
0
 10
-132.867
 20
228.2
 30
0.0
 40
14.65696
 50
330.002168
 51
239.997654
  0
LINE
  5
4FB0
  8
0
 10
-151.274353
 20
221.667
 30
0.0
 11
-164.015
 21
221.667
 31
0.0
  0
LINE
  5
4FB1
  8
0
 10
-164.015
 20
237.833
 30
0.0
 11
-149.859
 21
237.833
 31
0.0
  0
LINE
  5
4FB2
  8
0
 10
-164.883
 20
236.328
 30
0.0
 11
-164.015
 21
237.833
 31
0.0
  0
LINE
  5
4FB3
  8
0
 10
-164.015
 20
221.667
 30
0.0
 11
-164.883
 21
223.171
 31
0.0
  0
LINE
  5
4FB4
  8
0
 10
-164.883
 20
223.171
 30
0.0
 11
-164.883
 21
236.328
 31
0.0
  0
ARC
  5
4FB5
  8
0
 10
-100.953263
 20
235.402296
 30
0.0
 40
7.345737
 50
134.983637
 51
180.010112
  0
ARC
  5
4FB6
  8
0
 10
-100.856338
 20
235.362377
 30
0.0
 40
10.592733
 50
135.210511
 51
179.79109
  0
LINE
  5
4FB7
  8
0
 10
-133.7765
 20
228.725
 30
0.0
 11
-131.9575
 21
227.675
 31
0.0
  0
LINE
  5
4FB8
  8
0
 10
-114.298
 20
222.145
 30
0.0
 11
-111.45
 21
222.145
 31
0.0
  0
LINE
  5
4FB9
  8
0
 10
-114.464
 20
234.745
 30
0.0
 11
-111.45
 21
234.745
 31
0.0
  0
LINE
  5
4FBA
  8
0
 10
-105.405
 20
245.795
 30
0.0
 11
-103.503
 21
243.242
 31
0.0
  0
LINE
  5
4FBB
  8
0
 10
-108.374
 20
242.825
 30
0.0
 11
-106.725
 21
244.475
 31
0.0
  0
LINE
  5
4FBC
  8
0
 10
-106.725
 20
244.475
 30
0.0
 11
-105.405
 21
245.795
 31
0.0
  0
LINE
  5
4FBD
  8
0
 10
-103.503
 20
243.242
 30
0.0
 11
-106.147
 21
240.598
 31
0.0
  0
ARC
  5
4FBE
  8
0
 10
-66.823383
 20
168.082383
 30
0.0
 40
2.101617
 50
90.04408
 51
179.95592
  0
ARC
  5
4FBF
  8
0
 10
-64.724586
 20
168.160586
 30
0.0
 40
10.500414
 50
90.002258
 51
179.997742
  0
ARC
  5
4FC0
  8
0
 10
-68.925362
 20
175.245362
 30
0.0
 40
16.799638
 50
89.998765
 51
180.001235
  0
ARC
  5
4FC1
  8
0
 10
-86.073322
 20
250.186736
 30
0.0
 40
7.413312
 50
90.206192
 51
134.800058
  0
ARC
  5
4FC2
  8
0
 10
-85.989761
 20
254.448473
 30
0.0
 40
3.154239
 50
87.624078
 51
179.972256
  0
LINE
  5
4FC3
  8
0
 10
-100.95
 20
252.35
 30
0.0
 11
-100.95
 21
248.15
 31
0.0
  0
LINE
  5
4FC4
  8
0
 10
-96.495
 20
254.705
 30
0.0
 11
-93.525
 21
257.675
 31
0.0
  0
LINE
  5
4FC5
  8
0
 10
-94.268
 20
252.477
 30
0.0
 11
-96.495
 21
254.705
 31
0.0
  0
LINE
  5
4FC6
  8
0
 10
-91.298
 20
255.447
 30
0.0
 11
-94.268
 21
252.477
 31
0.0
  0
ARC
  5
4FC7
  8
0
 10
-86.056754
 20
250.143747
 30
0.0
 40
10.606341
 50
90.233617
 51
134.759326
  0
ARC
  5
4FC8
  8
0
 10
-138.762953
 20
345.256349
 30
0.0
 40
14.0
 50
90.0
 51
180.0
  0
ARC
  5
4FC9
  8
0
 10
-138.762953
 20
345.256349
 30
0.0
 40
22.0
 50
90.0
 51
180.0
  0
LINE
  5
4FCA
  8
0
 10
40.0
 20
271.5
 30
0.0
 11
40.0
 21
258.348135
 31
0.0
  0
ARC
  5
4FCB
  8
0
 10
25.0
 20
295.7
 30
0.0
 40
24.0
 50
180.0
 51
270.0
  0
LINE
  5
4FCC
  8
0
 10
46.26
 20
180.641
 30
0.0
 11
32.4
 21
180.641
 31
0.0
  0
LINE
  5
4FCD
  8
0
 10
32.4
 20
195.3
 30
0.0
 11
46.26
 21
195.3
 31
0.0
  0
ARC
  5
4FCE
  8
0
 10
65.0
 20
225.5
 30
0.0
 40
38.0
 50
136.816578
 51
180.0
  0
ARC
  5
4FCF
  8
0
 10
65.0
 20
225.5
 30
0.0
 40
30.0
 50
90.0
 51
180.0
  0
LINE
  5
4FD0
  8
0
 10
27.0
 20
225.5
 30
0.0
 11
27.0
 21
203.912671
 31
0.0
  0
ARC
  5
4FD1
  8
0
 10
-18.524638
 20
175.245362
 30
0.0
 40
16.799638
 50
359.998765
 51
90.001235
  0
ARC
  5
4FD2
  8
0
 10
-22.725414
 20
168.160586
 30
0.0
 40
10.500414
 50
0.002258
 51
89.997742
  0
ARC
  5
4FD3
  8
0
 10
-20.626617
 20
168.082383
 30
0.0
 40
2.101617
 50
0.04408
 51
89.95592
  0
LINE
  5
4FD4
  8
0
 10
32.4
 20
196.7
 30
0.0
 11
32.4
 21
179.9
 31
0.0
  0
LINE
  5
4FD5
  8
0
 10
29.252
 20
200.9
 30
0.0
 11
29.252
 21
175.7
 31
0.0
  0
LINE
  5
4FD6
  8
0
 10
30.3
 20
177.8
 30
0.0
 11
29.252
 21
177.8
 31
0.0
  0
ARC
  5
4FD7
  8
0
 10
30.282146
 20
179.917854
 30
0.0
 40
2.11793
 50
270.483018
 51
359.516982
  0
LINE
  5
4FD8
  8
0
 10
26.102
 20
172.55
 30
0.0
 11
24.0
 21
172.55
 31
0.0
  0
ARC
  5
4FD9
  8
0
 10
26.075765
 20
175.726235
 30
0.0
 40
3.176343
 50
270.473231
 51
359.526769
  0
LINE
  5
4FDA
  8
0
 10
24.0
 20
204.05
 30
0.0
 11
26.102
 21
204.05
 31
0.0
  0
ARC
  5
4FDB
  8
0
 10
26.075765
 20
200.873765
 30
0.0
 40
3.176343
 50
0.473231
 51
89.526769
  0
LINE
  5
4FDC
  8
0
 10
29.252
 20
198.8
 30
0.0
 11
30.3
 21
198.8
 31
0.0
  0
ARC
  5
4FDD
  8
0
 10
30.282146
 20
196.682146
 30
0.0
 40
2.11793
 50
0.483018
 51
89.516982
  0
ARC
  5
4FDE
  8
0
 10
-1.459239
 20
254.448473
 30
0.0
 40
3.154239
 50
0.027744
 51
92.375922
  0
ARC
  5
4FDF
  8
0
 10
-1.375678
 20
250.186736
 30
0.0
 40
7.413312
 50
45.199942
 51
89.793808
  0
ARC
  5
4FE0
  8
0
 10
-1.392246
 20
250.143747
 30
0.0
 40
10.606341
 50
45.240674
 51
89.766383
  0
ARC
  5
4FE1
  8
0
 10
13.504263
 20
235.402296
 30
0.0
 40
7.345737
 50
359.989888
 51
45.016363
  0
ARC
  5
4FE2
  8
0
 10
13.407338
 20
235.362377
 30
0.0
 40
10.592733
 50
0.20891
 51
44.789489
  0
LINE
  5
4FE3
  8
0
 10
24.276082
 20
227.25
 30
0.0
 11
24.0
 21
227.25
 31
0.0
  0
ARC
  5
4FE4
  8
0
 10
24.276082
 20
230.25
 30
0.0
 40
3.0
 50
270.0
 51
353.347135
  0
LINE
  5
4FE5
  8
0
 10
15.728
 20
243.568
 30
0.0
 11
17.955
 21
245.795
 31
0.0
  0
ARC
  5
4FE6
  8
0
 10
13.5
 20
250.25
 30
0.0
 40
6.300321
 50
315.0
 51
135.0
  0
CIRCLE
  5
4FE7
  8
0
 10
13.5
 20
250.25
 30
0.0
 40
4.72499
  0
LINE
  5
4FE8
  8
0
 10
18.697
 20
240.598
 30
0.0
 11
15.728
 21
243.568
 31
0.0
  0
LINE
  5
4FE9
  8
0
 10
13.5
 20
252.35
 30
0.0
 11
13.5
 21
248.15
 31
0.0
  0
LINE
  5
4FEA
  8
0
 10
6.076
 20
257.675
 30
0.0
 11
9.045
 21
254.705
 31
0.0
  0
LINE
  5
4FEB
  8
0
 10
9.045
 20
254.705
 30
0.0
 11
6.491
 21
252.804
 31
0.0
  0
LINE
  5
4FEC
  8
0
 10
6.491
 20
252.804
 30
0.0
 11
3.848
 21
255.447
 31
0.0
  0
LINE
  5
4FED
  8
0
 10
11.4
 20
250.25
 30
0.0
 11
15.6
 21
250.25
 31
0.0
  0
LINE
  5
4FEE
  8
0
 10
17.955
 20
245.795
 30
0.0
 11
20.925
 21
242.825
 31
0.0
  0
LINE
  5
4FEF
  8
0
 10
86.0
 20
212.465098
 30
0.0
 11
88.0
 21
217.465098
 31
0.0
  0
LINE
  5
4FF0
  8
0
 10
74.0
 20
212.465098
 30
0.0
 11
72.0
 21
217.465098
 31
0.0
  0
LINE
  5
4FF1
  8
0
 10
35.0
 20
225.5
 30
0.0
 11
35.0
 21
195.3
 31
0.0
  0
CIRCLE
  5
4FF2
  8
0
 10
65.0
 20
189.965098
 30
0.0
 40
4.5
  0
LINE
  5
4FF3
  8
0
 10
58.0
 20
207.465098
 30
0.0
 11
102.0
 21
207.465098
 31
0.0
  0
LINE
  5
4FF4
  8
0
 10
58.0
 20
172.465098
 30
0.0
 11
102.0
 21
172.465098
 31
0.0
  0
LINE
  5
4FF5
  8
0
 10
47.357
 20
182.641
 30
0.0
 11
47.357
 21
193.959
 31
0.0
  0
LINE
  5
4FF6
  8
0
 10
46.26
 20
195.3
 30
0.0
 11
46.26
 21
180.641
 31
0.0
  0
LINE
  5
4FF7
  8
0
 10
55.0
 20
204.465098
 30
0.0
 11
55.0
 21
175.465098
 31
0.0
  0
LINE
  5
4FF8
  8
0
 10
47.357
 20
185.3
 30
0.0
 11
55.0
 21
185.3
 31
0.0
  0
LINE
  5
4FF9
  8
0
 10
46.26
 20
182.641
 30
0.0
 11
47.357
 21
182.641
 31
0.0
  0
ARC
  5
4FFA
  8
0
 10
58.0
 20
175.465098
 30
0.0
 40
3.0
 50
180.0
 51
270.0
  0
LINE
  5
4FFB
  8
0
 10
47.357
 20
191.3
 30
0.0
 11
55.0
 21
191.3
 31
0.0
  0
LINE
  5
4FFC
  8
0
 10
47.357
 20
193.959
 30
0.0
 11
46.26
 21
193.959
 31
0.0
  0
ARC
  5
4FFD
  8
0
 10
58.0
 20
204.465098
 30
0.0
 40
3.0
 50
90.0
 51
180.0
  0
CIRCLE
  5
4FFE
  8
0
 10
95.0
 20
189.965098
 30
0.0
 40
4.5
  0
LINE
  5
4FFF
  8
0
 10
85.0
 20
159.099072
 30
0.0
 11
84.5
 21
159.965098
 31
0.0
  0
LINE
  5
5000
  8
0
 10
75.5
 20
159.965098
 30
0.0
 11
75.0
 21
159.099072
 31
0.0
  0
LINE
  5
5001
  8
0
 10
75.0
 20
159.099072
 30
0.0
 11
85.0
 21
159.099072
 31
0.0
  0
LINE
  5
5002
  8
0
 10
75.5
 20
159.965098
 30
0.0
 11
84.5
 21
159.965098
 31
0.0
  0
LINE
  5
5003
  8
0
 10
75.5
 20
159.965098
 30
0.0
 11
75.5
 21
172.465098
 31
0.0
  0
LINE
  5
5004
  8
0
 10
84.5
 20
159.965098
 30
0.0
 11
84.5
 21
172.465098
 31
0.0
  0
LINE
  5
5005
  8
0
 10
74.0
 20
212.465098
 30
0.0
 11
86.0
 21
212.465098
 31
0.0
  0
LINE
  5
5006
  8
0
 10
74.0
 20
207.465098
 30
0.0
 11
86.0
 21
207.465098
 31
0.0
  0
LINE
  5
5007
  8
0
 10
74.0
 20
212.465098
 30
0.0
 11
74.0
 21
207.465098
 31
0.0
  0
LINE
  5
5008
  8
0
 10
86.0
 20
212.465098
 30
0.0
 11
86.0
 21
207.465098
 31
0.0
  0
LINE
  5
5009
  8
0
 10
65.0
 20
255.5
 30
0.0
 11
95.0
 21
255.5
 31
0.0
  0
LINE
  5
500A
  8
0
 10
65.0
 20
255.5
 30
0.0
 11
95.0
 21
255.5
 31
0.0
  0
ARC
  5
500B
  8
0
 10
30.0
 20
258.348135
 30
0.0
 40
10.0
 50
316.816578
 51
0.0
  0
LINE
  5
500C
  8
0
 10
72.0
 20
255.5
 30
0.0
 11
72.0
 21
217.465098
 31
0.0
  0
LINE
  5
500D
  8
0
 10
88.0
 20
255.5
 30
0.0
 11
88.0
 21
217.465098
 31
0.0
  0
LINE
  5
500E
  8
0
 10
72.0
 20
217.465098
 30
0.0
 11
88.0
 21
217.465098
 31
0.0
  0
LINE
  5
500F
  8
0
 10
-27.5
 20
337.7
 30
0.0
 11
-27.5
 21
321.7
 31
0.0
  0
LINE
  5
5010
  8
0
 10
-4.0
 20
293.5
 30
0.0
 11
1.083479
 21
293.5
 31
0.0
  0
LINE
  5
5011
  8
0
 10
-16.762953
 20
278.512
 30
0.0
 11
-16.762953
 21
313.7
 31
0.0
  0
LINE
  5
5012
  8
0
 10
-6.762953
 20
313.7
 30
0.0
 11
-6.762953
 21
289.388225
 31
0.0
  0
LINE
  5
5013
  8
0
 10
-15.950953
 20
277.7
 30
0.0
 11
-16.762953
 21
278.512
 31
0.0
  0
LINE
  5
5014
  8
0
 10
-12.838983
 20
289.388225
 30
0.0
 11
-5.638983
 21
289.388225
 31
0.0
  0
LINE
  5
5015
  8
0
 10
-12.838983
 20
275.811775
 30
0.0
 11
-5.638983
 21
275.811775
 31
0.0
  0
LINE
  5
5016
  8
0
 10
-12.838983
 20
282.6
 30
0.0
 11
-5.638983
 21
282.6
 31
0.0
  0
LINE
  5
5017
  8
0
 10
-5.638983
 20
289.4
 30
0.0
 11
-5.638983
 21
275.8
 31
0.0
  0
LINE
  5
5018
  8
0
 10
-12.838983
 20
275.811775
 30
0.0
 11
-12.838983
 21
289.388225
 31
0.0
  0
LINE
  5
5019
  8
0
 10
-5.638983
 20
275.811775
 30
0.0
 11
-4.0
 21
275.912201
 31
0.0
  0
LINE
  5
501A
  8
0
 10
-5.638983
 20
289.4
 30
0.0
 11
-4.0
 21
289.297564
 31
0.0
  0
LINE
  5
501B
  8
0
 10
-12.838983
 20
277.7
 30
0.0
 11
-15.950953
 21
277.7
 31
0.0
  0
LINE
  5
501C
  8
0
 10
-4.0
 20
271.7
 30
0.0
 11
-4.0
 21
293.5
 31
0.0
  0
ARC
  5
501D
  8
0
 10
-19.123953
 20
318.531324
 30
0.0
 40
4.630982
 50
238.000676
 51
301.999324
  0
LINE
  5
501E
  8
0
 10
-20.012953
 20
313.7
 30
0.0
 11
-3.512953
 21
313.7
 31
0.0
  0
LINE
  5
501F
  8
0
 10
-21.577953
 20
314.604
 30
0.0
 11
-20.012953
 21
313.7
 31
0.0
  0
LINE
  5
5020
  8
0
 10
-21.577953
 20
321.7
 30
0.0
 11
-21.577953
 21
314.604
 31
0.0
  0
LINE
  5
5021
  8
0
 10
-1.947953
 20
314.604
 30
0.0
 11
-1.947953
 21
321.7
 31
0.0
  0
LINE
  5
5022
  8
0
 10
-6.855953
 20
314.604
 30
0.0
 11
-6.855953
 21
321.7
 31
0.0
  0
LINE
  5
5023
  8
0
 10
-3.512953
 20
313.7
 30
0.0
 11
-1.947953
 21
314.604
 31
0.0
  0
ARC
  5
5024
  8
0
 10
-4.401953
 20
318.531324
 30
0.0
 40
4.630982
 50
238.000676
 51
301.999324
  0
LINE
  5
5025
  8
0
 10
-16.669953
 20
314.604
 30
0.0
 11
-16.669953
 21
321.7
 31
0.0
  0
ARC
  5
5026
  8
0
 10
-11.762953
 20
331.362992
 30
0.0
 40
17.462601
 50
253.680072
 51
286.319928
  0
LINE
  5
5027
  8
0
 10
1.0
 20
295.7
 30
0.0
 11
1.0
 21
321.7
 31
0.0
  0
LINE
  5
5028
  8
0
 10
-4.0
 20
352.2
 30
0.0
 11
5.506411
 21
352.2
 31
0.0
  0
LINE
  5
5029
  8
0
 10
-4.0
 20
374.2
 30
0.0
 11
12.997925
 21
374.2
 31
0.0
  0
ARC
  5
502A
  8
0
 10
-2.780389
 20
341.7
 30
0.0
 40
4.0
 50
270.0
 51
352.819244
  0
ARC
  5
502B
  8
0
 10
25.0
 20
338.2
 30
0.0
 40
24.0
 50
90.0
 51
172.819244
  0
LINE
  5
502C
  8
0
 10
-18.032453
 20
352.7
 30
0.0
 11
-21.762953
 21
337.7
 31
0.0
  0
LINE
  5
502D
  8
0
 10
-5.493454
 20
352.7
 30
0.0
 11
-1.762953
 21
337.7
 31
0.0
  0
ARC
  5
502E
  8
0
 10
-11.762953
 20
349.2
 30
0.0
 40
4.0
 50
180.0
 51
0.0
  0
LINE
  5
502F
  8
0
 10
-17.062953
 20
354.379223
 30
0.0
 11
-15.762953
 21
354.379223
 31
0.0
  0
LINE
  5
5030
  8
0
 10
-18.032453
 20
352.7
 30
0.0
 11
-15.762953
 21
352.7
 31
0.0
  0
LINE
  5
5031
  8
0
 10
-17.062953
 20
354.379223
 30
0.0
 11
-18.032453
 21
352.7
 31
0.0
  0
LINE
  5
5032
  8
0
 10
-7.762953
 20
359.256349
 30
0.0
 11
-4.0
 21
359.256349
 31
0.0
  0
LINE
  5
5033
  8
0
 10
-7.762953
 20
367.256349
 30
0.0
 11
-4.0
 21
367.256349
 31
0.0
  0
LINE
  5
5034
  8
0
 10
-7.762953
 20
354.379223
 30
0.0
 11
-6.462953
 21
354.379223
 31
0.0
  0
LINE
  5
5035
  8
0
 10
-7.762953
 20
352.7
 30
0.0
 11
-5.493454
 21
352.7
 31
0.0
  0
LINE
  5
5036
  8
0
 10
-6.462953
 20
354.379223
 30
0.0
 11
-5.493454
 21
352.7
 31
0.0
  0
LINE
  5
5037
  8
0
 10
-4.0
 20
352.2
 30
0.0
 11
-4.0
 21
374.2
 31
0.0
  0
LINE
  5
5038
  8
0
 10
1.0
 20
337.7
 30
0.0
 11
1.0
 21
338.2
 31
0.0
  0
ARC
  5
5039
  8
0
 10
12.997925
 20
364.2
 30
0.0
 40
10.0
 50
20.0
 51
90.0
  0
LINE
  5
503A
  8
0
 10
22.394851
 20
367.620201
 30
0.0
 11
22.930732
 21
366.147879
 31
0.0
  0
ARC
  5
503B
  8
0
 10
28.568888
 20
368.2
 30
0.0
 40
6.0
 50
200.0
 51
270.0
  0
LINE
  5
503C
  8
0
 10
35.0
 20
271.5
 30
0.0
 11
35.0
 21
271.7
 31
0.0
  0
LINE
  5
503D
  8
0
 10
35.0
 20
362.2
 30
0.0
 11
35.0
 21
363.2
 31
0.0
  0
ARC
  5
503E
  8
0
 10
-11.762953
 20
382.2
 30
0.0
 40
4.0
 50
0.0
 51
180.0
  0
LINE
  5
503F
  8
0
 10
136.0
 20
227.25
 30
0.0
 11
136.0
 21
147.25
 31
0.0
  0
LINE
  5
5040
  8
0
 10
133.0
 20
225.5
 30
0.0
 11
133.0
 21
149.0
 31
0.0
  0
LINE
  5
5041
  8
0
 10
125.0
 20
225.5
 30
0.0
 11
125.0
 21
149.0
 31
0.0
  0
LINE
  5
5042
  8
0
 10
160.0
 20
0.0
 30
0.0
 11
160.0
 21
-62.0
 31
0.0
  0
LINE
  5
5043
  8
0
 10
140.0
 20
62.0
 30
0.0
 11
140.0
 21
-62.0
 31
0.0
  0
LINE
  5
5044
  8
0
 10
140.0
 20
-62.0
 30
0.0
 11
160.0
 21
-62.0
 31
0.0
  0
LINE
  5
5045
  8
0
 10
160.0
 20
62.0
 30
0.0
 11
160.0
 21
0.0
 31
0.0
  0
LINE
  5
5046
  8
0
 10
111.0
 20
53.0
 30
0.0
 11
111.575113
 21
46.79495
 31
0.0
  0
LINE
  5
5047
  8
0
 10
114.423949
 20
16.058117
 30
0.0
 11
117.841224
 21
-20.811755
 31
0.0
  0
LINE
  5
5048
  8
0
 10
124.745283
 20
-14.147266
 30
0.0
 11
138.446865
 21
-21.644922
 31
0.0
  0
ARC
  5
5049
  8
0
 10
101.996672
 20
-18.544668
 30
0.0
 40
16.005921
 50
282.716465
 51
358.968623
  0
ARC
  5
504A
  8
0
 10
123.0
 20
-18.832774
 30
0.0
 40
5.0
 50
69.570376
 51
180.0
  0
ARC
  5
504B
  8
0
 10
137.0
 20
-24.27296
 30
0.0
 40
3.0
 50
0.0
 51
61.16503
  0
ARC
  5
504C
  8
0
 10
137.0
 20
28.262795
 30
0.0
 40
3.0
 50
235.001234
 51
360.0
  0
ARC
  5
504D
  8
0
 10
160.0
 20
80.5
 30
0.0
 40
59.0
 50
214.838976
 51
233.614132
  0
LINE
  5
504E
  8
0
 10
135.279324
 20
25.805302
 30
0.0
 11
125.0
 21
33.002632
 31
0.0
  0
LINE
  5
504F
  8
0
 10
110.0
 20
108.024398
 30
0.0
 11
110.0
 21
96.5
 31
0.0
  0
LINE
  5
5050
  8
0
 10
120.0
 20
77.0
 30
0.0
 11
120.0
 21
65.0
 31
0.0
  0
LINE
  5
5051
  8
0
 10
120.0
 20
65.0
 30
0.0
 11
120.0
 21
53.0
 31
0.0
  0
LINE
  5
5052
  8
0
 10
108.0
 20
96.5
 30
0.0
 11
108.0
 21
90.0
 31
0.0
  0
LINE
  5
5053
  8
0
 10
140.0
 20
62.0
 30
0.0
 11
160.0
 21
62.0
 31
0.0
  0
ARC
  5
5054
  8
0
 10
95.0
 20
149.0
 30
0.0
 40
38.0
 50
301.388166
 51
0.0
  0
ARC
  5
5055
  8
0
 10
120.0
 20
108.024398
 30
0.0
 40
10.0
 50
121.388166
 51
180.0
  0
LINE
  5
5056
  8
0
 10
135.723918
 20
147.25
 30
0.0
 11
136.0
 21
147.25
 31
0.0
  0
ARC
  5
5057
  8
0
 10
135.723918
 20
144.25
 30
0.0
 40
3.0
 50
90.0
 51
173.347135
  0
LINE
  5
5058
  8
0
 10
167.762953
 20
382.2
 30
0.0
 11
167.762953
 21
349.2
 31
0.0
  0
LINE
  5
5059
  8
0
 10
175.762953
 20
382.2
 30
0.0
 11
175.762953
 21
349.2
 31
0.0
  0
LINE
  5
505A
  8
0
 10
120.0
 20
271.5
 30
0.0
 11
120.0
 21
258.348135
 31
0.0
  0
ARC
  5
505B
  8
0
 10
135.0
 20
295.7
 30
0.0
 40
24.0
 50
270.0
 51
0.0
  0
LINE
  5
505C
  8
0
 10
112.0
 20
218.25
 30
0.0
 11
112.0
 21
178.25
 31
0.0
  0
LINE
  5
505D
  8
0
 10
110.0
 20
189.965098
 30
0.0
 11
105.0
 21
184.965098
 31
0.0
  0
LINE
  5
505E
  8
0
 10
112.0
 20
178.25
 30
0.0
 11
125.0
 21
178.25
 31
0.0
  0
LINE
  5
505F
  8
0
 10
105.0
 20
184.965098
 30
0.0
 11
105.0
 21
175.465098
 31
0.0
  0
LINE
  5
5060
  8
0
 10
110.0
 20
189.965098
 30
0.0
 11
105.0
 21
194.965098
 31
0.0
  0
LINE
  5
5061
  8
0
 10
105.0
 20
204.465098
 30
0.0
 11
105.0
 21
194.965098
 31
0.0
  0
ARC
  5
5062
  8
0
 10
95.0
 20
225.5
 30
0.0
 40
38.0
 50
360.0
 51
43.183422
  0
LINE
  5
5063
  8
0
 10
112.0
 20
218.25
 30
0.0
 11
125.0
 21
218.25
 31
0.0
  0
LINE
  5
5064
  8
0
 10
135.723918
 20
227.25
 30
0.0
 11
136.0
 21
227.25
 31
0.0
  0
ARC
  5
5065
  8
0
 10
135.723918
 20
230.25
 30
0.0
 40
3.0
 50
186.652865
 51
270.0
  0
ARC
  5
5066
  8
0
 10
130.0
 20
258.348135
 30
0.0
 40
10.0
 50
180.0
 51
223.183422
  0
ARC
  5
5067
  8
0
 10
171.762953
 20
349.2
 30
0.0
 40
4.0
 50
180.0
 51
0.0
  0
LINE
  5
5068
  8
0
 10
163.512953
 20
313.7
 30
0.0
 11
180.012953
 21
313.7
 31
0.0
  0
ARC
  5
5069
  8
0
 10
171.762953
 20
331.362992
 30
0.0
 40
17.462601
 50
253.680072
 51
286.319928
  0
LINE
  5
506A
  8
0
 10
175.950953
 20
277.7
 30
0.0
 11
167.574953
 21
277.7
 31
0.0
  0
LINE
  5
506B
  8
0
 10
125.0
 20
271.5
 30
0.0
 11
125.0
 21
271.7
 31
0.0
  0
LINE
  5
506C
  8
0
 10
166.762953
 20
278.512
 30
0.0
 11
166.762953
 21
313.7
 31
0.0
  0
LINE
  5
506D
  8
0
 10
167.574953
 20
277.7
 30
0.0
 11
166.762953
 21
278.512
 31
0.0
  0
LINE
  5
506E
  8
0
 10
166.855953
 20
314.604
 30
0.0
 11
166.855953
 21
321.7
 31
0.0
  0
LINE
  5
506F
  8
0
 10
161.947953
 20
321.7
 30
0.0
 11
161.947953
 21
314.604
 31
0.0
  0
LINE
  5
5070
  8
0
 10
159.0
 20
295.7
 30
0.0
 11
159.0
 21
321.7
 31
0.0
  0
ARC
  5
5071
  8
0
 10
164.401953
 20
318.531324
 30
0.0
 40
4.630982
 50
238.000676
 51
301.999324
  0
LINE
  5
5072
  8
0
 10
161.947953
 20
314.604
 30
0.0
 11
163.512953
 21
313.7
 31
0.0
  0
ARC
  5
5073
  8
0
 10
135.0
 20
338.2
 30
0.0
 40
24.0
 50
7.180756
 51
90.0
  0
LINE
  5
5074
  8
0
 10
125.0
 20
362.2
 30
0.0
 11
125.0
 21
363.2
 31
0.0
  0
LINE
  5
5075
  8
0
 10
165.493454
 20
352.7
 30
0.0
 11
161.762953
 21
337.7
 31
0.0
  0
LINE
  5
5076
  8
0
 10
159.0
 20
337.7
 30
0.0
 11
159.0
 21
338.2
 31
0.0
  0
ARC
  5
5077
  8
0
 10
162.780389
 20
341.7
 30
0.0
 40
4.0
 50
187.180756
 51
270.0
  0
LINE
  5
5078
  8
0
 10
166.462953
 20
354.379223
 30
0.0
 11
167.762953
 21
354.379223
 31
0.0
  0
LINE
  5
5079
  8
0
 10
165.493454
 20
352.7
 30
0.0
 11
167.762953
 21
352.7
 31
0.0
  0
LINE
  5
507A
  8
0
 10
166.462953
 20
354.379223
 30
0.0
 11
165.493454
 21
352.7
 31
0.0
  0
LINE
  5
507B
  8
0
 10
187.5
 20
337.7
 30
0.0
 11
187.5
 21
321.7
 31
0.0
  0
LINE
  5
507C
  8
0
 10
176.762953
 20
313.7
 30
0.0
 11
176.762953
 21
278.512
 31
0.0
  0
LINE
  5
507D
  8
0
 10
176.762953
 20
278.512
 30
0.0
 11
175.950953
 21
277.7
 31
0.0
  0
LINE
  5
507E
  8
0
 10
181.577953
 20
314.604
 30
0.0
 11
181.577953
 21
321.7
 31
0.0
  0
LINE
  5
507F
  8
0
 10
176.669953
 20
314.604
 30
0.0
 11
176.669953
 21
321.7
 31
0.0
  0
LINE
  5
5080
  8
0
 10
180.012953
 20
313.7
 30
0.0
 11
181.577953
 21
314.604
 31
0.0
  0
ARC
  5
5081
  8
0
 10
179.123953
 20
318.531324
 30
0.0
 40
4.630982
 50
238.000676
 51
301.999324
  0
LINE
  5
5082
  8
0
 10
178.032453
 20
352.7
 30
0.0
 11
181.762953
 21
337.7
 31
0.0
  0
LINE
  5
5083
  8
0
 10
175.762953
 20
354.379223
 30
0.0
 11
177.062953
 21
354.379223
 31
0.0
  0
LINE
  5
5084
  8
0
 10
175.762953
 20
352.7
 30
0.0
 11
178.032453
 21
352.7
 31
0.0
  0
LINE
  5
5085
  8
0
 10
177.062953
 20
354.379223
 30
0.0
 11
178.032453
 21
352.7
 31
0.0
  0
ARC
  5
5086
  8
0
 10
171.762953
 20
382.2
 30
0.0
 40
4.0
 50
0.0
 51
180.0
  0
LINE
  5
5087
  8
0
 10
21.074856
 20
344.701
 30
0.0
 11
4.574856
 21
344.701
 31
0.0
  0
ARC
  5
5088
  8
0
 10
12.824856
 20
327.038008
 30
0.0
 40
17.462601
 50
73.680072
 51
106.319928
  0
LINE
  5
5089
  8
0
 10
7.917856
 20
343.797
 30
0.0
 11
7.917856
 21
337.7
 31
0.0
  0
LINE
  5
508A
  8
0
 10
3.009856
 20
343.797
 30
0.0
 11
3.009856
 21
337.7
 31
0.0
  0
ARC
  5
508B
  8
0
 10
5.463856
 20
339.869676
 30
0.0
 40
4.630982
 50
58.000676
 51
121.999324
  0
LINE
  5
508C
  8
0
 10
4.574856
 20
344.701
 30
0.0
 11
3.009856
 21
343.797
 31
0.0
  0
LINE
  5
508D
  8
0
 10
22.639856
 20
337.7
 30
0.0
 11
22.639856
 21
343.797
 31
0.0
  0
LINE
  5
508E
  8
0
 10
17.731856
 20
343.797
 30
0.0
 11
17.731856
 21
337.7
 31
0.0
  0
ARC
  5
508F
  8
0
 10
20.185856
 20
339.869676
 30
0.0
 40
4.630982
 50
58.000676
 51
121.999324
  0
LINE
  5
5090
  8
0
 10
22.639856
 20
343.797
 30
0.0
 11
21.074856
 21
344.701
 31
0.0
  0
LINE
  5
5091
  8
0
 10
4.574856
 20
313.7
 30
0.0
 11
21.074856
 21
313.7
 31
0.0
  0
ARC
  5
5092
  8
0
 10
12.824856
 20
331.362992
 30
0.0
 40
17.462601
 50
253.680072
 51
286.319928
  0
LINE
  5
5093
  8
0
 10
17.012856
 20
312.7
 30
0.0
 11
8.636856
 21
312.7
 31
0.0
  0
LINE
  5
5094
  8
0
 10
3.009856
 20
321.7
 30
0.0
 11
3.009856
 21
314.604
 31
0.0
  0
LINE
  5
5095
  8
0
 10
7.917856
 20
314.604
 30
0.0
 11
7.917856
 21
321.7
 31
0.0
  0
LINE
  5
5096
  8
0
 10
7.824856
 20
313.512
 30
0.0
 11
7.824856
 21
313.7
 31
0.0
  0
LINE
  5
5097
  8
0
 10
3.009856
 20
314.604
 30
0.0
 11
4.574856
 21
313.7
 31
0.0
  0
ARC
  5
5098
  8
0
 10
5.463856
 20
318.531324
 30
0.0
 40
4.630982
 50
238.000676
 51
301.999324
  0
LINE
  5
5099
  8
0
 10
8.636856
 20
312.7
 30
0.0
 11
7.824856
 21
313.512
 31
0.0
  0
LINE
  5
509A
  8
0
 10
22.639856
 20
314.604
 30
0.0
 11
22.639856
 21
321.7
 31
0.0
  0
LINE
  5
509B
  8
0
 10
17.731856
 20
314.604
 30
0.0
 11
17.731856
 21
321.7
 31
0.0
  0
ARC
  5
509C
  8
0
 10
20.185856
 20
318.531324
 30
0.0
 40
4.630982
 50
238.000676
 51
301.999324
  0
LINE
  5
509D
  8
0
 10
17.824856
 20
313.7
 30
0.0
 11
17.824856
 21
313.512
 31
0.0
  0
LINE
  5
509E
  8
0
 10
17.824856
 20
313.512
 30
0.0
 11
17.012856
 21
312.7
 31
0.0
  0
LINE
  5
509F
  8
0
 10
21.074856
 20
313.7
 30
0.0
 11
22.639856
 21
314.604
 31
0.0
  0
LINE
  5
50A0
  8
0
 10
155.425144
 20
344.701
 30
0.0
 11
138.925144
 21
344.701
 31
0.0
  0
ARC
  5
50A1
  8
0
 10
147.175144
 20
327.038008
 30
0.0
 40
17.462601
 50
73.680072
 51
106.319928
  0
LINE
  5
50A2
  8
0
 10
142.268144
 20
343.797
 30
0.0
 11
142.268144
 21
337.7
 31
0.0
  0
LINE
  5
50A3
  8
0
 10
137.360144
 20
343.797
 30
0.0
 11
137.360144
 21
337.7
 31
0.0
  0
ARC
  5
50A4
  8
0
 10
139.814144
 20
339.869676
 30
0.0
 40
4.630982
 50
58.000676
 51
121.999324
  0
LINE
  5
50A5
  8
0
 10
138.925144
 20
344.701
 30
0.0
 11
137.360144
 21
343.797
 31
0.0
  0
LINE
  5
50A6
  8
0
 10
156.990144
 20
337.7
 30
0.0
 11
156.990144
 21
343.797
 31
0.0
  0
LINE
  5
50A7
  8
0
 10
152.082144
 20
343.797
 30
0.0
 11
152.082144
 21
337.7
 31
0.0
  0
ARC
  5
50A8
  8
0
 10
154.536144
 20
339.869676
 30
0.0
 40
4.630982
 50
58.000676
 51
121.999324
  0
LINE
  5
50A9
  8
0
 10
156.990144
 20
343.797
 30
0.0
 11
155.425144
 21
344.701
 31
0.0
  0
LINE
  5
50AA
  8
0
 10
138.925144
 20
313.7
 30
0.0
 11
155.425144
 21
313.7
 31
0.0
  0
ARC
  5
50AB
  8
0
 10
147.175144
 20
331.362992
 30
0.0
 40
17.462601
 50
253.680072
 51
286.319928
  0
LINE
  5
50AC
  8
0
 10
151.363144
 20
312.7
 30
0.0
 11
142.987144
 21
312.7
 31
0.0
  0
LINE
  5
50AD
  8
0
 10
137.360144
 20
321.7
 30
0.0
 11
137.360144
 21
314.604
 31
0.0
  0
LINE
  5
50AE
  8
0
 10
142.268144
 20
314.604
 30
0.0
 11
142.268144
 21
321.7
 31
0.0
  0
LINE
  5
50AF
  8
0
 10
142.175144
 20
313.512
 30
0.0
 11
142.175144
 21
313.7
 31
0.0
  0
LINE
  5
50B0
  8
0
 10
137.360144
 20
314.604
 30
0.0
 11
138.925144
 21
313.7
 31
0.0
  0
ARC
  5
50B1
  8
0
 10
139.814144
 20
318.531324
 30
0.0
 40
4.630982
 50
238.000676
 51
301.999324
  0
LINE
  5
50B2
  8
0
 10
142.987144
 20
312.7
 30
0.0
 11
142.175144
 21
313.512
 31
0.0
  0
LINE
  5
50B3
  8
0
 10
156.990144
 20
314.604
 30
0.0
 11
156.990144
 21
321.7
 31
0.0
  0
LINE
  5
50B4
  8
0
 10
152.082144
 20
314.604
 30
0.0
 11
152.082144
 21
321.7
 31
0.0
  0
ARC
  5
50B5
  8
0
 10
154.536144
 20
318.531324
 30
0.0
 40
4.630982
 50
238.000676
 51
301.999324
  0
LINE
  5
50B6
  8
0
 10
152.175144
 20
313.7
 30
0.0
 11
152.175144
 21
313.512
 31
0.0
  0
LINE
  5
50B7
  8
0
 10
152.175144
 20
313.512
 30
0.0
 11
151.363144
 21
312.7
 31
0.0
  0
LINE
  5
50B8
  8
0
 10
155.425144
 20
313.7
 30
0.0
 11
156.990144
 21
314.604
 31
0.0
  0
LINE
  5
50B9
  8
0
 10
63.662191
 20
344.701
 30
0.0
 11
47.162191
 21
344.701
 31
0.0
  0
ARC
  5
50BA
  8
0
 10
55.412191
 20
327.038008
 30
0.0
 40
17.462601
 50
73.680072
 51
106.319928
  0
LINE
  5
50BB
  8
0
 10
50.505191
 20
343.797
 30
0.0
 11
50.505191
 21
337.7
 31
0.0
  0
LINE
  5
50BC
  8
0
 10
45.597191
 20
343.797
 30
0.0
 11
45.597191
 21
337.7
 31
0.0
  0
ARC
  5
50BD
  8
0
 10
48.051191
 20
339.869676
 30
0.0
 40
4.630982
 50
58.000676
 51
121.999324
  0
LINE
  5
50BE
  8
0
 10
47.162191
 20
344.701
 30
0.0
 11
45.597191
 21
343.797
 31
0.0
  0
LINE
  5
50BF
  8
0
 10
65.227191
 20
337.7
 30
0.0
 11
65.227191
 21
343.797
 31
0.0
  0
LINE
  5
50C0
  8
0
 10
60.319191
 20
343.797
 30
0.0
 11
60.319191
 21
337.7
 31
0.0
  0
ARC
  5
50C1
  8
0
 10
62.773191
 20
339.869676
 30
0.0
 40
4.630982
 50
58.000676
 51
121.999324
  0
LINE
  5
50C2
  8
0
 10
65.227191
 20
343.797
 30
0.0
 11
63.662191
 21
344.701
 31
0.0
  0
LINE
  5
50C3
  8
0
 10
47.162191
 20
313.7
 30
0.0
 11
63.662191
 21
313.7
 31
0.0
  0
ARC
  5
50C4
  8
0
 10
55.412191
 20
331.362992
 30
0.0
 40
17.462601
 50
253.680072
 51
286.319928
  0
LINE
  5
50C5
  8
0
 10
59.600191
 20
312.7
 30
0.0
 11
51.224191
 21
312.7
 31
0.0
  0
LINE
  5
50C6
  8
0
 10
45.597191
 20
321.7
 30
0.0
 11
45.597191
 21
314.604
 31
0.0
  0
LINE
  5
50C7
  8
0
 10
50.505191
 20
314.604
 30
0.0
 11
50.505191
 21
321.7
 31
0.0
  0
LINE
  5
50C8
  8
0
 10
50.412191
 20
313.512
 30
0.0
 11
50.412191
 21
313.7
 31
0.0
  0
LINE
  5
50C9
  8
0
 10
45.597191
 20
314.604
 30
0.0
 11
47.162191
 21
313.7
 31
0.0
  0
ARC
  5
50CA
  8
0
 10
48.051191
 20
318.531324
 30
0.0
 40
4.630982
 50
238.000676
 51
301.999324
  0
LINE
  5
50CB
  8
0
 10
51.224191
 20
312.7
 30
0.0
 11
50.412191
 21
313.512
 31
0.0
  0
LINE
  5
50CC
  8
0
 10
65.227191
 20
314.604
 30
0.0
 11
65.227191
 21
321.7
 31
0.0
  0
LINE
  5
50CD
  8
0
 10
60.319191
 20
314.604
 30
0.0
 11
60.319191
 21
321.7
 31
0.0
  0
ARC
  5
50CE
  8
0
 10
62.773191
 20
318.531324
 30
0.0
 40
4.630982
 50
238.000676
 51
301.999324
  0
LINE
  5
50CF
  8
0
 10
60.412191
 20
313.7
 30
0.0
 11
60.412191
 21
313.512
 31
0.0
  0
LINE
  5
50D0
  8
0
 10
60.412191
 20
313.512
 30
0.0
 11
59.600191
 21
312.7
 31
0.0
  0
LINE
  5
50D1
  8
0
 10
63.662191
 20
313.7
 30
0.0
 11
65.227191
 21
314.604
 31
0.0
  0
LINE
  5
50D2
  8
0
 10
112.837809
 20
344.701
 30
0.0
 11
96.337809
 21
344.701
 31
0.0
  0
ARC
  5
50D3
  8
0
 10
104.587809
 20
327.038008
 30
0.0
 40
17.462601
 50
73.680072
 51
106.319928
  0
LINE
  5
50D4
  8
0
 10
99.680809
 20
343.797
 30
0.0
 11
99.680809
 21
337.7
 31
0.0
  0
LINE
  5
50D5
  8
0
 10
94.772809
 20
343.797
 30
0.0
 11
94.772809
 21
337.7
 31
0.0
  0
ARC
  5
50D6
  8
0
 10
97.226809
 20
339.869676
 30
0.0
 40
4.630982
 50
58.000676
 51
121.999324
  0
LINE
  5
50D7
  8
0
 10
96.337809
 20
344.701
 30
0.0
 11
94.772809
 21
343.797
 31
0.0
  0
LINE
  5
50D8
  8
0
 10
114.402809
 20
337.7
 30
0.0
 11
114.402809
 21
343.797
 31
0.0
  0
LINE
  5
50D9
  8
0
 10
109.494809
 20
343.797
 30
0.0
 11
109.494809
 21
337.7
 31
0.0
  0
ARC
  5
50DA
  8
0
 10
111.948809
 20
339.869676
 30
0.0
 40
4.630982
 50
58.000676
 51
121.999324
  0
LINE
  5
50DB
  8
0
 10
114.402809
 20
343.797
 30
0.0
 11
112.837809
 21
344.701
 31
0.0
  0
LINE
  5
50DC
  8
0
 10
96.337809
 20
313.7
 30
0.0
 11
112.837809
 21
313.7
 31
0.0
  0
ARC
  5
50DD
  8
0
 10
104.587809
 20
331.362992
 30
0.0
 40
17.462601
 50
253.680072
 51
286.319928
  0
LINE
  5
50DE
  8
0
 10
108.775809
 20
312.7
 30
0.0
 11
100.399809
 21
312.7
 31
0.0
  0
LINE
  5
50DF
  8
0
 10
94.772809
 20
321.7
 30
0.0
 11
94.772809
 21
314.604
 31
0.0
  0
LINE
  5
50E0
  8
0
 10
99.680809
 20
314.604
 30
0.0
 11
99.680809
 21
321.7
 31
0.0
  0
LINE
  5
50E1
  8
0
 10
99.587809
 20
313.512
 30
0.0
 11
99.587809
 21
313.7
 31
0.0
  0
LINE
  5
50E2
  8
0
 10
94.772809
 20
314.604
 30
0.0
 11
96.337809
 21
313.7
 31
0.0
  0
ARC
  5
50E3
  8
0
 10
97.226809
 20
318.531324
 30
0.0
 40
4.630982
 50
238.000676
 51
301.999324
  0
LINE
  5
50E4
  8
0
 10
100.399809
 20
312.7
 30
0.0
 11
99.587809
 21
313.512
 31
0.0
  0
LINE
  5
50E5
  8
0
 10
114.402809
 20
314.604
 30
0.0
 11
114.402809
 21
321.7
 31
0.0
  0
LINE
  5
50E6
  8
0
 10
109.494809
 20
314.604
 30
0.0
 11
109.494809
 21
321.7
 31
0.0
  0
ARC
  5
50E7
  8
0
 10
111.948809
 20
318.531324
 30
0.0
 40
4.630982
 50
238.000676
 51
301.999324
  0
LINE
  5
50E8
  8
0
 10
109.587809
 20
313.7
 30
0.0
 11
109.587809
 21
313.512
 31
0.0
  0
LINE
  5
50E9
  8
0
 10
109.587809
 20
313.512
 30
0.0
 11
108.775809
 21
312.7
 31
0.0
  0
LINE
  5
50EA
  8
0
 10
112.837809
 20
313.7
 30
0.0
 11
114.402809
 21
314.604
 31
0.0
  0
ENDBLK
  5
50EC
  8
0
  0
ENDSEC
  0
SECTION
  2
ENTITIES
  0
TEXT
  5
2529
  8
FORM
  6
CONTINUOUS
 62
     1
 10
797.1
 20
21.0
 30
0.0
 40
9.0
  1
SC-F70
 41
0.9
  7
PTSH
 72
     2
 11
843.0
 21
25.5
 31
0.0
 73
     2
  0
POLYLINE
  5
2563
  8
FORM
 62
     7
 66
     1
 10
0.0
 20
0.0
 30
0.0
 70
     1
  0
VERTEX
  5
50F4
  8
FORM
 62
     7
 10
33.0
 20
15.0
 30
0.0
  0
VERTEX
  5
50F5
  8
FORM
 62
     7
 10
858.0
 20
15.0
 30
0.0
  0
VERTEX
  5
50F6
  8
FORM
 62
     7
 10
858.0
 20
573.0
 30
0.0
  0
VERTEX
  5
50F7
  8
FORM
 62
     7
 10
33.0
 20
573.0
 30
0.0
  0
SEQEND
  5
50F8
  8
FORM
 62
     7
  0
LINE
  5
4CF9
  8
0
 10
399.6
 20
303.932668
 30
0.0
 11
399.6
 21
403.932668
 31
0.0
  0
LINE
  5
4CFA
  8
0
 10
491.4
 20
303.932668
 30
0.0
 11
491.4
 21
403.932668
 31
0.0
  0
LINE
  5
4CFB
  8
0
 10
239.220328
 20
241.221427
 30
0.0
 11
239.220328
 21
149.421427
 31
0.0
  0
LINE
  5
4CFC
  8
0
 10
339.220328
 20
243.321427
 30
0.0
 11
339.220328
 21
147.321427
 31
0.0
  0
LINE
  5
4CFD
  8
0
 10
351.220328
 20
243.321427
 30
0.0
 11
351.220328
 21
147.321427
 31
0.0
  0
LINE
  5
4CFE
  8
0
 10
339.220328
 20
149.421427
 30
0.0
 11
239.220328
 21
149.421427
 31
0.0
  0
TEXT
  5
4CFF
  8
7-TEX2
 10
154.869785
 20
195.321427
 30
0.0
 40
10.5
  1
正面
  0
LINE
  5
4D00
  8
0
 10
351.220328
 20
147.321427
 30
0.0
 11
339.220328
 21
147.321427
 31
0.0
  0
LINE
  5
4D01
  8
0
 10
339.220328
 20
241.221427
 30
0.0
 11
239.220328
 21
241.221427
 31
0.0
  0
TEXT
  5
4D02
  8
7-TEX2
 10
154.869785
 20
371.57411
 30
0.0
 40
10.5
  1
平面
  0
LINE
  5
4D03
  8
0
 10
351.220328
 20
243.321427
 30
0.0
 11
339.220328
 21
243.321427
 31
0.0
  0
LINE
  5
4D04
  8
0
 10
551.779672
 20
241.221427
 30
0.0
 11
651.779672
 21
241.221427
 31
0.0
  0
LINE
  5
4D05
  8
0
 10
551.779672
 20
149.421427
 30
0.0
 11
651.779672
 21
149.421427
 31
0.0
  0
LINE
  5
4D06
  8
0
 10
539.779672
 20
243.321427
 30
0.0
 11
539.779672
 21
147.321427
 31
0.0
  0
LINE
  5
4D07
  8
0
 10
551.779672
 20
243.321427
 30
0.0
 11
551.779672
 21
147.321427
 31
0.0
  0
LINE
  5
4D08
  8
0
  6
CONTINUOUS
 62
     7
 10
493.5
 20
147.321427
 30
0.0
 11
493.5
 21
243.321427
 31
0.0
  0
LINE
  5
4D09
  8
0
  6
CONTINUOUS
 62
     7
 10
490.5
 20
237.321427
 30
0.0
 11
490.5
 21
153.321427
 31
0.0
  0
LINE
  5
4D0A
  8
0
  6
CONTINUOUS
 62
     7
 10
475.5
 20
233.321427
 30
0.0
 11
475.5
 21
216.321427
 31
0.0
  0
LINE
  5
4D0B
  8
0
  6
CONTINUOUS
 62
     7
 10
397.5
 20
243.321427
 30
0.0
 11
397.5
 21
147.321427
 31
0.0
  0
LINE
  5
4D0C
  8
0
  6
CONTINUOUS
 62
     7
 10
400.5
 20
237.321427
 30
0.0
 11
400.5
 21
153.321427
 31
0.0
  0
LINE
  5
4D0D
  8
0
  6
CONTINUOUS
 62
     7
 10
415.5
 20
233.321427
 30
0.0
 11
415.5
 21
216.321427
 31
0.0
  0
LINE
  5
4D0E
  8
0
  6
CONTINUOUS
 62
     7
 10
408.0
 20
219.452669
 30
0.0
 11
410.163378
 21
223.19975
 31
0.0
  0
LINE
  5
4D0F
  8
0
  6
CONTINUOUS
 62
     7
 10
405.836622
 20
223.19975
 30
0.0
 11
408.0
 21
219.452669
 31
0.0
  0
TEXT
  5
4D10
  8
0
 10
383.3
 20
53.0
 30
0.0
 40
14.0
  1
TLV SC-F70
 72
     4
 11
445.5
 21
60.0
 31
0.0
  0
ARC
  5
4D11
  8
0
  6
CONTINUOUS
 62
     7
 10
475.325723
 20
169.134292
 30
0.0
 40
9.293878
 50
62.175001
 51
77.670036
  0
ARC
  5
4D12
  8
0
  6
CONTINUOUS
 62
     7
 10
475.325723
 20
181.508562
 30
0.0
 40
9.293878
 50
282.329964
 51
297.824999
  0
ARC
  5
4D13
  8
0
  6
CONTINUOUS
 62
     7
 10
475.325895
 20
181.507535
 30
0.0
 40
10.792837
 50
282.330878
 51
297.826229
  0
ARC
  5
4D14
  8
0
  6
CONTINUOUS
 62
     7
 10
475.325723
 20
157.134292
 30
0.0
 40
9.293878
 50
62.175001
 51
77.670036
  0
ARC
  5
4D15
  8
0
  6
CONTINUOUS
 62
     7
 10
475.325723
 20
169.508562
 30
0.0
 40
9.293878
 50
282.329964
 51
297.824999
  0
ARC
  5
4D16
  8
0
  6
CONTINUOUS
 62
     7
 10
475.325895
 20
157.135319
 30
0.0
 40
10.792837
 50
62.173771
 51
77.669122
  0
ARC
  5
4D17
  8
0
  6
CONTINUOUS
 62
     7
 10
475.325895
 20
169.507535
 30
0.0
 40
10.792837
 50
282.330878
 51
297.826229
  0
ARC
  5
4D18
  8
0
  6
CONTINUOUS
 62
     7
 10
475.325895
 20
169.135319
 30
0.0
 40
10.792837
 50
62.173771
 51
77.669122
  0
LINE
  5
4D19
  8
0
  6
CONTINUOUS
 62
     7
 10
397.5
 20
147.321427
 30
0.0
 11
493.5
 21
147.321427
 31
0.0
  0
LINE
  5
4D1A
  8
0
  6
CONTINUOUS
 62
     7
 10
490.5
 20
153.321427
 30
0.0
 11
400.5
 21
153.321427
 31
0.0
  0
LINE
  5
4D1B
  8
0
  6
CONTINUOUS
 62
     7
 10
432.829526
 20
212.821427
 30
0.0
 11
404.5
 21
212.821427
 31
0.0
  0
LINE
  5
4D1C
  8
0
  6
CONTINUOUS
 62
     7
 10
432.829526
 20
201.821427
 30
0.0
 11
404.5
 21
201.821427
 31
0.0
  0
ARC
  5
4D1D
  8
0
  6
CONTINUOUS
 62
     7
 10
417.000362
 20
163.075084
 30
0.0
 40
16.996343
 50
77.666597
 51
90.001219
  0
ARC
  5
4D1E
  8
0
  6
CONTINUOUS
 62
     7
 10
417.000676
 20
163.07798
 30
0.0
 40
15.493447
 50
77.665557
 51
90.002499
  0
ARC
  5
4D1F
  8
0
  6
CONTINUOUS
 62
     7
 10
417.000676
 20
187.564874
 30
0.0
 40
15.493447
 50
269.997501
 51
282.334443
  0
ARC
  5
4D20
  8
0
  6
CONTINUOUS
 62
     7
 10
417.000362
 20
187.56777
 30
0.0
 40
16.996343
 50
269.998781
 51
282.333403
  0
ARC
  5
4D21
  8
0
  6
CONTINUOUS
 62
     7
 10
417.000676
 20
151.07798
 30
0.0
 40
15.493447
 50
77.665557
 51
90.002499
  0
ARC
  5
4D22
  8
0
  6
CONTINUOUS
 62
     7
 10
417.000676
 20
175.564874
 30
0.0
 40
15.493447
 50
269.997501
 51
282.334443
  0
ARC
  5
4D23
  8
0
  6
CONTINUOUS
 62
     7
 10
417.000362
 20
151.075084
 30
0.0
 40
16.996343
 50
77.666597
 51
90.001219
  0
ARC
  5
4D24
  8
0
  6
CONTINUOUS
 62
     7
 10
417.000362
 20
175.56777
 30
0.0
 40
16.996343
 50
269.998781
 51
282.333403
  0
LINE
  5
4D25
  8
0
  6
CONTINUOUS
 62
     7
 10
475.5
 20
216.321427
 30
0.0
 11
415.5
 21
216.321427
 31
0.0
  0
ARC
  5
4D26
  8
0
  6
CONTINUOUS
 62
     7
 10
415.674105
 20
169.135319
 30
0.0
 40
10.792837
 50
102.330878
 51
117.826229
  0
ARC
  5
4D27
  8
0
  6
CONTINUOUS
 62
     7
 10
415.674105
 20
169.507535
 30
0.0
 40
10.792837
 50
242.173771
 51
257.669122
  0
ARC
  5
4D28
  8
0
  6
CONTINUOUS
 62
     7
 10
416.999638
 20
175.56777
 30
0.0
 40
16.996343
 50
257.666597
 51
270.001219
  0
ARC
  5
4D29
  8
0
  6
CONTINUOUS
 62
     7
 10
416.999324
 20
163.07798
 30
0.0
 40
15.493447
 50
89.997501
 51
102.334443
  0
ARC
  5
4D2A
  8
0
  6
CONTINUOUS
 62
     7
 10
415.674277
 20
169.134292
 30
0.0
 40
9.293878
 50
102.329964
 51
117.824999
  0
ARC
  5
4D2B
  8
0
  6
CONTINUOUS
 62
     7
 10
413.658888
 20
172.951131
 30
0.0
 40
4.977623
 50
117.816154
 51
141.883632
  0
ARC
  5
4D2C
  8
0
  6
CONTINUOUS
 62
     7
 10
410.637403
 20
175.321346
 30
0.0
 40
1.137403
 50
141.870679
 51
160.93329
  0
ARC
  5
4D2D
  8
0
  6
CONTINUOUS
 62
     7
 10
410.637403
 20
175.321346
 30
0.0
 40
1.137403
 50
160.93329
 51
179.995902
  0
ARC
  5
4D2E
  8
0
  6
CONTINUOUS
 62
     7
 10
410.637403
 20
175.321508
 30
0.0
 40
1.137403
 50
180.004098
 51
199.06671
  0
ARC
  5
4D2F
  8
0
  6
CONTINUOUS
 62
     7
 10
410.637403
 20
175.321508
 30
0.0
 40
1.137403
 50
199.06671
 51
218.129321
  0
ARC
  5
4D30
  8
0
  6
CONTINUOUS
 62
     7
 10
413.658888
 20
177.691723
 30
0.0
 40
4.977623
 50
218.116368
 51
242.183846
  0
ARC
  5
4D31
  8
0
  6
CONTINUOUS
 62
     7
 10
415.674277
 20
181.508562
 30
0.0
 40
9.293878
 50
242.175001
 51
257.670036
  0
ARC
  5
4D32
  8
0
  6
CONTINUOUS
 62
     7
 10
416.999324
 20
187.564874
 30
0.0
 40
15.493447
 50
257.665557
 51
270.002499
  0
ARC
  5
4D33
  8
0
  6
CONTINUOUS
 62
     7
 10
413.660149
 20
172.94928
 30
0.0
 40
6.479797
 50
117.819577
 51
141.875502
  0
ARC
  5
4D34
  8
0
  6
CONTINUOUS
 62
     7
 10
410.635928
 20
175.321919
 30
0.0
 40
2.635928
 50
141.86281
 51
160.936752
  0
ARC
  5
4D35
  8
0
  6
CONTINUOUS
 62
     7
 10
410.635928
 20
175.321919
 30
0.0
 40
2.635928
 50
160.936752
 51
180.010693
  0
ARC
  5
4D36
  8
0
  6
CONTINUOUS
 62
     7
 10
410.635928
 20
175.320935
 30
0.0
 40
2.635928
 50
179.989307
 51
199.063248
  0
ARC
  5
4D37
  8
0
  6
CONTINUOUS
 62
     7
 10
410.635928
 20
175.320935
 30
0.0
 40
2.635928
 50
199.063248
 51
218.13719
  0
ARC
  5
4D38
  8
0
  6
CONTINUOUS
 62
     7
 10
413.660149
 20
177.693574
 30
0.0
 40
6.479797
 50
218.124498
 51
242.180423
  0
ARC
  5
4D39
  8
0
  6
CONTINUOUS
 62
     7
 10
415.674105
 20
181.507535
 30
0.0
 40
10.792837
 50
242.173771
 51
257.669122
  0
ARC
  5
4D3A
  8
0
  6
CONTINUOUS
 62
     7
 10
416.999638
 20
187.56777
 30
0.0
 40
16.996343
 50
257.666597
 51
270.001219
  0
ARC
  5
4D3B
  8
0
  6
CONTINUOUS
 62
     7
 10
416.999324
 20
151.07798
 30
0.0
 40
15.493447
 50
89.997501
 51
102.334443
  0
ARC
  5
4D3C
  8
0
  6
CONTINUOUS
 62
     7
 10
415.674277
 20
157.134292
 30
0.0
 40
9.293878
 50
102.329964
 51
117.824999
  0
ARC
  5
4D3D
  8
0
  6
CONTINUOUS
 62
     7
 10
413.658888
 20
160.951131
 30
0.0
 40
4.977623
 50
117.816154
 51
141.883632
  0
ARC
  5
4D3E
  8
0
  6
CONTINUOUS
 62
     7
 10
410.637403
 20
163.321346
 30
0.0
 40
1.137403
 50
141.870679
 51
160.93329
  0
ARC
  5
4D3F
  8
0
  6
CONTINUOUS
 62
     7
 10
410.637403
 20
163.321346
 30
0.0
 40
1.137403
 50
160.93329
 51
179.995902
  0
ARC
  5
4D40
  8
0
  6
CONTINUOUS
 62
     7
 10
410.637403
 20
163.321508
 30
0.0
 40
1.137403
 50
180.004098
 51
199.06671
  0
ARC
  5
4D41
  8
0
  6
CONTINUOUS
 62
     7
 10
410.637403
 20
163.321508
 30
0.0
 40
1.137403
 50
199.06671
 51
218.129321
  0
ARC
  5
4D42
  8
0
  6
CONTINUOUS
 62
     7
 10
413.658888
 20
165.691723
 30
0.0
 40
4.977623
 50
218.116368
 51
242.183846
  0
ARC
  5
4D43
  8
0
  6
CONTINUOUS
 62
     7
 10
415.674277
 20
169.508562
 30
0.0
 40
9.293878
 50
242.175001
 51
257.670036
  0
ARC
  5
4D44
  8
0
  6
CONTINUOUS
 62
     7
 10
416.999324
 20
175.564874
 30
0.0
 40
15.493447
 50
257.665557
 51
270.002499
  0
ARC
  5
4D45
  8
0
  6
CONTINUOUS
 62
     7
 10
416.999638
 20
151.075084
 30
0.0
 40
16.996343
 50
89.998781
 51
102.333403
  0
ARC
  5
4D46
  8
0
  6
CONTINUOUS
 62
     7
 10
415.674105
 20
157.135319
 30
0.0
 40
10.792837
 50
102.330878
 51
117.826229
  0
ARC
  5
4D47
  8
0
  6
CONTINUOUS
 62
     7
 10
413.660149
 20
160.94928
 30
0.0
 40
6.479797
 50
117.819577
 51
141.875502
  0
ARC
  5
4D48
  8
0
  6
CONTINUOUS
 62
     7
 10
410.635928
 20
163.321919
 30
0.0
 40
2.635928
 50
141.86281
 51
160.936752
  0
ARC
  5
4D49
  8
0
  6
CONTINUOUS
 62
     7
 10
410.635928
 20
163.321919
 30
0.0
 40
2.635928
 50
160.936752
 51
180.010693
  0
ARC
  5
4D4A
  8
0
  6
CONTINUOUS
 62
     7
 10
410.635928
 20
163.320935
 30
0.0
 40
2.635928
 50
179.989307
 51
199.063248
  0
ARC
  5
4D4B
  8
0
  6
CONTINUOUS
 62
     7
 10
410.635928
 20
163.320935
 30
0.0
 40
2.635928
 50
199.063248
 51
218.13719
  0
ARC
  5
4D4C
  8
0
  6
CONTINUOUS
 62
     7
 10
413.660149
 20
165.693574
 30
0.0
 40
6.479797
 50
218.124498
 51
242.180423
  0
LINE
  5
4D4D
  8
0
  6
CONTINUOUS
 62
     7
 10
407.68977
 20
197.900148
 30
0.0
 11
408.862642
 21
197.900148
 31
0.0
  0
ARC
  5
4D4E
  8
0
  6
CONTINUOUS
 62
     7
 10
416.999638
 20
163.075084
 30
0.0
 40
16.996343
 50
89.998781
 51
102.333403
  0
LINE
  5
4D4F
  8
0
  6
CONTINUOUS
 62
     7
 10
407.68977
 20
189.278127
 30
0.0
 11
408.862642
 21
189.278127
 31
0.0
  0
LINE
  5
4D50
  8
0
  6
CONTINUOUS
 62
     7
 10
407.68977
 20
189.278127
 30
0.0
 11
407.68977
 21
197.900148
 31
0.0
  0
LINE
  5
4D51
  8
0
  6
CONTINUOUS
 62
     7
 10
415.883146
 20
197.900148
 30
0.0
 11
418.994505
 21
197.900148
 31
0.0
  0
LINE
  5
4D52
  8
0
  6
CONTINUOUS
 62
     7
 10
415.883146
 20
189.278127
 30
0.0
 11
418.994505
 21
189.278127
 31
0.0
  0
LINE
  5
4D53
  8
0
  6
CONTINUOUS
 62
     7
 10
404.5
 20
212.821427
 30
0.0
 11
404.5
 21
201.821427
 31
0.0
  0
ARC
  5
4D54
  8
0
  6
CONTINUOUS
 62
     7
 10
453.674105
 20
169.135319
 30
0.0
 40
10.792837
 50
102.330878
 51
117.826229
  0
ARC
  5
4D55
  8
0
  6
CONTINUOUS
 62
     7
 10
456.325895
 20
169.135319
 30
0.0
 40
10.792837
 50
62.173771
 51
77.669122
  0
ARC
  5
4D56
  8
0
  6
CONTINUOUS
 62
     7
 10
472.674105
 20
169.135319
 30
0.0
 40
10.792837
 50
102.330878
 51
117.826229
  0
ARC
  5
4D57
  8
0
  6
CONTINUOUS
 62
     7
 10
418.325895
 20
169.135319
 30
0.0
 40
10.792837
 50
62.173771
 51
77.669122
  0
ARC
  5
4D58
  8
0
  6
CONTINUOUS
 62
     7
 10
437.325895
 20
169.135319
 30
0.0
 40
10.792837
 50
62.173771
 51
77.669122
  0
ARC
  5
4D59
  8
0
  6
CONTINUOUS
 62
     7
 10
434.674105
 20
169.135319
 30
0.0
 40
10.792837
 50
102.330878
 51
117.826229
  0
ARC
  5
4D5A
  8
0
  6
CONTINUOUS
 62
     7
 10
451.658888
 20
172.951131
 30
0.0
 40
4.977623
 50
117.816154
 51
141.883632
  0
ARC
  5
4D5B
  8
0
  6
CONTINUOUS
 62
     7
 10
451.658888
 20
177.691723
 30
0.0
 40
4.977623
 50
218.116368
 51
242.183846
  0
ARC
  5
4D5C
  8
0
  6
CONTINUOUS
 62
     7
 10
451.658888
 20
160.951131
 30
0.0
 40
4.977623
 50
117.816154
 51
141.883632
  0
ARC
  5
4D5D
  8
0
  6
CONTINUOUS
 62
     7
 10
451.658888
 20
165.691723
 30
0.0
 40
4.977623
 50
218.116368
 51
242.183846
  0
ARC
  5
4D5E
  8
0
  6
CONTINUOUS
 62
     7
 10
453.674105
 20
181.507535
 30
0.0
 40
10.792837
 50
242.173771
 51
257.669122
  0
ARC
  5
4D5F
  8
0
  6
CONTINUOUS
 62
     7
 10
453.674105
 20
157.135319
 30
0.0
 40
10.792837
 50
102.330878
 51
117.826229
  0
ARC
  5
4D60
  8
0
  6
CONTINUOUS
 62
     7
 10
453.674105
 20
169.507535
 30
0.0
 40
10.792837
 50
242.173771
 51
257.669122
  0
ARC
  5
4D61
  8
0
  6
CONTINUOUS
 62
     7
 10
418.325895
 20
169.507535
 30
0.0
 40
10.792837
 50
282.330878
 51
297.826229
  0
ARC
  5
4D62
  8
0
  6
CONTINUOUS
 62
     7
 10
434.674105
 20
169.507535
 30
0.0
 40
10.792837
 50
242.173771
 51
257.669122
  0
ARC
  5
4D63
  8
0
  6
CONTINUOUS
 62
     7
 10
437.325895
 20
169.507535
 30
0.0
 40
10.792837
 50
282.330878
 51
297.826229
  0
ARC
  5
4D64
  8
0
  6
CONTINUOUS
 62
     7
 10
435.999638
 20
175.56777
 30
0.0
 40
16.996343
 50
257.666597
 51
270.001219
  0
ARC
  5
4D65
  8
0
  6
CONTINUOUS
 62
     7
 10
436.000362
 20
175.56777
 30
0.0
 40
16.996343
 50
269.998781
 51
282.333403
  0
ARC
  5
4D66
  8
0
  6
CONTINUOUS
 62
     7
 10
435.999324
 20
163.07798
 30
0.0
 40
15.493447
 50
89.997501
 51
102.334443
  0
ARC
  5
4D67
  8
0
  6
CONTINUOUS
 62
     7
 10
435.999324
 20
187.564874
 30
0.0
 40
15.493447
 50
257.665557
 51
270.002499
  0
ARC
  5
4D68
  8
0
  6
CONTINUOUS
 62
     7
 10
435.999638
 20
187.56777
 30
0.0
 40
16.996343
 50
257.666597
 51
270.001219
  0
ARC
  5
4D69
  8
0
  6
CONTINUOUS
 62
     7
 10
435.999324
 20
151.07798
 30
0.0
 40
15.493447
 50
89.997501
 51
102.334443
  0
ARC
  5
4D6A
  8
0
  6
CONTINUOUS
 62
     7
 10
435.999324
 20
175.564874
 30
0.0
 40
15.493447
 50
257.665557
 51
270.002499
  0
ARC
  5
4D6B
  8
0
  6
CONTINUOUS
 62
     7
 10
435.999638
 20
151.075084
 30
0.0
 40
16.996343
 50
89.998781
 51
102.333403
  0
ARC
  5
4D6C
  8
0
  6
CONTINUOUS
 62
     7
 10
432.660149
 20
172.94928
 30
0.0
 40
6.479797
 50
117.819577
 51
141.875502
  0
ARC
  5
4D6D
  8
0
  6
CONTINUOUS
 62
     7
 10
432.660149
 20
177.693574
 30
0.0
 40
6.479797
 50
218.124498
 51
242.180423
  0
ARC
  5
4D6E
  8
0
  6
CONTINUOUS
 62
     7
 10
432.660149
 20
160.94928
 30
0.0
 40
6.479797
 50
117.819577
 51
141.875502
  0
ARC
  5
4D6F
  8
0
  6
CONTINUOUS
 62
     7
 10
432.660149
 20
165.693574
 30
0.0
 40
6.479797
 50
218.124498
 51
242.180423
  0
ARC
  5
4D70
  8
0
  6
CONTINUOUS
 62
     7
 10
423.362597
 20
175.321346
 30
0.0
 40
1.137403
 50
0.004098
 51
19.06671
  0
ARC
  5
4D71
  8
0
  6
CONTINUOUS
 62
     7
 10
423.362597
 20
175.321346
 30
0.0
 40
1.137403
 50
19.06671
 51
38.129321
  0
ARC
  5
4D72
  8
0
  6
CONTINUOUS
 62
     7
 10
420.341112
 20
172.951131
 30
0.0
 40
4.977623
 50
38.116368
 51
62.183846
  0
ARC
  5
4D73
  8
0
  6
CONTINUOUS
 62
     7
 10
418.325723
 20
169.134292
 30
0.0
 40
9.293878
 50
62.175001
 51
77.670036
  0
ARC
  5
4D74
  8
0
  6
CONTINUOUS
 62
     7
 10
418.325723
 20
181.508562
 30
0.0
 40
9.293878
 50
282.329964
 51
297.824999
  0
ARC
  5
4D75
  8
0
  6
CONTINUOUS
 62
     7
 10
420.341112
 20
177.691723
 30
0.0
 40
4.977623
 50
297.816154
 51
321.883632
  0
ARC
  5
4D76
  8
0
  6
CONTINUOUS
 62
     7
 10
423.362597
 20
175.321508
 30
0.0
 40
1.137403
 50
321.870679
 51
340.93329
  0
ARC
  5
4D77
  8
0
  6
CONTINUOUS
 62
     7
 10
423.362597
 20
175.321508
 30
0.0
 40
1.137403
 50
340.93329
 51
359.995902
  0
ARC
  5
4D78
  8
0
  6
CONTINUOUS
 62
     7
 10
423.364072
 20
175.321919
 30
0.0
 40
2.635928
 50
359.989307
 51
19.063248
  0
ARC
  5
4D79
  8
0
  6
CONTINUOUS
 62
     7
 10
423.364072
 20
175.321919
 30
0.0
 40
2.635928
 50
19.063248
 51
38.13719
  0
ARC
  5
4D7A
  8
0
  6
CONTINUOUS
 62
     7
 10
420.339851
 20
172.94928
 30
0.0
 40
6.479797
 50
38.124498
 51
62.180423
  0
ARC
  5
4D7B
  8
0
  6
CONTINUOUS
 62
     7
 10
418.325895
 20
181.507535
 30
0.0
 40
10.792837
 50
282.330878
 51
297.826229
  0
ARC
  5
4D7C
  8
0
  6
CONTINUOUS
 62
     7
 10
420.339851
 20
177.693574
 30
0.0
 40
6.479797
 50
297.819577
 51
321.875502
  0
ARC
  5
4D7D
  8
0
  6
CONTINUOUS
 62
     7
 10
423.364072
 20
175.320935
 30
0.0
 40
2.635928
 50
321.86281
 51
340.936752
  0
ARC
  5
4D7E
  8
0
  6
CONTINUOUS
 62
     7
 10
423.364072
 20
175.320935
 30
0.0
 40
2.635928
 50
340.936752
 51
0.010693
  0
ARC
  5
4D7F
  8
0
  6
CONTINUOUS
 62
     7
 10
429.635928
 20
175.321919
 30
0.0
 40
2.635928
 50
141.86281
 51
160.936752
  0
ARC
  5
4D80
  8
0
  6
CONTINUOUS
 62
     7
 10
429.635928
 20
175.321919
 30
0.0
 40
2.635928
 50
160.936752
 51
180.010693
  0
ARC
  5
4D81
  8
0
  6
CONTINUOUS
 62
     7
 10
429.635928
 20
175.320935
 30
0.0
 40
2.635928
 50
179.989307
 51
199.063248
  0
ARC
  5
4D82
  8
0
  6
CONTINUOUS
 62
     7
 10
429.635928
 20
175.320935
 30
0.0
 40
2.635928
 50
199.063248
 51
218.13719
  0
ARC
  5
4D83
  8
0
  6
CONTINUOUS
 62
     7
 10
429.635928
 20
163.321919
 30
0.0
 40
2.635928
 50
141.86281
 51
160.936752
  0
ARC
  5
4D84
  8
0
  6
CONTINUOUS
 62
     7
 10
429.635928
 20
163.321919
 30
0.0
 40
2.635928
 50
160.936752
 51
180.010693
  0
ARC
  5
4D85
  8
0
  6
CONTINUOUS
 62
     7
 10
429.635928
 20
163.320935
 30
0.0
 40
2.635928
 50
179.989307
 51
199.063248
  0
ARC
  5
4D86
  8
0
  6
CONTINUOUS
 62
     7
 10
429.635928
 20
163.320935
 30
0.0
 40
2.635928
 50
199.063248
 51
218.13719
  0
ARC
  5
4D87
  8
0
  6
CONTINUOUS
 62
     7
 10
423.362597
 20
163.321346
 30
0.0
 40
1.137403
 50
0.004098
 51
19.06671
  0
ARC
  5
4D88
  8
0
  6
CONTINUOUS
 62
     7
 10
423.362597
 20
163.321346
 30
0.0
 40
1.137403
 50
19.06671
 51
38.129321
  0
ARC
  5
4D89
  8
0
  6
CONTINUOUS
 62
     7
 10
420.341112
 20
160.951131
 30
0.0
 40
4.977623
 50
38.116368
 51
62.183846
  0
ARC
  5
4D8A
  8
0
  6
CONTINUOUS
 62
     7
 10
418.325723
 20
157.134292
 30
0.0
 40
9.293878
 50
62.175001
 51
77.670036
  0
ARC
  5
4D8B
  8
0
  6
CONTINUOUS
 62
     7
 10
418.325723
 20
169.508562
 30
0.0
 40
9.293878
 50
282.329964
 51
297.824999
  0
ARC
  5
4D8C
  8
0
  6
CONTINUOUS
 62
     7
 10
420.341112
 20
165.691723
 30
0.0
 40
4.977623
 50
297.816154
 51
321.883632
  0
ARC
  5
4D8D
  8
0
  6
CONTINUOUS
 62
     7
 10
423.362597
 20
163.321508
 30
0.0
 40
1.137403
 50
321.870679
 51
340.93329
  0
ARC
  5
4D8E
  8
0
  6
CONTINUOUS
 62
     7
 10
423.362597
 20
163.321508
 30
0.0
 40
1.137403
 50
340.93329
 51
359.995902
  0
ARC
  5
4D8F
  8
0
  6
CONTINUOUS
 62
     7
 10
423.364072
 20
163.321919
 30
0.0
 40
2.635928
 50
359.989307
 51
19.063248
  0
ARC
  5
4D90
  8
0
  6
CONTINUOUS
 62
     7
 10
423.364072
 20
163.321919
 30
0.0
 40
2.635928
 50
19.063248
 51
38.13719
  0
ARC
  5
4D91
  8
0
  6
CONTINUOUS
 62
     7
 10
420.339851
 20
160.94928
 30
0.0
 40
6.479797
 50
38.124498
 51
62.180423
  0
ARC
  5
4D92
  8
0
  6
CONTINUOUS
 62
     7
 10
418.325895
 20
157.135319
 30
0.0
 40
10.792837
 50
62.173771
 51
77.669122
  0
ARC
  5
4D93
  8
0
  6
CONTINUOUS
 62
     7
 10
420.339851
 20
165.693574
 30
0.0
 40
6.479797
 50
297.819577
 51
321.875502
  0
ARC
  5
4D94
  8
0
  6
CONTINUOUS
 62
     7
 10
423.364072
 20
163.320935
 30
0.0
 40
2.635928
 50
321.86281
 51
340.936752
  0
ARC
  5
4D95
  8
0
  6
CONTINUOUS
 62
     7
 10
423.364072
 20
163.320935
 30
0.0
 40
2.635928
 50
340.936752
 51
0.010693
  0
ARC
  5
4D96
  8
0
  6
CONTINUOUS
 62
     7
 10
432.658888
 20
172.951131
 30
0.0
 40
4.977623
 50
117.816154
 51
141.883632
  0
ARC
  5
4D97
  8
0
  6
CONTINUOUS
 62
     7
 10
429.637403
 20
175.321346
 30
0.0
 40
1.137403
 50
141.870679
 51
160.93329
  0
ARC
  5
4D98
  8
0
  6
CONTINUOUS
 62
     7
 10
429.637403
 20
175.321346
 30
0.0
 40
1.137403
 50
160.93329
 51
179.995902
  0
ARC
  5
4D99
  8
0
  6
CONTINUOUS
 62
     7
 10
429.637403
 20
175.321508
 30
0.0
 40
1.137403
 50
180.004098
 51
199.06671
  0
ARC
  5
4D9A
  8
0
  6
CONTINUOUS
 62
     7
 10
429.637403
 20
175.321508
 30
0.0
 40
1.137403
 50
199.06671
 51
218.129321
  0
ARC
  5
4D9B
  8
0
  6
CONTINUOUS
 62
     7
 10
432.658888
 20
177.691723
 30
0.0
 40
4.977623
 50
218.116368
 51
242.183846
  0
ARC
  5
4D9C
  8
0
  6
CONTINUOUS
 62
     7
 10
432.658888
 20
160.951131
 30
0.0
 40
4.977623
 50
117.816154
 51
141.883632
  0
ARC
  5
4D9D
  8
0
  6
CONTINUOUS
 62
     7
 10
429.637403
 20
163.321346
 30
0.0
 40
1.137403
 50
141.870679
 51
160.93329
  0
ARC
  5
4D9E
  8
0
  6
CONTINUOUS
 62
     7
 10
429.637403
 20
163.321346
 30
0.0
 40
1.137403
 50
160.93329
 51
179.995902
  0
ARC
  5
4D9F
  8
0
  6
CONTINUOUS
 62
     7
 10
429.637403
 20
163.321508
 30
0.0
 40
1.137403
 50
180.004098
 51
199.06671
  0
ARC
  5
4DA0
  8
0
  6
CONTINUOUS
 62
     7
 10
429.637403
 20
163.321508
 30
0.0
 40
1.137403
 50
199.06671
 51
218.129321
  0
ARC
  5
4DA1
  8
0
  6
CONTINUOUS
 62
     7
 10
432.658888
 20
165.691723
 30
0.0
 40
4.977623
 50
218.116368
 51
242.183846
  0
ARC
  5
4DA2
  8
0
  6
CONTINUOUS
 62
     7
 10
434.674277
 20
169.134292
 30
0.0
 40
9.293878
 50
102.329964
 51
117.824999
  0
ARC
  5
4DA3
  8
0
  6
CONTINUOUS
 62
     7
 10
434.674277
 20
181.508562
 30
0.0
 40
9.293878
 50
242.175001
 51
257.670036
  0
ARC
  5
4DA4
  8
0
  6
CONTINUOUS
 62
     7
 10
434.674105
 20
181.507535
 30
0.0
 40
10.792837
 50
242.173771
 51
257.669122
  0
ARC
  5
4DA5
  8
0
  6
CONTINUOUS
 62
     7
 10
434.674277
 20
157.134292
 30
0.0
 40
9.293878
 50
102.329964
 51
117.824999
  0
ARC
  5
4DA6
  8
0
  6
CONTINUOUS
 62
     7
 10
434.674277
 20
169.508562
 30
0.0
 40
9.293878
 50
242.175001
 51
257.670036
  0
ARC
  5
4DA7
  8
0
  6
CONTINUOUS
 62
     7
 10
434.674105
 20
157.135319
 30
0.0
 40
10.792837
 50
102.330878
 51
117.826229
  0
ARC
  5
4DA8
  8
0
  6
CONTINUOUS
 62
     7
 10
448.637403
 20
175.321346
 30
0.0
 40
1.137403
 50
141.870679
 51
160.93329
  0
ARC
  5
4DA9
  8
0
  6
CONTINUOUS
 62
     7
 10
448.637403
 20
175.321346
 30
0.0
 40
1.137403
 50
160.93329
 51
179.995902
  0
ARC
  5
4DAA
  8
0
  6
CONTINUOUS
 62
     7
 10
448.637403
 20
175.321508
 30
0.0
 40
1.137403
 50
180.004098
 51
199.06671
  0
ARC
  5
4DAB
  8
0
  6
CONTINUOUS
 62
     7
 10
448.637403
 20
175.321508
 30
0.0
 40
1.137403
 50
199.06671
 51
218.129321
  0
ARC
  5
4DAC
  8
0
  6
CONTINUOUS
 62
     7
 10
451.660149
 20
172.94928
 30
0.0
 40
6.479797
 50
117.819577
 51
141.875502
  0
ARC
  5
4DAD
  8
0
  6
CONTINUOUS
 62
     7
 10
451.660149
 20
177.693574
 30
0.0
 40
6.479797
 50
218.124498
 51
242.180423
  0
ARC
  5
4DAE
  8
0
  6
CONTINUOUS
 62
     7
 10
448.637403
 20
163.321346
 30
0.0
 40
1.137403
 50
141.870679
 51
160.93329
  0
ARC
  5
4DAF
  8
0
  6
CONTINUOUS
 62
     7
 10
448.637403
 20
163.321346
 30
0.0
 40
1.137403
 50
160.93329
 51
179.995902
  0
ARC
  5
4DB0
  8
0
  6
CONTINUOUS
 62
     7
 10
448.637403
 20
163.321508
 30
0.0
 40
1.137403
 50
180.004098
 51
199.06671
  0
ARC
  5
4DB1
  8
0
  6
CONTINUOUS
 62
     7
 10
448.637403
 20
163.321508
 30
0.0
 40
1.137403
 50
199.06671
 51
218.129321
  0
ARC
  5
4DB2
  8
0
  6
CONTINUOUS
 62
     7
 10
451.660149
 20
160.94928
 30
0.0
 40
6.479797
 50
117.819577
 51
141.875502
  0
ARC
  5
4DB3
  8
0
  6
CONTINUOUS
 62
     7
 10
451.660149
 20
165.693574
 30
0.0
 40
6.479797
 50
218.124498
 51
242.180423
  0
ARC
  5
4DB4
  8
0
  6
CONTINUOUS
 62
     7
 10
448.635928
 20
175.321919
 30
0.0
 40
2.635928
 50
160.936752
 51
180.010693
  0
ARC
  5
4DB5
  8
0
  6
CONTINUOUS
 62
     7
 10
448.635928
 20
175.320935
 30
0.0
 40
2.635928
 50
179.989307
 51
199.063248
  0
ARC
  5
4DB6
  8
0
  6
CONTINUOUS
 62
     7
 10
448.635928
 20
163.321919
 30
0.0
 40
2.635928
 50
160.936752
 51
180.010693
  0
ARC
  5
4DB7
  8
0
  6
CONTINUOUS
 62
     7
 10
448.635928
 20
163.320935
 30
0.0
 40
2.635928
 50
179.989307
 51
199.063248
  0
ARC
  5
4DB8
  8
0
  6
CONTINUOUS
 62
     7
 10
442.362597
 20
175.321346
 30
0.0
 40
1.137403
 50
0.004098
 51
19.06671
  0
ARC
  5
4DB9
  8
0
  6
CONTINUOUS
 62
     7
 10
442.362597
 20
175.321346
 30
0.0
 40
1.137403
 50
19.06671
 51
38.129321
  0
ARC
  5
4DBA
  8
0
  6
CONTINUOUS
 62
     7
 10
439.341112
 20
172.951131
 30
0.0
 40
4.977623
 50
38.116368
 51
62.183846
  0
ARC
  5
4DBB
  8
0
  6
CONTINUOUS
 62
     7
 10
437.325723
 20
169.134292
 30
0.0
 40
9.293878
 50
62.175001
 51
77.670036
  0
ARC
  5
4DBC
  8
0
  6
CONTINUOUS
 62
     7
 10
436.000676
 20
163.07798
 30
0.0
 40
15.493447
 50
77.665557
 51
90.002499
  0
ARC
  5
4DBD
  8
0
  6
CONTINUOUS
 62
     7
 10
436.000676
 20
187.564874
 30
0.0
 40
15.493447
 50
269.997501
 51
282.334443
  0
ARC
  5
4DBE
  8
0
  6
CONTINUOUS
 62
     7
 10
437.325723
 20
181.508562
 30
0.0
 40
9.293878
 50
282.329964
 51
297.824999
  0
ARC
  5
4DBF
  8
0
  6
CONTINUOUS
 62
     7
 10
439.341112
 20
177.691723
 30
0.0
 40
4.977623
 50
297.816154
 51
321.883632
  0
ARC
  5
4DC0
  8
0
  6
CONTINUOUS
 62
     7
 10
442.362597
 20
175.321508
 30
0.0
 40
1.137403
 50
321.870679
 51
340.93329
  0
ARC
  5
4DC1
  8
0
  6
CONTINUOUS
 62
     7
 10
442.362597
 20
175.321508
 30
0.0
 40
1.137403
 50
340.93329
 51
359.995902
  0
ARC
  5
4DC2
  8
0
  6
CONTINUOUS
 62
     7
 10
442.364072
 20
175.321919
 30
0.0
 40
2.635928
 50
359.989307
 51
19.063248
  0
ARC
  5
4DC3
  8
0
  6
CONTINUOUS
 62
     7
 10
442.364072
 20
175.321919
 30
0.0
 40
2.635928
 50
19.063248
 51
38.13719
  0
ARC
  5
4DC4
  8
0
  6
CONTINUOUS
 62
     7
 10
439.339851
 20
172.94928
 30
0.0
 40
6.479797
 50
38.124498
 51
62.180423
  0
ARC
  5
4DC5
  8
0
  6
CONTINUOUS
 62
     7
 10
436.000362
 20
187.56777
 30
0.0
 40
16.996343
 50
269.998781
 51
282.333403
  0
ARC
  5
4DC6
  8
0
  6
CONTINUOUS
 62
     7
 10
437.325895
 20
181.507535
 30
0.0
 40
10.792837
 50
282.330878
 51
297.826229
  0
ARC
  5
4DC7
  8
0
  6
CONTINUOUS
 62
     7
 10
439.339851
 20
177.693574
 30
0.0
 40
6.479797
 50
297.819577
 51
321.875502
  0
ARC
  5
4DC8
  8
0
  6
CONTINUOUS
 62
     7
 10
442.364072
 20
175.320935
 30
0.0
 40
2.635928
 50
321.86281
 51
340.936752
  0
ARC
  5
4DC9
  8
0
  6
CONTINUOUS
 62
     7
 10
442.364072
 20
175.320935
 30
0.0
 40
2.635928
 50
340.936752
 51
0.010693
  0
ARC
  5
4DCA
  8
0
  6
CONTINUOUS
 62
     7
 10
442.362597
 20
163.321346
 30
0.0
 40
1.137403
 50
0.004098
 51
19.06671
  0
ARC
  5
4DCB
  8
0
  6
CONTINUOUS
 62
     7
 10
442.362597
 20
163.321346
 30
0.0
 40
1.137403
 50
19.06671
 51
38.129321
  0
ARC
  5
4DCC
  8
0
  6
CONTINUOUS
 62
     7
 10
439.341112
 20
160.951131
 30
0.0
 40
4.977623
 50
38.116368
 51
62.183846
  0
ARC
  5
4DCD
  8
0
  6
CONTINUOUS
 62
     7
 10
437.325723
 20
157.134292
 30
0.0
 40
9.293878
 50
62.175001
 51
77.670036
  0
ARC
  5
4DCE
  8
0
  6
CONTINUOUS
 62
     7
 10
436.000676
 20
151.07798
 30
0.0
 40
15.493447
 50
77.665557
 51
90.002499
  0
ARC
  5
4DCF
  8
0
  6
CONTINUOUS
 62
     7
 10
436.000676
 20
175.564874
 30
0.0
 40
15.493447
 50
269.997501
 51
282.334443
  0
ARC
  5
4DD0
  8
0
  6
CONTINUOUS
 62
     7
 10
437.325723
 20
169.508562
 30
0.0
 40
9.293878
 50
282.329964
 51
297.824999
  0
ARC
  5
4DD1
  8
0
  6
CONTINUOUS
 62
     7
 10
439.341112
 20
165.691723
 30
0.0
 40
4.977623
 50
297.816154
 51
321.883632
  0
ARC
  5
4DD2
  8
0
  6
CONTINUOUS
 62
     7
 10
442.362597
 20
163.321508
 30
0.0
 40
1.137403
 50
321.870679
 51
340.93329
  0
ARC
  5
4DD3
  8
0
  6
CONTINUOUS
 62
     7
 10
442.362597
 20
163.321508
 30
0.0
 40
1.137403
 50
340.93329
 51
359.995902
  0
ARC
  5
4DD4
  8
0
  6
CONTINUOUS
 62
     7
 10
442.364072
 20
163.321919
 30
0.0
 40
2.635928
 50
359.989307
 51
19.063248
  0
ARC
  5
4DD5
  8
0
  6
CONTINUOUS
 62
     7
 10
442.364072
 20
163.321919
 30
0.0
 40
2.635928
 50
19.063248
 51
38.13719
  0
ARC
  5
4DD6
  8
0
  6
CONTINUOUS
 62
     7
 10
439.339851
 20
160.94928
 30
0.0
 40
6.479797
 50
38.124498
 51
62.180423
  0
ARC
  5
4DD7
  8
0
  6
CONTINUOUS
 62
     7
 10
437.325895
 20
157.135319
 30
0.0
 40
10.792837
 50
62.173771
 51
77.669122
  0
ARC
  5
4DD8
  8
0
  6
CONTINUOUS
 62
     7
 10
436.000362
 20
151.075084
 30
0.0
 40
16.996343
 50
77.666597
 51
90.001219
  0
ARC
  5
4DD9
  8
0
  6
CONTINUOUS
 62
     7
 10
439.339851
 20
165.693574
 30
0.0
 40
6.479797
 50
297.819577
 51
321.875502
  0
ARC
  5
4DDA
  8
0
  6
CONTINUOUS
 62
     7
 10
442.364072
 20
163.320935
 30
0.0
 40
2.635928
 50
321.86281
 51
340.936752
  0
ARC
  5
4DDB
  8
0
  6
CONTINUOUS
 62
     7
 10
442.364072
 20
163.320935
 30
0.0
 40
2.635928
 50
340.936752
 51
0.010693
  0
ARC
  5
4DDC
  8
0
  6
CONTINUOUS
 62
     7
 10
448.635928
 20
175.321919
 30
0.0
 40
2.635928
 50
141.86281
 51
160.936752
  0
ARC
  5
4DDD
  8
0
  6
CONTINUOUS
 62
     7
 10
448.635928
 20
175.320935
 30
0.0
 40
2.635928
 50
199.063248
 51
218.13719
  0
ARC
  5
4DDE
  8
0
  6
CONTINUOUS
 62
     7
 10
448.635928
 20
163.321919
 30
0.0
 40
2.635928
 50
141.86281
 51
160.936752
  0
ARC
  5
4DDF
  8
0
  6
CONTINUOUS
 62
     7
 10
448.635928
 20
163.320935
 30
0.0
 40
2.635928
 50
199.063248
 51
218.13719
  0
ARC
  5
4DE0
  8
0
  6
CONTINUOUS
 62
     7
 10
456.325895
 20
169.507535
 30
0.0
 40
10.792837
 50
282.330878
 51
297.826229
  0
ARC
  5
4DE1
  8
0
  6
CONTINUOUS
 62
     7
 10
472.674105
 20
169.507535
 30
0.0
 40
10.792837
 50
242.173771
 51
257.669122
  0
ARC
  5
4DE2
  8
0
  6
CONTINUOUS
 62
     7
 10
455.000362
 20
175.56777
 30
0.0
 40
16.996343
 50
269.998781
 51
282.333403
  0
ARC
  5
4DE3
  8
0
  6
CONTINUOUS
 62
     7
 10
454.999638
 20
175.56777
 30
0.0
 40
16.996343
 50
257.666597
 51
270.001219
  0
ARC
  5
4DE4
  8
0
  6
CONTINUOUS
 62
     7
 10
473.999638
 20
175.56777
 30
0.0
 40
16.996343
 50
257.666597
 51
270.001219
  0
ARC
  5
4DE5
  8
0
  6
CONTINUOUS
 62
     7
 10
474.000362
 20
175.56777
 30
0.0
 40
16.996343
 50
269.998781
 51
282.333403
  0
ARC
  5
4DE6
  8
0
  6
CONTINUOUS
 62
     7
 10
458.339851
 20
172.94928
 30
0.0
 40
6.479797
 50
38.124498
 51
62.180423
  0
ARC
  5
4DE7
  8
0
  6
CONTINUOUS
 62
     7
 10
458.339851
 20
177.693574
 30
0.0
 40
6.479797
 50
297.819577
 51
321.875502
  0
ARC
  5
4DE8
  8
0
  6
CONTINUOUS
 62
     7
 10
458.339851
 20
160.94928
 30
0.0
 40
6.479797
 50
38.124498
 51
62.180423
  0
ARC
  5
4DE9
  8
0
  6
CONTINUOUS
 62
     7
 10
458.339851
 20
165.693574
 30
0.0
 40
6.479797
 50
297.819577
 51
321.875502
  0
ARC
  5
4DEA
  8
0
  6
CONTINUOUS
 62
     7
 10
461.362597
 20
175.321346
 30
0.0
 40
1.137403
 50
0.004098
 51
19.06671
  0
ARC
  5
4DEB
  8
0
  6
CONTINUOUS
 62
     7
 10
461.362597
 20
175.321346
 30
0.0
 40
1.137403
 50
19.06671
 51
38.129321
  0
ARC
  5
4DEC
  8
0
  6
CONTINUOUS
 62
     7
 10
461.362597
 20
175.321508
 30
0.0
 40
1.137403
 50
321.870679
 51
340.93329
  0
ARC
  5
4DED
  8
0
  6
CONTINUOUS
 62
     7
 10
461.362597
 20
175.321508
 30
0.0
 40
1.137403
 50
340.93329
 51
359.995902
  0
ARC
  5
4DEE
  8
0
  6
CONTINUOUS
 62
     7
 10
461.362597
 20
163.321346
 30
0.0
 40
1.137403
 50
0.004098
 51
19.06671
  0
ARC
  5
4DEF
  8
0
  6
CONTINUOUS
 62
     7
 10
461.362597
 20
163.321346
 30
0.0
 40
1.137403
 50
19.06671
 51
38.129321
  0
ARC
  5
4DF0
  8
0
  6
CONTINUOUS
 62
     7
 10
461.362597
 20
163.321508
 30
0.0
 40
1.137403
 50
321.870679
 51
340.93329
  0
ARC
  5
4DF1
  8
0
  6
CONTINUOUS
 62
     7
 10
461.362597
 20
163.321508
 30
0.0
 40
1.137403
 50
340.93329
 51
359.995902
  0
ARC
  5
4DF2
  8
0
  6
CONTINUOUS
 62
     7
 10
455.000676
 20
163.07798
 30
0.0
 40
15.493447
 50
77.665557
 51
90.002499
  0
ARC
  5
4DF3
  8
0
  6
CONTINUOUS
 62
     7
 10
455.000676
 20
187.564874
 30
0.0
 40
15.493447
 50
269.997501
 51
282.334443
  0
ARC
  5
4DF4
  8
0
  6
CONTINUOUS
 62
     7
 10
455.000362
 20
187.56777
 30
0.0
 40
16.996343
 50
269.998781
 51
282.333403
  0
ARC
  5
4DF5
  8
0
  6
CONTINUOUS
 62
     7
 10
455.000676
 20
151.07798
 30
0.0
 40
15.493447
 50
77.665557
 51
90.002499
  0
ARC
  5
4DF6
  8
0
  6
CONTINUOUS
 62
     7
 10
455.000676
 20
175.564874
 30
0.0
 40
15.493447
 50
269.997501
 51
282.334443
  0
ARC
  5
4DF7
  8
0
  6
CONTINUOUS
 62
     7
 10
455.000362
 20
151.075084
 30
0.0
 40
16.996343
 50
77.666597
 51
90.001219
  0
ARC
  5
4DF8
  8
0
  6
CONTINUOUS
 62
     7
 10
454.999324
 20
163.07798
 30
0.0
 40
15.493447
 50
89.997501
 51
102.334443
  0
ARC
  5
4DF9
  8
0
  6
CONTINUOUS
 62
     7
 10
454.999324
 20
187.564874
 30
0.0
 40
15.493447
 50
257.665557
 51
270.002499
  0
ARC
  5
4DFA
  8
0
  6
CONTINUOUS
 62
     7
 10
454.999638
 20
187.56777
 30
0.0
 40
16.996343
 50
257.666597
 51
270.001219
  0
ARC
  5
4DFB
  8
0
  6
CONTINUOUS
 62
     7
 10
454.999324
 20
151.07798
 30
0.0
 40
15.493447
 50
89.997501
 51
102.334443
  0
ARC
  5
4DFC
  8
0
  6
CONTINUOUS
 62
     7
 10
454.999324
 20
175.564874
 30
0.0
 40
15.493447
 50
257.665557
 51
270.002499
  0
ARC
  5
4DFD
  8
0
  6
CONTINUOUS
 62
     7
 10
454.999638
 20
151.075084
 30
0.0
 40
16.996343
 50
89.998781
 51
102.333403
  0
ARC
  5
4DFE
  8
0
  6
CONTINUOUS
 62
     7
 10
453.674277
 20
169.134292
 30
0.0
 40
9.293878
 50
102.329964
 51
117.824999
  0
ARC
  5
4DFF
  8
0
  6
CONTINUOUS
 62
     7
 10
453.674277
 20
181.508562
 30
0.0
 40
9.293878
 50
242.175001
 51
257.670036
  0
ARC
  5
4E00
  8
0
  6
CONTINUOUS
 62
     7
 10
453.674277
 20
157.134292
 30
0.0
 40
9.293878
 50
102.329964
 51
117.824999
  0
ARC
  5
4E01
  8
0
  6
CONTINUOUS
 62
     7
 10
453.674277
 20
169.508562
 30
0.0
 40
9.293878
 50
242.175001
 51
257.670036
  0
ARC
  5
4E02
  8
0
  6
CONTINUOUS
 62
     7
 10
456.325723
 20
169.134292
 30
0.0
 40
9.293878
 50
62.175001
 51
77.670036
  0
ARC
  5
4E03
  8
0
  6
CONTINUOUS
 62
     7
 10
456.325723
 20
181.508562
 30
0.0
 40
9.293878
 50
282.329964
 51
297.824999
  0
ARC
  5
4E04
  8
0
  6
CONTINUOUS
 62
     7
 10
456.325723
 20
157.134292
 30
0.0
 40
9.293878
 50
62.175001
 51
77.670036
  0
ARC
  5
4E05
  8
0
  6
CONTINUOUS
 62
     7
 10
456.325723
 20
169.508562
 30
0.0
 40
9.293878
 50
282.329964
 51
297.824999
  0
ARC
  5
4E06
  8
0
  6
CONTINUOUS
 62
     7
 10
458.341112
 20
172.951131
 30
0.0
 40
4.977623
 50
38.116368
 51
62.183846
  0
ARC
  5
4E07
  8
0
  6
CONTINUOUS
 62
     7
 10
458.341112
 20
177.691723
 30
0.0
 40
4.977623
 50
297.816154
 51
321.883632
  0
ARC
  5
4E08
  8
0
  6
CONTINUOUS
 62
     7
 10
456.325895
 20
181.507535
 30
0.0
 40
10.792837
 50
282.330878
 51
297.826229
  0
ARC
  5
4E09
  8
0
  6
CONTINUOUS
 62
     7
 10
458.341112
 20
160.951131
 30
0.0
 40
4.977623
 50
38.116368
 51
62.183846
  0
ARC
  5
4E0A
  8
0
  6
CONTINUOUS
 62
     7
 10
458.341112
 20
165.691723
 30
0.0
 40
4.977623
 50
297.816154
 51
321.883632
  0
ARC
  5
4E0B
  8
0
  6
CONTINUOUS
 62
     7
 10
456.325895
 20
157.135319
 30
0.0
 40
10.792837
 50
62.173771
 51
77.669122
  0
ARC
  5
4E0C
  8
0
  6
CONTINUOUS
 62
     7
 10
473.999324
 20
163.07798
 30
0.0
 40
15.493447
 50
89.997501
 51
102.334443
  0
ARC
  5
4E0D
  8
0
  6
CONTINUOUS
 62
     7
 10
473.999324
 20
187.564874
 30
0.0
 40
15.493447
 50
257.665557
 51
270.002499
  0
ARC
  5
4E0E
  8
0
  6
CONTINUOUS
 62
     7
 10
473.999638
 20
187.56777
 30
0.0
 40
16.996343
 50
257.666597
 51
270.001219
  0
ARC
  5
4E0F
  8
0
  6
CONTINUOUS
 62
     7
 10
473.999324
 20
151.07798
 30
0.0
 40
15.493447
 50
89.997501
 51
102.334443
  0
ARC
  5
4E10
  8
0
  6
CONTINUOUS
 62
     7
 10
473.999324
 20
175.564874
 30
0.0
 40
15.493447
 50
257.665557
 51
270.002499
  0
ARC
  5
4E11
  8
0
  6
CONTINUOUS
 62
     7
 10
473.999638
 20
151.075084
 30
0.0
 40
16.996343
 50
89.998781
 51
102.333403
  0
ARC
  5
4E12
  8
0
  6
CONTINUOUS
 62
     7
 10
461.364072
 20
175.321919
 30
0.0
 40
2.635928
 50
359.989307
 51
19.063248
  0
ARC
  5
4E13
  8
0
  6
CONTINUOUS
 62
     7
 10
461.364072
 20
175.321919
 30
0.0
 40
2.635928
 50
19.063248
 51
38.13719
  0
ARC
  5
4E14
  8
0
  6
CONTINUOUS
 62
     7
 10
461.364072
 20
175.320935
 30
0.0
 40
2.635928
 50
321.86281
 51
340.936752
  0
ARC
  5
4E15
  8
0
  6
CONTINUOUS
 62
     7
 10
461.364072
 20
175.320935
 30
0.0
 40
2.635928
 50
340.936752
 51
0.010693
  0
ARC
  5
4E16
  8
0
  6
CONTINUOUS
 62
     7
 10
461.364072
 20
163.321919
 30
0.0
 40
2.635928
 50
359.989307
 51
19.063248
  0
ARC
  5
4E17
  8
0
  6
CONTINUOUS
 62
     7
 10
461.364072
 20
163.321919
 30
0.0
 40
2.635928
 50
19.063248
 51
38.13719
  0
ARC
  5
4E18
  8
0
  6
CONTINUOUS
 62
     7
 10
461.364072
 20
163.320935
 30
0.0
 40
2.635928
 50
321.86281
 51
340.936752
  0
ARC
  5
4E19
  8
0
  6
CONTINUOUS
 62
     7
 10
461.364072
 20
163.320935
 30
0.0
 40
2.635928
 50
340.936752
 51
0.010693
  0
ARC
  5
4E1A
  8
0
  6
CONTINUOUS
 62
     7
 10
472.674277
 20
169.134292
 30
0.0
 40
9.293878
 50
102.329964
 51
117.824999
  0
ARC
  5
4E1B
  8
0
  6
CONTINUOUS
 62
     7
 10
470.658888
 20
172.951131
 30
0.0
 40
4.977623
 50
117.816154
 51
141.883632
  0
ARC
  5
4E1C
  8
0
  6
CONTINUOUS
 62
     7
 10
467.637403
 20
175.321346
 30
0.0
 40
1.137403
 50
141.870679
 51
160.93329
  0
ARC
  5
4E1D
  8
0
  6
CONTINUOUS
 62
     7
 10
467.637403
 20
175.321346
 30
0.0
 40
1.137403
 50
160.93329
 51
179.995902
  0
ARC
  5
4E1E
  8
0
  6
CONTINUOUS
 62
     7
 10
467.637403
 20
175.321508
 30
0.0
 40
1.137403
 50
180.004098
 51
199.06671
  0
ARC
  5
4E1F
  8
0
  6
CONTINUOUS
 62
     7
 10
467.637403
 20
175.321508
 30
0.0
 40
1.137403
 50
199.06671
 51
218.129321
  0
ARC
  5
4E20
  8
0
  6
CONTINUOUS
 62
     7
 10
470.658888
 20
177.691723
 30
0.0
 40
4.977623
 50
218.116368
 51
242.183846
  0
ARC
  5
4E21
  8
0
  6
CONTINUOUS
 62
     7
 10
472.674277
 20
181.508562
 30
0.0
 40
9.293878
 50
242.175001
 51
257.670036
  0
ARC
  5
4E22
  8
0
  6
CONTINUOUS
 62
     7
 10
470.660149
 20
172.94928
 30
0.0
 40
6.479797
 50
117.819577
 51
141.875502
  0
ARC
  5
4E23
  8
0
  6
CONTINUOUS
 62
     7
 10
467.635928
 20
175.321919
 30
0.0
 40
2.635928
 50
141.86281
 51
160.936752
  0
ARC
  5
4E24
  8
0
  6
CONTINUOUS
 62
     7
 10
467.635928
 20
175.321919
 30
0.0
 40
2.635928
 50
160.936752
 51
180.010693
  0
ARC
  5
4E25
  8
0
  6
CONTINUOUS
 62
     7
 10
467.635928
 20
175.320935
 30
0.0
 40
2.635928
 50
179.989307
 51
199.063248
  0
ARC
  5
4E26
  8
0
  6
CONTINUOUS
 62
     7
 10
467.635928
 20
175.320935
 30
0.0
 40
2.635928
 50
199.063248
 51
218.13719
  0
ARC
  5
4E27
  8
0
  6
CONTINUOUS
 62
     7
 10
470.660149
 20
177.693574
 30
0.0
 40
6.479797
 50
218.124498
 51
242.180423
  0
ARC
  5
4E28
  8
0
  6
CONTINUOUS
 62
     7
 10
472.674105
 20
181.507535
 30
0.0
 40
10.792837
 50
242.173771
 51
257.669122
  0
ARC
  5
4E29
  8
0
  6
CONTINUOUS
 62
     7
 10
472.674277
 20
157.134292
 30
0.0
 40
9.293878
 50
102.329964
 51
117.824999
  0
ARC
  5
4E2A
  8
0
  6
CONTINUOUS
 62
     7
 10
470.658888
 20
160.951131
 30
0.0
 40
4.977623
 50
117.816154
 51
141.883632
  0
ARC
  5
4E2B
  8
0
  6
CONTINUOUS
 62
     7
 10
467.637403
 20
163.321346
 30
0.0
 40
1.137403
 50
141.870679
 51
160.93329
  0
ARC
  5
4E2C
  8
0
  6
CONTINUOUS
 62
     7
 10
467.637403
 20
163.321346
 30
0.0
 40
1.137403
 50
160.93329
 51
179.995902
  0
ARC
  5
4E2D
  8
0
  6
CONTINUOUS
 62
     7
 10
467.637403
 20
163.321508
 30
0.0
 40
1.137403
 50
180.004098
 51
199.06671
  0
ARC
  5
4E2E
  8
0
  6
CONTINUOUS
 62
     7
 10
467.637403
 20
163.321508
 30
0.0
 40
1.137403
 50
199.06671
 51
218.129321
  0
ARC
  5
4E2F
  8
0
  6
CONTINUOUS
 62
     7
 10
470.658888
 20
165.691723
 30
0.0
 40
4.977623
 50
218.116368
 51
242.183846
  0
ARC
  5
4E30
  8
0
  6
CONTINUOUS
 62
     7
 10
472.674277
 20
169.508562
 30
0.0
 40
9.293878
 50
242.175001
 51
257.670036
  0
ARC
  5
4E31
  8
0
  6
CONTINUOUS
 62
     7
 10
472.674105
 20
157.135319
 30
0.0
 40
10.792837
 50
102.330878
 51
117.826229
  0
ARC
  5
4E32
  8
0
  6
CONTINUOUS
 62
     7
 10
470.660149
 20
160.94928
 30
0.0
 40
6.479797
 50
117.819577
 51
141.875502
  0
ARC
  5
4E33
  8
0
  6
CONTINUOUS
 62
     7
 10
467.635928
 20
163.321919
 30
0.0
 40
2.635928
 50
141.86281
 51
160.936752
  0
ARC
  5
4E34
  8
0
  6
CONTINUOUS
 62
     7
 10
467.635928
 20
163.321919
 30
0.0
 40
2.635928
 50
160.936752
 51
180.010693
  0
ARC
  5
4E35
  8
0
  6
CONTINUOUS
 62
     7
 10
467.635928
 20
163.320935
 30
0.0
 40
2.635928
 50
179.989307
 51
199.063248
  0
ARC
  5
4E36
  8
0
  6
CONTINUOUS
 62
     7
 10
467.635928
 20
163.320935
 30
0.0
 40
2.635928
 50
199.063248
 51
218.13719
  0
ARC
  5
4E37
  8
0
  6
CONTINUOUS
 62
     7
 10
470.660149
 20
165.693574
 30
0.0
 40
6.479797
 50
218.124498
 51
242.180423
  0
ARC
  5
4E38
  8
0
  6
CONTINUOUS
 62
     7
 10
474.000676
 20
163.07798
 30
0.0
 40
15.493447
 50
77.665557
 51
90.002499
  0
ARC
  5
4E39
  8
0
  6
CONTINUOUS
 62
     7
 10
474.000676
 20
187.564874
 30
0.0
 40
15.493447
 50
269.997501
 51
282.334443
  0
ARC
  5
4E3A
  8
0
  6
CONTINUOUS
 62
     7
 10
474.000362
 20
187.56777
 30
0.0
 40
16.996343
 50
269.998781
 51
282.333403
  0
ARC
  5
4E3B
  8
0
  6
CONTINUOUS
 62
     7
 10
474.000676
 20
151.07798
 30
0.0
 40
15.493447
 50
77.665557
 51
90.002499
  0
ARC
  5
4E3C
  8
0
  6
CONTINUOUS
 62
     7
 10
474.000676
 20
175.564874
 30
0.0
 40
15.493447
 50
269.997501
 51
282.334443
  0
ARC
  5
4E3D
  8
0
  6
CONTINUOUS
 62
     7
 10
474.000362
 20
151.075084
 30
0.0
 40
16.996343
 50
77.666597
 51
90.001219
  0
LINE
  5
4E3E
  8
0
  6
CONTINUOUS
 62
     7
 10
475.5
 20
201.821427
 30
0.0
 11
439.5
 21
201.821427
 31
0.0
  0
LINE
  5
4E3F
  8
0
  6
CONTINUOUS
 62
     7
 10
475.5
 20
212.821427
 30
0.0
 11
439.5
 21
212.821427
 31
0.0
  0
ARC
  5
4E40
  8
0
  6
CONTINUOUS
 62
     7
 10
435.999638
 20
163.075084
 30
0.0
 40
16.996343
 50
89.998781
 51
102.333403
  0
LINE
  5
4E41
  8
0
  6
CONTINUOUS
 62
     7
 10
425.616117
 20
197.900148
 30
0.0
 11
428.488141
 21
197.900148
 31
0.0
  0
LINE
  5
4E42
  8
0
  6
CONTINUOUS
 62
     7
 10
425.616117
 20
189.278127
 30
0.0
 11
428.488141
 21
189.278127
 31
0.0
  0
LINE
  5
4E43
  8
0
  6
CONTINUOUS
 62
     7
 10
435.029973
 20
197.900148
 30
0.0
 11
438.221111
 21
197.900148
 31
0.0
  0
ARC
  5
4E44
  8
0
  6
CONTINUOUS
 62
     7
 10
436.000362
 20
163.075084
 30
0.0
 40
16.996343
 50
77.666597
 51
90.001219
  0
LINE
  5
4E45
  8
0
  6
CONTINUOUS
 62
     7
 10
435.029973
 20
189.278127
 30
0.0
 11
438.221111
 21
189.278127
 31
0.0
  0
LINE
  5
4E46
  8
0
  6
CONTINUOUS
 62
     7
 10
444.603387
 20
197.900148
 30
0.0
 11
448.03386
 21
197.900148
 31
0.0
  0
LINE
  5
4E47
  8
0
  6
CONTINUOUS
 62
     7
 10
444.603387
 20
189.278127
 30
0.0
 11
448.03386
 21
189.278127
 31
0.0
  0
LINE
  5
4E48
  8
0
  6
CONTINUOUS
 62
     7
 10
432.829526
 20
212.821427
 30
0.0
 11
432.829526
 21
201.821427
 31
0.0
  0
LINE
  5
4E49
  8
0
  6
CONTINUOUS
 62
     7
 10
439.5
 20
212.821427
 30
0.0
 11
439.5
 21
201.821427
 31
0.0
  0
LINE
  5
4E4A
  8
0
  6
CONTINUOUS
 62
     7
 10
454.655471
 20
197.900148
 30
0.0
 11
457.447717
 21
197.900148
 31
0.0
  0
ARC
  5
4E4B
  8
0
  6
CONTINUOUS
 62
     7
 10
455.000362
 20
163.075084
 30
0.0
 40
16.996343
 50
77.666597
 51
90.001219
  0
LINE
  5
4E4C
  8
0
  6
CONTINUOUS
 62
     7
 10
454.655471
 20
189.278127
 30
0.0
 11
457.447717
 21
189.278127
 31
0.0
  0
ARC
  5
4E4D
  8
0
  6
CONTINUOUS
 62
     7
 10
454.999638
 20
163.075084
 30
0.0
 40
16.996343
 50
89.998781
 51
102.333403
  0
ARC
  5
4E4E
  8
0
  6
CONTINUOUS
 62
     7
 10
473.999638
 20
163.075084
 30
0.0
 40
16.996343
 50
89.998781
 51
102.333403
  0
LINE
  5
4E4F
  8
0
  6
CONTINUOUS
 62
     7
 10
463.829993
 20
197.900148
 30
0.0
 11
466.622238
 21
197.900148
 31
0.0
  0
LINE
  5
4E50
  8
0
  6
CONTINUOUS
 62
     7
 10
463.829993
 20
189.278127
 30
0.0
 11
466.622238
 21
189.278127
 31
0.0
  0
LINE
  5
4E51
  8
0
  6
CONTINUOUS
 62
     7
 10
473.164071
 20
197.900148
 30
0.0
 11
474.919197
 21
197.900148
 31
0.0
  0
LINE
  5
4E52
  8
0
  6
CONTINUOUS
 62
     7
 10
473.164071
 20
189.278127
 30
0.0
 11
474.919197
 21
189.278127
 31
0.0
  0
ARC
  5
4E53
  8
0
  6
CONTINUOUS
 62
     7
 10
474.000362
 20
163.075084
 30
0.0
 40
16.996343
 50
77.666597
 51
90.001219
  0
LINE
  5
4E54
  8
0
  6
CONTINUOUS
 62
     7
 10
475.5
 20
212.821427
 30
0.0
 11
475.5
 21
201.821427
 31
0.0
  0
ARC
  5
4E55
  8
0
  6
CONTINUOUS
 62
     7
 10
480.362597
 20
175.321346
 30
0.0
 40
1.137403
 50
0.004098
 51
19.06671
  0
ARC
  5
4E56
  8
0
  6
CONTINUOUS
 62
     7
 10
480.362597
 20
175.321346
 30
0.0
 40
1.137403
 50
19.06671
 51
38.129321
  0
ARC
  5
4E57
  8
0
  6
CONTINUOUS
 62
     7
 10
477.341112
 20
172.951131
 30
0.0
 40
4.977623
 50
38.116368
 51
62.183846
  0
ARC
  5
4E58
  8
0
  6
CONTINUOUS
 62
     7
 10
477.341112
 20
177.691723
 30
0.0
 40
4.977623
 50
297.816154
 51
321.883632
  0
ARC
  5
4E59
  8
0
  6
CONTINUOUS
 62
     7
 10
480.362597
 20
175.321508
 30
0.0
 40
1.137403
 50
321.870679
 51
340.93329
  0
ARC
  5
4E5A
  8
0
  6
CONTINUOUS
 62
     7
 10
480.362597
 20
175.321508
 30
0.0
 40
1.137403
 50
340.93329
 51
359.995902
  0
ARC
  5
4E5B
  8
0
  6
CONTINUOUS
 62
     7
 10
480.364072
 20
175.321919
 30
0.0
 40
2.635928
 50
359.989307
 51
19.063248
  0
ARC
  5
4E5C
  8
0
  6
CONTINUOUS
 62
     7
 10
480.364072
 20
175.321919
 30
0.0
 40
2.635928
 50
19.063248
 51
38.13719
  0
ARC
  5
4E5D
  8
0
  6
CONTINUOUS
 62
     7
 10
477.339851
 20
172.94928
 30
0.0
 40
6.479797
 50
38.124498
 51
62.180423
  0
ARC
  5
4E5E
  8
0
  6
CONTINUOUS
 62
     7
 10
477.339851
 20
177.693574
 30
0.0
 40
6.479797
 50
297.819577
 51
321.875502
  0
ARC
  5
4E5F
  8
0
  6
CONTINUOUS
 62
     7
 10
480.364072
 20
175.320935
 30
0.0
 40
2.635928
 50
321.86281
 51
340.936752
  0
ARC
  5
4E60
  8
0
  6
CONTINUOUS
 62
     7
 10
480.364072
 20
175.320935
 30
0.0
 40
2.635928
 50
340.936752
 51
0.010693
  0
ARC
  5
4E61
  8
0
  6
CONTINUOUS
 62
     7
 10
480.362597
 20
163.321346
 30
0.0
 40
1.137403
 50
0.004098
 51
19.06671
  0
ARC
  5
4E62
  8
0
  6
CONTINUOUS
 62
     7
 10
480.362597
 20
163.321346
 30
0.0
 40
1.137403
 50
19.06671
 51
38.129321
  0
ARC
  5
4E63
  8
0
  6
CONTINUOUS
 62
     7
 10
477.341112
 20
160.951131
 30
0.0
 40
4.977623
 50
38.116368
 51
62.183846
  0
ARC
  5
4E64
  8
0
  6
CONTINUOUS
 62
     7
 10
477.341112
 20
165.691723
 30
0.0
 40
4.977623
 50
297.816154
 51
321.883632
  0
ARC
  5
4E65
  8
0
  6
CONTINUOUS
 62
     7
 10
480.362597
 20
163.321508
 30
0.0
 40
1.137403
 50
321.870679
 51
340.93329
  0
ARC
  5
4E66
  8
0
  6
CONTINUOUS
 62
     7
 10
480.362597
 20
163.321508
 30
0.0
 40
1.137403
 50
340.93329
 51
359.995902
  0
ARC
  5
4E67
  8
0
  6
CONTINUOUS
 62
     7
 10
480.364072
 20
163.321919
 30
0.0
 40
2.635928
 50
359.989307
 51
19.063248
  0
ARC
  5
4E68
  8
0
  6
CONTINUOUS
 62
     7
 10
480.364072
 20
163.321919
 30
0.0
 40
2.635928
 50
19.063248
 51
38.13719
  0
ARC
  5
4E69
  8
0
  6
CONTINUOUS
 62
     7
 10
477.339851
 20
160.94928
 30
0.0
 40
6.479797
 50
38.124498
 51
62.180423
  0
ARC
  5
4E6A
  8
0
  6
CONTINUOUS
 62
     7
 10
477.339851
 20
165.693574
 30
0.0
 40
6.479797
 50
297.819577
 51
321.875502
  0
ARC
  5
4E6B
  8
0
  6
CONTINUOUS
 62
     7
 10
480.364072
 20
163.320935
 30
0.0
 40
2.635928
 50
321.86281
 51
340.936752
  0
ARC
  5
4E6C
  8
0
  6
CONTINUOUS
 62
     7
 10
480.364072
 20
163.320935
 30
0.0
 40
2.635928
 50
340.936752
 51
0.010693
  0
LINE
  5
4E6D
  8
0
  6
CONTINUOUS
 62
     7
 10
481.301472
 20
197.900148
 30
0.0
 11
482.328388
 21
197.900148
 31
0.0
  0
LINE
  5
4E6E
  8
0
  6
CONTINUOUS
 62
     7
 10
481.301472
 20
189.278127
 30
0.0
 11
482.328388
 21
189.278127
 31
0.0
  0
LINE
  5
4E6F
  8
0
  6
CONTINUOUS
 62
     7
 10
482.328388
 20
197.900148
 30
0.0
 11
482.328388
 21
189.278127
 31
0.0
  0
LINE
  5
4E70
  8
0
 10
539.779672
 20
147.321427
 30
0.0
 11
551.779672
 21
147.321427
 31
0.0
  0
LINE
  5
4E71
  8
0
  6
CONTINUOUS
 62
     7
 10
493.5
 20
243.321427
 30
0.0
 11
397.5
 21
243.321427
 31
0.0
  0
LINE
  5
4E72
  8
0
  6
CONTINUOUS
 62
     7
 10
400.5
 20
237.321427
 30
0.0
 11
490.5
 21
237.321427
 31
0.0
  0
LINE
  5
4E73
  8
0
 10
397.5
 20
303.932668
 30
0.0
 11
493.5
 21
303.932668
 31
0.0
  0
LINE
  5
4E74
  8
0
 10
397.5
 20
291.932668
 30
0.0
 11
493.5
 21
291.932668
 31
0.0
  0
LINE
  5
4E75
  8
0
 10
397.5
 20
291.932668
 30
0.0
 11
397.5
 21
303.932668
 31
0.0
  0
LINE
  5
4E76
  8
0
  6
CONTINUOUS
 62
     7
 10
475.5
 20
233.321427
 30
0.0
 11
415.5
 21
233.321427
 31
0.0
  0
LINE
  5
4E77
  8
0
  6
CONTINUOUS
 62
     7
 10
405.836622
 20
223.19975
 30
0.0
 11
410.163378
 21
223.19975
 31
0.0
  0
LINE
  5
4E78
  8
0
  6
CONTINUOUS
 62
     7
 10
405.836622
 20
226.443104
 30
0.0
 11
410.163378
 21
226.443104
 31
0.0
  0
LINE
  5
4E79
  8
0
  6
CONTINUOUS
 62
     7
 10
405.836622
 20
226.443104
 30
0.0
 11
408.0
 21
230.190185
 31
0.0
  0
LINE
  5
4E7A
  8
0
  6
CONTINUOUS
 62
     7
 10
408.0
 20
230.190185
 30
0.0
 11
410.163378
 21
226.443104
 31
0.0
  0
LINE
  5
4E7B
  8
0
 10
493.5
 20
291.932668
 30
0.0
 11
493.5
 21
303.932668
 31
0.0
  0
LINE
  5
4E7C
  8
0
 10
539.779672
 20
243.321427
 30
0.0
 11
551.779672
 21
243.321427
 31
0.0
  0
LINE
  5
4E7D
  8
0
 10
651.779672
 20
241.221427
 30
0.0
 11
651.779672
 21
149.421427
 31
0.0
  0
LINE
  5
4E7E
  8
0
 10
399.6
 20
403.932668
 30
0.0
 11
491.4
 21
403.932668
 31
0.0
  0
VIEWPORT
  5
41
 67
     1
  8
0
 10
117.358407
 20
73.5
 30
0.0
 40
234.716814
 41
147.0
 68
    -1
 69
     1
1001
ACAD
1000
MVIEW
1002
{
1070
    16
1010
0.0
1020
0.0
1030
0.0
1010
0.0
1020
0.0
1030
1.0
1040
0.0
1040
147.0
1040
117.358407
1040
73.5
1040
50.0
1040
0.0
1040
0.0
1070
     0
1070
   100
1070
     1
1070
     1
1070
     0
1070
     0
1070
     0
1070
     0
1040
0.0
1040
0.0
1040
0.0
1040
1.0
1040
1.0
1040
0.0
1040
0.0
1070
     0
1002
{
1002
}
1002
}
  0
ENDSEC
  0
EOF
