  0
SECTION
  2
HEADER
  9
$ACADVER
  1
AC1009
  9
$INSBASE
 10
0.0
 20
0.0
 30
0.0
  9
$EXTMIN
 10
22.0
 20
10.0
 30
0.0
  9
$EXTMAX
 10
572.0
 20
382.0
 30
0.0
  9
$LIMMIN
 10
0.0
 20
0.0
  9
$LIMMAX
 10
594.0
 20
420.0
  9
$ORTHOMODE
 70
     1
  9
$REGENMODE
 70
     1
  9
$FILLMODE
 70
     1
  9
$QTEXTMODE
 70
     0
  9
$MIRRTEXT
 70
     1
  9
$DRAGMODE
 70
     2
  9
$LTSCALE
 40
8.0
  9
$OSMODE
 70
   163
  9
$ATTMODE
 70
     1
  9
$TEXTSIZE
 40
8.0
  9
$TRACEWID
 40
0.05
  9
$TEXTSTYLE
  7
STANDARD
  9
$CLAYER
  8
0
  9
$CELTYPE
  6
BYLAYER
  9
$CECOLOR
 62
   256
  9
$DIMSCALE
 40
2.0
  9
$DIMASZ
 40
2.8
  9
$DIMEXO
 40
1.0
  9
$DIMDLI
 40
5.0
  9
$DIMRND
 40
0.1
  9
$DIMDLE
 40
0.0
  9
$DIMEXE
 40
1.0
  9
$DIMTP
 40
0.0
  9
$DIMTM
 40
0.0
  9
$DIMTXT
 40
2.5
  9
$DIMCEN
 40
0.0
  9
$DIMTSZ
 40
0.0
  9
$DIMTOL
 70
     0
  9
$DIMLIM
 70
     0
  9
$DIMTIH
 70
     0
  9
$DIMTOH
 70
     0
  9
$DIMSE1
 70
     0
  9
$DIMSE2
 70
     0
  9
$DIMTAD
 70
     3
  9
$DIMZIN
 70
     8
  9
$DIMBLK
  1

  9
$DIMASO
 70
     1
  9
$DIMSHO
 70
     1
  9
$DIMPOST
  1
 
  9
$DIMAPOST
  1

  9
$DIMALT
 70
     0
  9
$DIMALTD
 70
     2
  9
$DIMALTF
 40
1.0
  9
$DIMLFAC
 40
1.0
  9
$DIMTOFL
 70
     1
  9
$DIMTVP
 40
0.0
  9
$DIMTIX
 70
     0
  9
$DIMSOXD
 70
     0
  9
$DIMSAH
 70
     1
  9
$DIMBLK1
  1
_OPEN
  9
$DIMBLK2
  1
_OPEN
  9
$DIMSTYLE
  2
DIM1
  9
$DIMCLRD
 70
     2
  9
$DIMCLRE
 70
     2
  9
$DIMCLRT
 70
     2
  9
$DIMTFAC
 40
0.7
  9
$DIMGAP
 40
0.85
  9
$LUNITS
 70
     2
  9
$LUPREC
 70
     4
  9
$SKETCHINC
 40
0.1
  9
$FILLETRAD
 40
0.5
  9
$AUNITS
 70
     0
  9
$AUPREC
 70
     0
  9
$MENU
  1
C:\ACADR13\WIN\SUPPORT\ACAD.mnc
  9
$ELEVATION
 40
0.0
  9
$PELEVATION
 40
0.0
  9
$THICKNESS
 40
0.0
  9
$LIMCHECK
 70
     0
  9
$BLIPMODE
 70
     1
  9
$CHAMFERA
 40
0.0
  9
$CHAMFERB
 40
0.0
  9
$SKPOLY
 70
     0
  9
$TDCREATE
 40
2451564.587412
  9
$TDUPDATE
 40
2451673.460921
  9
$TDINDWG
 40
0.083758
  9
$TDUSRTIMER
 40
0.083758
  9
$USRTIMER
 70
     1
  9
$ANGBASE
 50
0.0
  9
$ANGDIR
 70
     0
  9
$PDMODE
 70
     0
  9
$PDSIZE
 40
0.0
  9
$PLINEWID
 40
0.0
  9
$COORDS
 70
     1
  9
$SPLFRAME
 70
     0
  9
$SPLINETYPE
 70
     6
  9
$SPLINESEGS
 70
     8
  9
$ATTDIA
 70
     0
  9
$ATTREQ
 70
     1
  9
$HANDLING
 70
     1
  9
$HANDSEED
  5
4FBA
  9
$SURFTAB1
 70
     6
  9
$SURFTAB2
 70
     6
  9
$SURFTYPE
 70
     6
  9
$SURFU
 70
     6
  9
$SURFV
 70
     6
  9
$UCSNAME
  2

  9
$UCSORG
 10
0.0
 20
0.0
 30
0.0
  9
$UCSXDIR
 10
1.0
 20
0.0
 30
0.0
  9
$UCSYDIR
 10
0.0
 20
1.0
 30
0.0
  9
$PUCSNAME
  2

  9
$PUCSORG
 10
0.0
 20
0.0
 30
0.0
  9
$PUCSXDIR
 10
1.0
 20
0.0
 30
0.0
  9
$PUCSYDIR
 10
0.0
 20
1.0
 30
0.0
  9
$USERI1
 70
     0
  9
$USERI2
 70
     0
  9
$USERI3
 70
     0
  9
$USERI4
 70
     0
  9
$USERI5
 70
     0
  9
$USERR1
 40
0.0
  9
$USERR2
 40
0.0
  9
$USERR3
 40
0.0
  9
$USERR4
 40
0.0
  9
$USERR5
 40
0.0
  9
$WORLDVIEW
 70
     1
  9
$SHADEDGE
 70
     3
  9
$SHADEDIF
 70
    70
  9
$TILEMODE
 70
     1
  9
$MAXACTVP
 70
    16
  9
$PLIMCHECK
 70
     0
  9
$PEXTMIN
 10
1.000000E+020
 20
1.000000E+020
 30
1.000000E+020
  9
$PEXTMAX
 10
-1.000000E+020
 20
-1.000000E+020
 30
-1.000000E+020
  9
$PLIMMIN
 10
0.0
 20
0.0
  9
$PLIMMAX
 10
20.0
 20
147.0
  9
$UNITMODE
 70
     0
  9
$VISRETAIN
 70
     0
  9
$PLINEGEN
 70
     0
  9
$PSLTSCALE
 70
     1
  0
ENDSEC
  0
SECTION
  2
TABLES
  0
TABLE
  2
VPORT
 70
     2
  0
VPORT
  2
*ACTIVE
 70
     0
 10
0.0
 20
0.0
 11
1.0
 21
1.0
 12
383.151618
 22
217.444875
 13
0.0
 23
0.0
 14
1.0
 24
1.0
 15
0.0
 25
0.0
 16
0.0
 26
0.0
 36
1.0
 17
0.0
 27
0.0
 37
0.0
 40
434.88975
 41
1.762063
 42
50.0
 43
0.0
 44
0.0
 50
0.0
 51
0.0
 71
     0
 72
   100
 73
     1
 74
     1
 75
     0
 76
     0
 77
     0
 78
     0
  0
ENDTAB
  0
TABLE
  2
LTYPE
 70
     5
  0
LTYPE
  2
CONTINUOUS
 70
     0
  3
Solid line
 72
    65
 73
     0
 40
0.0
  0
LTYPE
  2
DASHED
 70
     0
  3
__ __ __ __ __ __ __ __ __ __ __ __ __ __ __ __
 72
    65
 73
     2
 40
0.75
 49
0.5
 49
-0.25
  0
LTYPE
  2
HIDDEN
 70
     0
  3
__ __ __ __ __ __ __ __ __ __ __ __ __ __ __ __
 72
    65
 73
     2
 40
0.375
 49
0.25
 49
-0.125
  0
LTYPE
  2
CENTER
 70
     0
  3
____ _ ____ _ ____ _ ____ _ ____ _ ____ _ ____ 
 72
    65
 73
     4
 40
2.0
 49
1.25
 49
-0.25
 49
0.25
 49
-0.25
  0
LTYPE
  2
PHANTOM
 70
     0
  3
______  __  __  ______  __  __  ______  __  __ 
 72
    65
 73
     6
 40
2.5
 49
1.25
 49
-0.25
 49
0.25
 49
-0.25
 49
0.25
 49
-0.25
  0
ENDTAB
  0
TABLE
  2
LAYER
 70
    15
  0
LAYER
  2
0
 70
     0
 62
     7
  6
CONTINUOUS
  0
LAYER
  2
5
 70
     0
 62
     2
  6
CONTINUOUS
  0
LAYER
  2
1
 70
     0
 62
     4
  6
DASHED
  0
LAYER
  2
2
 70
     0
 62
     3
  6
CENTER
  0
LAYER
  2
3
 70
     0
 62
     5
  6
CONTINUOUS
  0
LAYER
  2
4
 70
     0
 62
     4
  6
PHANTOM
  0
LAYER
  2
HOJO
 70
     0
 62
     4
  6
HIDDEN
  0
LAYER
  2
6-TEX1
 70
     0
 62
     2
  6
CONTINUOUS
  0
LAYER
  2
8-TEX3
 70
     0
 62
     5
  6
CONTINUOUS
  0
LAYER
  2
7-TEX2
 70
     0
 62
     7
  6
CONTINUOUS
  0
LAYER
  2
DIM
 70
     0
 62
     2
  6
CONTINUOUS
  0
LAYER
  2
FORM
 70
     4
 62
     1
  6
CONTINUOUS
  0
LAYER
  2
BLK
 70
     0
 62
     7
  6
CONTINUOUS
  0
LAYER
  2
DUST
 70
     0
 62
     1
  6
CONTINUOUS
  0
LAYER
  2
DEFPOINTS
 70
     0
 62
     7
  6
CONTINUOUS
  0
ENDTAB
  0
TABLE
  2
STYLE
 70
     3
  0
STYLE
  2
STANDARD
 70
     0
 40
0.0
 41
0.8
 50
0.0
 71
     0
 42
8.0
  3
simplex
  4
extfont
  0
STYLE
  2
PTSH
 70
     0
 40
0.0
 41
0.9
 50
0.0
 71
     0
 42
4.0
  3
SIMPLEX
  4
EXTFONT
  0
STYLE
  2
DIM
 70
     0
 40
0.0
 41
0.8
 50
0.0
 71
     0
 42
4.0
  3
simplex
  4
extfont
  0
ENDTAB
  0
TABLE
  2
VIEW
 70
     0
  0
ENDTAB
  0
TABLE
  2
UCS
 70
     0
  0
ENDTAB
  0
TABLE
  2
APPID
 70
     1
  0
APPID
  2
ACAD
 70
     0
  0
ENDTAB
  0
TABLE
  2
DIMSTYLE
 70
     7
  0
DIMSTYLE
  2
DIM1
 70
     0
  3
 
  4

  5

  6
_OPEN
  7
_OPEN
 40
2.0
 41
2.8
 42
1.0
 43
5.0
 44
1.0
 45
0.1
 46
0.0
 47
0.0
 48
0.0
140
2.5
141
0.0
142
0.0
143
1.0
144
1.0
145
0.0
146
0.7
147
0.85
 71
     0
 72
     0
 73
     0
 74
     0
 75
     0
 76
     0
 77
     3
 78
     8
170
     0
171
     2
172
     1
173
     1
174
     0
175
     0
176
     2
177
     2
178
     2
  0
DIMSTYLE
  2
USER1
 70
     0
  3

  4

  5

  6
_OPEN
  7
_OPEN
 40
1.0
 41
2.8
 42
1.0
 43
5.0
 44
1.0
 45
0.1
 46
0.0
 47
0.0
 48
0.0
140
2.5
141
0.0
142
0.0
143
1.0
144
1.0
145
0.0
146
0.7
147
0.85
 71
     0
 72
     0
 73
     0
 74
     0
 75
     0
 76
     0
 77
     3
 78
     8
170
     0
171
     2
172
     1
173
     1
174
     0
175
     0
176
     2
177
     2
178
     2
  0
DIMSTYLE
  2
USER2
 70
     0
  3

  4

  5

  6
_OPEN
  7
_OPEN
 40
1.0
 41
2.8
 42
1.0
 43
5.0
 44
1.0
 45
0.1
 46
0.0
 47
0.0
 48
0.0
140
2.5
141
0.0
142
0.0
143
1.0
144
1.0
145
0.0
146
0.7
147
0.85
 71
     0
 72
     0
 73
     0
 74
     0
 75
     0
 76
     0
 77
     3
 78
     8
170
     0
171
     2
172
     1
173
     1
174
     0
175
     0
176
     2
177
     2
178
     2
  0
DIMSTYLE
  2
USER3
 70
     0
  3

  4

  5

  6
_OPEN
  7
_OPEN
 40
1.0
 41
2.8
 42
1.0
 43
5.0
 44
1.0
 45
0.1
 46
0.0
 47
0.0
 48
0.0
140
2.5
141
0.0
142
0.0
143
1.0
144
1.0
145
0.0
146
0.7
147
0.85
 71
     0
 72
     0
 73
     0
 74
     0
 75
     0
 76
     0
 77
     3
 78
     8
170
     0
171
     2
172
     1
173
     1
174
     0
175
     0
176
     2
177
     2
178
     2
  0
DIMSTYLE
  2
USER4
 70
     0
  3

  4

  5

  6
_OPEN
  7
_OPEN
 40
1.0
 41
2.8
 42
1.0
 43
5.0
 44
1.0
 45
0.1
 46
0.0
 47
0.0
 48
0.0
140
2.5
141
0.0
142
0.0
143
1.0
144
1.0
145
0.0
146
0.7
147
0.85
 71
     0
 72
     0
 73
     0
 74
     0
 75
     0
 76
     0
 77
     3
 78
     8
170
     0
171
     2
172
     1
173
     1
174
     0
175
     0
176
     2
177
     2
178
     2
  0
DIMSTYLE
  2
USER5
 70
     0
  3

  4

  5

  6
_OPEN
  7
_OPEN
 40
1.0
 41
2.8
 42
1.0
 43
5.0
 44
1.0
 45
0.1
 46
0.0
 47
0.0
 48
0.0
140
2.5
141
0.0
142
0.0
143
1.0
144
1.0
145
0.0
146
0.7
147
0.85
 71
     0
 72
     0
 73
     0
 74
     0
 75
     0
 76
     0
 77
     3
 78
     8
170
     0
171
     2
172
     1
173
     1
174
     0
175
     0
176
     2
177
     2
178
     2
  0
DIMSTYLE
  2
JIS1
 70
     0
  3

  4

  5

  6

  7

 40
1.0
 41
2.5
 42
0.0625
 43
0.38
 44
0.18
 45
0.1
 46
0.0
 47
0.0
 48
0.0
140
2.5
141
0.09
142
0.0
143
25.4
144
1.0
145
0.0
146
1.0
147
0.09
 71
     0
 72
     0
 73
     1
 74
     1
 75
     0
 76
     0
 77
     1
 78
    12
170
     0
171
     2
172
     0
173
     0
174
     0
175
     0
176
     0
177
     0
178
     0
  0
ENDTAB
  0
ENDSEC
  0
SECTION
  2
BLOCKS
  0
BLOCK
  8
0
  2
$MODEL_SPACE
 70
     0
 10
0.0
 20
0.0
 30
0.0
  3
$MODEL_SPACE
  1

  0
ENDBLK
  5
3D
  8
0
  0
BLOCK
 67
     1
  8
0
  2
$PAPER_SPACE
 70
     0
 10
0.0
 20
0.0
 30
0.0
  3
$PAPER_SPACE
  1

  0
ENDBLK
  5
3B
 67
     1
  8
0
  0
BLOCK
  8
0
  2
_OPEN
 70
     0
 10
0.0
 20
0.0
 30
0.0
  3
_OPEN
  1
H1111.DWG
  0
LINE
  5
244A
  8
0
  6
BYBLOCK
 62
     0
 10
-1.0
 20
0.166667
 30
0.0
 11
0.0
 21
0.0
 31
0.0
  0
LINE
  5
244B
  8
0
  6
BYBLOCK
 62
     0
 10
0.0
 20
0.0
 30
0.0
 11
-1.0
 21
-0.166667
 31
0.0
  0
LINE
  5
244C
  8
0
  6
BYBLOCK
 62
     0
 10
0.0
 20
0.0
 30
0.0
 11
-1.0
 21
0.0
 31
0.0
  0
ENDBLK
  5
244D
  8
0
  0
ENDSEC
  0
SECTION
  2
ENTITIES
  0
TEXT
  5
2529
  8
FORM
  6
CONTINUOUS
 62
     1
 10
530.885714
 20
14.0
 30
0.0
 40
6.0
  1
SC-S20
 41
0.9
  7
PTSH
 72
     2
 11
562.0
 21
17.0
 31
0.0
 73
     2
  0
POLYLINE
  5
2563
  8
FORM
 62
     7
 66
     1
 10
0.0
 20
0.0
 30
0.0
 70
     1
  0
VERTEX
  5
4FB4
  8
FORM
 62
     7
 10
22.0
 20
10.0
 30
0.0
  0
VERTEX
  5
4FB5
  8
FORM
 62
     7
 10
572.0
 20
10.0
 30
0.0
  0
VERTEX
  5
4FB6
  8
FORM
 62
     7
 10
572.0
 20
382.0
 30
0.0
  0
VERTEX
  5
4FB7
  8
FORM
 62
     7
 10
22.0
 20
382.0
 30
0.0
  0
SEQEND
  5
4FB8
  8
FORM
 62
     7
  0
TEXT
  5
4D10
  8
0
 10
255.088889
 20
35.333333
 30
0.0
 40
9.333333
  1
TLV SC-S20
 72
     4
 11
297.0
 21
40.0
 31
0.0
  0
LINE
  5
4F6D
  8
0
 10
275.0
 20
335.417962
 30
0.0
 11
319.0
 21
335.417962
 31
0.0
  0
LINE
  5
4F6E
  8
0
 10
273.0
 20
190.321427
 30
0.0
 11
321.0
 21
190.321427
 31
0.0
  0
LINE
  5
4F6F
  8
0
 10
273.0
 20
142.321427
 30
0.0
 11
321.0
 21
142.321427
 31
0.0
  0
LINE
  5
4F70
  8
0
 10
274.55
 20
188.771427
 30
0.0
 11
319.45
 21
188.771427
 31
0.0
  0
LINE
  5
4F71
  8
0
 10
274.55
 20
143.871427
 30
0.0
 11
319.45
 21
143.871427
 31
0.0
  0
LINE
  5
4F72
  8
0
 10
281.0
 20
160.421427
 30
0.0
 11
313.0
 21
160.421427
 31
0.0
  0
LINE
  5
4F73
  8
0
 10
281.0
 20
170.421427
 30
0.0
 11
313.0
 21
170.421427
 31
0.0
  0
LINE
  5
4F74
  8
0
 10
281.0
 20
181.921427
 30
0.0
 11
313.0
 21
181.921427
 31
0.0
  0
LINE
  5
4F75
  8
0
 10
281.0
 20
171.921427
 30
0.0
 11
313.0
 21
171.921427
 31
0.0
  0
LINE
  5
4F76
  8
0
 10
273.0
 20
235.417962
 30
0.0
 11
321.0
 21
235.417962
 31
0.0
  0
LINE
  5
4F77
  8
0
 10
273.0
 20
227.417962
 30
0.0
 11
321.0
 21
227.417962
 31
0.0
  0
LINE
  5
4F78
  8
0
 10
275.0
 20
235.417962
 30
0.0
 11
275.0
 21
335.417962
 31
0.0
  0
TEXT
  5
4F79
  8
7-TEX2
 10
83.993126
 20
166.321427
 30
0.0
 40
7.0
  1
正面
  0
LINE
  5
4F7A
  8
0
 10
227.903465
 20
144.321427
 30
0.0
 11
127.903465
 21
144.321427
 31
0.0
  0
LINE
  5
4F7B
  8
0
 10
227.903465
 20
188.321427
 30
0.0
 11
127.903465
 21
188.321427
 31
0.0
  0
LINE
  5
4F7C
  8
0
 10
127.903465
 20
188.321427
 30
0.0
 11
127.903465
 21
144.321427
 31
0.0
  0
LINE
  5
4F7D
  8
0
 10
281.0
 20
170.421427
 30
0.0
 11
281.0
 21
160.421427
 31
0.0
  0
LINE
  5
4F7E
  8
0
 10
235.903465
 20
190.321427
 30
0.0
 11
235.903465
 21
142.321427
 31
0.0
  0
LINE
  5
4F7F
  8
0
 10
227.903465
 20
190.321427
 30
0.0
 11
227.903465
 21
142.321427
 31
0.0
  0
LINE
  5
4F80
  8
0
 10
273.0
 20
190.321427
 30
0.0
 11
273.0
 21
142.321427
 31
0.0
  0
LINE
  5
4F81
  8
0
 10
274.55
 20
188.771427
 30
0.0
 11
274.55
 21
143.871427
 31
0.0
  0
LINE
  5
4F82
  8
0
 10
235.903465
 20
142.321427
 30
0.0
 11
227.903465
 21
142.321427
 31
0.0
  0
LINE
  5
4F83
  8
0
 10
278.5
 20
156.671427
 30
0.0
 11
287.0
 21
156.671427
 31
0.0
  0
LINE
  5
4F84
  8
0
 10
278.5
 20
147.571427
 30
0.0
 11
287.0
 21
147.571427
 31
0.0
  0
LINE
  5
4F85
  8
0
 10
278.5
 20
156.671427
 30
0.0
 11
278.5
 21
147.571427
 31
0.0
  0
LINE
  5
4F86
  8
0
 10
287.0
 20
156.671427
 30
0.0
 11
287.0
 21
147.571427
 31
0.0
  0
LINE
  5
4F87
  8
0
 10
288.0
 20
156.671427
 30
0.0
 11
288.0
 21
147.571427
 31
0.0
  0
LINE
  5
4F88
  8
0
 10
296.5
 20
156.671427
 30
0.0
 11
296.5
 21
147.571427
 31
0.0
  0
LINE
  5
4F89
  8
0
 10
288.0
 20
147.571427
 30
0.0
 11
296.5
 21
147.571427
 31
0.0
  0
LINE
  5
4F8A
  8
0
 10
288.0
 20
156.671427
 30
0.0
 11
296.5
 21
156.671427
 31
0.0
  0
LINE
  5
4F8B
  8
0
 10
235.903465
 20
190.321427
 30
0.0
 11
227.903465
 21
190.321427
 31
0.0
  0
LINE
  5
4F8C
  8
0
 10
281.0
 20
181.921427
 30
0.0
 11
281.0
 21
171.921427
 31
0.0
  0
LINE
  5
4F8D
  8
0
 10
273.0
 20
227.417962
 30
0.0
 11
273.0
 21
235.417962
 31
0.0
  0
LINE
  5
4F8F
  8
0
 10
319.0
 20
235.417962
 30
0.0
 11
319.0
 21
335.417962
 31
0.0
  0
LINE
  5
4F90
  8
0
 10
366.096535
 20
188.321427
 30
0.0
 11
466.096535
 21
188.321427
 31
0.0
  0
LINE
  5
4F91
  8
0
 10
366.096535
 20
144.321427
 30
0.0
 11
466.096535
 21
144.321427
 31
0.0
  0
LINE
  5
4F92
  8
0
 10
313.0
 20
170.421427
 30
0.0
 11
313.0
 21
160.421427
 31
0.0
  0
LINE
  5
4F93
  8
0
 10
321.0
 20
190.321427
 30
0.0
 11
321.0
 21
142.321427
 31
0.0
  0
LINE
  5
4F94
  8
0
 10
319.45
 20
188.771427
 30
0.0
 11
319.45
 21
143.871427
 31
0.0
  0
LINE
  5
4F95
  8
0
 10
366.096535
 20
190.321427
 30
0.0
 11
366.096535
 21
142.321427
 31
0.0
  0
LINE
  5
4F96
  8
0
 10
358.096535
 20
190.321427
 30
0.0
 11
358.096535
 21
142.321427
 31
0.0
  0
LINE
  5
4F97
  8
0
 10
315.5
 20
156.671427
 30
0.0
 11
307.0
 21
156.671427
 31
0.0
  0
LINE
  5
4F98
  8
0
 10
315.5
 20
147.571427
 30
0.0
 11
307.0
 21
147.571427
 31
0.0
  0
LINE
  5
4F99
  8
0
 10
306.0
 20
156.671427
 30
0.0
 11
306.0
 21
147.571427
 31
0.0
  0
LINE
  5
4F9A
  8
0
 10
307.0
 20
156.671427
 30
0.0
 11
307.0
 21
147.571427
 31
0.0
  0
LINE
  5
4F9B
  8
0
 10
297.5
 20
156.671427
 30
0.0
 11
297.5
 21
147.571427
 31
0.0
  0
LINE
  5
4F9C
  8
0
 10
306.0
 20
147.571427
 30
0.0
 11
297.5
 21
147.571427
 31
0.0
  0
LINE
  5
4F9D
  8
0
 10
306.0
 20
156.671427
 30
0.0
 11
297.5
 21
156.671427
 31
0.0
  0
LINE
  5
4F9E
  8
0
 10
315.5
 20
156.671427
 30
0.0
 11
315.5
 21
147.571427
 31
0.0
  0
LINE
  5
4F9F
  8
0
 10
358.096535
 20
142.321427
 30
0.0
 11
366.096535
 21
142.321427
 31
0.0
  0
LINE
  5
4FA0
  8
0
 10
313.0
 20
181.921427
 30
0.0
 11
313.0
 21
171.921427
 31
0.0
  0
LINE
  5
4FA1
  8
0
 10
358.096535
 20
190.321427
 30
0.0
 11
366.096535
 21
190.321427
 31
0.0
  0
LINE
  5
4FA2
  8
0
 10
321.0
 20
227.417962
 30
0.0
 11
321.0
 21
235.417962
 31
0.0
  0
LINE
  5
4FA3
  8
0
 10
466.096535
 20
188.321427
 30
0.0
 11
466.096535
 21
144.321427
 31
0.0
  0
TEXT
  5
4FA6
  8
7-TEX2
 10
83.993126
 20
285.417962
 30
0.0
 40
7.0
  1
平面
  0
VIEWPORT
  5
41
 67
     1
  8
0
 10
117.358407
 20
73.5
 30
0.0
 40
234.716814
 41
147.0
 68
    -1
 69
     1
1001
ACAD
1000
MVIEW
1002
{
1070
    16
1010
0.0
1020
0.0
1030
0.0
1010
0.0
1020
0.0
1030
1.0
1040
0.0
1040
147.0
1040
117.358407
1040
73.5
1040
50.0
1040
0.0
1040
0.0
1070
     0
1070
   100
1070
     1
1070
     1
1070
     0
1070
     0
1070
     0
1070
     0
1040
0.0
1040
0.0
1040
0.0
1040
1.0
1040
1.0
1040
0.0
1040
0.0
1070
     0
1002
{
1002
}
1002
}
  0
ENDSEC
  0
EOF
