  0
SECTION
  2
HEADER
  9
$ACADVER
  1
AC1012
  9
$DWGCODEPAGE
  3
dos932
  9
$INSBASE
 10
0.0
 20
0.0
 30
0.0
  9
$EXTMIN
 10
55.0
 20
25.0
 30
0.0
  9
$EXTMAX
 10
1430.0
 20
955.0
 30
0.0
  9
$LIMMIN
 10
0.0
 20
0.0
  9
$LIMMAX
 10
1485.0
 20
1050.0
  9
$ORTHOMODE
 70
     1
  9
$REGENMODE
 70
     1
  9
$FILLMODE
 70
     1
  9
$QTEXTMODE
 70
     0
  9
$MIRRTEXT
 70
     1
  9
$DRAGMODE
 70
     2
  9
$LTSCALE
 40
20.0
  9
$OSMODE
 70
   163
  9
$ATTMODE
 70
     1
  9
$TEXTSIZE
 40
20.0
  9
$TRACEWID
 40
0.05
  9
$TEXTSTYLE
  7
STANDARD
  9
$CLAYER
  8
0
  9
$CELTYPE
  6
BYLAYER
  9
$CECOLOR
 62
   256
  9
$CELTSCALE
 40
1.0
  9
$DELOBJ
 70
     1
  9
$DISPSILH
 70
     0
  9
$DIMSCALE
 40
5.0
  9
$DIMASZ
 40
2.8
  9
$DIMEXO
 40
1.0
  9
$DIMDLI
 40
5.0
  9
$DIMRND
 40
0.1
  9
$DIMDLE
 40
0.0
  9
$DIMEXE
 40
1.0
  9
$DIMTP
 40
0.0
  9
$DIMTM
 40
0.0
  9
$DIMTXT
 40
2.5
  9
$DIMCEN
 40
0.0
  9
$DIMTSZ
 40
0.0
  9
$DIMTOL
 70
     0
  9
$DIMLIM
 70
     0
  9
$DIMTIH
 70
     0
  9
$DIMTOH
 70
     0
  9
$DIMSE1
 70
     0
  9
$DIMSE2
 70
     0
  9
$DIMTAD
 70
     3
  9
$DIMZIN
 70
     8
  9
$DIMBLK
  1

  9
$DIMASO
 70
     1
  9
$DIMSHO
 70
     1
  9
$DIMPOST
  1
 
  9
$DIMAPOST
  1

  9
$DIMALT
 70
     0
  9
$DIMALTD
 70
     2
  9
$DIMALTF
 40
1.0
  9
$DIMLFAC
 40
1.0
  9
$DIMTOFL
 70
     1
  9
$DIMTVP
 40
0.0
  9
$DIMTIX
 70
     0
  9
$DIMSOXD
 70
     0
  9
$DIMSAH
 70
     1
  9
$DIMBLK1
  1
_OPEN
  9
$DIMBLK2
  1
_OPEN
  9
$DIMSTYLE
  2
DIM1
  9
$DIMCLRD
 70
     2
  9
$DIMCLRE
 70
     2
  9
$DIMCLRT
 70
     2
  9
$DIMTFAC
 40
0.7
  9
$DIMGAP
 40
0.85
  9
$DIMJUST
 70
     0
  9
$DIMSD1
 70
     0
  9
$DIMSD2
 70
     0
  9
$DIMTOLJ
 70
     1
  9
$DIMTZIN
 70
     8
  9
$DIMALTZ
 70
     8
  9
$DIMALTTZ
 70
     8
  9
$DIMFIT
 70
     3
  9
$DIMUPT
 70
     0
  9
$DIMUNIT
 70
     2
  9
$DIMDEC
 70
     2
  9
$DIMTDEC
 70
     3
  9
$DIMALTU
 70
     2
  9
$DIMALTTD
 70
     3
  9
$DIMTXSTY
  7
DIM
  9
$DIMAUNIT
 70
     0
  9
$LUNITS
 70
     2
  9
$LUPREC
 70
     4
  9
$SKETCHINC
 40
0.1
  9
$FILLETRAD
 40
0.0
  9
$AUNITS
 70
     0
  9
$AUPREC
 70
     0
  9
$MENU
  1
C:\ACADR13\WIN\SUPPORT\ACAD.mnc
  9
$ELEVATION
 40
0.0
  9
$PELEVATION
 40
0.0
  9
$THICKNESS
 40
0.0
  9
$LIMCHECK
 70
     0
  9
$BLIPMODE
 70
     1
  9
$CHAMFERA
 40
0.0
  9
$CHAMFERB
 40
0.0
  9
$CHAMFERC
 40
0.0
  9
$CHAMFERD
 40
0.0
  9
$SKPOLY
 70
     0
  9
$TDCREATE
 40
2451564.474735173
  9
$TDUPDATE
 40
2451981.564131215
  9
$TDINDWG
 40
0.0133922917
  9
$TDUSRTIMER
 40
0.0133922917
  9
$USRTIMER
 70
     1
  9
$ANGBASE
 50
0.0
  9
$ANGDIR
 70
     0
  9
$PDMODE
 70
     0
  9
$PDSIZE
 40
0.0
  9
$PLINEWID
 40
0.0
  9
$COORDS
 70
     1
  9
$SPLFRAME
 70
     0
  9
$SPLINETYPE
 70
     6
  9
$SPLINESEGS
 70
     8
  9
$ATTDIA
 70
     0
  9
$ATTREQ
 70
     1
  9
$HANDLING
 70
     1
  9
$HANDSEED
  5
3386
  9
$SURFTAB1
 70
     6
  9
$SURFTAB2
 70
     6
  9
$SURFTYPE
 70
     6
  9
$SURFU
 70
     6
  9
$SURFV
 70
     6
  9
$UCSNAME
  2

  9
$UCSORG
 10
0.0
 20
0.0
 30
0.0
  9
$UCSXDIR
 10
1.0
 20
0.0
 30
0.0
  9
$UCSYDIR
 10
0.0
 20
1.0
 30
0.0
  9
$PUCSNAME
  2

  9
$PUCSORG
 10
0.0
 20
0.0
 30
0.0
  9
$PUCSXDIR
 10
1.0
 20
0.0
 30
0.0
  9
$PUCSYDIR
 10
0.0
 20
1.0
 30
0.0
  9
$USERI1
 70
     0
  9
$USERI2
 70
     0
  9
$USERI3
 70
     0
  9
$USERI4
 70
     0
  9
$USERI5
 70
     0
  9
$USERR1
 40
0.0
  9
$USERR2
 40
0.0
  9
$USERR3
 40
0.0
  9
$USERR4
 40
0.0
  9
$USERR5
 40
0.0
  9
$WORLDVIEW
 70
     1
  9
$SHADEDGE
 70
     3
  9
$SHADEDIF
 70
    70
  9
$TILEMODE
 70
     1
  9
$MAXACTVP
 70
    16
  9
$PINSBASE
 10
0.0
 20
0.0
 30
0.0
  9
$PLIMCHECK
 70
     0
  9
$PEXTMIN
 10
1.000000E+20
 20
1.000000E+20
 30
1.000000E+20
  9
$PEXTMAX
 10
-1.000000E+20
 20
-1.000000E+20
 30
-1.000000E+20
  9
$PLIMMIN
 10
0.0
 20
0.0
  9
$PLIMMAX
 10
20.0
 20
147.0
  9
$UNITMODE
 70
     0
  9
$VISRETAIN
 70
     0
  9
$PLINEGEN
 70
     0
  9
$PSLTSCALE
 70
     1
  9
$TREEDEPTH
 70
  3020
  9
$PICKSTYLE
 70
     1
  9
$CMLSTYLE
  2
STANDARD
  9
$CMLJUST
 70
     0
  9
$CMLSCALE
 40
1.0
  9
$SAVEIMAGES
 70
     1
  0
ENDSEC
  0
SECTION
  2
CLASSES
  0
CLASS
  1
LWPOLYLINE
  2
AcDbPolyline
  3
"AutoCAD"
 90
    32768
280
     0
281
     1
  0
ENDSEC
  0
SECTION
  2
TABLES
  0
TABLE
  2
VPORT
  5
8
100
AcDbSymbolTable
 70
     2
  0
VPORT
  5
3385
100
AcDbSymbolTableRecord
100
AcDbViewportTableRecord
  2
*ACTIVE
 70
     0
 10
0.0
 20
0.0
 11
1.0
 21
1.0
 12
963.5506
 22
546.830888
 13
0.0
 23
0.0
 14
1.0
 24
1.0
 15
0.0
 25
0.0
 16
0.0
 26
0.0
 36
1.0
 17
0.0
 27
0.0
 37
0.0
 40
1093.661777
 41
1.762063
 42
50.0
 43
0.0
 44
0.0
 50
0.0
 51
0.0
 71
     0
 72
   100
 73
     1
 74
     1
 75
     0
 76
     0
 77
     0
 78
     0
  0
ENDTAB
  0
TABLE
  2
LTYPE
  5
5
100
AcDbSymbolTable
 70
     1
  0
LTYPE
  5
12
100
AcDbSymbolTableRecord
100
AcDbLinetypeTableRecord
  2
BYBLOCK
 70
     0
  3

 72
    65
 73
     0
 40
0.0
  0
LTYPE
  5
13
100
AcDbSymbolTableRecord
100
AcDbLinetypeTableRecord
  2
BYLAYER
 70
     0
  3

 72
    65
 73
     0
 40
0.0
  0
LTYPE
  5
14
100
AcDbSymbolTableRecord
100
AcDbLinetypeTableRecord
  2
CONTINUOUS
 70
     0
  3
Solid line
 72
    65
 73
     0
 40
0.0
  0
ENDTAB
  0
TABLE
  2
LAYER
  5
2
100
AcDbSymbolTable
 70
     1
  0
LAYER
  5
F
100
AcDbSymbolTableRecord
100
AcDbLayerTableRecord
  2
0
 70
     0
 62
     7
  6
CONTINUOUS
  0
ENDTAB
  0
TABLE
  2
STYLE
  5
3
100
AcDbSymbolTable
 70
     3
  0
STYLE
  5
10
100
AcDbSymbolTableRecord
100
AcDbTextStyleTableRecord
  2
STANDARD
 70
     0
 40
0.0
 41
0.8
 50
0.0
 71
     0
 42
20.0
  3
simplex
  4
extfont
  0
STYLE
  5
237C
100
AcDbSymbolTableRecord
100
AcDbTextStyleTableRecord
  2
PTSH
 70
     0
 40
0.0
 41
0.9
 50
0.0
 71
     0
 42
4.0
  3
SIMPLEX
  4
EXTFONT
  0
STYLE
  5
2592
100
AcDbSymbolTableRecord
100
AcDbTextStyleTableRecord
  2
DIM
 70
     0
 40
0.0
 41
0.8
 50
0.0
 71
     0
 42
4.0
  3
simplex
  4
extfont
  0
ENDTAB
  0
TABLE
  2
VIEW
  5
6
100
AcDbSymbolTable
 70
     0
  0
ENDTAB
  0
TABLE
  2
UCS
  5
7
100
AcDbSymbolTable
 70
     0
  0
ENDTAB
  0
TABLE
  2
APPID
  5
9
100
AcDbSymbolTable
 70
     1
  0
APPID
  5
11
100
AcDbSymbolTableRecord
100
AcDbRegAppTableRecord
  2
ACAD
 70
     0
  0
ENDTAB
  0
TABLE
  2
DIMSTYLE
  5
A
100
AcDbSymbolTable
 70
     1
  0
DIMSTYLE
105
2237
100
AcDbSymbolTableRecord
100
AcDbDimStyleTableRecord
  2
DIM1
 70
     0
  3
 
  4

  5

  6
_OPEN
  7
_OPEN
 40
5.0
 41
2.8
 42
1.0
 43
5.0
 44
1.0
 45
0.1
 46
0.0
 47
0.0
 48
0.0
140
2.5
141
0.0
142
0.0
143
1.0
144
1.0
145
0.0
146
0.7
147
0.85
 71
     0
 72
     0
 73
     0
 74
     0
 75
     0
 76
     0
 77
     3
 78
     8
170
     0
171
     2
172
     1
173
     1
174
     0
175
     0
176
     2
177
     2
178
     2
270
     2
271
     2
272
     3
273
     2
274
     3
340
2592
275
     0
280
     0
281
     0
282
     0
283
     1
284
     8
285
     8
286
     8
287
     3
288
     0
  0
ENDTAB
  0
TABLE
  2
BLOCK_RECORD
  5
1
100
AcDbSymbolTable
 70
     1
  0
BLOCK_RECORD
  5
18
100
AcDbSymbolTableRecord
100
AcDbBlockTableRecord
  2
*MODEL_SPACE
  0
BLOCK_RECORD
  5
15
100
AcDbSymbolTableRecord
100
AcDbBlockTableRecord
  2
*PAPER_SPACE
  0
BLOCK_RECORD
  5
2448
100
AcDbSymbolTableRecord
100
AcDbBlockTableRecord
  2
_OPEN
  0
ENDTAB
  0
ENDSEC
  0
SECTION
  2
BLOCKS
  0
BLOCK
  5
3C
100
AcDbEntity
  8
0
100
AcDbBlockBegin
  2
*MODEL_SPACE
 70
     0
 10
0.0
 20
0.0
 30
0.0
  3
*MODEL_SPACE
  1

  0
ENDBLK
  5
3D
100
AcDbEntity
  8
0
100
AcDbBlockEnd
  0
BLOCK
  5
3A
100
AcDbEntity
 67
     1
  8
0
100
AcDbBlockBegin
  2
*PAPER_SPACE
 70
     0
 10
0.0
 20
0.0
 30
0.0
  3
*PAPER_SPACE
  1

  0
ENDBLK
  5
3B
100
AcDbEntity
 67
     1
  8
0
100
AcDbBlockEnd
  0
BLOCK
  5
2449
100
AcDbEntity
  8
0
 48
4.0
100
AcDbBlockBegin
  2
_OPEN
 70
     0
 10
0.0
 20
0.0
 30
0.0
  3
_OPEN
  1
H1111.DWG
  0
LINE
  5
244A
100
AcDbEntity
  8
0
  6
BYBLOCK
 62
     0
 48
4.0
100
AcDbLine
 10
-1.0
 20
0.166667
 30
0.0
 11
0.0
 21
0.0
 31
0.0
  0
LINE
  5
244B
100
AcDbEntity
  8
0
  6
BYBLOCK
 62
     0
 48
4.0
100
AcDbLine
 10
0.0
 20
0.0
 30
0.0
 11
-1.0
 21
-0.166667
 31
0.0
  0
LINE
  5
244C
100
AcDbEntity
  8
0
  6
BYBLOCK
 62
     0
 48
4.0
100
AcDbLine
 10
0.0
 20
0.0
 30
0.0
 11
-1.0
 21
0.0
 31
0.0
  0
ENDBLK
  5
244D
100
AcDbEntity
  8
0
 48
4.0
100
AcDbBlockEnd
  0
ENDSEC
  0
SECTION
  2
ENTITIES
  0
MTEXT
  5
ADA
100
AcDbEntity
  8
0
100
AcDbMText
 10
1900.696399
 20
249.231556
 30
0.0
 40
1.0
 41
236.132324
 71
     1
 72
     1
  1

  0
MTEXT
  5
ADB
100
AcDbEntity
  8
0
100
AcDbMText
 10
1945.249666
 20
289.253969
 30
0.0
 40
1.0
 41
227.221671
 71
     1
 72
     1
  1

  0
MTEXT
  5
ADC
100
AcDbEntity
  8
0
100
AcDbMText
 10
1918.517706
 20
-239.931232
 30
0.0
 40
1.0
 41
258.408958
 71
     1
 72
     1
  1

  0
TEXT
  5
2529
100
AcDbEntity
  8
0
  6
CONTINUOUS
100
AcDbText
 10
1308.108436
 20
34.822582
 30
0.0
 40
16.0
  1
SCOSR-16
 41
0.9
  7
PTSH
 72
     1
 11
1362.622721
 21
42.822582
 31
0.0
100
AcDbText
 73
     2
  0
POLYLINE
  5
2563
100
AcDbEntity
  8
0
100
AcDb2dPolyline
 66
     1
 10
0.0
 20
0.0
 30
0.0
 70
     1
  0
VERTEX
  5
3379
100
AcDbEntity
  8
0
100
AcDbVertex
100
AcDb2dVertex
 10
55.0
 20
25.0
 30
0.0
  0
VERTEX
  5
337A
100
AcDbEntity
  8
0
100
AcDbVertex
100
AcDb2dVertex
 10
1430.0
 20
25.0
 30
0.0
  0
VERTEX
  5
337B
100
AcDbEntity
  8
0
100
AcDbVertex
100
AcDb2dVertex
 10
1430.0
 20
955.0
 30
0.0
  0
VERTEX
  5
337C
100
AcDbEntity
  8
0
100
AcDbVertex
100
AcDb2dVertex
 10
55.0
 20
955.0
 30
0.0
  0
SEQEND
  5
337D
100
AcDbEntity
  8
0
  0
TEXT
  5
2EAE
100
AcDbEntity
  8
0
100
AcDbText
 10
487.614103
 20
52.996897
 30
0.0
 40
30.0
  1
TLV  SCOSR-16 (PT)
100
AcDbText
  0
TEXT
  5
2EAF
100
AcDbEntity
  8
0
100
AcDbText
 10
605.847072
 20
103.523682
 30
0.0
 40
20.0
  1
15A,20A,25A
 41
0.8
 11
605.847072
 21
103.523682
 31
0.0
100
AcDbText
 73
     1
  0
LINE
  5
2EB0
100
AcDbEntity
  8
0
100
AcDbLine
 10
644.530154
 20
198.241262
 30
0.0
 11
657.530154
 21
198.241262
 31
0.0
  0
LINE
  5
2EB1
100
AcDbEntity
  8
0
100
AcDbLine
 10
657.756651
 20
176.241262
 30
0.0
 11
637.030154
 21
176.241262
 31
0.0
  0
LINE
  5
2EB2
100
AcDbEntity
  8
0
100
AcDbLine
 10
644.530154
 20
202.241262
 30
0.0
 11
657.530154
 21
202.241262
 31
0.0
  0
ARC
  5
2EB3
100
AcDbEntity
  8
0
100
AcDbCircle
 10
651.046001
 20
318.525415
 30
0.0
 40
1.51593
100
AcDbArc
 50
90.598965
 51
179.401035
  0
ARC
  5
2EB4
100
AcDbEntity
  8
0
100
AcDbCircle
 10
651.046001
 20
299.55711
 30
0.0
 40
1.51593
100
AcDbArc
 50
180.598965
 51
269.401035
  0
LINE
  5
2EB5
100
AcDbEntity
  8
0
100
AcDbLine
 10
645.530154
 20
285.241262
 30
0.0
 11
665.530154
 21
285.241262
 31
0.0
  0
ARC
  5
2EB6
100
AcDbEntity
  8
0
100
AcDbCircle
 10
651.034137
 20
269.737279
 30
0.0
 40
1.503988
100
AcDbArc
 50
90.151738
 51
179.848262
  0
LINE
  5
2EB7
100
AcDbEntity
  8
0
100
AcDbLine
 10
649.530154
 20
261.241262
 30
0.0
 11
645.530154
 21
261.241262
 31
0.0
  0
ARC
  5
2EB8
100
AcDbEntity
  8
0
100
AcDbCircle
 10
651.034137
 20
250.745246
 30
0.0
 40
1.503988
100
AcDbArc
 50
180.151738
 51
269.848262
  0
LINE
  5
2EB9
100
AcDbEntity
  8
0
100
AcDbLine
 10
637.030154
 20
224.241262
 30
0.0
 11
652.530154
 21
224.241262
 31
0.0
  0
ARC
  5
2EBA
100
AcDbEntity
  8
0
100
AcDbCircle
 10
651.326617
 20
586.023469
 30
0.0
 40
9.796848
100
AcDbArc
 50
90.096284
 51
179.492152
  0
LINE
  5
2EBB
100
AcDbEntity
  8
0
100
AcDbLine
 10
649.530154
 20
575.820303
 30
0.0
 11
637.030154
 21
575.820303
 31
0.0
  0
ARC
  5
2EBC
100
AcDbEntity
  8
0
100
AcDbCircle
 10
660.063026
 20
577.287399
 30
0.0
 40
10.532907
100
AcDbArc
 50
89.961225
 51
180.147393
  0
ARC
  5
2EBD
100
AcDbEntity
  8
0
100
AcDbCircle
 10
651.264025
 20
586.06158
 30
0.0
 40
4.012848
100
AcDbArc
 50
8.402896
 51
261.758946
  0
LINE
  5
2EBE
100
AcDbEntity
  8
0
100
AcDbLine
 10
638.530154
 20
563.820303
 30
0.0
 11
649.530154
 21
563.820303
 31
0.0
  0
LINE
  5
2EBF
100
AcDbEntity
  8
0
100
AcDbLine
 10
649.530154
 20
539.820303
 30
0.0
 11
638.530154
 21
539.820303
 31
0.0
  0
LINE
  5
2EC0
100
AcDbEntity
  8
0
100
AcDbLine
 10
637.030154
 20
527.820303
 30
0.0
 11
649.530154
 21
527.820303
 31
0.0
  0
ARC
  5
2EC1
100
AcDbEntity
  8
0
100
AcDbCircle
 10
651.326617
 20
517.617138
 30
0.0
 40
9.796848
100
AcDbArc
 50
180.507848
 51
269.903716
  0
ARC
  5
2EC2
100
AcDbEntity
  8
0
100
AcDbCircle
 10
660.080106
 20
526.370237
 30
0.0
 40
10.549952
100
AcDbArc
 50
179.999638
 51
270.108877
  0
ARC
  5
2EC3
100
AcDbEntity
  8
0
100
AcDbCircle
 10
651.264025
 20
517.579027
 30
0.0
 40
4.012848
100
AcDbArc
 50
98.151619
 51
351.686516
  0
ARC
  5
2EC4
100
AcDbEntity
  8
0
100
AcDbCircle
 10
651.046001
 20
814.895187
 30
0.0
 40
1.51593
100
AcDbArc
 50
90.598965
 51
179.401035
  0
ARC
  5
2EC5
100
AcDbEntity
  8
0
100
AcDbCircle
 10
647.924442
 20
806.622458
 30
0.0
 40
2.011432
100
AcDbArc
 50
270.162704
 51
322.967398
  0
ARC
  5
2EC6
100
AcDbEntity
  8
0
100
AcDbCircle
 10
651.032412
 20
795.913292
 30
0.0
 40
1.50226
100
AcDbArc
 50
180.086122
 51
269.913878
  0
LINE
  5
2EC7
100
AcDbEntity
  8
0
100
AcDbLine
 10
646.530154
 20
784.611034
 30
0.0
 11
655.760154
 21
784.611034
 31
0.0
  0
ARC
  5
2EC8
100
AcDbEntity
  8
0
100
AcDbCircle
 10
651.034137
 20
766.107051
 30
0.0
 40
1.503988
100
AcDbArc
 50
90.151738
 51
179.848262
  0
ARC
  5
2EC9
100
AcDbEntity
  8
0
100
AcDbCircle
 10
651.034137
 20
747.115017
 30
0.0
 40
1.503988
100
AcDbArc
 50
180.151738
 51
269.848262
  0
LINE
  5
2ECA
100
AcDbEntity
  8
0
100
AcDbLine
 10
652.530154
 20
720.611034
 30
0.0
 11
637.030154
 21
720.611034
 31
0.0
  0
LINE
  5
2ECB
100
AcDbEntity
  8
0
100
AcDbLine
 10
637.030154
 20
672.611034
 30
0.0
 11
657.756651
 21
672.611034
 31
0.0
  0
LINE
  5
2ECC
100
AcDbEntity
  8
0
100
AcDbLine
 10
497.993579
 20
144.473313
 30
0.0
 11
497.993579
 21
156.241262
 31
0.0
  0
LINE
  5
2ECD
100
AcDbEntity
  8
0
100
AcDbLine
 10
512.838491
 20
144.473313
 30
0.0
 11
512.838491
 21
156.241262
 31
0.0
  0
LINE
  5
2ECE
100
AcDbEntity
  8
0
100
AcDbLine
 10
514.325581
 20
144.473313
 30
0.0
 11
514.325581
 21
156.241262
 31
0.0
  0
LINE
  5
2ECF
100
AcDbEntity
  8
0
100
AcDbLine
 10
529.170493
 20
144.473313
 30
0.0
 11
529.170493
 21
156.241262
 31
0.0
  0
ARC
  5
2ED0
100
AcDbEntity
  8
0
100
AcDbCircle
 10
521.748037
 20
159.511226
 30
0.0
 40
16.769963
100
AcDbArc
 50
243.729842
 51
296.270158
  0
LINE
  5
2ED1
100
AcDbEntity
  8
0
100
AcDbLine
 10
528.582036
 20
142.741262
 30
0.0
 11
498.582036
 21
142.741262
 31
0.0
  0
LINE
  5
2ED2
100
AcDbEntity
  8
0
100
AcDbLine
 10
512.838491
 20
144.473313
 30
0.0
 11
514.325581
 21
144.473313
 31
0.0
  0
LINE
  5
2ED3
100
AcDbEntity
  8
0
100
AcDbLine
 10
498.582036
 20
142.741262
 30
0.0
 11
497.993579
 21
144.473313
 31
0.0
  0
ARC
  5
2ED4
100
AcDbEntity
  8
0
100
AcDbCircle
 10
505.416035
 20
159.511226
 30
0.0
 40
16.769963
100
AcDbArc
 50
243.729842
 51
296.270158
  0
LINE
  5
2ED5
100
AcDbEntity
  8
0
100
AcDbLine
 10
528.582036
 20
142.741262
 30
0.0
 11
529.170493
 21
144.473313
 31
0.0
  0
TEXT
  5
2ED6
100
AcDbEntity
  8
0
100
AcDbText
 10
365.245016
 20
257.038704
 30
0.0
 40
20.0
  1
正面
100
AcDbText
  0
LINE
  5
2ED7
100
AcDbEntity
  8
0
100
AcDbLine
 10
477.582036
 20
318.541262
 30
0.0
 11
477.582036
 21
309.041262
 31
0.0
  0
LINE
  5
2ED8
100
AcDbEntity
  8
0
100
AcDbLine
 10
549.582036
 20
309.041262
 30
0.0
 11
549.582036
 21
318.541262
 31
0.0
  0
CIRCLE
  5
2ED9
100
AcDbEntity
  8
0
100
AcDbCircle
 10
513.582036
 20
200.241262
 30
0.0
 40
22.5
  0
CIRCLE
  5
2EDA
100
AcDbEntity
  8
0
100
AcDbCircle
 10
513.582036
 20
200.241262
 30
0.0
 40
24.0
  0
LINE
  5
2EDB
100
AcDbEntity
  8
0
100
AcDbLine
 10
486.582036
 20
162.241262
 30
0.0
 11
540.582036
 21
162.241262
 31
0.0
  0
LINE
  5
2EDC
100
AcDbEntity
  8
0
100
AcDbLine
 10
540.582036
 20
162.241262
 30
0.0
 11
486.582036
 21
162.241262
 31
0.0
  0
LINE
  5
2EDD
100
AcDbEntity
  8
0
100
AcDbLine
 10
539.582036
 20
156.241262
 30
0.0
 11
487.582036
 21
156.241262
 31
0.0
  0
LINE
  5
2EDE
100
AcDbEntity
  8
0
100
AcDbLine
 10
540.582036
 20
162.241262
 30
0.0
 11
486.582036
 21
162.241262
 31
0.0
  0
LINE
  5
2EDF
100
AcDbEntity
  8
0
100
AcDbLine
 10
515.071599
 20
260.241262
 30
0.0
 11
549.582036
 21
260.241262
 31
0.0
  0
LINE
  5
2EE0
100
AcDbEntity
  8
0
100
AcDbLine
 10
548.082036
 20
249.241262
 30
0.0
 11
479.082036
 21
249.241262
 31
0.0
  0
LINE
  5
2EE1
100
AcDbEntity
  8
0
100
AcDbLine
 10
548.082036
 20
271.241262
 30
0.0
 11
525.585148
 21
271.238007
 31
0.0
  0
LINE
  5
2EE2
100
AcDbEntity
  8
0
100
AcDbLine
 10
477.582036
 20
309.041262
 30
0.0
 11
549.582036
 21
309.041262
 31
0.0
  0
LINE
  5
2EE3
100
AcDbEntity
  8
0
100
AcDbLine
 10
479.082036
 20
298.041262
 30
0.0
 11
548.082036
 21
298.041262
 31
0.0
  0
LINE
  5
2EE4
100
AcDbEntity
  8
0
100
AcDbLine
 10
491.582036
 20
246.401262
 30
0.0
 11
491.582036
 21
209.832926
 31
0.0
  0
LINE
  5
2EE5
100
AcDbEntity
  8
0
100
AcDbLine
 10
519.582036
 20
249.241262
 30
0.0
 11
519.582036
 21
223.479163
 31
0.0
  0
LINE
  5
2EE6
100
AcDbEntity
  8
0
100
AcDbLine
 10
507.582036
 20
249.241262
 30
0.0
 11
507.582036
 21
223.479163
 31
0.0
  0
LINE
  5
2EE7
100
AcDbEntity
  8
0
100
AcDbLine
 10
482.448468
 20
180.402279
 30
0.0
 11
485.342145
 21
194.299069
 31
0.0
  0
LINE
  5
2EE8
100
AcDbEntity
  8
0
100
AcDbLine
 10
486.582036
 20
169.57168
 30
0.0
 11
486.582036
 21
162.241262
 31
0.0
  0
LINE
  5
2EE9
100
AcDbEntity
  8
0
100
AcDbLine
 10
487.582036
 20
156.241262
 30
0.0
 11
486.582036
 21
157.241262
 31
0.0
  0
LINE
  5
2EEA
100
AcDbEntity
  8
0
100
AcDbLine
 10
486.582036
 20
162.241262
 30
0.0
 11
486.582036
 21
157.241262
 31
0.0
  0
ARC
  5
2EEB
100
AcDbEntity
  8
0
100
AcDbCircle
 10
486.364474
 20
179.586864
 30
0.0
 40
4.0
100
AcDbArc
 50
168.237593
 51
225.673552
  0
ARC
  5
2EEC
100
AcDbEntity
  8
0
100
AcDbCircle
 10
476.582036
 20
169.57168
 30
0.0
 40
10.0
100
AcDbArc
 50
0.0
 51
45.673552
  0
ARC
  5
2EED
100
AcDbEntity
  8
0
100
AcDbCircle
 10
500.027165
 20
191.241262
 30
0.0
 40
15.0
100
AcDbArc
 50
145.591075
 51
168.237593
  0
ARC
  5
2EEE
100
AcDbEntity
  8
0
100
AcDbCircle
 10
489.582036
 20
200.241262
 30
0.0
 40
2.0
100
AcDbArc
 50
87.611985
 51
272.388015
  0
CIRCLE
  5
2EEF
100
AcDbEntity
  8
0
100
AcDbCircle
 10
513.582036
 20
273.241262
 30
0.0
 40
12.0
  0
POLYLINE
  5
2EF0
100
AcDbEntity
  8
0
100
AcDb2dPolyline
 66
     1
 10
0.0
 20
0.0
 30
0.0
 70
     1
  0
VERTEX
  5
337E
100
AcDbEntity
  8
0
100
AcDbVertex
100
AcDb2dVertex
 10
513.582036
 20
287.101262
 30
0.0
  0
VERTEX
  5
337F
100
AcDbEntity
  8
0
100
AcDbVertex
100
AcDb2dVertex
 10
501.578924
 20
280.171262
 30
0.0
  0
VERTEX
  5
3380
100
AcDbEntity
  8
0
100
AcDbVertex
100
AcDb2dVertex
 10
501.578924
 20
266.311262
 30
0.0
  0
VERTEX
  5
3381
100
AcDbEntity
  8
0
100
AcDbVertex
100
AcDb2dVertex
 10
513.582036
 20
259.381262
 30
0.0
  0
VERTEX
  5
3382
100
AcDbEntity
  8
0
100
AcDbVertex
100
AcDb2dVertex
 10
525.585148
 20
266.311262
 30
0.0
  0
VERTEX
  5
3383
100
AcDbEntity
  8
0
100
AcDbVertex
100
AcDb2dVertex
 10
525.585148
 20
280.171262
 30
0.0
  0
SEQEND
  5
3384
100
AcDbEntity
  8
0
  0
ARC
  5
2EF1
100
AcDbEntity
  8
0
100
AcDbCircle
 10
479.086019
 20
269.737279
 30
0.0
 40
1.503988
100
AcDbArc
 50
90.151738
 51
179.848262
  0
LINE
  5
2EF2
100
AcDbEntity
  8
0
100
AcDbLine
 10
477.582036
 20
260.241262
 30
0.0
 11
512.092472
 21
260.241262
 31
0.0
  0
ARC
  5
2EF3
100
AcDbEntity
  8
0
100
AcDbCircle
 10
479.086019
 20
250.745246
 30
0.0
 40
1.503988
100
AcDbArc
 50
180.151738
 51
269.848262
  0
LINE
  5
2EF4
100
AcDbEntity
  8
0
100
AcDbLine
 10
484.122036
 20
246.941262
 30
0.0
 11
485.322036
 21
245.741262
 31
0.0
  0
LINE
  5
2EF5
100
AcDbEntity
  8
0
100
AcDbLine
 10
484.122036
 20
249.241262
 30
0.0
 11
484.122036
 21
246.941262
 31
0.0
  0
LINE
  5
2EF6
100
AcDbEntity
  8
0
100
AcDbLine
 10
492.122036
 20
246.941262
 30
0.0
 11
492.122036
 21
249.241262
 31
0.0
  0
LINE
  5
2EF7
100
AcDbEntity
  8
0
100
AcDbLine
 10
490.922036
 20
245.741262
 30
0.0
 11
492.122036
 21
246.941262
 31
0.0
  0
LINE
  5
2EF8
100
AcDbEntity
  8
0
100
AcDbLine
 10
485.322036
 20
245.741262
 30
0.0
 11
490.922036
 21
245.741262
 31
0.0
  0
LINE
  5
2EF9
100
AcDbEntity
  8
0
100
AcDbLine
 10
484.122036
 20
246.941262
 30
0.0
 11
492.122036
 21
246.941262
 31
0.0
  0
LINE
  5
2EFA
100
AcDbEntity
  8
0
100
AcDbLine
 10
477.582036
 20
269.741262
 30
0.0
 11
477.582036
 21
250.741262
 31
0.0
  0
LINE
  5
2EFB
100
AcDbEntity
  8
0
100
AcDbLine
 10
501.578924
 20
271.234534
 30
0.0
 11
478.972036
 21
271.231262
 31
0.0
  0
LINE
  5
2EFC
100
AcDbEntity
  8
0
100
AcDbLine
 10
495.589214
 20
273.233956
 30
0.0
 11
495.583145
 21
294.206054
 31
0.0
  0
ARC
  5
2EFD
100
AcDbEntity
  8
0
100
AcDbCircle
 10
484.877275
 20
266.648403
 30
0.0
 40
10.898643
100
AcDbArc
 50
72.651661
 51
107.348339
  0
LINE
  5
2EFE
100
AcDbEntity
  8
0
100
AcDbLine
 10
488.132036
 20
277.741262
 30
0.0
 11
481.822036
 21
277.741262
 31
0.0
  0
LINE
  5
2EFF
100
AcDbEntity
  8
0
100
AcDbLine
 10
481.822036
 20
277.741262
 30
0.0
 11
481.627515
 21
277.051262
 31
0.0
  0
LINE
  5
2F00
100
AcDbEntity
  8
0
100
AcDbLine
 10
481.627515
 20
277.051262
 30
0.0
 11
481.627515
 21
271.241262
 31
0.0
  0
LINE
  5
2F01
100
AcDbEntity
  8
0
100
AcDbLine
 10
484.132036
 20
279.541262
 30
0.0
 11
484.132036
 21
277.741262
 31
0.0
  0
LINE
  5
2F02
100
AcDbEntity
  8
0
100
AcDbLine
 10
492.132036
 20
277.741262
 30
0.0
 11
492.132036
 21
279.541262
 31
0.0
  0
LINE
  5
2F03
100
AcDbEntity
  8
0
100
AcDbLine
 10
492.132036
 20
279.541262
 30
0.0
 11
484.132036
 21
279.541262
 31
0.0
  0
ARC
  5
2F04
100
AcDbEntity
  8
0
100
AcDbCircle
 10
488.132036
 20
273.474596
 30
0.0
 40
7.266667
100
AcDbArc
 50
56.601512
 51
123.398488
  0
ARC
  5
2F05
100
AcDbEntity
  8
0
100
AcDbCircle
 10
491.376796
 20
266.648403
 30
0.0
 40
10.898643
100
AcDbArc
 50
72.651661
 51
107.348339
  0
LINE
  5
2F06
100
AcDbEntity
  8
0
100
AcDbLine
 10
494.626556
 20
277.051262
 30
0.0
 11
494.432036
 21
277.741262
 31
0.0
  0
LINE
  5
2F07
100
AcDbEntity
  8
0
100
AcDbLine
 10
488.127036
 20
271.241262
 30
0.0
 11
488.127036
 21
277.051262
 31
0.0
  0
LINE
  5
2F08
100
AcDbEntity
  8
0
100
AcDbLine
 10
494.626556
 20
271.241262
 30
0.0
 11
494.626556
 21
277.051262
 31
0.0
  0
LINE
  5
2F09
100
AcDbEntity
  8
0
100
AcDbLine
 10
494.432036
 20
277.741262
 30
0.0
 11
488.132036
 21
277.741262
 31
0.0
  0
ARC
  5
2F0A
100
AcDbEntity
  8
0
100
AcDbCircle
 10
493.589214
 20
273.233378
 30
0.0
 40
2.0
100
AcDbArc
 50
301.500573
 51
0.016581
  0
ARC
  5
2F0B
100
AcDbEntity
  8
0
100
AcDbCircle
 10
479.084294
 20
299.543521
 30
0.0
 40
1.50226
100
AcDbArc
 50
180.086122
 51
269.913878
  0
LINE
  5
2F0C
100
AcDbEntity
  8
0
100
AcDbLine
 10
477.582036
 20
309.041262
 30
0.0
 11
477.582036
 21
299.541262
 31
0.0
  0
LINE
  5
2F0D
100
AcDbEntity
  8
0
100
AcDbLine
 10
484.122036
 20
298.041262
 30
0.0
 11
484.122036
 21
296.241262
 31
0.0
  0
LINE
  5
2F0E
100
AcDbEntity
  8
0
100
AcDbLine
 10
492.122036
 20
296.241262
 30
0.0
 11
492.122036
 21
298.041262
 31
0.0
  0
LINE
  5
2F0F
100
AcDbEntity
  8
0
100
AcDbLine
 10
484.122036
 20
296.241262
 30
0.0
 11
492.122036
 21
296.241262
 31
0.0
  0
LINE
  5
2F10
100
AcDbEntity
  8
0
100
AcDbLine
 10
485.322036
 20
295.041262
 30
0.0
 11
490.922036
 21
295.041262
 31
0.0
  0
LINE
  5
2F11
100
AcDbEntity
  8
0
100
AcDbLine
 10
490.922036
 20
295.041262
 30
0.0
 11
492.122036
 21
296.241262
 31
0.0
  0
LINE
  5
2F12
100
AcDbEntity
  8
0
100
AcDbLine
 10
484.122036
 20
296.241262
 30
0.0
 11
485.322036
 21
295.041262
 31
0.0
  0
ARC
  5
2F13
100
AcDbEntity
  8
0
100
AcDbCircle
 10
488.283049
 20
287.824801
 30
0.0
 40
10.261093
100
AcDbArc
 50
48.047146
 51
68.029422
  0
ARC
  5
2F14
100
AcDbEntity
  8
0
100
AcDbCircle
 10
493.634651
 20
294.222062
 30
0.0
 40
1.94856
100
AcDbArc
 50
359.529295
 51
39.288004
  0
LINE
  5
2F15
100
AcDbEntity
  8
0
100
AcDbLine
 10
535.582036
 20
246.401262
 30
0.0
 11
535.582036
 21
209.832926
 31
0.0
  0
LINE
  5
2F16
100
AcDbEntity
  8
0
100
AcDbLine
 10
617.485842
 20
198.868022
 30
0.0
 11
585.973467
 21
198.868022
 31
0.0
  0
LINE
  5
2F17
100
AcDbEntity
  8
0
100
AcDbLine
 10
579.671217
 20
205.170272
 30
0.0
 11
598.577967
 21
205.170272
 31
0.0
  0
LINE
  5
2F18
100
AcDbEntity
  8
0
100
AcDbLine
 10
544.715603
 20
180.402279
 30
0.0
 11
541.821927
 21
194.299069
 31
0.0
  0
ARC
  5
2F19
100
AcDbEntity
  8
0
100
AcDbCircle
 10
547.082036
 20
187.319742
 30
0.0
 40
1.5
100
AcDbArc
 50
0.0
 51
90.0
  0
LINE
  5
2F1A
100
AcDbEntity
  8
0
100
AcDbLine
 10
540.582036
 20
169.57168
 30
0.0
 11
540.582036
 21
162.241262
 31
0.0
  0
LINE
  5
2F1B
100
AcDbEntity
  8
0
100
AcDbLine
 10
539.582036
 20
156.241262
 30
0.0
 11
540.582036
 21
157.241262
 31
0.0
  0
LINE
  5
2F1C
100
AcDbEntity
  8
0
100
AcDbLine
 10
540.582036
 20
162.241262
 30
0.0
 11
540.582036
 21
157.241262
 31
0.0
  0
ARC
  5
2F1D
100
AcDbEntity
  8
0
100
AcDbCircle
 10
550.582036
 20
169.57168
 30
0.0
 40
10.0
100
AcDbArc
 50
134.326448
 51
180.0
  0
LINE
  5
2F1E
100
AcDbEntity
  8
0
100
AcDbLine
 10
547.082036
 20
175.662782
 30
0.0
 11
542.65118
 21
175.662782
 31
0.0
  0
ARC
  5
2F1F
100
AcDbEntity
  8
0
100
AcDbCircle
 10
540.799598
 20
179.586864
 30
0.0
 40
4.0
100
AcDbArc
 50
314.326448
 51
11.762407
  0
LINE
  5
2F20
100
AcDbEntity
  8
0
100
AcDbLine
 10
555.913892
 20
187.961262
 30
0.0
 11
548.582036
 21
187.961262
 31
0.0
  0
ARC
  5
2F21
100
AcDbEntity
  8
0
100
AcDbCircle
 10
547.082036
 20
177.162782
 30
0.0
 40
1.5
100
AcDbArc
 50
270.0
 51
0.0
  0
LINE
  5
2F22
100
AcDbEntity
  8
0
100
AcDbLine
 10
555.913892
 20
182.241262
 30
0.0
 11
551.413892
 21
182.241262
 31
0.0
  0
LINE
  5
2F23
100
AcDbEntity
  8
0
100
AcDbLine
 10
555.913892
 20
176.521262
 30
0.0
 11
548.582036
 21
176.521262
 31
0.0
  0
LINE
  5
2F24
100
AcDbEntity
  8
0
100
AcDbLine
 10
548.582036
 20
187.319742
 30
0.0
 11
548.582036
 21
177.162782
 31
0.0
  0
LINE
  5
2F25
100
AcDbEntity
  8
0
100
AcDbLine
 10
551.413892
 20
176.521262
 30
0.0
 11
551.413892
 21
187.961262
 31
0.0
  0
LINE
  5
2F26
100
AcDbEntity
  8
0
100
AcDbLine
 10
555.913892
 20
187.961262
 30
0.0
 11
555.913892
 21
176.521262
 31
0.0
  0
LINE
  5
2F27
100
AcDbEntity
  8
0
100
AcDbLine
 10
547.082036
 20
188.819742
 30
0.0
 11
542.962866
 21
188.819742
 31
0.0
  0
ARC
  5
2F28
100
AcDbEntity
  8
0
100
AcDbCircle
 10
537.582036
 20
200.241262
 30
0.0
 40
2.0
100
AcDbArc
 50
267.611985
 51
92.388015
  0
ARC
  5
2F29
100
AcDbEntity
  8
0
100
AcDbCircle
 10
527.136907
 20
191.241262
 30
0.0
 40
15.0
100
AcDbArc
 50
11.762407
 51
34.408925
  0
LINE
  5
2F2A
100
AcDbEntity
  8
0
100
AcDbLine
 10
585.973467
 20
198.868022
 30
0.0
 11
579.671217
 21
205.170272
 31
0.0
  0
LINE
  5
2F2B
100
AcDbEntity
  8
0
100
AcDbLine
 10
635.530154
 20
200.241262
 30
0.0
 11
635.530154
 21
177.741262
 31
0.0
  0
LINE
  5
2F2C
100
AcDbEntity
  8
0
100
AcDbLine
 10
637.030154
 20
224.241262
 30
0.0
 11
637.030154
 21
176.241262
 31
0.0
  0
LINE
  5
2F2D
100
AcDbEntity
  8
0
100
AcDbLine
 10
637.030154
 20
176.241262
 30
0.0
 11
635.530154
 21
177.741262
 31
0.0
  0
LINE
  5
2F2E
100
AcDbEntity
  8
0
100
AcDbLine
 10
601.730217
 20
202.019147
 30
0.0
 11
611.046342
 21
202.019147
 31
0.0
  0
LINE
  5
2F2F
100
AcDbEntity
  8
0
100
AcDbLine
 10
598.577967
 20
205.170272
 30
0.0
 11
601.730217
 21
202.019147
 31
0.0
  0
LINE
  5
2F30
100
AcDbEntity
  8
0
100
AcDbLine
 10
611.046342
 20
205.170272
 30
0.0
 11
617.485842
 21
198.868022
 31
0.0
  0
LINE
  5
2F31
100
AcDbEntity
  8
0
100
AcDbLine
 10
611.046342
 20
202.019147
 30
0.0
 11
611.046342
 21
205.170272
 31
0.0
  0
LINE
  5
2F32
100
AcDbEntity
  8
0
100
AcDbLine
 10
635.530154
 20
200.241262
 30
0.0
 11
635.530154
 21
222.741262
 31
0.0
  0
ARC
  5
2F33
100
AcDbEntity
  8
0
100
AcDbCircle
 10
644.530154
 20
200.241262
 30
0.0
 40
2.0
100
AcDbArc
 50
90.0
 51
270.0
  0
LINE
  5
2F34
100
AcDbEntity
  8
0
100
AcDbLine
 10
635.530154
 20
222.741262
 30
0.0
 11
637.030154
 21
224.241262
 31
0.0
  0
ARC
  5
2F35
100
AcDbEntity
  8
0
100
AcDbCircle
 10
548.078053
 20
269.737279
 30
0.0
 40
1.503988
100
AcDbArc
 50
0.151738
 51
89.848262
  0
ARC
  5
2F36
100
AcDbEntity
  8
0
100
AcDbCircle
 10
548.078053
 20
250.745246
 30
0.0
 40
1.503988
100
AcDbArc
 50
270.151738
 51
350.639399
  0
LINE
  5
2F37
100
AcDbEntity
  8
0
100
AcDbLine
 10
543.042036
 20
246.941262
 30
0.0
 11
535.042036
 21
246.941262
 31
0.0
  0
LINE
  5
2F38
100
AcDbEntity
  8
0
100
AcDbLine
 10
541.842036
 20
245.741262
 30
0.0
 11
536.242036
 21
245.741262
 31
0.0
  0
LINE
  5
2F39
100
AcDbEntity
  8
0
100
AcDbLine
 10
543.042036
 20
249.241262
 30
0.0
 11
543.042036
 21
246.941262
 31
0.0
  0
LINE
  5
2F3A
100
AcDbEntity
  8
0
100
AcDbLine
 10
543.042036
 20
246.941262
 30
0.0
 11
541.842036
 21
245.741262
 31
0.0
  0
LINE
  5
2F3B
100
AcDbEntity
  8
0
100
AcDbLine
 10
536.242036
 20
245.741262
 30
0.0
 11
535.042036
 21
246.941262
 31
0.0
  0
LINE
  5
2F3C
100
AcDbEntity
  8
0
100
AcDbLine
 10
535.042036
 20
246.941262
 30
0.0
 11
535.042036
 21
249.241262
 31
0.0
  0
LINE
  5
2F3D
100
AcDbEntity
  8
0
100
AcDbLine
 10
549.582036
 20
269.741262
 30
0.0
 11
549.562014
 21
250.500626
 31
0.0
  0
LINE
  5
2F3E
100
AcDbEntity
  8
0
100
AcDbLine
 10
531.582036
 20
273.239164
 30
0.0
 11
531.582036
 21
294.211262
 31
0.0
  0
ARC
  5
2F3F
100
AcDbEntity
  8
0
100
AcDbCircle
 10
542.286796
 20
266.648403
 30
0.0
 40
10.898643
100
AcDbArc
 50
72.651661
 51
107.348339
  0
LINE
  5
2F40
100
AcDbEntity
  8
0
100
AcDbLine
 10
545.342036
 20
277.741262
 30
0.0
 11
539.042036
 21
277.741262
 31
0.0
  0
ARC
  5
2F41
100
AcDbEntity
  8
0
100
AcDbCircle
 10
539.042036
 20
273.474596
 30
0.0
 40
7.266667
100
AcDbArc
 50
56.601512
 51
123.398488
  0
LINE
  5
2F42
100
AcDbEntity
  8
0
100
AcDbLine
 10
543.042036
 20
279.541262
 30
0.0
 11
535.042036
 21
279.541262
 31
0.0
  0
ARC
  5
2F43
100
AcDbEntity
  8
0
100
AcDbCircle
 10
535.787275
 20
266.648403
 30
0.0
 40
10.898643
100
AcDbArc
 50
72.651661
 51
107.348339
  0
LINE
  5
2F44
100
AcDbEntity
  8
0
100
AcDbLine
 10
539.042036
 20
277.741262
 30
0.0
 11
532.732036
 21
277.741262
 31
0.0
  0
LINE
  5
2F45
100
AcDbEntity
  8
0
100
AcDbLine
 10
543.042036
 20
277.741262
 30
0.0
 11
543.042036
 21
279.541262
 31
0.0
  0
LINE
  5
2F46
100
AcDbEntity
  8
0
100
AcDbLine
 10
539.037036
 20
271.241262
 30
0.0
 11
539.037036
 21
277.051262
 31
0.0
  0
LINE
  5
2F47
100
AcDbEntity
  8
0
100
AcDbLine
 10
535.042036
 20
279.541262
 30
0.0
 11
535.042036
 21
277.741262
 31
0.0
  0
LINE
  5
2F48
100
AcDbEntity
  8
0
100
AcDbLine
 10
532.732036
 20
277.741262
 30
0.0
 11
532.537515
 21
277.051262
 31
0.0
  0
LINE
  5
2F49
100
AcDbEntity
  8
0
100
AcDbLine
 10
532.537515
 20
277.051262
 30
0.0
 11
532.537515
 21
271.241262
 31
0.0
  0
ARC
  5
2F4A
100
AcDbEntity
  8
0
100
AcDbCircle
 10
533.582036
 20
273.239164
 30
0.0
 40
2.0
100
AcDbArc
 50
180.0
 51
238.516008
  0
LINE
  5
2F4B
100
AcDbEntity
  8
0
100
AcDbLine
 10
545.536556
 20
277.051262
 30
0.0
 11
545.342036
 21
277.741262
 31
0.0
  0
LINE
  5
2F4C
100
AcDbEntity
  8
0
100
AcDbLine
 10
545.536556
 20
271.241262
 30
0.0
 11
545.536556
 21
277.051262
 31
0.0
  0
LINE
  5
2F4D
100
AcDbEntity
  8
0
100
AcDbLine
 10
536.248517
 20
295.041262
 30
0.0
 11
541.848517
 21
295.041262
 31
0.0
  0
LINE
  5
2F4E
100
AcDbEntity
  8
0
100
AcDbLine
 10
535.048517
 20
296.241262
 30
0.0
 11
543.048517
 21
296.241262
 31
0.0
  0
LINE
  5
2F4F
100
AcDbEntity
  8
0
100
AcDbLine
 10
543.048517
 20
296.241262
 30
0.0
 11
543.048517
 21
298.041262
 31
0.0
  0
LINE
  5
2F50
100
AcDbEntity
  8
0
100
AcDbLine
 10
541.848517
 20
295.041262
 30
0.0
 11
543.048517
 21
296.241262
 31
0.0
  0
LINE
  5
2F51
100
AcDbEntity
  8
0
100
AcDbLine
 10
535.048517
 20
298.041262
 30
0.0
 11
535.048517
 21
296.241262
 31
0.0
  0
ARC
  5
2F52
100
AcDbEntity
  8
0
100
AcDbCircle
 10
533.530525
 20
294.227834
 30
0.0
 40
1.94856
100
AcDbArc
 50
140.728577
 51
180.487286
  0
ARC
  5
2F53
100
AcDbEntity
  8
0
100
AcDbCircle
 10
538.883978
 20
287.832122
 30
0.0
 40
10.261093
100
AcDbArc
 50
111.949353
 51
131.969435
  0
LINE
  5
2F54
100
AcDbEntity
  8
0
100
AcDbLine
 10
535.048517
 20
296.241262
 30
0.0
 11
536.248517
 21
295.041262
 31
0.0
  0
ARC
  5
2F55
100
AcDbEntity
  8
0
100
AcDbCircle
 10
548.066189
 20
299.55711
 30
0.0
 40
1.51593
100
AcDbArc
 50
270.598965
 51
359.401035
  0
LINE
  5
2F56
100
AcDbEntity
  8
0
100
AcDbLine
 10
549.582036
 20
299.541262
 30
0.0
 11
549.582036
 21
309.041262
 31
0.0
  0
LINE
  5
2F57
100
AcDbEntity
  8
0
100
AcDbLine
 10
638.530154
 20
261.241262
 30
0.0
 11
638.530154
 21
285.241262
 31
0.0
  0
ARC
  5
2F58
100
AcDbEntity
  8
0
100
AcDbCircle
 10
661.506696
 20
273.241262
 30
0.0
 40
22.976542
100
AcDbArc
 50
162.445553
 51
197.554447
  0
LINE
  5
2F59
100
AcDbEntity
  8
0
100
AcDbLine
 10
645.530154
 20
285.241262
 30
0.0
 11
645.530154
 21
261.241262
 31
0.0
  0
ARC
  5
2F5A
100
AcDbEntity
  8
0
100
AcDbCircle
 10
622.553612
 20
273.241262
 30
0.0
 40
22.976542
100
AcDbArc
 50
342.445553
 51
17.554447
  0
LINE
  5
2F5B
100
AcDbEntity
  8
0
100
AcDbLine
 10
639.600154
 20
266.311262
 30
0.0
 11
644.460154
 21
266.311262
 31
0.0
  0
LINE
  5
2F5C
100
AcDbEntity
  8
0
100
AcDbLine
 10
644.460154
 20
259.381262
 30
0.0
 11
639.600154
 21
259.381262
 31
0.0
  0
LINE
  5
2F5D
100
AcDbEntity
  8
0
100
AcDbLine
 10
639.600154
 20
259.381262
 30
0.0
 11
638.530154
 21
261.241262
 31
0.0
  0
ARC
  5
2F5E
100
AcDbEntity
  8
0
100
AcDbCircle
 10
644.675528
 20
262.846262
 30
0.0
 40
6.145376
100
AcDbArc
 50
145.678321
 51
214.321679
  0
LINE
  5
2F5F
100
AcDbEntity
  8
0
100
AcDbLine
 10
645.530154
 20
261.241262
 30
0.0
 11
644.460154
 21
259.381262
 31
0.0
  0
ARC
  5
2F60
100
AcDbEntity
  8
0
100
AcDbCircle
 10
639.38478
 20
262.846262
 30
0.0
 40
6.145376
100
AcDbArc
 50
325.678321
 51
34.321679
  0
LINE
  5
2F61
100
AcDbEntity
  8
0
100
AcDbLine
 10
639.600154
 20
287.101262
 30
0.0
 11
644.460154
 21
287.101262
 31
0.0
  0
LINE
  5
2F62
100
AcDbEntity
  8
0
100
AcDbLine
 10
639.600154
 20
280.171262
 30
0.0
 11
644.460154
 21
280.171262
 31
0.0
  0
LINE
  5
2F63
100
AcDbEntity
  8
0
100
AcDbLine
 10
638.530154
 20
285.241262
 30
0.0
 11
639.600154
 21
287.101262
 31
0.0
  0
ARC
  5
2F64
100
AcDbEntity
  8
0
100
AcDbCircle
 10
644.675528
 20
283.636262
 30
0.0
 40
6.145376
100
AcDbArc
 50
145.678321
 51
214.321679
  0
LINE
  5
2F65
100
AcDbEntity
  8
0
100
AcDbLine
 10
644.460154
 20
287.101262
 30
0.0
 11
645.530154
 21
285.241262
 31
0.0
  0
ARC
  5
2F66
100
AcDbEntity
  8
0
100
AcDbCircle
 10
639.38478
 20
283.636262
 30
0.0
 40
6.145376
100
AcDbArc
 50
325.678321
 51
34.321679
  0
LINE
  5
2F67
100
AcDbEntity
  8
0
100
AcDbLine
 10
485.816793
 20
418.741262
 30
0.0
 11
541.380241
 21
418.741262
 31
0.0
  0
LINE
  5
2F68
100
AcDbEntity
  8
0
100
AcDbLine
 10
553.598517
 20
385.091282
 30
0.0
 11
524.590558
 21
385.091282
 31
0.0
  0
LINE
  5
2F69
100
AcDbEntity
  8
0
100
AcDbLine
 10
553.598517
 20
387.991242
 30
0.0
 11
524.590558
 21
387.991242
 31
0.0
  0
LINE
  5
2F6A
100
AcDbEntity
  8
0
100
AcDbLine
 10
548.082036
 20
320.041262
 30
0.0
 11
479.082036
 21
320.041262
 31
0.0
  0
LINE
  5
2F6B
100
AcDbEntity
  8
0
100
AcDbLine
 10
528.582036
 20
383.041262
 30
0.0
 11
498.582036
 21
383.041262
 31
0.0
  0
LINE
  5
2F6C
100
AcDbEntity
  8
0
100
AcDbLine
 10
529.582036
 20
382.041262
 30
0.0
 11
497.582036
 21
382.041262
 31
0.0
  0
LINE
  5
2F6D
100
AcDbEntity
  8
0
100
AcDbLine
 10
529.582036
 20
350.041262
 30
0.0
 11
497.582036
 21
350.041262
 31
0.0
  0
LINE
  5
2F6E
100
AcDbEntity
  8
0
100
AcDbLine
 10
530.082036
 20
434.741262
 30
0.0
 11
497.082036
 21
434.741262
 31
0.0
  0
LINE
  5
2F6F
100
AcDbEntity
  8
0
100
AcDbLine
 10
506.582036
 20
390.041262
 30
0.0
 11
506.582036
 21
413.241262
 31
0.0
  0
LINE
  5
2F70
100
AcDbEntity
  8
0
100
AcDbLine
 10
520.582036
 20
413.241262
 30
0.0
 11
520.582036
 21
390.041262
 31
0.0
  0
LINE
  5
2F71
100
AcDbEntity
  8
0
100
AcDbLine
 10
497.582036
 20
382.041262
 30
0.0
 11
497.582036
 21
350.041262
 31
0.0
  0
LINE
  5
2F72
100
AcDbEntity
  8
0
100
AcDbLine
 10
497.582036
 20
350.041262
 30
0.0
 11
494.052036
 21
326.541262
 31
0.0
  0
ARC
  5
2F73
100
AcDbEntity
  8
0
100
AcDbCircle
 10
484.877272
 20
315.448425
 30
0.0
 40
10.898622
100
AcDbArc
 50
72.651626
 51
107.348356
  0
LINE
  5
2F74
100
AcDbEntity
  8
0
100
AcDbLine
 10
494.432036
 20
326.541262
 30
0.0
 11
481.822036
 21
326.541262
 31
0.0
  0
ARC
  5
2F75
100
AcDbEntity
  8
0
100
AcDbCircle
 10
479.097883
 20
318.525415
 30
0.0
 40
1.51593
100
AcDbArc
 50
90.598965
 51
179.401035
  0
LINE
  5
2F76
100
AcDbEntity
  8
0
100
AcDbLine
 10
481.822036
 20
326.541262
 30
0.0
 11
481.627515
 21
325.851262
 31
0.0
  0
LINE
  5
2F77
100
AcDbEntity
  8
0
100
AcDbLine
 10
481.627515
 20
325.851262
 30
0.0
 11
481.627515
 21
320.041262
 31
0.0
  0
ARC
  5
2F78
100
AcDbEntity
  8
0
100
AcDbCircle
 10
491.371796
 20
315.481177
 30
0.0
 40
10.86587
100
AcDbArc
 50
72.625296
 51
107.374704
  0
LINE
  5
2F79
100
AcDbEntity
  8
0
100
AcDbLine
 10
494.626556
 20
325.851262
 30
0.0
 11
494.432036
 21
326.541262
 31
0.0
  0
LINE
  5
2F7A
100
AcDbEntity
  8
0
100
AcDbLine
 10
494.616556
 20
320.041262
 30
0.0
 11
494.616556
 21
325.851262
 31
0.0
  0
LINE
  5
2F7B
100
AcDbEntity
  8
0
100
AcDbLine
 10
488.127036
 20
320.041262
 30
0.0
 11
488.127036
 21
325.851262
 31
0.0
  0
LINE
  5
2F7C
100
AcDbEntity
  8
0
100
AcDbLine
 10
498.582036
 20
383.041262
 30
0.0
 11
497.582036
 21
382.041262
 31
0.0
  0
ARC
  5
2F7D
100
AcDbEntity
  8
0
100
AcDbCircle
 10
508.092774
 20
374.121734
 30
0.0
 40
15.919528
100
AcDbArc
 50
69.791268
 51
110.208732
  0
ARC
  5
2F7E
100
AcDbEntity
  8
0
100
AcDbCircle
 10
508.092774
 20
398.960791
 30
0.0
 40
15.919528
100
AcDbArc
 50
249.791268
 51
290.208732
  0
LINE
  5
2F7F
100
AcDbEntity
  8
0
100
AcDbLine
 10
502.582036
 20
390.041262
 30
0.0
 11
524.582036
 21
390.041262
 31
0.0
  0
LINE
  5
2F80
100
AcDbEntity
  8
0
100
AcDbLine
 10
502.593513
 20
389.061262
 30
0.0
 11
502.582036
 21
390.041262
 31
0.0
  0
LINE
  5
2F81
100
AcDbEntity
  8
0
100
AcDbLine
 10
502.593513
 20
384.021262
 30
0.0
 11
502.593513
 21
389.061262
 31
0.0
  0
LINE
  5
2F82
100
AcDbEntity
  8
0
100
AcDbLine
 10
502.582036
 20
383.041262
 30
0.0
 11
502.593513
 21
384.021262
 31
0.0
  0
LINE
  5
2F83
100
AcDbEntity
  8
0
100
AcDbLine
 10
513.592036
 20
389.061262
 30
0.0
 11
513.592036
 21
384.021262
 31
0.0
  0
LINE
  5
2F84
100
AcDbEntity
  8
0
100
AcDbLine
 10
524.582036
 20
390.041262
 30
0.0
 11
524.590558
 21
389.061262
 31
0.0
  0
LINE
  5
2F85
100
AcDbEntity
  8
0
100
AcDbLine
 10
524.590558
 20
384.021262
 30
0.0
 11
524.582036
 21
383.041262
 31
0.0
  0
LINE
  5
2F86
100
AcDbEntity
  8
0
100
AcDbLine
 10
524.590558
 20
389.061262
 30
0.0
 11
524.590558
 21
384.021262
 31
0.0
  0
ARC
  5
2F87
100
AcDbEntity
  8
0
100
AcDbCircle
 10
519.091297
 20
374.121734
 30
0.0
 40
15.919528
100
AcDbArc
 50
69.791268
 51
110.208732
  0
ARC
  5
2F88
100
AcDbEntity
  8
0
100
AcDbCircle
 10
519.091294
 20
398.960808
 30
0.0
 40
15.919545
100
AcDbArc
 50
249.791291
 51
290.208721
  0
LINE
  5
2F89
100
AcDbEntity
  8
0
100
AcDbLine
 10
497.082036
 20
434.741262
 30
0.0
 11
489.19838
 21
433.112714
 31
0.0
  0
ARC
  5
2F8A
100
AcDbEntity
  8
0
100
AcDbCircle
 10
485.820836
 20
421.745305
 30
0.0
 40
3.004046
100
AcDbArc
 50
180.07711
 51
269.92289
  0
ARC
  5
2F8B
100
AcDbEntity
  8
0
100
AcDbCircle
 10
490.816793
 20
425.278128
 30
0.0
 40
8.0
100
AcDbArc
 50
101.671578
 51
180.0
  0
LINE
  5
2F8C
100
AcDbEntity
  8
0
100
AcDbLine
 10
482.816793
 20
425.278128
 30
0.0
 11
482.816793
 21
421.741262
 31
0.0
  0
ARC
  5
2F8D
100
AcDbEntity
  8
0
100
AcDbCircle
 10
483.939613
 20
420.648578
 30
0.0
 40
11.315639
100
AcDbArc
 50
12.933592
 51
78.901984
  0
ARC
  5
2F8E
100
AcDbEntity
  8
0
100
AcDbCircle
 10
493.015259
 20
422.742794
 30
0.0
 40
2.001533
100
AcDbArc
 50
270.083475
 51
12.654204
  0
LINE
  5
2F8F
100
AcDbEntity
  8
0
100
AcDbLine
 10
493.018175
 20
420.741262
 30
0.0
 11
482.989548
 21
420.741262
 31
0.0
  0
ARC
  5
2F90
100
AcDbEntity
  8
0
100
AcDbCircle
 10
506.080369
 20
414.741262
 30
0.0
 40
1.581667
100
AcDbArc
 50
288.492225
 51
71.507775
  0
ARC
  5
2F91
100
AcDbEntity
  8
0
100
AcDbCircle
 10
521.083702
 20
414.741262
 30
0.0
 40
1.581667
100
AcDbArc
 50
108.492225
 51
251.507775
  0
LINE
  5
2F92
100
AcDbEntity
  8
0
100
AcDbLine
 10
520.582036
 20
413.241262
 30
0.0
 11
506.582036
 21
413.241262
 31
0.0
  0
ARC
  5
2F93
100
AcDbEntity
  8
0
100
AcDbCircle
 10
512.47596
 20
420.715526
 30
0.0
 40
11.3
100
AcDbArc
 50
84.382735
 51
167.44822
  0
LINE
  5
2F94
100
AcDbEntity
  8
0
100
AcDbLine
 10
523.789899
 20
420.741262
 30
0.0
 11
503.39603
 21
420.741262
 31
0.0
  0
LINE
  5
2F95
100
AcDbEntity
  8
0
100
AcDbLine
 10
526.582036
 20
416.241262
 30
0.0
 11
500.582036
 21
416.241262
 31
0.0
  0
LINE
  5
2F96
100
AcDbEntity
  8
0
100
AcDbLine
 10
500.582036
 20
416.241262
 30
0.0
 11
500.582036
 21
418.741262
 31
0.0
  0
ARC
  5
2F97
100
AcDbEntity
  8
0
100
AcDbCircle
 10
503.395493
 20
422.738239
 30
0.0
 40
1.996977
100
AcDbArc
 50
167.476529
 51
270.015405
  0
ARC
  5
2F98
100
AcDbEntity
  8
0
100
AcDbCircle
 10
514.711677
 20
420.717868
 30
0.0
 40
11.3
100
AcDbArc
 50
12.59156
 51
95.737342
  0
LINE
  5
2F99
100
AcDbEntity
  8
0
100
AcDbLine
 10
526.582036
 20
418.741262
 30
0.0
 11
526.582036
 21
416.241262
 31
0.0
  0
ARC
  5
2F9A
100
AcDbEntity
  8
0
100
AcDbCircle
 10
523.786983
 20
422.742794
 30
0.0
 40
2.001533
100
AcDbArc
 50
270.083475
 51
12.654204
  0
LINE
  5
2F9B
100
AcDbEntity
  8
0
100
AcDbLine
 10
529.582036
 20
350.041262
 30
0.0
 11
529.582036
 21
382.041262
 31
0.0
  0
LINE
  5
2F9C
100
AcDbEntity
  8
0
100
AcDbLine
 10
533.102036
 20
326.541262
 30
0.0
 11
529.582036
 21
350.041262
 31
0.0
  0
LINE
  5
2F9D
100
AcDbEntity
  8
0
100
AcDbLine
 10
545.668517
 20
326.541262
 30
0.0
 11
533.058517
 21
326.541262
 31
0.0
  0
ARC
  5
2F9E
100
AcDbEntity
  8
0
100
AcDbCircle
 10
542.608277
 20
315.481177
 30
0.0
 40
10.86587
100
AcDbArc
 50
72.625296
 51
107.374704
  0
ARC
  5
2F9F
100
AcDbEntity
  8
0
100
AcDbCircle
 10
536.113753
 20
315.448425
 30
0.0
 40
10.898622
100
AcDbArc
 50
72.651626
 51
107.348356
  0
LINE
  5
2FA0
100
AcDbEntity
  8
0
100
AcDbLine
 10
539.363517
 20
320.041262
 30
0.0
 11
539.363517
 21
325.851262
 31
0.0
  0
LINE
  5
2FA1
100
AcDbEntity
  8
0
100
AcDbLine
 10
533.058517
 20
326.541262
 30
0.0
 11
532.863996
 21
325.851262
 31
0.0
  0
LINE
  5
2FA2
100
AcDbEntity
  8
0
100
AcDbLine
 10
532.863996
 20
325.851262
 30
0.0
 11
532.863996
 21
320.041262
 31
0.0
  0
ARC
  5
2FA3
100
AcDbEntity
  8
0
100
AcDbCircle
 10
548.066189
 20
318.525415
 30
0.0
 40
1.51593
100
AcDbArc
 50
0.598965
 51
89.401035
  0
LINE
  5
2FA4
100
AcDbEntity
  8
0
100
AcDbLine
 10
545.863037
 20
325.851262
 30
0.0
 11
545.668517
 21
326.541262
 31
0.0
  0
LINE
  5
2FA5
100
AcDbEntity
  8
0
100
AcDbLine
 10
545.853037
 20
320.041262
 30
0.0
 11
545.853037
 21
325.851262
 31
0.0
  0
LINE
  5
2FA6
100
AcDbEntity
  8
0
100
AcDbLine
 10
529.582036
 20
382.041262
 30
0.0
 11
528.582036
 21
383.041262
 31
0.0
  0
ARC
  5
2FA7
100
AcDbEntity
  8
0
100
AcDbCircle
 10
553.598517
 20
386.091282
 30
0.0
 40
1.0
100
AcDbArc
 50
270.0
 51
0.0
  0
LINE
  5
2FA8
100
AcDbEntity
  8
0
100
AcDbLine
 10
554.598517
 20
386.991242
 30
0.0
 11
554.598517
 21
386.091282
 31
0.0
  0
ARC
  5
2FA9
100
AcDbEntity
  8
0
100
AcDbCircle
 10
553.598517
 20
386.991242
 30
0.0
 40
1.0
100
AcDbArc
 50
0.0
 51
90.0
  0
ARC
  5
2FAA
100
AcDbEntity
  8
0
100
AcDbCircle
 10
513.590756
 20
344.157239
 30
0.0
 40
92.072948
100
AcDbArc
 50
74.272172
 51
79.682016
  0
LINE
  5
2FAB
100
AcDbEntity
  8
0
100
AcDbLine
 10
534.420112
 20
420.741262
 30
0.0
 11
544.207485
 21
420.741262
 31
0.0
  0
ARC
  5
2FAC
100
AcDbEntity
  8
0
100
AcDbCircle
 10
541.376198
 20
421.745305
 30
0.0
 40
3.004046
100
AcDbArc
 50
270.07711
 51
359.92289
  0
ARC
  5
2FAD
100
AcDbEntity
  8
0
100
AcDbCircle
 10
536.380241
 20
425.082512
 30
0.0
 40
8.0
100
AcDbArc
 50
0.0
 51
74.272172
  0
ARC
  5
2FAE
100
AcDbEntity
  8
0
100
AcDbCircle
 10
543.412036
 20
420.742205
 30
0.0
 40
11.210472
100
AcDbArc
 50
102.858283
 51
167.433676
  0
LINE
  5
2FAF
100
AcDbEntity
  8
0
100
AcDbLine
 10
537.482036
 20
420.741262
 30
0.0
 11
537.492036
 21
420.741262
 31
0.0
  0
ARC
  5
2FB0
100
AcDbEntity
  8
0
100
AcDbCircle
 10
534.423028
 20
422.742794
 30
0.0
 40
2.001533
100
AcDbArc
 50
167.345796
 51
269.916525
  0
LINE
  5
2FB1
100
AcDbEntity
  8
0
100
AcDbLine
 10
544.380241
 20
421.741262
 30
0.0
 11
544.380241
 21
425.082512
 31
0.0
  0
ARC
  5
2FB2
100
AcDbEntity
  8
0
100
AcDbCircle
 10
646.528572
 20
802.612616
 30
0.0
 40
1.998418
100
AcDbArc
 50
89.954635
 51
180.045365
  0
TEXT
  5
2FB3
100
AcDbEntity
  8
0
100
AcDbText
 10
365.245016
 20
740.757408
 30
0.0
 40
20.0
  1
背面
100
AcDbText
  0
TEXT
  5
2FB4
100
AcDbEntity
  8
0
100
AcDbText
 10
365.245016
 20
531.4393
 30
0.0
 40
20.0
  1
平面
100
AcDbText
  0
ARC
  5
2FB5
100
AcDbEntity
  8
0
100
AcDbCircle
 10
661.515657
 20
557.820303
 30
0.0
 40
22.982527
100
AcDbArc
 50
164.866563
 51
195.133437
  0
ARC
  5
2FB6
100
AcDbEntity
  8
0
100
AcDbCircle
 10
622.544651
 20
557.820303
 30
0.0
 40
22.982527
100
AcDbArc
 50
344.866563
 51
15.133437
  0
LINE
  5
2FB7
100
AcDbEntity
  8
0
100
AcDbLine
 10
645.530154
 20
563.820303
 30
0.0
 11
645.530154
 21
539.820303
 31
0.0
  0
LINE
  5
2FB8
100
AcDbEntity
  8
0
100
AcDbLine
 10
645.530154
 20
563.820303
 30
0.0
 11
645.530154
 21
539.820303
 31
0.0
  0
LINE
  5
2FB9
100
AcDbEntity
  8
0
100
AcDbLine
 10
638.530154
 20
539.820303
 30
0.0
 11
638.530154
 21
563.820303
 31
0.0
  0
LINE
  5
2FBA
100
AcDbEntity
  8
0
100
AcDbLine
 10
635.530154
 20
551.820303
 30
0.0
 11
635.530154
 21
574.320303
 31
0.0
  0
LINE
  5
2FBB
100
AcDbEntity
  8
0
100
AcDbLine
 10
637.030154
 20
575.820303
 30
0.0
 11
637.030154
 21
527.820303
 31
0.0
  0
LINE
  5
2FBC
100
AcDbEntity
  8
0
100
AcDbLine
 10
587.958617
 20
556.476806
 30
0.0
 11
606.865367
 21
556.476806
 31
0.0
  0
LINE
  5
2FBD
100
AcDbEntity
  8
0
100
AcDbLine
 10
594.260867
 20
550.174556
 30
0.0
 11
587.958617
 21
556.476806
 31
0.0
  0
LINE
  5
2FBE
100
AcDbEntity
  8
0
100
AcDbLine
 10
625.773242
 20
550.174556
 30
0.0
 11
594.260867
 21
550.174556
 31
0.0
  0
LINE
  5
2FBF
100
AcDbEntity
  8
0
100
AcDbLine
 10
610.017617
 20
553.325681
 30
0.0
 11
619.333742
 21
553.325681
 31
0.0
  0
LINE
  5
2FC0
100
AcDbEntity
  8
0
100
AcDbLine
 10
606.865367
 20
556.476806
 30
0.0
 11
610.017617
 21
553.325681
 31
0.0
  0
LINE
  5
2FC1
100
AcDbEntity
  8
0
100
AcDbLine
 10
635.530154
 20
529.320303
 30
0.0
 11
635.530154
 21
551.820303
 31
0.0
  0
LINE
  5
2FC2
100
AcDbEntity
  8
0
100
AcDbLine
 10
641.530154
 20
517.520303
 30
0.0
 11
641.530154
 21
527.820303
 31
0.0
  0
LINE
  5
2FC3
100
AcDbEntity
  8
0
100
AcDbLine
 10
635.530154
 20
529.320303
 30
0.0
 11
637.030154
 21
527.820303
 31
0.0
  0
LINE
  5
2FC4
100
AcDbEntity
  8
0
100
AcDbLine
 10
619.333742
 20
556.476806
 30
0.0
 11
625.773242
 21
550.174556
 31
0.0
  0
LINE
  5
2FC5
100
AcDbEntity
  8
0
100
AcDbLine
 10
619.333742
 20
553.325681
 30
0.0
 11
619.333742
 21
556.476806
 31
0.0
  0
LINE
  5
2FC6
100
AcDbEntity
  8
0
100
AcDbLine
 10
639.330154
 20
551.820303
 30
0.0
 11
644.730154
 21
551.820303
 31
0.0
  0
ARC
  5
2FC7
100
AcDbEntity
  8
0
100
AcDbCircle
 10
661.430154
 20
545.820303
 30
0.0
 40
22.9
100
AcDbArc
 50
164.810713
 51
195.189287
  0
ARC
  5
2FC8
100
AcDbEntity
  8
0
100
AcDbCircle
 10
622.630154
 20
545.820303
 30
0.0
 40
22.9
100
AcDbArc
 50
344.810713
 51
15.189287
  0
LINE
  5
2FC9
100
AcDbEntity
  8
0
100
AcDbLine
 10
641.530154
 20
575.820303
 30
0.0
 11
641.530154
 21
586.130303
 31
0.0
  0
LINE
  5
2FCA
100
AcDbEntity
  8
0
100
AcDbLine
 10
637.030154
 20
575.820303
 30
0.0
 11
635.530154
 21
574.320303
 31
0.0
  0
LINE
  5
2FCB
100
AcDbEntity
  8
0
100
AcDbLine
 10
635.530154
 20
696.611034
 30
0.0
 11
635.530154
 21
674.111034
 31
0.0
  0
LINE
  5
2FCC
100
AcDbEntity
  8
0
100
AcDbLine
 10
637.030154
 20
720.611034
 30
0.0
 11
637.030154
 21
672.611034
 31
0.0
  0
LINE
  5
2FCD
100
AcDbEntity
  8
0
100
AcDbLine
 10
635.530154
 20
674.111034
 30
0.0
 11
637.030154
 21
672.611034
 31
0.0
  0
LINE
  5
2FCE
100
AcDbEntity
  8
0
100
AcDbLine
 10
635.530154
 20
696.611034
 30
0.0
 11
635.530154
 21
719.111034
 31
0.0
  0
LINE
  5
2FCF
100
AcDbEntity
  8
0
100
AcDbLine
 10
637.030154
 20
720.611034
 30
0.0
 11
635.530154
 21
719.111034
 31
0.0
  0
LINE
  5
2FD0
100
AcDbEntity
  8
0
100
AcDbLine
 10
641.640154
 20
794.611034
 30
0.0
 11
634.610154
 21
794.611034
 31
0.0
  0
LINE
  5
2FD1
100
AcDbEntity
  8
0
100
AcDbLine
 10
634.610154
 20
800.541034
 30
0.0
 11
641.640154
 21
800.541034
 31
0.0
  0
LINE
  5
2FD2
100
AcDbEntity
  8
0
100
AcDbLine
 10
644.530154
 20
801.121034
 30
0.0
 11
641.640154
 21
801.211034
 31
0.0
  0
ARC
  5
2FD3
100
AcDbEntity
  8
0
100
AcDbCircle
 10
646.530154
 20
786.611034
 30
0.0
 40
2.0
100
AcDbArc
 50
180.0
 51
270.0
  0
LINE
  5
2FD4
100
AcDbEntity
  8
0
100
AcDbLine
 10
641.640154
 20
788.681034
 30
0.0
 11
634.610154
 21
788.681034
 31
0.0
  0
LINE
  5
2FD5
100
AcDbEntity
  8
0
100
AcDbLine
 10
641.640154
 20
788.011034
 30
0.0
 11
644.530154
 21
788.101034
 31
0.0
  0
LINE
  5
2FD6
100
AcDbEntity
  8
0
100
AcDbLine
 10
644.530154
 20
802.611034
 30
0.0
 11
644.530154
 21
786.611034
 31
0.0
  0
LINE
  5
2FD7
100
AcDbEntity
  8
0
100
AcDbLine
 10
641.640154
 20
801.211034
 30
0.0
 11
641.640154
 21
788.011034
 31
0.0
  0
LINE
  5
2FD8
100
AcDbEntity
  8
0
100
AcDbLine
 10
634.610154
 20
788.681034
 30
0.0
 11
634.610154
 21
800.541034
 31
0.0
  0
LINE
  5
2FD9
100
AcDbEntity
  8
0
100
AcDbLine
 10
647.930154
 20
804.611034
 30
0.0
 11
646.530154
 21
804.611034
 31
0.0
  0
LINE
  5
2FDA
100
AcDbEntity
  8
0
100
AcDbLine
 10
667.530154
 20
144.473313
 30
0.0
 11
667.530154
 21
156.241262
 31
0.0
  0
LINE
  5
2FDB
100
AcDbEntity
  8
0
100
AcDbLine
 10
695.263455
 20
144.473313
 30
0.0
 11
695.263455
 21
156.241262
 31
0.0
  0
LINE
  5
2FDC
100
AcDbEntity
  8
0
100
AcDbLine
 10
693.776365
 20
144.473313
 30
0.0
 11
693.776365
 21
156.241262
 31
0.0
  0
LINE
  5
2FDD
100
AcDbEntity
  8
0
100
AcDbLine
 10
703.530154
 20
144.473313
 30
0.0
 11
703.530154
 21
156.241262
 31
0.0
  0
LINE
  5
2FDE
100
AcDbEntity
  8
0
100
AcDbLine
 10
675.796853
 20
144.473313
 30
0.0
 11
675.796853
 21
156.241262
 31
0.0
  0
LINE
  5
2FDF
100
AcDbEntity
  8
0
100
AcDbLine
 10
677.283943
 20
144.473313
 30
0.0
 11
677.283943
 21
156.241262
 31
0.0
  0
LINE
  5
2FE0
100
AcDbEntity
  8
0
100
AcDbLine
 10
891.818542
 20
144.473313
 30
0.0
 11
891.818542
 21
156.241262
 31
0.0
  0
LINE
  5
2FE1
100
AcDbEntity
  8
0
100
AcDbLine
 10
890.331453
 20
144.473313
 30
0.0
 11
890.331453
 21
156.241262
 31
0.0
  0
LINE
  5
2FE2
100
AcDbEntity
  8
0
100
AcDbLine
 10
906.663455
 20
144.473313
 30
0.0
 11
906.663455
 21
156.241262
 31
0.0
  0
LINE
  5
2FE3
100
AcDbEntity
  8
0
100
AcDbLine
 10
875.48654
 20
144.473313
 30
0.0
 11
875.48654
 21
156.241262
 31
0.0
  0
LINE
  5
2FE4
100
AcDbEntity
  8
0
100
AcDbLine
 10
876.074998
 20
142.741262
 30
0.0
 11
906.074998
 21
142.741262
 31
0.0
  0
LINE
  5
2FE5
100
AcDbEntity
  8
0
100
AcDbLine
 10
891.818542
 20
144.473313
 30
0.0
 11
890.331453
 21
144.473313
 31
0.0
  0
LINE
  5
2FE6
100
AcDbEntity
  8
0
100
AcDbLine
 10
670.530154
 20
142.741262
 30
0.0
 11
700.530154
 21
142.741262
 31
0.0
  0
ARC
  5
2FE7
100
AcDbEntity
  8
0
100
AcDbCircle
 10
685.530154
 20
163.237197
 30
0.0
 40
20.495935
100
AcDbArc
 50
246.275831
 51
293.724169
  0
ARC
  5
2FE8
100
AcDbEntity
  8
0
100
AcDbCircle
 10
671.663503
 20
148.539151
 30
0.0
 40
5.797897
100
AcDbArc
 50
255.471763
 51
315.471763
  0
LINE
  5
2FE9
100
AcDbEntity
  8
0
100
AcDbLine
 10
670.530154
 20
142.741262
 30
0.0
 11
667.530154
 21
144.473313
 31
0.0
  0
LINE
  5
2FEA
100
AcDbEntity
  8
0
100
AcDbLine
 10
677.283943
 20
144.473313
 30
0.0
 11
675.796853
 21
144.473313
 31
0.0
  0
LINE
  5
2FEB
100
AcDbEntity
  8
0
100
AcDbLine
 10
695.263455
 20
144.473313
 30
0.0
 11
693.776365
 21
144.473313
 31
0.0
  0
LINE
  5
2FEC
100
AcDbEntity
  8
0
100
AcDbLine
 10
700.530154
 20
142.741262
 30
0.0
 11
703.530154
 21
144.473313
 31
0.0
  0
ARC
  5
2FED
100
AcDbEntity
  8
0
100
AcDbCircle
 10
699.396804
 20
148.539151
 30
0.0
 40
5.797897
100
AcDbArc
 50
224.528237
 51
284.528237
  0
ARC
  5
2FEE
100
AcDbEntity
  8
0
100
AcDbCircle
 10
882.908997
 20
159.511226
 30
0.0
 40
16.769963
100
AcDbArc
 50
243.729842
 51
296.270158
  0
LINE
  5
2FEF
100
AcDbEntity
  8
0
100
AcDbLine
 10
876.074998
 20
142.741262
 30
0.0
 11
875.48654
 21
144.473313
 31
0.0
  0
LINE
  5
2FF0
100
AcDbEntity
  8
0
100
AcDbLine
 10
906.074998
 20
142.741262
 30
0.0
 11
906.663455
 21
144.473313
 31
0.0
  0
ARC
  5
2FF1
100
AcDbEntity
  8
0
100
AcDbCircle
 10
899.240999
 20
159.511226
 30
0.0
 40
16.769963
100
AcDbArc
 50
243.729842
 51
296.270158
  0
ARC
  5
2FF2
100
AcDbEntity
  8
0
100
AcDbCircle
 10
892.181073
 20
420.715526
 30
0.0
 40
11.3
100
AcDbArc
 50
12.55178
 51
95.617265
  0
CIRCLE
  5
2FF3
100
AcDbEntity
  8
0
100
AcDbCircle
 10
891.074998
 20
200.241262
 30
0.0
 40
22.5
  0
CIRCLE
  5
2FF4
100
AcDbEntity
  8
0
100
AcDbCircle
 10
891.074998
 20
200.241262
 30
0.0
 40
24.0
  0
LINE
  5
2FF5
100
AcDbEntity
  8
0
100
AcDbLine
 10
918.074998
 20
162.241262
 30
0.0
 11
864.074998
 21
162.241262
 31
0.0
  0
LINE
  5
2FF6
100
AcDbEntity
  8
0
100
AcDbLine
 10
864.074998
 20
162.241262
 30
0.0
 11
918.074998
 21
162.241262
 31
0.0
  0
LINE
  5
2FF7
100
AcDbEntity
  8
0
100
AcDbLine
 10
865.074998
 20
156.241262
 30
0.0
 11
917.074998
 21
156.241262
 31
0.0
  0
LINE
  5
2FF8
100
AcDbEntity
  8
0
100
AcDbLine
 10
864.074998
 20
162.241262
 30
0.0
 11
918.074998
 21
162.241262
 31
0.0
  0
LINE
  5
2FF9
100
AcDbEntity
  8
0
100
AcDbLine
 10
918.840241
 20
418.741262
 30
0.0
 11
863.276793
 21
418.741262
 31
0.0
  0
LINE
  5
2FFA
100
AcDbEntity
  8
0
100
AcDbLine
 10
927.074998
 20
260.241262
 30
0.0
 11
855.074998
 21
260.241262
 31
0.0
  0
LINE
  5
2FFB
100
AcDbEntity
  8
0
100
AcDbLine
 10
856.574997
 20
249.241262
 30
0.0
 11
925.574998
 21
249.241262
 31
0.0
  0
LINE
  5
2FFC
100
AcDbEntity
  8
0
100
AcDbLine
 10
856.574998
 20
271.241262
 30
0.0
 11
925.684998
 21
271.231262
 31
0.0
  0
LINE
  5
2FFD
100
AcDbEntity
  8
0
100
AcDbLine
 10
856.574998
 20
320.041262
 30
0.0
 11
925.574998
 21
320.041262
 31
0.0
  0
LINE
  5
2FFE
100
AcDbEntity
  8
0
100
AcDbLine
 10
927.074998
 20
309.041262
 30
0.0
 11
855.074998
 21
309.041262
 31
0.0
  0
ARC
  5
2FFF
100
AcDbEntity
  8
0
100
AcDbCircle
 10
896.564259
 20
374.121734
 30
0.0
 40
15.919528
100
AcDbArc
 50
69.791268
 51
110.208732
  0
ARC
  5
3000
100
AcDbEntity
  8
0
100
AcDbCircle
 10
896.564259
 20
398.960791
 30
0.0
 40
15.919528
100
AcDbArc
 50
249.791268
 51
290.208732
  0
LINE
  5
3001
100
AcDbEntity
  8
0
100
AcDbLine
 10
878.074998
 20
416.241262
 30
0.0
 11
904.074998
 21
416.241262
 31
0.0
  0
LINE
  5
3002
100
AcDbEntity
  8
0
100
AcDbLine
 10
884.074998
 20
413.241262
 30
0.0
 11
898.074998
 21
413.241262
 31
0.0
  0
LINE
  5
3003
100
AcDbEntity
  8
0
100
AcDbLine
 10
876.074998
 20
383.041262
 30
0.0
 11
906.074998
 21
383.041262
 31
0.0
  0
LINE
  5
3004
100
AcDbEntity
  8
0
100
AcDbLine
 10
875.074998
 20
382.041262
 30
0.0
 11
907.074998
 21
382.041262
 31
0.0
  0
LINE
  5
3005
100
AcDbEntity
  8
0
100
AcDbLine
 10
875.074998
 20
350.041262
 30
0.0
 11
907.074998
 21
350.041262
 31
0.0
  0
LINE
  5
3006
100
AcDbEntity
  8
0
100
AcDbLine
 10
902.074998
 20
390.041262
 30
0.0
 11
880.074998
 21
390.041262
 31
0.0
  0
LINE
  5
3007
100
AcDbEntity
  8
0
100
AcDbLine
 10
880.867134
 20
420.741262
 30
0.0
 11
901.261003
 21
420.741262
 31
0.0
  0
LINE
  5
3008
100
AcDbEntity
  8
0
100
AcDbLine
 10
891.058517
 20
292.311262
 30
0.0
 11
896.988517
 21
298.041262
 31
0.0
  0
LINE
  5
3009
100
AcDbEntity
  8
0
100
AcDbLine
 10
896.988517
 20
298.041262
 30
0.0
 11
891.074998
 21
304.171262
 31
0.0
  0
CIRCLE
  5
300A
100
AcDbEntity
  8
0
100
AcDbCircle
 10
891.074998
 20
298.241262
 30
0.0
 40
10.0
  0
CIRCLE
  5
300B
100
AcDbEntity
  8
0
100
AcDbCircle
 10
891.074998
 20
298.242054
 30
0.0
 40
8.000791
  0
CIRCLE
  5
300C
100
AcDbEntity
  8
0
100
AcDbCircle
 10
891.074998
 20
298.241262
 30
0.0
 40
6.6
  0
LINE
  5
300D
100
AcDbEntity
  8
0
100
AcDbLine
 10
874.574998
 20
434.741262
 30
0.0
 11
907.574998
 21
434.741262
 31
0.0
  0
LINE
  5
300E
100
AcDbEntity
  8
0
100
AcDbLine
 10
649.530154
 20
309.041262
 30
0.0
 11
649.530154
 21
318.541262
 31
0.0
  0
LINE
  5
300F
100
AcDbEntity
  8
0
100
AcDbLine
 10
721.530154
 20
318.541262
 30
0.0
 11
721.530154
 21
309.041262
 31
0.0
  0
LINE
  5
3010
100
AcDbEntity
  8
0
100
AcDbLine
 10
855.074998
 20
309.041262
 30
0.0
 11
855.074998
 21
318.541262
 31
0.0
  0
LINE
  5
3011
100
AcDbEntity
  8
0
100
AcDbLine
 10
656.530154
 20
228.241262
 30
0.0
 11
656.530154
 21
246.481262
 31
0.0
  0
LINE
  5
3012
100
AcDbEntity
  8
0
100
AcDbLine
 10
664.530154
 20
245.241262
 30
0.0
 11
664.530154
 21
228.241262
 31
0.0
  0
LINE
  5
3013
100
AcDbEntity
  8
0
100
AcDbLine
 10
714.530154
 20
246.481262
 30
0.0
 11
714.530154
 21
228.241262
 31
0.0
  0
LINE
  5
3014
100
AcDbEntity
  8
0
100
AcDbLine
 10
706.530154
 20
245.241262
 30
0.0
 11
706.530154
 21
228.241262
 31
0.0
  0
LINE
  5
3015
100
AcDbEntity
  8
0
100
AcDbLine
 10
712.530154
 20
162.241262
 30
0.0
 11
658.530154
 21
162.241262
 31
0.0
  0
LINE
  5
3016
100
AcDbEntity
  8
0
100
AcDbLine
 10
658.530154
 20
162.241262
 30
0.0
 11
712.530154
 21
162.241262
 31
0.0
  0
LINE
  5
3017
100
AcDbEntity
  8
0
100
AcDbLine
 10
659.530154
 20
156.241262
 30
0.0
 11
711.530154
 21
156.241262
 31
0.0
  0
LINE
  5
3018
100
AcDbEntity
  8
0
100
AcDbLine
 10
658.530154
 20
162.241262
 30
0.0
 11
712.530154
 21
162.241262
 31
0.0
  0
LINE
  5
3019
100
AcDbEntity
  8
0
100
AcDbLine
 10
711.250154
 20
182.241262
 30
0.0
 11
705.530154
 21
176.521262
 31
0.0
  0
CIRCLE
  5
301A
100
AcDbEntity
  8
0
100
AcDbCircle
 10
705.530154
 20
182.241262
 30
0.0
 40
6.57848
  0
CIRCLE
  5
301B
100
AcDbEntity
  8
0
100
AcDbCircle
 10
705.530154
 20
182.241262
 30
0.0
 40
5.7225
  0
LINE
  5
301C
100
AcDbEntity
  8
0
100
AcDbLine
 10
705.530154
 20
187.961262
 30
0.0
 11
711.250154
 21
182.241262
 31
0.0
  0
LINE
  5
301D
100
AcDbEntity
  8
0
100
AcDbLine
 10
709.350154
 20
224.421262
 30
0.0
 11
710.530154
 21
224.241262
 31
0.0
  0
LINE
  5
301E
100
AcDbEntity
  8
0
100
AcDbLine
 10
711.870154
 20
222.041262
 30
0.0
 11
700.850154
 21
212.921262
 31
0.0
  0
ARC
  5
301F
100
AcDbEntity
  8
0
100
AcDbCircle
 10
700.547126
 20
191.275206
 30
0.0
 40
14.966066
100
AcDbArc
 50
36.804923
 51
90.064975
  0
LINE
  5
3020
100
AcDbEntity
  8
0
100
AcDbLine
 10
653.530154
 20
176.241262
 30
0.0
 11
656.770154
 21
191.801262
 31
0.0
  0
LINE
  5
3021
100
AcDbEntity
  8
0
100
AcDbLine
 10
658.530154
 20
174.901517
 30
0.0
 11
658.530154
 21
162.241262
 31
0.0
  0
LINE
  5
3022
100
AcDbEntity
  8
0
100
AcDbLine
 10
659.530154
 20
156.241262
 30
0.0
 11
658.530154
 21
157.241262
 31
0.0
  0
LINE
  5
3023
100
AcDbEntity
  8
0
100
AcDbLine
 10
658.530154
 20
162.241262
 30
0.0
 11
658.530154
 21
157.241262
 31
0.0
  0
LINE
  5
3024
100
AcDbEntity
  8
0
100
AcDbLine
 10
657.756651
 20
176.241262
 30
0.0
 11
658.530154
 21
174.901517
 31
0.0
  0
LINE
  5
3025
100
AcDbEntity
  8
0
100
AcDbLine
 10
705.530154
 20
176.521262
 30
0.0
 11
699.810154
 21
182.241262
 31
0.0
  0
LINE
  5
3026
100
AcDbEntity
  8
0
100
AcDbLine
 10
699.810154
 20
182.241262
 30
0.0
 11
705.530154
 21
187.961262
 31
0.0
  0
LINE
  5
3027
100
AcDbEntity
  8
0
100
AcDbLine
 10
670.530154
 20
206.241262
 30
0.0
 11
700.530154
 21
206.241262
 31
0.0
  0
ARC
  5
3028
100
AcDbEntity
  8
0
100
AcDbCircle
 10
670.513182
 20
191.275206
 30
0.0
 40
14.966066
100
AcDbArc
 50
89.935025
 51
143.195077
  0
ARC
  5
3029
100
AcDbEntity
  8
0
100
AcDbCircle
 10
657.530154
 20
200.241262
 30
0.0
 40
2.0
100
AcDbArc
 50
270.0
 51
90.0
  0
ARC
  5
302A
100
AcDbEntity
  8
0
100
AcDbCircle
 10
660.484112
 20
228.277241
 30
0.0
 40
4.046202
100
AcDbArc
 50
287.638517
 51
359.490521
  0
LINE
  5
302B
100
AcDbEntity
  8
0
100
AcDbLine
 10
659.190154
 20
222.041262
 30
0.0
 11
670.210154
 21
212.921262
 31
0.0
  0
LINE
  5
302C
100
AcDbEntity
  8
0
100
AcDbLine
 10
661.710154
 20
224.421262
 30
0.0
 11
660.530154
 21
224.241262
 31
0.0
  0
ARC
  5
302D
100
AcDbEntity
  8
0
100
AcDbCircle
 10
652.500108
 20
228.271309
 30
0.0
 40
4.030158
100
AcDbArc
 50
270.427165
 51
359.572835
  0
ARC
  5
302E
100
AcDbEntity
  8
0
100
AcDbCircle
 10
710.576196
 20
228.277241
 30
0.0
 40
4.046202
100
AcDbArc
 50
180.509479
 51
252.361483
  0
LINE
  5
302F
100
AcDbEntity
  8
0
100
AcDbLine
 10
735.530154
 20
200.241262
 30
0.0
 11
735.530154
 21
177.741262
 31
0.0
  0
LINE
  5
3030
100
AcDbEntity
  8
0
100
AcDbLine
 10
734.030154
 20
224.241262
 30
0.0
 11
734.030154
 21
176.241262
 31
0.0
  0
LINE
  5
3031
100
AcDbEntity
  8
0
100
AcDbLine
 10
717.530154
 20
176.241262
 30
0.0
 11
714.290154
 21
191.801262
 31
0.0
  0
LINE
  5
3032
100
AcDbEntity
  8
0
100
AcDbLine
 10
712.530154
 20
174.901517
 30
0.0
 11
712.530154
 21
162.241262
 31
0.0
  0
LINE
  5
3033
100
AcDbEntity
  8
0
100
AcDbLine
 10
711.530154
 20
156.241262
 30
0.0
 11
712.530154
 21
157.241262
 31
0.0
  0
LINE
  5
3034
100
AcDbEntity
  8
0
100
AcDbLine
 10
712.530154
 20
162.241262
 30
0.0
 11
712.530154
 21
157.241262
 31
0.0
  0
LINE
  5
3035
100
AcDbEntity
  8
0
100
AcDbLine
 10
734.030154
 20
176.241262
 30
0.0
 11
713.303657
 21
176.241262
 31
0.0
  0
LINE
  5
3036
100
AcDbEntity
  8
0
100
AcDbLine
 10
713.303657
 20
176.241262
 30
0.0
 11
712.530154
 21
174.901517
 31
0.0
  0
LINE
  5
3037
100
AcDbEntity
  8
0
100
AcDbLine
 10
735.530154
 20
177.741262
 30
0.0
 11
734.030154
 21
176.241262
 31
0.0
  0
LINE
  5
3038
100
AcDbEntity
  8
0
100
AcDbLine
 10
735.530154
 20
200.241262
 30
0.0
 11
735.530154
 21
222.741262
 31
0.0
  0
LINE
  5
3039
100
AcDbEntity
  8
0
100
AcDbLine
 10
713.530154
 20
198.241262
 30
0.0
 11
726.530154
 21
198.241262
 31
0.0
  0
LINE
  5
303A
100
AcDbEntity
  8
0
100
AcDbLine
 10
713.530154
 20
202.241262
 30
0.0
 11
726.530154
 21
202.241262
 31
0.0
  0
ARC
  5
303B
100
AcDbEntity
  8
0
100
AcDbCircle
 10
713.530154
 20
200.241262
 30
0.0
 40
2.0
100
AcDbArc
 50
90.0
 51
270.0
  0
ARC
  5
303C
100
AcDbEntity
  8
0
100
AcDbCircle
 10
726.530154
 20
200.241262
 30
0.0
 40
2.0
100
AcDbArc
 50
270.0
 51
90.0
  0
LINE
  5
303D
100
AcDbEntity
  8
0
100
AcDbLine
 10
718.530154
 20
224.241262
 30
0.0
 11
734.030154
 21
224.241262
 31
0.0
  0
ARC
  5
303E
100
AcDbEntity
  8
0
100
AcDbCircle
 10
718.524792
 20
228.235901
 30
0.0
 40
3.994642
100
AcDbArc
 50
179.9231
 51
270.0769
  0
LINE
  5
303F
100
AcDbEntity
  8
0
100
AcDbLine
 10
734.030154
 20
224.241262
 30
0.0
 11
735.530154
 21
222.741262
 31
0.0
  0
LINE
  5
3040
100
AcDbEntity
  8
0
100
AcDbLine
 10
721.530154
 20
309.041262
 30
0.0
 11
649.530154
 21
309.041262
 31
0.0
  0
LINE
  5
3041
100
AcDbEntity
  8
0
100
AcDbLine
 10
720.030154
 20
298.041262
 30
0.0
 11
651.030154
 21
298.041262
 31
0.0
  0
LINE
  5
3042
100
AcDbEntity
  8
0
100
AcDbLine
 10
651.030154
 20
271.241262
 30
0.0
 11
720.140154
 21
271.231262
 31
0.0
  0
LINE
  5
3043
100
AcDbEntity
  8
0
100
AcDbLine
 10
721.530154
 20
260.241262
 30
0.0
 11
649.530154
 21
260.241262
 31
0.0
  0
LINE
  5
3044
100
AcDbEntity
  8
0
100
AcDbLine
 10
655.030154
 20
249.241262
 30
0.0
 11
716.030154
 21
249.241262
 31
0.0
  0
LINE
  5
3045
100
AcDbEntity
  8
0
100
AcDbLine
 10
713.790154
 20
295.041262
 30
0.0
 11
708.190154
 21
295.041262
 31
0.0
  0
LINE
  5
3046
100
AcDbEntity
  8
0
100
AcDbLine
 10
709.420154
 20
294.511262
 30
0.0
 11
710.100154
 21
290.671262
 31
0.0
  0
LINE
  5
3047
100
AcDbEntity
  8
0
100
AcDbLine
 10
704.680154
 20
277.741262
 30
0.0
 11
710.980154
 21
277.741262
 31
0.0
  0
ARC
  5
3048
100
AcDbEntity
  8
0
100
AcDbCircle
 10
710.980154
 20
273.474596
 30
0.0
 40
7.266667
100
AcDbArc
 50
56.601512
 51
123.398488
  0
LINE
  5
3049
100
AcDbEntity
  8
0
100
AcDbLine
 10
706.980154
 20
279.541262
 30
0.0
 11
714.980154
 21
279.541262
 31
0.0
  0
LINE
  5
304A
100
AcDbEntity
  8
0
100
AcDbLine
 10
714.990154
 20
296.241262
 30
0.0
 11
706.990154
 21
296.241262
 31
0.0
  0
LINE
  5
304B
100
AcDbEntity
  8
0
100
AcDbLine
 10
713.790154
 20
245.741262
 30
0.0
 11
708.190154
 21
245.741262
 31
0.0
  0
LINE
  5
304C
100
AcDbEntity
  8
0
100
AcDbLine
 10
714.990154
 20
246.941262
 30
0.0
 11
706.990154
 21
246.941262
 31
0.0
  0
ARC
  5
304D
100
AcDbEntity
  8
0
100
AcDbCircle
 10
710.985154
 20
263.079225
 30
0.0
 40
14.467822
100
AcDbArc
 50
74.957143
 51
105.042857
  0
LINE
  5
304E
100
AcDbEntity
  8
0
100
AcDbLine
 10
664.070154
 20
246.941262
 30
0.0
 11
664.070154
 21
249.241262
 31
0.0
  0
LINE
  5
304F
100
AcDbEntity
  8
0
100
AcDbLine
 10
662.870154
 20
245.741262
 30
0.0
 11
664.070154
 21
246.941262
 31
0.0
  0
ARC
  5
3050
100
AcDbEntity
  8
0
100
AcDbCircle
 10
655.046154
 20
247.783262
 30
0.0
 40
1.458088
100
AcDbArc
 50
45.389005
 51
90.628735
  0
LINE
  5
3051
100
AcDbEntity
  8
0
100
AcDbLine
 10
656.070154
 20
246.941262
 30
0.0
 11
657.270154
 21
245.741262
 31
0.0
  0
LINE
  5
3052
100
AcDbEntity
  8
0
100
AcDbLine
 10
656.070154
 20
249.241262
 30
0.0
 11
656.070154
 21
246.941262
 31
0.0
  0
LINE
  5
3053
100
AcDbEntity
  8
0
100
AcDbLine
 10
657.270154
 20
245.741262
 30
0.0
 11
662.870154
 21
245.741262
 31
0.0
  0
LINE
  5
3054
100
AcDbEntity
  8
0
100
AcDbLine
 10
656.070154
 20
246.941262
 30
0.0
 11
664.070154
 21
246.941262
 31
0.0
  0
LINE
  5
3055
100
AcDbEntity
  8
0
100
AcDbLine
 10
651.030154
 20
249.241262
 30
0.0
 11
655.030154
 21
249.241262
 31
0.0
  0
LINE
  5
3056
100
AcDbEntity
  8
0
100
AcDbLine
 10
649.530154
 20
269.741262
 30
0.0
 11
649.550154
 21
250.521262
 31
0.0
  0
LINE
  5
3057
100
AcDbEntity
  8
0
100
AcDbLine
 10
706.990154
 20
246.941262
 30
0.0
 11
706.990154
 21
249.241262
 31
0.0
  0
LINE
  5
3058
100
AcDbEntity
  8
0
100
AcDbLine
 10
708.190154
 20
245.741262
 30
0.0
 11
706.990154
 21
246.941262
 31
0.0
  0
LINE
  5
3059
100
AcDbEntity
  8
0
100
AcDbLine
 10
670.970154
 20
294.211262
 30
0.0
 11
693.520154
 21
294.211262
 31
0.0
  0
LINE
  5
305A
100
AcDbEntity
  8
0
100
AcDbLine
 10
667.530154
 20
287.241262
 30
0.0
 11
667.530154
 21
294.211262
 31
0.0
  0
LINE
  5
305B
100
AcDbEntity
  8
0
100
AcDbLine
 10
660.070154
 20
277.741262
 30
0.0
 11
666.380154
 21
277.741262
 31
0.0
  0
ARC
  5
305C
100
AcDbEntity
  8
0
100
AcDbCircle
 10
665.710154
 20
272.907275
 30
0.0
 40
4.550498
100
AcDbArc
 50
65.597663
 51
114.402337
  0
LINE
  5
305D
100
AcDbEntity
  8
0
100
AcDbLine
 10
664.070154
 20
279.541262
 30
0.0
 11
664.070154
 21
277.741262
 31
0.0
  0
LINE
  5
305E
100
AcDbEntity
  8
0
100
AcDbLine
 10
653.770154
 20
277.741262
 30
0.0
 11
660.070154
 21
277.741262
 31
0.0
  0
LINE
  5
305F
100
AcDbEntity
  8
0
100
AcDbLine
 10
656.070154
 20
277.741262
 30
0.0
 11
656.070154
 21
279.541262
 31
0.0
  0
LINE
  5
3060
100
AcDbEntity
  8
0
100
AcDbLine
 10
656.070154
 20
279.541262
 30
0.0
 11
664.070154
 21
279.541262
 31
0.0
  0
ARC
  5
3061
100
AcDbEntity
  8
0
100
AcDbCircle
 10
660.070154
 20
273.474596
 30
0.0
 40
7.266667
100
AcDbArc
 50
56.601512
 51
123.398488
  0
LINE
  5
3062
100
AcDbEntity
  8
0
100
AcDbLine
 10
663.830154
 20
271.241262
 30
0.0
 11
663.830154
 21
277.051262
 31
0.0
  0
LINE
  5
3063
100
AcDbEntity
  8
0
100
AcDbLine
 10
656.320154
 20
271.241262
 30
0.0
 11
656.320154
 21
277.051262
 31
0.0
  0
LINE
  5
3064
100
AcDbEntity
  8
0
100
AcDbLine
 10
652.570154
 20
271.241262
 30
0.0
 11
652.570154
 21
277.051262
 31
0.0
  0
ARC
  5
3065
100
AcDbEntity
  8
0
100
AcDbCircle
 10
660.075154
 20
263.079225
 30
0.0
 40
14.467822
100
AcDbArc
 50
74.957143
 51
105.042857
  0
LINE
  5
3066
100
AcDbEntity
  8
0
100
AcDbLine
 10
652.570154
 20
277.051262
 30
0.0
 11
653.770154
 21
277.741262
 31
0.0
  0
ARC
  5
3067
100
AcDbEntity
  8
0
100
AcDbCircle
 10
654.440154
 20
272.907275
 30
0.0
 40
4.550498
100
AcDbArc
 50
65.597663
 51
114.402337
  0
ARC
  5
3068
100
AcDbEntity
  8
0
100
AcDbCircle
 10
665.531736
 20
287.23968
 30
0.0
 40
1.998418
100
AcDbArc
 50
269.954635
 51
0.045365
  0
LINE
  5
3069
100
AcDbEntity
  8
0
100
AcDbLine
 10
667.590154
 20
277.051262
 30
0.0
 11
667.580154
 21
277.051262
 31
0.0
  0
LINE
  5
306A
100
AcDbEntity
  8
0
100
AcDbLine
 10
667.580154
 20
277.051262
 30
0.0
 11
667.580154
 21
271.241262
 31
0.0
  0
LINE
  5
306B
100
AcDbEntity
  8
0
100
AcDbLine
 10
666.380154
 20
277.741262
 30
0.0
 11
667.580154
 21
277.051262
 31
0.0
  0
ARC
  5
306C
100
AcDbEntity
  8
0
100
AcDbCircle
 10
660.228211
 20
287.832122
 30
0.0
 40
10.261093
100
AcDbArc
 50
48.030565
 51
66.071004
  0
LINE
  5
306D
100
AcDbEntity
  8
0
100
AcDbLine
 10
664.390154
 20
298.041262
 30
0.0
 11
664.390154
 21
296.241262
 31
0.0
  0
LINE
  5
306E
100
AcDbEntity
  8
0
100
AcDbLine
 10
656.390154
 20
296.241262
 30
0.0
 11
656.390154
 21
298.041262
 31
0.0
  0
LINE
  5
306F
100
AcDbEntity
  8
0
100
AcDbLine
 10
664.390154
 20
296.241262
 30
0.0
 11
656.390154
 21
296.241262
 31
0.0
  0
LINE
  5
3070
100
AcDbEntity
  8
0
100
AcDbLine
 10
663.190154
 20
295.041262
 30
0.0
 11
657.590154
 21
295.041262
 31
0.0
  0
LINE
  5
3071
100
AcDbEntity
  8
0
100
AcDbLine
 10
657.590154
 20
295.041262
 30
0.0
 11
656.390154
 21
296.241262
 31
0.0
  0
LINE
  5
3072
100
AcDbEntity
  8
0
100
AcDbLine
 10
664.390154
 20
296.241262
 30
0.0
 11
663.190154
 21
295.041262
 31
0.0
  0
LINE
  5
3073
100
AcDbEntity
  8
0
100
AcDbLine
 10
649.530154
 20
299.541262
 30
0.0
 11
649.530154
 21
309.041262
 31
0.0
  0
ARC
  5
3074
100
AcDbEntity
  8
0
100
AcDbCircle
 10
665.581665
 20
294.227834
 30
0.0
 40
1.94856
100
AcDbArc
 50
359.512714
 51
39.271423
  0
LINE
  5
3075
100
AcDbEntity
  8
0
100
AcDbLine
 10
705.090154
 20
296.401262
 30
0.0
 11
707.790154
 21
281.111262
 31
0.0
  0
LINE
  5
3076
100
AcDbEntity
  8
0
100
AcDbLine
 10
706.980154
 20
277.741262
 30
0.0
 11
706.980154
 21
279.541262
 31
0.0
  0
LINE
  5
3077
100
AcDbEntity
  8
0
100
AcDbLine
 10
707.230154
 20
271.241262
 30
0.0
 11
707.230154
 21
277.051262
 31
0.0
  0
LINE
  5
3078
100
AcDbEntity
  8
0
100
AcDbLine
 10
703.470154
 20
277.051262
 30
0.0
 11
703.470154
 21
271.241262
 31
0.0
  0
ARC
  5
3079
100
AcDbEntity
  8
0
100
AcDbCircle
 10
705.350154
 20
272.907275
 30
0.0
 40
4.550498
100
AcDbArc
 50
65.597663
 51
114.402337
  0
LINE
  5
307A
100
AcDbEntity
  8
0
100
AcDbLine
 10
703.470154
 20
277.051262
 30
0.0
 11
704.670154
 21
277.741262
 31
0.0
  0
LINE
  5
307B
100
AcDbEntity
  8
0
100
AcDbLine
 10
706.990154
 20
296.241262
 30
0.0
 11
706.990154
 21
298.041262
 31
0.0
  0
LINE
  5
307C
100
AcDbEntity
  8
0
100
AcDbLine
 10
708.190154
 20
295.041262
 30
0.0
 11
706.990154
 21
296.241262
 31
0.0
  0
ARC
  5
307D
100
AcDbEntity
  8
0
100
AcDbCircle
 10
720.026171
 20
269.737279
 30
0.0
 40
1.503988
100
AcDbArc
 50
0.151738
 51
89.848262
  0
ARC
  5
307E
100
AcDbEntity
  8
0
100
AcDbCircle
 10
720.026171
 20
250.745246
 30
0.0
 40
1.503988
100
AcDbArc
 50
270.151738
 51
359.848262
  0
LINE
  5
307F
100
AcDbEntity
  8
0
100
AcDbLine
 10
716.030154
 20
249.241262
 30
0.0
 11
720.030154
 21
249.241262
 31
0.0
  0
LINE
  5
3080
100
AcDbEntity
  8
0
100
AcDbLine
 10
714.990154
 20
249.241262
 30
0.0
 11
714.990154
 21
246.941262
 31
0.0
  0
ARC
  5
3081
100
AcDbEntity
  8
0
100
AcDbCircle
 10
716.014154
 20
247.783262
 30
0.0
 40
1.458088
100
AcDbArc
 50
89.371265
 51
134.610995
  0
LINE
  5
3082
100
AcDbEntity
  8
0
100
AcDbLine
 10
714.990154
 20
246.941262
 30
0.0
 11
713.790154
 21
245.741262
 31
0.0
  0
LINE
  5
3083
100
AcDbEntity
  8
0
100
AcDbLine
 10
721.530154
 20
269.741262
 30
0.0
 11
721.530154
 21
250.741262
 31
0.0
  0
LINE
  5
3084
100
AcDbEntity
  8
0
100
AcDbLine
 10
726.530154
 20
306.241262
 30
0.0
 11
726.530154
 21
290.241262
 31
0.0
  0
ARC
  5
3085
100
AcDbEntity
  8
0
100
AcDbCircle
 10
724.530154
 20
290.241262
 30
0.0
 40
2.0
100
AcDbArc
 50
270.0
 51
0.0
  0
LINE
  5
3086
100
AcDbEntity
  8
0
100
AcDbLine
 10
724.530154
 20
288.241262
 30
0.0
 11
715.300154
 21
288.241262
 31
0.0
  0
LINE
  5
3087
100
AcDbEntity
  8
0
100
AcDbLine
 10
714.980154
 20
279.541262
 30
0.0
 11
714.980154
 21
277.741262
 31
0.0
  0
LINE
  5
3088
100
AcDbEntity
  8
0
100
AcDbLine
 10
711.360154
 20
283.541262
 30
0.0
 11
711.860154
 21
280.691262
 31
0.0
  0
ARC
  5
3089
100
AcDbEntity
  8
0
100
AcDbCircle
 10
715.332033
 20
284.213091
 30
0.0
 40
4.028297
100
AcDbArc
 50
90.453437
 51
189.600499
  0
LINE
  5
308A
100
AcDbEntity
  8
0
100
AcDbLine
 10
710.980154
 20
277.741262
 30
0.0
 11
717.290154
 21
277.741262
 31
0.0
  0
LINE
  5
308B
100
AcDbEntity
  8
0
100
AcDbLine
 10
718.500154
 20
277.051262
 30
0.0
 11
718.490154
 21
277.051262
 31
0.0
  0
LINE
  5
308C
100
AcDbEntity
  8
0
100
AcDbLine
 10
718.490154
 20
277.051262
 30
0.0
 11
718.490154
 21
271.241262
 31
0.0
  0
LINE
  5
308D
100
AcDbEntity
  8
0
100
AcDbLine
 10
714.740154
 20
271.241262
 30
0.0
 11
714.740154
 21
277.051262
 31
0.0
  0
LINE
  5
308E
100
AcDbEntity
  8
0
100
AcDbLine
 10
717.290154
 20
277.741262
 30
0.0
 11
718.490154
 21
277.051262
 31
0.0
  0
ARC
  5
308F
100
AcDbEntity
  8
0
100
AcDbCircle
 10
716.620154
 20
272.907275
 30
0.0
 40
4.550498
100
AcDbArc
 50
65.597663
 51
114.402337
  0
ARC
  5
3090
100
AcDbEntity
  8
0
100
AcDbCircle
 10
724.531736
 20
306.242845
 30
0.0
 40
1.998418
100
AcDbArc
 50
359.954635
 51
90.045365
  0
LINE
  5
3091
100
AcDbEntity
  8
0
100
AcDbLine
 10
723.130154
 20
308.241262
 30
0.0
 11
724.530154
 21
308.241262
 31
0.0
  0
ARC
  5
3092
100
AcDbEntity
  8
0
100
AcDbCircle
 10
723.135866
 20
310.252686
 30
0.0
 40
2.011432
100
AcDbArc
 50
217.032602
 51
269.837296
  0
LINE
  5
3093
100
AcDbEntity
  8
0
100
AcDbLine
 10
714.990154
 20
298.041262
 30
0.0
 11
714.990154
 21
296.241262
 31
0.0
  0
ARC
  5
3094
100
AcDbEntity
  8
0
100
AcDbCircle
 10
720.027896
 20
299.543521
 30
0.0
 40
1.50226
100
AcDbArc
 50
270.086122
 51
359.913878
  0
LINE
  5
3095
100
AcDbEntity
  8
0
100
AcDbLine
 10
721.530154
 20
309.041262
 30
0.0
 11
721.530154
 21
299.541262
 31
0.0
  0
LINE
  5
3096
100
AcDbEntity
  8
0
100
AcDbLine
 10
714.990154
 20
296.241262
 30
0.0
 11
713.790154
 21
295.041262
 31
0.0
  0
LINE
  5
3097
100
AcDbEntity
  8
0
100
AcDbLine
 10
726.530154
 20
304.751262
 30
0.0
 11
729.420154
 21
304.841262
 31
0.0
  0
LINE
  5
3098
100
AcDbEntity
  8
0
100
AcDbLine
 10
729.420154
 20
298.241262
 30
0.0
 11
736.450154
 21
298.241262
 31
0.0
  0
LINE
  5
3099
100
AcDbEntity
  8
0
100
AcDbLine
 10
736.450154
 20
304.171262
 30
0.0
 11
729.420154
 21
304.171262
 31
0.0
  0
LINE
  5
309A
100
AcDbEntity
  8
0
100
AcDbLine
 10
729.420154
 20
291.641262
 30
0.0
 11
726.530154
 21
291.731262
 31
0.0
  0
LINE
  5
309B
100
AcDbEntity
  8
0
100
AcDbLine
 10
729.420154
 20
292.311262
 30
0.0
 11
736.450154
 21
292.311262
 31
0.0
  0
LINE
  5
309C
100
AcDbEntity
  8
0
100
AcDbLine
 10
729.420154
 20
304.841262
 30
0.0
 11
729.420154
 21
291.641262
 31
0.0
  0
LINE
  5
309D
100
AcDbEntity
  8
0
100
AcDbLine
 10
736.450154
 20
292.311262
 30
0.0
 11
736.450154
 21
304.171262
 31
0.0
  0
LINE
  5
309E
100
AcDbEntity
  8
0
100
AcDbLine
 10
885.074998
 20
249.241262
 30
0.0
 11
885.074998
 21
223.479163
 31
0.0
  0
LINE
  5
309F
100
AcDbEntity
  8
0
100
AcDbLine
 10
869.074998
 20
246.401262
 30
0.0
 11
869.074998
 21
209.832926
 31
0.0
  0
ARC
  5
30A0
100
AcDbEntity
  8
0
100
AcDbCircle
 10
857.574998
 20
187.319742
 30
0.0
 40
1.5
100
AcDbArc
 50
90.0
 51
180.0
  0
LINE
  5
30A1
100
AcDbEntity
  8
0
100
AcDbLine
 10
857.574998
 20
175.662782
 30
0.0
 11
884.321304
 21
175.662782
 31
0.0
  0
LINE
  5
30A2
100
AcDbEntity
  8
0
100
AcDbLine
 10
856.074998
 20
187.319742
 30
0.0
 11
856.074998
 21
177.162782
 31
0.0
  0
ARC
  5
30A3
100
AcDbEntity
  8
0
100
AcDbCircle
 10
857.574998
 20
177.162782
 30
0.0
 40
1.5
100
AcDbArc
 50
180.0
 51
270.0
  0
LINE
  5
30A4
100
AcDbEntity
  8
0
100
AcDbLine
 10
848.743141
 20
182.241262
 30
0.0
 11
853.243141
 21
182.241262
 31
0.0
  0
LINE
  5
30A5
100
AcDbEntity
  8
0
100
AcDbLine
 10
853.243141
 20
176.521262
 30
0.0
 11
853.243141
 21
187.961262
 31
0.0
  0
LINE
  5
30A6
100
AcDbEntity
  8
0
100
AcDbLine
 10
848.743141
 20
187.961262
 30
0.0
 11
856.074998
 21
187.961262
 31
0.0
  0
LINE
  5
30A7
100
AcDbEntity
  8
0
100
AcDbLine
 10
848.743141
 20
176.521262
 30
0.0
 11
856.074998
 21
176.521262
 31
0.0
  0
LINE
  5
30A8
100
AcDbEntity
  8
0
100
AcDbLine
 10
848.743141
 20
187.961262
 30
0.0
 11
848.743141
 21
176.521262
 31
0.0
  0
LINE
  5
30A9
100
AcDbEntity
  8
0
100
AcDbLine
 10
864.074998
 20
169.57168
 30
0.0
 11
864.074998
 21
162.241262
 31
0.0
  0
LINE
  5
30AA
100
AcDbEntity
  8
0
100
AcDbLine
 10
865.074998
 20
156.241262
 30
0.0
 11
864.074998
 21
157.241262
 31
0.0
  0
LINE
  5
30AB
100
AcDbEntity
  8
0
100
AcDbLine
 10
864.074998
 20
162.241262
 30
0.0
 11
864.074998
 21
157.241262
 31
0.0
  0
ARC
  5
30AC
100
AcDbEntity
  8
0
100
AcDbCircle
 10
854.074998
 20
169.57168
 30
0.0
 40
10.0
100
AcDbArc
 50
0.0
 51
37.525198
  0
ARC
  5
30AD
100
AcDbEntity
  8
0
100
AcDbCircle
 10
884.321304
 20
174.162782
 30
0.0
 40
1.5
100
AcDbArc
 50
0.0
 51
90.0
  0
LINE
  5
30AE
100
AcDbEntity
  8
0
100
AcDbLine
 10
857.574998
 20
188.819742
 30
0.0
 11
869.966969
 21
188.819742
 31
0.0
  0
ARC
  5
30AF
100
AcDbEntity
  8
0
100
AcDbCircle
 10
867.074998
 20
200.241262
 30
0.0
 40
2.0
100
AcDbArc
 50
87.611985
 51
272.388015
  0
ARC
  5
30B0
100
AcDbEntity
  8
0
100
AcDbCircle
 10
877.520127
 20
191.241262
 30
0.0
 40
15.0
100
AcDbArc
 50
145.591075
 51
168.237593
  0
LINE
  5
30B1
100
AcDbEntity
  8
0
100
AcDbLine
 10
861.694167
 20
188.819742
 30
0.0
 11
862.835106
 21
194.299069
 31
0.0
  0
ARC
  5
30B2
100
AcDbEntity
  8
0
100
AcDbCircle
 10
856.578981
 20
269.737279
 30
0.0
 40
1.503988
100
AcDbArc
 50
90.151738
 51
179.848262
  0
ARC
  5
30B3
100
AcDbEntity
  8
0
100
AcDbCircle
 10
856.578981
 20
250.745246
 30
0.0
 40
1.503988
100
AcDbArc
 50
189.360601
 51
269.848262
  0
LINE
  5
30B4
100
AcDbEntity
  8
0
100
AcDbLine
 10
855.074998
 20
269.741262
 30
0.0
 11
855.095019
 21
250.500626
 31
0.0
  0
LINE
  5
30B5
100
AcDbEntity
  8
0
100
AcDbLine
 10
868.414998
 20
245.741262
 30
0.0
 11
869.614998
 21
246.941262
 31
0.0
  0
LINE
  5
30B6
100
AcDbEntity
  8
0
100
AcDbLine
 10
869.614998
 20
246.941262
 30
0.0
 11
869.614998
 21
249.241262
 31
0.0
  0
LINE
  5
30B7
100
AcDbEntity
  8
0
100
AcDbLine
 10
861.614998
 20
249.241262
 30
0.0
 11
861.614998
 21
246.941262
 31
0.0
  0
LINE
  5
30B8
100
AcDbEntity
  8
0
100
AcDbLine
 10
861.614998
 20
246.941262
 30
0.0
 11
862.814998
 21
245.741262
 31
0.0
  0
LINE
  5
30B9
100
AcDbEntity
  8
0
100
AcDbLine
 10
861.614998
 20
246.941262
 30
0.0
 11
869.614998
 21
246.941262
 31
0.0
  0
LINE
  5
30BA
100
AcDbEntity
  8
0
100
AcDbLine
 10
862.814998
 20
245.741262
 30
0.0
 11
868.414998
 21
245.741262
 31
0.0
  0
ARC
  5
30BB
100
AcDbEntity
  8
0
100
AcDbCircle
 10
862.370237
 20
266.648403
 30
0.0
 40
10.898643
100
AcDbArc
 50
72.651661
 51
107.348339
  0
LINE
  5
30BC
100
AcDbEntity
  8
0
100
AcDbLine
 10
859.314998
 20
277.741262
 30
0.0
 11
865.614998
 21
277.741262
 31
0.0
  0
LINE
  5
30BD
100
AcDbEntity
  8
0
100
AcDbLine
 10
881.076998
 20
298.041262
 30
0.0
 11
856.574998
 21
298.041262
 31
0.0
  0
LINE
  5
30BE
100
AcDbEntity
  8
0
100
AcDbLine
 10
859.120477
 20
277.051262
 30
0.0
 11
859.314998
 21
277.741262
 31
0.0
  0
LINE
  5
30BF
100
AcDbEntity
  8
0
100
AcDbLine
 10
859.120477
 20
271.241262
 30
0.0
 11
859.120477
 21
277.051262
 31
0.0
  0
ARC
  5
30C0
100
AcDbEntity
  8
0
100
AcDbCircle
 10
856.590845
 20
299.55711
 30
0.0
 40
1.51593
100
AcDbArc
 50
180.598965
 51
269.401035
  0
LINE
  5
30C1
100
AcDbEntity
  8
0
100
AcDbLine
 10
855.074998
 20
299.541262
 30
0.0
 11
855.074998
 21
309.041262
 31
0.0
  0
LINE
  5
30C2
100
AcDbEntity
  8
0
100
AcDbLine
 10
873.074998
 20
273.239164
 30
0.0
 11
873.074998
 21
294.211262
 31
0.0
  0
LINE
  5
30C3
100
AcDbEntity
  8
0
100
AcDbLine
 10
869.614998
 20
279.541262
 30
0.0
 11
869.614998
 21
277.741262
 31
0.0
  0
LINE
  5
30C4
100
AcDbEntity
  8
0
100
AcDbLine
 10
861.614998
 20
277.741262
 30
0.0
 11
861.614998
 21
279.541262
 31
0.0
  0
ARC
  5
30C5
100
AcDbEntity
  8
0
100
AcDbCircle
 10
865.614998
 20
273.474596
 30
0.0
 40
7.266667
100
AcDbArc
 50
56.601512
 51
123.398488
  0
LINE
  5
30C6
100
AcDbEntity
  8
0
100
AcDbLine
 10
861.614998
 20
279.541262
 30
0.0
 11
869.614998
 21
279.541262
 31
0.0
  0
ARC
  5
30C7
100
AcDbEntity
  8
0
100
AcDbCircle
 10
868.869758
 20
266.648403
 30
0.0
 40
10.898643
100
AcDbArc
 50
72.651661
 51
107.348339
  0
LINE
  5
30C8
100
AcDbEntity
  8
0
100
AcDbLine
 10
871.924998
 20
277.741262
 30
0.0
 11
872.119518
 21
277.051262
 31
0.0
  0
LINE
  5
30C9
100
AcDbEntity
  8
0
100
AcDbLine
 10
865.619998
 20
271.241262
 30
0.0
 11
865.619998
 21
277.051262
 31
0.0
  0
LINE
  5
30CA
100
AcDbEntity
  8
0
100
AcDbLine
 10
872.119518
 20
277.051262
 30
0.0
 11
872.119518
 21
271.241262
 31
0.0
  0
LINE
  5
30CB
100
AcDbEntity
  8
0
100
AcDbLine
 10
865.614998
 20
277.741262
 30
0.0
 11
871.924998
 21
277.741262
 31
0.0
  0
ARC
  5
30CC
100
AcDbEntity
  8
0
100
AcDbCircle
 10
871.074998
 20
273.239164
 30
0.0
 40
2.0
100
AcDbArc
 50
301.483992
 51
0.0
  0
LINE
  5
30CD
100
AcDbEntity
  8
0
100
AcDbLine
 10
885.074998
 20
290.241262
 30
0.0
 11
885.074998
 21
271.237139
 31
0.0
  0
LINE
  5
30CE
100
AcDbEntity
  8
0
100
AcDbLine
 10
869.608517
 20
298.041262
 30
0.0
 11
869.608517
 21
296.241262
 31
0.0
  0
ARC
  5
30CF
100
AcDbEntity
  8
0
100
AcDbCircle
 10
871.126508
 20
294.227834
 30
0.0
 40
1.94856
100
AcDbArc
 50
359.512714
 51
39.271423
  0
LINE
  5
30D0
100
AcDbEntity
  8
0
100
AcDbLine
 10
868.408517
 20
295.041262
 30
0.0
 11
862.808517
 21
295.041262
 31
0.0
  0
ARC
  5
30D1
100
AcDbEntity
  8
0
100
AcDbCircle
 10
865.773055
 20
287.832122
 30
0.0
 40
10.261093
100
AcDbArc
 50
48.030565
 51
68.050647
  0
LINE
  5
30D2
100
AcDbEntity
  8
0
100
AcDbLine
 10
869.608517
 20
296.241262
 30
0.0
 11
868.408517
 21
295.041262
 31
0.0
  0
LINE
  5
30D3
100
AcDbEntity
  8
0
100
AcDbLine
 10
861.608517
 20
296.241262
 30
0.0
 11
861.608517
 21
298.041262
 31
0.0
  0
LINE
  5
30D4
100
AcDbEntity
  8
0
100
AcDbLine
 10
862.808517
 20
295.041262
 30
0.0
 11
861.608517
 21
296.241262
 31
0.0
  0
LINE
  5
30D5
100
AcDbEntity
  8
0
100
AcDbLine
 10
869.608517
 20
296.241262
 30
0.0
 11
861.608517
 21
296.241262
 31
0.0
  0
LINE
  5
30D6
100
AcDbEntity
  8
0
100
AcDbLine
 10
891.058517
 20
304.171262
 30
0.0
 11
885.128517
 21
298.041262
 31
0.0
  0
LINE
  5
30D7
100
AcDbEntity
  8
0
100
AcDbLine
 10
885.128517
 20
298.041262
 30
0.0
 11
891.058517
 21
292.311262
 31
0.0
  0
LINE
  5
30D8
100
AcDbEntity
  8
0
100
AcDbLine
 10
692.530154
 20
390.041262
 30
0.0
 11
692.530154
 21
413.241262
 31
0.0
  0
LINE
  5
30D9
100
AcDbEntity
  8
0
100
AcDbLine
 10
678.530154
 20
413.241262
 30
0.0
 11
678.530154
 21
390.041262
 31
0.0
  0
LINE
  5
30DA
100
AcDbEntity
  8
0
100
AcDbLine
 10
651.030154
 20
320.041262
 30
0.0
 11
720.030154
 21
320.041262
 31
0.0
  0
ARC
  5
30DB
100
AcDbEntity
  8
0
100
AcDbCircle
 10
710.985154
 20
311.879225
 30
0.0
 40
14.467822
100
AcDbArc
 50
74.957143
 51
105.042857
  0
LINE
  5
30DC
100
AcDbEntity
  8
0
100
AcDbLine
 10
717.290154
 20
326.541262
 30
0.0
 11
704.680154
 21
326.541262
 31
0.0
  0
LINE
  5
30DD
100
AcDbEntity
  8
0
100
AcDbLine
 10
669.530154
 20
350.041262
 30
0.0
 11
669.530154
 21
382.041262
 31
0.0
  0
LINE
  5
30DE
100
AcDbEntity
  8
0
100
AcDbLine
 10
701.530154
 20
382.041262
 30
0.0
 11
701.530154
 21
350.041262
 31
0.0
  0
LINE
  5
30DF
100
AcDbEntity
  8
0
100
AcDbLine
 10
669.530154
 20
350.041262
 30
0.0
 11
701.530154
 21
350.041262
 31
0.0
  0
LINE
  5
30E0
100
AcDbEntity
  8
0
100
AcDbLine
 10
666.010154
 20
326.541262
 30
0.0
 11
669.530154
 21
350.041262
 31
0.0
  0
ARC
  5
30E1
100
AcDbEntity
  8
0
100
AcDbCircle
 10
665.710154
 20
321.707254
 30
0.0
 40
4.550517
100
AcDbArc
 50
65.597773
 51
114.402227
  0
LINE
  5
30E2
100
AcDbEntity
  8
0
100
AcDbLine
 10
653.770154
 20
326.541262
 30
0.0
 11
666.380154
 21
326.541262
 31
0.0
  0
LINE
  5
30E3
100
AcDbEntity
  8
0
100
AcDbLine
 10
652.570154
 20
325.851262
 30
0.0
 11
653.770154
 21
326.541262
 31
0.0
  0
ARC
  5
30E4
100
AcDbEntity
  8
0
100
AcDbCircle
 10
654.440154
 20
321.707254
 30
0.0
 40
4.550517
100
AcDbArc
 50
65.597773
 51
114.402227
  0
ARC
  5
30E5
100
AcDbEntity
  8
0
100
AcDbCircle
 10
660.075154
 20
311.879225
 30
0.0
 40
14.467822
100
AcDbArc
 50
74.957143
 51
105.042857
  0
LINE
  5
30E6
100
AcDbEntity
  8
0
100
AcDbLine
 10
656.320154
 20
320.041262
 30
0.0
 11
656.320154
 21
325.851262
 31
0.0
  0
LINE
  5
30E7
100
AcDbEntity
  8
0
100
AcDbLine
 10
652.570154
 20
320.041262
 30
0.0
 11
652.570154
 21
325.851262
 31
0.0
  0
LINE
  5
30E8
100
AcDbEntity
  8
0
100
AcDbLine
 10
663.830154
 20
320.041262
 30
0.0
 11
663.830154
 21
325.851262
 31
0.0
  0
LINE
  5
30E9
100
AcDbEntity
  8
0
100
AcDbLine
 10
667.590154
 20
325.851262
 30
0.0
 11
667.580154
 21
325.851262
 31
0.0
  0
LINE
  5
30EA
100
AcDbEntity
  8
0
100
AcDbLine
 10
666.380154
 20
326.541262
 30
0.0
 11
667.580154
 21
325.851262
 31
0.0
  0
LINE
  5
30EB
100
AcDbEntity
  8
0
100
AcDbLine
 10
667.580154
 20
325.851262
 30
0.0
 11
667.580154
 21
320.041262
 31
0.0
  0
LINE
  5
30EC
100
AcDbEntity
  8
0
100
AcDbLine
 10
701.530154
 20
350.041262
 30
0.0
 11
705.060154
 21
326.541262
 31
0.0
  0
LINE
  5
30ED
100
AcDbEntity
  8
0
100
AcDbLine
 10
704.680154
 20
326.541262
 30
0.0
 11
703.480154
 21
325.851262
 31
0.0
  0
LINE
  5
30EE
100
AcDbEntity
  8
0
100
AcDbLine
 10
703.470154
 20
325.851262
 30
0.0
 11
703.480154
 21
325.851262
 31
0.0
  0
ARC
  5
30EF
100
AcDbEntity
  8
0
100
AcDbCircle
 10
705.350154
 20
321.707254
 30
0.0
 40
4.550517
100
AcDbArc
 50
65.597773
 51
114.402227
  0
LINE
  5
30F0
100
AcDbEntity
  8
0
100
AcDbLine
 10
703.480154
 20
325.851262
 30
0.0
 11
703.480154
 21
320.041262
 31
0.0
  0
LINE
  5
30F1
100
AcDbEntity
  8
0
100
AcDbLine
 10
707.230154
 20
320.041262
 30
0.0
 11
707.230154
 21
325.851262
 31
0.0
  0
LINE
  5
30F2
100
AcDbEntity
  8
0
100
AcDbLine
 10
669.530154
 20
382.041262
 30
0.0
 11
701.530154
 21
382.041262
 31
0.0
  0
LINE
  5
30F3
100
AcDbEntity
  8
0
100
AcDbLine
 10
670.530154
 20
383.041262
 30
0.0
 11
700.530154
 21
383.041262
 31
0.0
  0
LINE
  5
30F4
100
AcDbEntity
  8
0
100
AcDbLine
 10
696.530154
 20
390.041262
 30
0.0
 11
674.530154
 21
390.041262
 31
0.0
  0
ARC
  5
30F5
100
AcDbEntity
  8
0
100
AcDbCircle
 10
685.530154
 20
404.103967
 30
0.0
 40
21.062704
100
AcDbArc
 50
252.453437
 51
287.546563
  0
ARC
  5
30F6
100
AcDbEntity
  8
0
100
AcDbCircle
 10
685.530154
 20
368.978558
 30
0.0
 40
21.062704
100
AcDbArc
 50
72.453437
 51
107.546563
  0
ARC
  5
30F7
100
AcDbEntity
  8
0
100
AcDbCircle
 10
676.005154
 20
384.394032
 30
0.0
 40
5.644791
100
AcDbArc
 50
55.773528
 51
124.226472
  0
ARC
  5
30F8
100
AcDbEntity
  8
0
100
AcDbCircle
 10
676.005154
 20
388.688493
 30
0.0
 40
5.644791
100
AcDbArc
 50
235.773528
 51
304.226472
  0
LINE
  5
30F9
100
AcDbEntity
  8
0
100
AcDbLine
 10
674.530154
 20
390.041262
 30
0.0
 11
672.830154
 21
389.061262
 31
0.0
  0
LINE
  5
30FA
100
AcDbEntity
  8
0
100
AcDbLine
 10
672.830154
 20
384.021262
 30
0.0
 11
674.530154
 21
383.041262
 31
0.0
  0
LINE
  5
30FB
100
AcDbEntity
  8
0
100
AcDbLine
 10
669.530154
 20
382.041262
 30
0.0
 11
670.530154
 21
383.041262
 31
0.0
  0
LINE
  5
30FC
100
AcDbEntity
  8
0
100
AcDbLine
 10
672.830154
 20
389.061262
 30
0.0
 11
672.830154
 21
384.021262
 31
0.0
  0
LINE
  5
30FD
100
AcDbEntity
  8
0
100
AcDbLine
 10
679.180154
 20
384.021262
 30
0.0
 11
679.180154
 21
389.061262
 31
0.0
  0
ARC
  5
30FE
100
AcDbEntity
  8
0
100
AcDbCircle
 10
695.055154
 20
384.408099
 30
0.0
 40
5.633165
100
AcDbArc
 50
55.693049
 51
124.306951
  0
ARC
  5
30FF
100
AcDbEntity
  8
0
100
AcDbCircle
 10
695.055154
 20
388.674426
 30
0.0
 40
5.633165
100
AcDbArc
 50
235.693049
 51
304.306951
  0
CIRCLE
  5
3100
100
AcDbEntity
  8
0
100
AcDbCircle
 10
685.520154
 20
386.541262
 30
0.0
 40
1.44998
  0
LINE
  5
3101
100
AcDbEntity
  8
0
100
AcDbLine
 10
691.880154
 20
389.061262
 30
0.0
 11
691.880154
 21
384.021262
 31
0.0
  0
LINE
  5
3102
100
AcDbEntity
  8
0
100
AcDbLine
 10
698.230154
 20
389.061262
 30
0.0
 11
696.530154
 21
390.041262
 31
0.0
  0
LINE
  5
3103
100
AcDbEntity
  8
0
100
AcDbLine
 10
700.530154
 20
383.041262
 30
0.0
 11
701.530154
 21
382.041262
 31
0.0
  0
LINE
  5
3104
100
AcDbEntity
  8
0
100
AcDbLine
 10
696.530154
 20
383.041262
 30
0.0
 11
698.230154
 21
384.021262
 31
0.0
  0
LINE
  5
3105
100
AcDbEntity
  8
0
100
AcDbLine
 10
698.230154
 20
384.021262
 30
0.0
 11
698.230154
 21
389.061262
 31
0.0
  0
LINE
  5
3106
100
AcDbEntity
  8
0
100
AcDbLine
 10
718.490154
 20
325.851262
 30
0.0
 11
717.290154
 21
326.541262
 31
0.0
  0
ARC
  5
3107
100
AcDbEntity
  8
0
100
AcDbCircle
 10
720.014307
 20
318.525415
 30
0.0
 40
1.51593
100
AcDbArc
 50
0.598965
 51
89.401035
  0
LINE
  5
3108
100
AcDbEntity
  8
0
100
AcDbLine
 10
718.490154
 20
320.041262
 30
0.0
 11
718.490154
 21
325.851262
 31
0.0
  0
LINE
  5
3109
100
AcDbEntity
  8
0
100
AcDbLine
 10
714.740154
 20
320.041262
 30
0.0
 11
714.740154
 21
325.851262
 31
0.0
  0
ARC
  5
310A
100
AcDbEntity
  8
0
100
AcDbCircle
 10
716.620154
 20
321.707254
 30
0.0
 40
4.550517
100
AcDbArc
 50
65.597773
 51
114.402227
  0
ARC
  5
310B
100
AcDbEntity
  8
0
100
AcDbCircle
 10
704.033497
 20
424.122646
 30
0.0
 40
9.996657
100
AcDbArc
 50
359.99207
 51
76.953535
  0
ARC
  5
310C
100
AcDbEntity
  8
0
100
AcDbCircle
 10
700.44823
 20
420.732205
 30
0.0
 40
11.210472
100
AcDbArc
 50
12.566324
 51
90.910173
  0
LINE
  5
310D
100
AcDbEntity
  8
0
100
AcDbLine
 10
711.030154
 20
418.741262
 30
0.0
 11
660.030154
 21
418.741262
 31
0.0
  0
ARC
  5
310E
100
AcDbEntity
  8
0
100
AcDbCircle
 10
709.440691
 20
422.738239
 30
0.0
 40
1.996977
100
AcDbArc
 50
269.984595
 51
12.523471
  0
ARC
  5
310F
100
AcDbEntity
  8
0
100
AcDbCircle
 10
667.026878
 20
424.122593
 30
0.0
 40
9.996724
100
AcDbArc
 50
103.046771
 51
180.007623
  0
ARC
  5
3110
100
AcDbEntity
  8
0
100
AcDbCircle
 10
685.521105
 20
344.158929
 30
0.0
 40
92.071226
100
AcDbArc
 50
100.317971
 51
103.025185
  0
LINE
  5
3111
100
AcDbEntity
  8
0
100
AcDbLine
 10
702.030154
 20
434.741262
 30
0.0
 11
706.290154
 21
433.861262
 31
0.0
  0
ARC
  5
3112
100
AcDbEntity
  8
0
100
AcDbCircle
 10
670.61823
 20
420.742205
 30
0.0
 40
11.210472
100
AcDbArc
 50
12.566324
 51
90.910173
  0
LINE
  5
3113
100
AcDbEntity
  8
0
100
AcDbLine
 10
672.530154
 20
416.241262
 30
0.0
 11
698.530154
 21
416.241262
 31
0.0
  0
ARC
  5
3114
100
AcDbEntity
  8
0
100
AcDbCircle
 10
679.607238
 20
422.742794
 30
0.0
 40
2.001533
100
AcDbArc
 50
270.083475
 51
12.654204
  0
LINE
  5
3115
100
AcDbEntity
  8
0
100
AcDbLine
 10
678.530154
 20
413.241262
 30
0.0
 11
692.530154
 21
413.241262
 31
0.0
  0
ARC
  5
3116
100
AcDbEntity
  8
0
100
AcDbCircle
 10
678.028487
 20
414.741262
 30
0.0
 40
1.581667
100
AcDbArc
 50
288.492225
 51
71.507775
  0
ARC
  5
3117
100
AcDbEntity
  8
0
100
AcDbCircle
 10
670.698716
 20
420.638578
 30
0.0
 40
11.315639
100
AcDbArc
 50
91.309322
 51
167.066408
  0
LINE
  5
3118
100
AcDbEntity
  8
0
100
AcDbLine
 10
679.610154
 20
420.741262
 30
0.0
 11
661.630154
 21
420.741262
 31
0.0
  0
LINE
  5
3119
100
AcDbEntity
  8
0
100
AcDbLine
 10
661.630154
 20
420.741262
 30
0.0
 11
661.620154
 21
420.741262
 31
0.0
  0
ARC
  5
311A
100
AcDbEntity
  8
0
100
AcDbCircle
 10
660.034197
 20
421.745305
 30
0.0
 40
3.004046
100
AcDbArc
 50
180.07711
 51
269.92289
  0
ARC
  5
311B
100
AcDbEntity
  8
0
100
AcDbCircle
 10
661.619607
 20
422.738231
 30
0.0
 40
1.996969
100
AcDbArc
 50
167.47625
 51
270.015685
  0
LINE
  5
311C
100
AcDbEntity
  8
0
100
AcDbLine
 10
657.030154
 20
421.741262
 30
0.0
 11
657.030154
 21
424.121262
 31
0.0
  0
LINE
  5
311D
100
AcDbEntity
  8
0
100
AcDbLine
 10
672.530154
 20
418.741262
 30
0.0
 11
672.530154
 21
416.241262
 31
0.0
  0
ARC
  5
311E
100
AcDbEntity
  8
0
100
AcDbCircle
 10
693.031821
 20
414.741262
 30
0.0
 40
1.581667
100
AcDbArc
 50
108.492225
 51
251.507775
  0
ARC
  5
311F
100
AcDbEntity
  8
0
100
AcDbCircle
 10
700.528716
 20
420.648578
 30
0.0
 40
11.315639
100
AcDbArc
 50
91.309322
 51
167.066408
  0
LINE
  5
3120
100
AcDbEntity
  8
0
100
AcDbLine
 10
691.450154
 20
420.741262
 30
0.0
 11
709.450154
 21
420.741262
 31
0.0
  0
ARC
  5
3121
100
AcDbEntity
  8
0
100
AcDbCircle
 10
691.45307
 20
422.742794
 30
0.0
 40
2.001533
100
AcDbArc
 50
167.345796
 51
269.916525
  0
LINE
  5
3122
100
AcDbEntity
  8
0
100
AcDbLine
 10
709.450154
 20
420.741262
 30
0.0
 11
709.440154
 21
420.741262
 31
0.0
  0
LINE
  5
3123
100
AcDbEntity
  8
0
100
AcDbLine
 10
698.530154
 20
416.241262
 30
0.0
 11
698.530154
 21
418.741262
 31
0.0
  0
LINE
  5
3124
100
AcDbEntity
  8
0
100
AcDbLine
 10
669.030154
 20
434.741262
 30
0.0
 11
702.030154
 21
434.741262
 31
0.0
  0
ARC
  5
3125
100
AcDbEntity
  8
0
100
AcDbCircle
 10
711.026111
 20
421.745305
 30
0.0
 40
3.004046
100
AcDbArc
 50
270.07711
 51
359.92289
  0
LINE
  5
3126
100
AcDbEntity
  8
0
100
AcDbLine
 10
714.030154
 20
424.121262
 30
0.0
 11
714.030154
 21
421.741262
 31
0.0
  0
LINE
  5
3127
100
AcDbEntity
  8
0
100
AcDbLine
 10
884.074998
 20
413.241262
 30
0.0
 11
884.074998
 21
390.041262
 31
0.0
  0
LINE
  5
3128
100
AcDbEntity
  8
0
100
AcDbLine
 10
875.074998
 20
350.041262
 30
0.0
 11
875.074998
 21
382.041262
 31
0.0
  0
ARC
  5
3129
100
AcDbEntity
  8
0
100
AcDbCircle
 10
862.048756
 20
315.481177
 30
0.0
 40
10.86587
100
AcDbArc
 50
72.625296
 51
107.374704
  0
LINE
  5
312A
100
AcDbEntity
  8
0
100
AcDbLine
 10
858.988517
 20
326.541262
 30
0.0
 11
871.598517
 21
326.541262
 31
0.0
  0
ARC
  5
312B
100
AcDbEntity
  8
0
100
AcDbCircle
 10
856.590845
 20
318.525415
 30
0.0
 40
1.51593
100
AcDbArc
 50
90.598965
 51
179.401035
  0
LINE
  5
312C
100
AcDbEntity
  8
0
100
AcDbLine
 10
858.793996
 20
325.851262
 30
0.0
 11
858.988517
 21
326.541262
 31
0.0
  0
LINE
  5
312D
100
AcDbEntity
  8
0
100
AcDbLine
 10
858.803996
 20
320.041262
 30
0.0
 11
858.803996
 21
325.851262
 31
0.0
  0
LINE
  5
312E
100
AcDbEntity
  8
0
100
AcDbLine
 10
871.554998
 20
326.541262
 30
0.0
 11
875.074998
 21
350.041262
 31
0.0
  0
ARC
  5
312F
100
AcDbEntity
  8
0
100
AcDbCircle
 10
868.54328
 20
315.448425
 30
0.0
 40
10.898622
100
AcDbArc
 50
72.651644
 51
107.348374
  0
LINE
  5
3130
100
AcDbEntity
  8
0
100
AcDbLine
 10
871.598517
 20
326.541262
 30
0.0
 11
871.793037
 21
325.851262
 31
0.0
  0
LINE
  5
3131
100
AcDbEntity
  8
0
100
AcDbLine
 10
865.293517
 20
320.041262
 30
0.0
 11
865.293517
 21
325.851262
 31
0.0
  0
LINE
  5
3132
100
AcDbEntity
  8
0
100
AcDbLine
 10
871.793037
 20
325.851262
 30
0.0
 11
871.793037
 21
320.041262
 31
0.0
  0
LINE
  5
3133
100
AcDbEntity
  8
0
100
AcDbLine
 10
851.058517
 20
385.091282
 30
0.0
 11
880.066475
 21
385.091282
 31
0.0
  0
LINE
  5
3134
100
AcDbEntity
  8
0
100
AcDbLine
 10
851.058517
 20
387.991242
 30
0.0
 11
880.066475
 21
387.991242
 31
0.0
  0
ARC
  5
3135
100
AcDbEntity
  8
0
100
AcDbCircle
 10
851.058517
 20
386.091282
 30
0.0
 40
1.0
100
AcDbArc
 50
180.0
 51
270.0
  0
ARC
  5
3136
100
AcDbEntity
  8
0
100
AcDbCircle
 10
851.058517
 20
386.991242
 30
0.0
 40
1.0
100
AcDbArc
 50
90.0
 51
180.0
  0
LINE
  5
3137
100
AcDbEntity
  8
0
100
AcDbLine
 10
850.058517
 20
386.991242
 30
0.0
 11
850.058517
 21
386.091282
 31
0.0
  0
LINE
  5
3138
100
AcDbEntity
  8
0
100
AcDbLine
 10
875.074998
 20
382.041262
 30
0.0
 11
876.074998
 21
383.041262
 31
0.0
  0
LINE
  5
3139
100
AcDbEntity
  8
0
100
AcDbLine
 10
891.064998
 20
389.061262
 30
0.0
 11
891.064998
 21
384.021262
 31
0.0
  0
LINE
  5
313A
100
AcDbEntity
  8
0
100
AcDbLine
 10
880.074998
 20
390.041262
 30
0.0
 11
880.066475
 21
389.061262
 31
0.0
  0
LINE
  5
313B
100
AcDbEntity
  8
0
100
AcDbLine
 10
880.066475
 20
384.021262
 30
0.0
 11
880.074998
 21
383.041262
 31
0.0
  0
LINE
  5
313C
100
AcDbEntity
  8
0
100
AcDbLine
 10
880.066475
 20
389.061262
 30
0.0
 11
880.066475
 21
384.021262
 31
0.0
  0
ARC
  5
313D
100
AcDbEntity
  8
0
100
AcDbCircle
 10
885.565736
 20
374.121734
 30
0.0
 40
15.919528
100
AcDbArc
 50
69.791268
 51
110.208732
  0
ARC
  5
313E
100
AcDbEntity
  8
0
100
AcDbCircle
 10
885.565739
 20
398.960808
 30
0.0
 40
15.919545
100
AcDbArc
 50
249.791279
 51
290.208709
  0
ARC
  5
313F
100
AcDbEntity
  8
0
100
AcDbCircle
 10
891.066277
 20
344.157239
 30
0.0
 40
92.072948
100
AcDbArc
 50
100.317984
 51
105.727828
  0
ARC
  5
3140
100
AcDbEntity
  8
0
100
AcDbCircle
 10
863.280836
 20
421.745305
 30
0.0
 40
3.004046
100
AcDbArc
 50
180.07711
 51
269.92289
  0
LINE
  5
3141
100
AcDbEntity
  8
0
100
AcDbLine
 10
870.236921
 20
420.741262
 30
0.0
 11
860.449548
 21
420.741262
 31
0.0
  0
ARC
  5
3142
100
AcDbEntity
  8
0
100
AcDbCircle
 10
868.276793
 20
425.082512
 30
0.0
 40
8.0
100
AcDbArc
 50
105.727828
 51
180.0
  0
LINE
  5
3143
100
AcDbEntity
  8
0
100
AcDbLine
 10
860.276793
 20
421.741262
 30
0.0
 11
860.276793
 21
425.082512
 31
0.0
  0
ARC
  5
3144
100
AcDbEntity
  8
0
100
AcDbCircle
 10
883.573331
 20
414.741262
 30
0.0
 40
1.581667
100
AcDbArc
 50
288.492225
 51
71.507775
  0
ARC
  5
3145
100
AcDbEntity
  8
0
100
AcDbCircle
 10
861.244998
 20
420.742205
 30
0.0
 40
11.210472
100
AcDbArc
 50
12.566324
 51
77.141717
  0
LINE
  5
3146
100
AcDbEntity
  8
0
100
AcDbLine
 10
867.174998
 20
420.741262
 30
0.0
 11
867.164998
 21
420.741262
 31
0.0
  0
ARC
  5
3147
100
AcDbEntity
  8
0
100
AcDbCircle
 10
870.234005
 20
422.742794
 30
0.0
 40
2.001533
100
AcDbArc
 50
270.083475
 51
12.654204
  0
ARC
  5
3148
100
AcDbEntity
  8
0
100
AcDbCircle
 10
889.945356
 20
420.717868
 30
0.0
 40
11.3
100
AcDbArc
 50
84.262658
 51
167.40844
  0
LINE
  5
3149
100
AcDbEntity
  8
0
100
AcDbLine
 10
878.074998
 20
418.741262
 30
0.0
 11
878.074998
 21
416.241262
 31
0.0
  0
ARC
  5
314A
100
AcDbEntity
  8
0
100
AcDbCircle
 10
880.87005
 20
422.742794
 30
0.0
 40
2.001533
100
AcDbArc
 50
167.345796
 51
269.916525
  0
LINE
  5
314B
100
AcDbEntity
  8
0
100
AcDbLine
 10
927.074998
 20
318.541262
 30
0.0
 11
927.074998
 21
309.041262
 31
0.0
  0
LINE
  5
314C
100
AcDbEntity
  8
0
100
AcDbLine
 10
897.074998
 20
249.241262
 30
0.0
 11
897.074998
 21
223.479163
 31
0.0
  0
LINE
  5
314D
100
AcDbEntity
  8
0
100
AcDbLine
 10
913.074998
 20
246.401262
 30
0.0
 11
913.074998
 21
209.832926
 31
0.0
  0
LINE
  5
314E
100
AcDbEntity
  8
0
100
AcDbLine
 10
922.208565
 20
180.402279
 30
0.0
 11
919.314889
 21
194.299069
 31
0.0
  0
ARC
  5
314F
100
AcDbEntity
  8
0
100
AcDbCircle
 10
918.29256
 20
179.586864
 30
0.0
 40
4.0
100
AcDbArc
 50
314.326448
 51
11.762407
  0
LINE
  5
3150
100
AcDbEntity
  8
0
100
AcDbLine
 10
918.074998
 20
169.57168
 30
0.0
 11
918.074998
 21
162.241262
 31
0.0
  0
LINE
  5
3151
100
AcDbEntity
  8
0
100
AcDbLine
 10
917.074998
 20
156.241262
 30
0.0
 11
918.074998
 21
157.241262
 31
0.0
  0
LINE
  5
3152
100
AcDbEntity
  8
0
100
AcDbLine
 10
918.074998
 20
162.241262
 30
0.0
 11
918.074998
 21
157.241262
 31
0.0
  0
ARC
  5
3153
100
AcDbEntity
  8
0
100
AcDbCircle
 10
928.074998
 20
169.57168
 30
0.0
 40
10.0
100
AcDbArc
 50
134.326448
 51
180.0
  0
ARC
  5
3154
100
AcDbEntity
  8
0
100
AcDbCircle
 10
915.074998
 20
200.241262
 30
0.0
 40
2.0
100
AcDbArc
 50
267.611985
 51
92.388015
  0
ARC
  5
3155
100
AcDbEntity
  8
0
100
AcDbCircle
 10
904.629869
 20
191.241262
 30
0.0
 40
15.0
100
AcDbArc
 50
11.762407
 51
34.408925
  0
ARC
  5
3156
100
AcDbEntity
  8
0
100
AcDbCircle
 10
925.571015
 20
269.737279
 30
0.0
 40
1.503988
100
AcDbArc
 50
0.151738
 51
89.848262
  0
LINE
  5
3157
100
AcDbEntity
  8
0
100
AcDbLine
 10
920.534998
 20
246.941262
 30
0.0
 11
919.334998
 21
245.741262
 31
0.0
  0
LINE
  5
3158
100
AcDbEntity
  8
0
100
AcDbLine
 10
920.534998
 20
249.241262
 30
0.0
 11
920.534998
 21
246.941262
 31
0.0
  0
LINE
  5
3159
100
AcDbEntity
  8
0
100
AcDbLine
 10
912.534998
 20
246.941262
 30
0.0
 11
912.534998
 21
249.241262
 31
0.0
  0
LINE
  5
315A
100
AcDbEntity
  8
0
100
AcDbLine
 10
913.734998
 20
245.741262
 30
0.0
 11
912.534998
 21
246.941262
 31
0.0
  0
LINE
  5
315B
100
AcDbEntity
  8
0
100
AcDbLine
 10
919.334998
 20
245.741262
 30
0.0
 11
913.734998
 21
245.741262
 31
0.0
  0
LINE
  5
315C
100
AcDbEntity
  8
0
100
AcDbLine
 10
920.534998
 20
246.941262
 30
0.0
 11
912.534998
 21
246.941262
 31
0.0
  0
ARC
  5
315D
100
AcDbEntity
  8
0
100
AcDbCircle
 10
925.571015
 20
250.745246
 30
0.0
 40
1.503988
100
AcDbArc
 50
270.151738
 51
359.848262
  0
LINE
  5
315E
100
AcDbEntity
  8
0
100
AcDbLine
 10
927.074998
 20
269.741262
 30
0.0
 11
927.074998
 21
250.741262
 31
0.0
  0
LINE
  5
315F
100
AcDbEntity
  8
0
100
AcDbLine
 10
925.574998
 20
298.041262
 30
0.0
 11
901.072997
 21
298.041262
 31
0.0
  0
ARC
  5
3160
100
AcDbEntity
  8
0
100
AcDbCircle
 10
919.779758
 20
266.648403
 30
0.0
 40
10.898643
100
AcDbArc
 50
72.651661
 51
107.348339
  0
LINE
  5
3161
100
AcDbEntity
  8
0
100
AcDbLine
 10
916.524998
 20
277.741262
 30
0.0
 11
922.834998
 21
277.741262
 31
0.0
  0
LINE
  5
3162
100
AcDbEntity
  8
0
100
AcDbLine
 10
909.067819
 20
273.233956
 30
0.0
 11
909.073888
 21
294.206054
 31
0.0
  0
LINE
  5
3163
100
AcDbEntity
  8
0
100
AcDbLine
 10
897.074998
 20
290.241262
 30
0.0
 11
897.074998
 21
271.235402
 31
0.0
  0
ARC
  5
3164
100
AcDbEntity
  8
0
100
AcDbCircle
 10
913.280237
 20
266.648403
 30
0.0
 40
10.898643
100
AcDbArc
 50
72.651661
 51
107.348339
  0
LINE
  5
3165
100
AcDbEntity
  8
0
100
AcDbLine
 10
910.224998
 20
277.741262
 30
0.0
 11
916.524998
 21
277.741262
 31
0.0
  0
LINE
  5
3166
100
AcDbEntity
  8
0
100
AcDbLine
 10
910.030477
 20
277.051262
 30
0.0
 11
910.224998
 21
277.741262
 31
0.0
  0
LINE
  5
3167
100
AcDbEntity
  8
0
100
AcDbLine
 10
910.030477
 20
271.241262
 30
0.0
 11
910.030477
 21
277.051262
 31
0.0
  0
ARC
  5
3168
100
AcDbEntity
  8
0
100
AcDbCircle
 10
911.067819
 20
273.233378
 30
0.0
 40
2.0
100
AcDbArc
 50
179.983419
 51
238.499427
  0
LINE
  5
3169
100
AcDbEntity
  8
0
100
AcDbLine
 10
920.524998
 20
279.541262
 30
0.0
 11
920.524998
 21
277.741262
 31
0.0
  0
LINE
  5
316A
100
AcDbEntity
  8
0
100
AcDbLine
 10
912.524998
 20
277.741262
 30
0.0
 11
912.524998
 21
279.541262
 31
0.0
  0
LINE
  5
316B
100
AcDbEntity
  8
0
100
AcDbLine
 10
912.524998
 20
279.541262
 30
0.0
 11
920.524998
 21
279.541262
 31
0.0
  0
ARC
  5
316C
100
AcDbEntity
  8
0
100
AcDbCircle
 10
916.524998
 20
273.474596
 30
0.0
 40
7.266667
100
AcDbArc
 50
56.601512
 51
123.398488
  0
LINE
  5
316D
100
AcDbEntity
  8
0
100
AcDbLine
 10
916.529998
 20
271.241262
 30
0.0
 11
916.529998
 21
277.051262
 31
0.0
  0
ARC
  5
316E
100
AcDbEntity
  8
0
100
AcDbCircle
 10
916.373985
 20
287.824801
 30
0.0
 40
10.261093
100
AcDbArc
 50
111.970578
 51
131.952854
  0
ARC
  5
316F
100
AcDbEntity
  8
0
100
AcDbCircle
 10
911.022382
 20
294.222062
 30
0.0
 40
1.94856
100
AcDbArc
 50
140.711996
 51
180.470705
  0
LINE
  5
3170
100
AcDbEntity
  8
0
100
AcDbLine
 10
920.534998
 20
298.041262
 30
0.0
 11
920.534998
 21
296.241262
 31
0.0
  0
LINE
  5
3171
100
AcDbEntity
  8
0
100
AcDbLine
 10
912.534998
 20
296.241262
 30
0.0
 11
912.534998
 21
298.041262
 31
0.0
  0
LINE
  5
3172
100
AcDbEntity
  8
0
100
AcDbLine
 10
920.534998
 20
296.241262
 30
0.0
 11
912.534998
 21
296.241262
 31
0.0
  0
LINE
  5
3173
100
AcDbEntity
  8
0
100
AcDbLine
 10
919.334998
 20
295.041262
 30
0.0
 11
913.734998
 21
295.041262
 31
0.0
  0
LINE
  5
3174
100
AcDbEntity
  8
0
100
AcDbLine
 10
913.734998
 20
295.041262
 30
0.0
 11
912.534998
 21
296.241262
 31
0.0
  0
LINE
  5
3175
100
AcDbEntity
  8
0
100
AcDbLine
 10
920.534998
 20
296.241262
 30
0.0
 11
919.334998
 21
295.041262
 31
0.0
  0
LINE
  5
3176
100
AcDbEntity
  8
0
100
AcDbLine
 10
922.834998
 20
277.741262
 30
0.0
 11
923.029518
 21
277.051262
 31
0.0
  0
LINE
  5
3177
100
AcDbEntity
  8
0
100
AcDbLine
 10
923.029518
 20
277.051262
 30
0.0
 11
923.029518
 21
271.241262
 31
0.0
  0
ARC
  5
3178
100
AcDbEntity
  8
0
100
AcDbCircle
 10
925.572739
 20
299.543521
 30
0.0
 40
1.50226
100
AcDbArc
 50
270.086122
 51
359.913878
  0
LINE
  5
3179
100
AcDbEntity
  8
0
100
AcDbLine
 10
927.074998
 20
309.041262
 30
0.0
 11
927.074998
 21
299.541262
 31
0.0
  0
LINE
  5
317A
100
AcDbEntity
  8
0
100
AcDbLine
 10
898.074998
 20
390.041262
 30
0.0
 11
898.074998
 21
413.241262
 31
0.0
  0
LINE
  5
317B
100
AcDbEntity
  8
0
100
AcDbLine
 10
907.074998
 20
382.041262
 30
0.0
 11
907.074998
 21
350.041262
 31
0.0
  0
LINE
  5
317C
100
AcDbEntity
  8
0
100
AcDbLine
 10
910.224998
 20
326.541262
 30
0.0
 11
922.834998
 21
326.541262
 31
0.0
  0
ARC
  5
317D
100
AcDbEntity
  8
0
100
AcDbCircle
 10
919.779761
 20
315.448425
 30
0.0
 40
10.898622
100
AcDbArc
 50
72.651644
 51
107.348374
  0
LINE
  5
317E
100
AcDbEntity
  8
0
100
AcDbLine
 10
907.074998
 20
350.041262
 30
0.0
 11
910.604998
 21
326.541262
 31
0.0
  0
ARC
  5
317F
100
AcDbEntity
  8
0
100
AcDbCircle
 10
913.285237
 20
315.481177
 30
0.0
 40
10.86587
100
AcDbArc
 50
72.625296
 51
107.374704
  0
LINE
  5
3180
100
AcDbEntity
  8
0
100
AcDbLine
 10
910.030477
 20
325.851262
 30
0.0
 11
910.224998
 21
326.541262
 31
0.0
  0
LINE
  5
3181
100
AcDbEntity
  8
0
100
AcDbLine
 10
910.040477
 20
320.041262
 30
0.0
 11
910.040477
 21
325.851262
 31
0.0
  0
LINE
  5
3182
100
AcDbEntity
  8
0
100
AcDbLine
 10
916.529998
 20
320.041262
 30
0.0
 11
916.529998
 21
325.851262
 31
0.0
  0
ARC
  5
3183
100
AcDbEntity
  8
0
100
AcDbCircle
 10
925.55915
 20
318.525415
 30
0.0
 40
1.51593
100
AcDbArc
 50
0.598965
 51
89.401035
  0
LINE
  5
3184
100
AcDbEntity
  8
0
100
AcDbLine
 10
922.834998
 20
326.541262
 30
0.0
 11
923.029518
 21
325.851262
 31
0.0
  0
LINE
  5
3185
100
AcDbEntity
  8
0
100
AcDbLine
 10
923.029518
 20
325.851262
 30
0.0
 11
923.029518
 21
320.041262
 31
0.0
  0
LINE
  5
3186
100
AcDbEntity
  8
0
100
AcDbLine
 10
906.074998
 20
383.041262
 30
0.0
 11
907.074998
 21
382.041262
 31
0.0
  0
LINE
  5
3187
100
AcDbEntity
  8
0
100
AcDbLine
 10
902.06352
 20
389.061262
 30
0.0
 11
902.074998
 21
390.041262
 31
0.0
  0
LINE
  5
3188
100
AcDbEntity
  8
0
100
AcDbLine
 10
902.06352
 20
384.021262
 30
0.0
 11
902.06352
 21
389.061262
 31
0.0
  0
LINE
  5
3189
100
AcDbEntity
  8
0
100
AcDbLine
 10
902.074998
 20
383.041262
 30
0.0
 11
902.06352
 21
384.021262
 31
0.0
  0
LINE
  5
318A
100
AcDbEntity
  8
0
100
AcDbLine
 10
907.574998
 20
434.741262
 30
0.0
 11
915.458653
 21
433.112714
 31
0.0
  0
ARC
  5
318B
100
AcDbEntity
  8
0
100
AcDbCircle
 10
918.836198
 20
421.745305
 30
0.0
 40
3.004046
100
AcDbArc
 50
270.07711
 51
359.92289
  0
ARC
  5
318C
100
AcDbEntity
  8
0
100
AcDbCircle
 10
913.840241
 20
425.278128
 30
0.0
 40
8.0
100
AcDbArc
 50
0.0
 51
78.328422
  0
ARC
  5
318D
100
AcDbEntity
  8
0
100
AcDbCircle
 10
898.576664
 20
414.741262
 30
0.0
 40
1.581667
100
AcDbArc
 50
108.492225
 51
251.507775
  0
LINE
  5
318E
100
AcDbEntity
  8
0
100
AcDbLine
 10
904.074998
 20
416.241262
 30
0.0
 11
904.074998
 21
418.741262
 31
0.0
  0
ARC
  5
318F
100
AcDbEntity
  8
0
100
AcDbCircle
 10
901.26154
 20
422.738239
 30
0.0
 40
1.996977
100
AcDbArc
 50
269.984595
 51
12.523471
  0
LINE
  5
3190
100
AcDbEntity
  8
0
100
AcDbLine
 10
921.840241
 20
425.278128
 30
0.0
 11
921.840241
 21
421.741262
 31
0.0
  0
ARC
  5
3191
100
AcDbEntity
  8
0
100
AcDbCircle
 10
920.71742
 20
420.648578
 30
0.0
 40
11.315639
100
AcDbArc
 50
101.098016
 51
167.066408
  0
ARC
  5
3192
100
AcDbEntity
  8
0
100
AcDbCircle
 10
911.641774
 20
422.742794
 30
0.0
 40
2.001533
100
AcDbArc
 50
167.345796
 51
269.916525
  0
LINE
  5
3193
100
AcDbEntity
  8
0
100
AcDbLine
 10
911.638858
 20
420.741262
 30
0.0
 11
921.667485
 21
420.741262
 31
0.0
  0
LINE
  5
3194
100
AcDbEntity
  8
0
100
AcDbLine
 10
649.530154
 20
805.411034
 30
0.0
 11
649.530154
 21
795.911034
 31
0.0
  0
LINE
  5
3195
100
AcDbEntity
  8
0
100
AcDbLine
 10
721.530154
 20
795.911034
 30
0.0
 11
721.530154
 21
805.411034
 31
0.0
  0
ARC
  5
3196
100
AcDbEntity
  8
0
100
AcDbCircle
 10
671.663503
 20
644.908922
 30
0.0
 40
5.797897
100
AcDbArc
 50
255.471763
 51
315.471763
  0
LINE
  5
3197
100
AcDbEntity
  8
0
100
AcDbLine
 10
670.530154
 20
639.111034
 30
0.0
 11
667.530154
 21
640.843085
 31
0.0
  0
LINE
  5
3198
100
AcDbEntity
  8
0
100
AcDbLine
 10
700.530154
 20
639.111034
 30
0.0
 11
703.530154
 21
640.843085
 31
0.0
  0
ARC
  5
3199
100
AcDbEntity
  8
0
100
AcDbCircle
 10
699.396804
 20
644.908922
 30
0.0
 40
5.797897
100
AcDbArc
 50
224.528237
 51
284.528237
  0
ARC
  5
319A
100
AcDbEntity
  8
0
100
AcDbCircle
 10
685.530154
 20
659.606968
 30
0.0
 40
20.495935
100
AcDbArc
 50
246.275831
 51
293.724169
  0
CIRCLE
  5
319B
100
AcDbEntity
  8
0
100
AcDbCircle
 10
685.530154
 20
551.820303
 30
0.0
 40
25.5
  0
CIRCLE
  5
319C
100
AcDbEntity
  8
0
100
AcDbCircle
 10
685.530154
 20
551.820303
 30
0.0
 40
16.5
  0
ARC
  5
319D
100
AcDbEntity
  8
0
100
AcDbCircle
 10
633.743821
 20
551.815303
 30
0.0
 40
26.286334
100
AcDbArc
 50
332.359051
 51
27.640949
  0
LINE
  5
319E
100
AcDbEntity
  8
0
100
AcDbLine
 10
649.530154
 20
526.370303
 30
0.0
 11
649.530154
 21
577.260303
 31
0.0
  0
LINE
  5
319F
100
AcDbEntity
  8
0
100
AcDbLine
 10
736.450154
 20
545.890303
 30
0.0
 11
736.450154
 21
557.750303
 31
0.0
  0
LINE
  5
31A0
100
AcDbEntity
  8
0
100
AcDbLine
 10
729.420154
 20
558.420303
 30
0.0
 11
729.420154
 21
545.230303
 31
0.0
  0
LINE
  5
31A1
100
AcDbEntity
  8
0
100
AcDbLine
 10
726.530154
 20
559.820303
 30
0.0
 11
726.530154
 21
543.820303
 31
0.0
  0
ARC
  5
31A2
100
AcDbEntity
  8
0
100
AcDbCircle
 10
737.316487
 20
551.825303
 30
0.0
 40
26.286334
100
AcDbArc
 50
152.359051
 51
207.640949
  0
LINE
  5
31A3
100
AcDbEntity
  8
0
100
AcDbLine
 10
721.530154
 20
526.370303
 30
0.0
 11
721.530154
 21
577.260303
 31
0.0
  0
LINE
  5
31A4
100
AcDbEntity
  8
0
100
AcDbLine
 10
719.640154
 20
507.820303
 30
0.0
 11
651.460154
 21
507.820303
 31
0.0
  0
LINE
  5
31A5
100
AcDbEntity
  8
0
100
AcDbLine
 10
707.230154
 20
532.870303
 30
0.0
 11
714.740154
 21
532.870303
 31
0.0
  0
LINE
  5
31A6
100
AcDbEntity
  8
0
100
AcDbLine
 10
714.740154
 20
519.870303
 30
0.0
 11
707.230154
 21
519.870303
 31
0.0
  0
LINE
  5
31A7
100
AcDbEntity
  8
0
100
AcDbLine
 10
711.010154
 20
515.820303
 30
0.0
 11
687.530154
 21
515.820303
 31
0.0
  0
ARC
  5
31A8
100
AcDbEntity
  8
0
100
AcDbCircle
 10
711.427651
 20
506.974523
 30
0.0
 40
26.286334
100
AcDbArc
 50
92.359051
 51
147.640949
  0
LINE
  5
31A9
100
AcDbEntity
  8
0
100
AcDbLine
 10
687.530154
 20
511.820303
 30
0.0
 11
687.530154
 21
520.820303
 31
0.0
  0
LINE
  5
31AA
100
AcDbEntity
  8
0
100
AcDbLine
 10
683.530154
 20
520.820303
 30
0.0
 11
683.530154
 21
511.820303
 31
0.0
  0
LINE
  5
31AB
100
AcDbEntity
  8
0
100
AcDbLine
 10
683.530154
 20
515.820303
 30
0.0
 11
660.100154
 21
515.820303
 31
0.0
  0
ARC
  5
31AC
100
AcDbEntity
  8
0
100
AcDbCircle
 10
686.522959
 20
511.827499
 30
0.0
 40
1.007221
100
AcDbArc
 50
270.409298
 51
359.590702
  0
ARC
  5
31AD
100
AcDbEntity
  8
0
100
AcDbCircle
 10
684.537349
 20
511.827499
 30
0.0
 40
1.007221
100
AcDbArc
 50
180.409298
 51
269.590702
  0
LINE
  5
31AE
100
AcDbEntity
  8
0
100
AcDbLine
 10
684.530154
 20
510.820303
 30
0.0
 11
686.530154
 21
510.820303
 31
0.0
  0
LINE
  5
31AF
100
AcDbEntity
  8
0
100
AcDbLine
 10
683.530154
 20
511.820303
 30
0.0
 11
687.530154
 21
511.820303
 31
0.0
  0
ARC
  5
31B0
100
AcDbEntity
  8
0
100
AcDbCircle
 10
659.641317
 20
506.969523
 30
0.0
 40
26.286334
100
AcDbArc
 50
32.359051
 51
87.640949
  0
ARC
  5
31B1
100
AcDbEntity
  8
0
100
AcDbCircle
 10
685.47601
 20
551.770013
 30
0.0
 40
30.927969
100
AcDbArc
 50
203.111117
 51
216.811222
  0
LINE
  5
31B2
100
AcDbEntity
  8
0
100
AcDbLine
 10
663.830154
 20
519.870303
 30
0.0
 11
667.580154
 21
526.370303
 31
0.0
  0
LINE
  5
31B3
100
AcDbEntity
  8
0
100
AcDbLine
 10
667.580154
 20
526.370303
 30
0.0
 11
663.830154
 21
532.870303
 31
0.0
  0
LINE
  5
31B4
100
AcDbEntity
  8
0
100
AcDbLine
 10
663.830154
 20
532.870303
 30
0.0
 11
656.320154
 21
532.870303
 31
0.0
  0
LINE
  5
31B5
100
AcDbEntity
  8
0
100
AcDbLine
 10
656.320154
 20
519.870303
 30
0.0
 11
663.830154
 21
519.870303
 31
0.0
  0
LINE
  5
31B6
100
AcDbEntity
  8
0
100
AcDbLine
 10
652.570154
 20
526.370303
 30
0.0
 11
656.320154
 21
519.870303
 31
0.0
  0
LINE
  5
31B7
100
AcDbEntity
  8
0
100
AcDbLine
 10
656.320154
 20
532.870303
 30
0.0
 11
652.570154
 21
526.370303
 31
0.0
  0
ARC
  5
31B8
100
AcDbEntity
  8
0
100
AcDbCircle
 10
685.546635
 20
551.748268
 30
0.0
 40
30.927969
100
AcDbArc
 50
263.111117
 51
276.811222
  0
LINE
  5
31B9
100
AcDbEntity
  8
0
100
AcDbLine
 10
707.230154
 20
519.870303
 30
0.0
 11
703.480154
 21
526.370303
 31
0.0
  0
LINE
  5
31BA
100
AcDbEntity
  8
0
100
AcDbLine
 10
703.480154
 20
526.370303
 30
0.0
 11
707.230154
 21
532.870303
 31
0.0
  0
ARC
  5
31BB
100
AcDbEntity
  8
0
100
AcDbCircle
 10
719.73369
 20
517.617138
 30
0.0
 40
9.796848
100
AcDbArc
 50
270.096284
 51
359.492152
  0
ARC
  5
31BC
100
AcDbEntity
  8
0
100
AcDbCircle
 10
710.980201
 20
526.370237
 30
0.0
 40
10.549952
100
AcDbArc
 50
269.891123
 51
0.000362
  0
ARC
  5
31BD
100
AcDbEntity
  8
0
100
AcDbCircle
 10
719.796282
 20
517.579027
 30
0.0
 40
4.012848
100
AcDbArc
 50
188.313484
 51
81.848381
  0
LINE
  5
31BE
100
AcDbEntity
  8
0
100
AcDbLine
 10
719.820154
 20
507.820303
 30
0.0
 11
719.820154
 21
507.820303
 31
0.0
  0
LINE
  5
31BF
100
AcDbEntity
  8
0
100
AcDbLine
 10
719.820154
 20
507.820303
 30
0.0
 11
719.810154
 21
507.820303
 31
0.0
  0
LINE
  5
31C0
100
AcDbEntity
  8
0
100
AcDbLine
 10
719.810154
 20
507.820303
 30
0.0
 11
719.790154
 21
507.820303
 31
0.0
  0
LINE
  5
31C1
100
AcDbEntity
  8
0
100
AcDbLine
 10
719.790154
 20
507.820303
 30
0.0
 11
719.770154
 21
507.820303
 31
0.0
  0
LINE
  5
31C2
100
AcDbEntity
  8
0
100
AcDbLine
 10
719.770154
 20
507.820303
 30
0.0
 11
719.750154
 21
507.820303
 31
0.0
  0
LINE
  5
31C3
100
AcDbEntity
  8
0
100
AcDbLine
 10
719.750154
 20
507.820303
 30
0.0
 11
719.730154
 21
507.820303
 31
0.0
  0
LINE
  5
31C4
100
AcDbEntity
  8
0
100
AcDbLine
 10
719.730154
 20
507.820303
 30
0.0
 11
719.710154
 21
507.820303
 31
0.0
  0
LINE
  5
31C5
100
AcDbEntity
  8
0
100
AcDbLine
 10
719.710154
 20
507.820303
 30
0.0
 11
719.690154
 21
507.820303
 31
0.0
  0
LINE
  5
31C6
100
AcDbEntity
  8
0
100
AcDbLine
 10
719.690154
 20
507.820303
 30
0.0
 11
719.670154
 21
507.820303
 31
0.0
  0
LINE
  5
31C7
100
AcDbEntity
  8
0
100
AcDbLine
 10
719.670154
 20
507.820303
 30
0.0
 11
719.640154
 21
507.820303
 31
0.0
  0
LINE
  5
31C8
100
AcDbEntity
  8
0
100
AcDbLine
 10
735.530154
 20
529.320303
 30
0.0
 11
735.530154
 21
545.890303
 31
0.0
  0
ARC
  5
31C9
100
AcDbEntity
  8
0
100
AcDbCircle
 10
685.600779
 20
551.798559
 30
0.0
 40
30.927969
100
AcDbArc
 50
323.111117
 51
336.811222
  0
LINE
  5
31CA
100
AcDbEntity
  8
0
100
AcDbLine
 10
734.030154
 20
545.890303
 30
0.0
 11
734.030154
 21
527.820303
 31
0.0
  0
LINE
  5
31CB
100
AcDbEntity
  8
0
100
AcDbLine
 10
721.530154
 20
527.820303
 30
0.0
 11
734.030154
 21
527.820303
 31
0.0
  0
LINE
  5
31CC
100
AcDbEntity
  8
0
100
AcDbLine
 10
718.490154
 20
526.370303
 30
0.0
 11
714.740154
 21
519.870303
 31
0.0
  0
LINE
  5
31CD
100
AcDbEntity
  8
0
100
AcDbLine
 10
714.740154
 20
532.870303
 30
0.0
 11
718.490154
 21
526.370303
 31
0.0
  0
LINE
  5
31CE
100
AcDbEntity
  8
0
100
AcDbLine
 10
729.530154
 20
527.820303
 30
0.0
 11
729.530154
 21
517.530303
 31
0.0
  0
LINE
  5
31CF
100
AcDbEntity
  8
0
100
AcDbLine
 10
734.030154
 20
527.820303
 30
0.0
 11
735.530154
 21
529.320303
 31
0.0
  0
ARC
  5
31D0
100
AcDbEntity
  8
0
100
AcDbCircle
 10
724.506318
 20
543.844139
 30
0.0
 40
2.023976
100
AcDbArc
 50
270.674761
 51
359.325239
  0
LINE
  5
31D1
100
AcDbEntity
  8
0
100
AcDbLine
 10
724.530154
 20
541.820303
 30
0.0
 11
721.530154
 21
541.820303
 31
0.0
  0
LINE
  5
31D2
100
AcDbEntity
  8
0
100
AcDbLine
 10
729.420154
 20
551.820303
 30
0.0
 11
736.450154
 21
551.820303
 31
0.0
  0
LINE
  5
31D3
100
AcDbEntity
  8
0
100
AcDbLine
 10
729.420154
 20
545.230303
 30
0.0
 11
726.530154
 21
545.320303
 31
0.0
  0
LINE
  5
31D4
100
AcDbEntity
  8
0
100
AcDbLine
 10
729.420154
 20
545.890303
 30
0.0
 11
736.450154
 21
545.890303
 31
0.0
  0
LINE
  5
31D5
100
AcDbEntity
  8
0
100
AcDbLine
 10
651.250154
 20
595.820303
 30
0.0
 11
719.810154
 21
595.820303
 31
0.0
  0
LINE
  5
31D6
100
AcDbEntity
  8
0
100
AcDbLine
 10
660.070154
 20
587.820303
 30
0.0
 11
710.990154
 21
587.820303
 31
0.0
  0
LINE
  5
31D7
100
AcDbEntity
  8
0
100
AcDbLine
 10
714.740154
 20
583.780303
 30
0.0
 11
707.230154
 21
583.780303
 31
0.0
  0
LINE
  5
31D8
100
AcDbEntity
  8
0
100
AcDbLine
 10
707.230154
 20
570.780303
 30
0.0
 11
714.740154
 21
570.780303
 31
0.0
  0
ARC
  5
31D9
100
AcDbEntity
  8
0
100
AcDbCircle
 10
711.41899
 20
596.671084
 30
0.0
 40
26.286334
100
AcDbArc
 50
212.359051
 51
267.640949
  0
ARC
  5
31DA
100
AcDbEntity
  8
0
100
AcDbCircle
 10
711.41899
 20
596.671084
 30
0.0
 40
26.286334
100
AcDbArc
 50
212.359051
 51
267.640949
  0
ARC
  5
31DB
100
AcDbEntity
  8
0
100
AcDbCircle
 10
659.632657
 20
596.666084
 30
0.0
 40
26.286334
100
AcDbArc
 50
272.359051
 51
327.640949
  0
LINE
  5
31DC
100
AcDbEntity
  8
0
100
AcDbLine
 10
663.830154
 20
583.780303
 30
0.0
 11
667.580154
 21
577.280303
 31
0.0
  0
LINE
  5
31DD
100
AcDbEntity
  8
0
100
AcDbLine
 10
652.570154
 20
577.280303
 30
0.0
 11
656.320154
 21
583.780303
 31
0.0
  0
LINE
  5
31DE
100
AcDbEntity
  8
0
100
AcDbLine
 10
667.580154
 20
577.280303
 30
0.0
 11
663.830154
 21
570.780303
 31
0.0
  0
LINE
  5
31DF
100
AcDbEntity
  8
0
100
AcDbLine
 10
663.830154
 20
570.780303
 30
0.0
 11
656.320154
 21
570.780303
 31
0.0
  0
LINE
  5
31E0
100
AcDbEntity
  8
0
100
AcDbLine
 10
656.320154
 20
570.780303
 30
0.0
 11
652.570154
 21
577.280303
 31
0.0
  0
ARC
  5
31E1
100
AcDbEntity
  8
0
100
AcDbCircle
 10
685.459529
 20
551.842048
 30
0.0
 40
30.927969
100
AcDbArc
 50
143.111117
 51
156.811222
  0
LINE
  5
31E2
100
AcDbEntity
  8
0
100
AcDbLine
 10
656.320154
 20
583.780303
 30
0.0
 11
663.830154
 21
583.780303
 31
0.0
  0
LINE
  5
31E3
100
AcDbEntity
  8
0
100
AcDbLine
 10
707.230154
 20
583.780303
 30
0.0
 11
703.480154
 21
577.280303
 31
0.0
  0
LINE
  5
31E4
100
AcDbEntity
  8
0
100
AcDbLine
 10
703.480154
 20
577.280303
 30
0.0
 11
707.230154
 21
570.780303
 31
0.0
  0
ARC
  5
31E5
100
AcDbEntity
  8
0
100
AcDbCircle
 10
685.546635
 20
551.892339
 30
0.0
 40
30.927969
100
AcDbArc
 50
83.188778
 51
96.888883
  0
LINE
  5
31E6
100
AcDbEntity
  8
0
100
AcDbLine
 10
700.530154
 20
639.111034
 30
0.0
 11
670.530154
 21
639.111034
 31
0.0
  0
LINE
  5
31E7
100
AcDbEntity
  8
0
100
AcDbLine
 10
729.530154
 20
586.120303
 30
0.0
 11
729.530154
 21
575.820303
 31
0.0
  0
ARC
  5
31E8
100
AcDbEntity
  8
0
100
AcDbCircle
 10
710.997282
 20
577.287399
 30
0.0
 40
10.532907
100
AcDbArc
 50
359.852607
 51
90.038775
  0
LINE
  5
31E9
100
AcDbEntity
  8
0
100
AcDbLine
 10
718.490154
 20
577.280303
 30
0.0
 11
714.740154
 21
583.780303
 31
0.0
  0
LINE
  5
31EA
100
AcDbEntity
  8
0
100
AcDbLine
 10
734.030154
 20
575.820303
 30
0.0
 11
721.530154
 21
575.820303
 31
0.0
  0
ARC
  5
31EB
100
AcDbEntity
  8
0
100
AcDbCircle
 10
724.522439
 20
559.812589
 30
0.0
 40
2.00773
100
AcDbArc
 50
0.22016
 51
89.77984
  0
LINE
  5
31EC
100
AcDbEntity
  8
0
100
AcDbLine
 10
714.740154
 20
570.780303
 30
0.0
 11
718.490154
 21
577.280303
 31
0.0
  0
LINE
  5
31ED
100
AcDbEntity
  8
0
100
AcDbLine
 10
721.530154
 20
561.820303
 30
0.0
 11
724.530154
 21
561.820303
 31
0.0
  0
ARC
  5
31EE
100
AcDbEntity
  8
0
100
AcDbCircle
 10
685.584298
 20
551.870594
 30
0.0
 40
30.927969
100
AcDbArc
 50
23.111117
 51
36.811222
  0
LINE
  5
31EF
100
AcDbEntity
  8
0
100
AcDbLine
 10
735.530154
 20
574.320303
 30
0.0
 11
734.030154
 21
575.820303
 31
0.0
  0
LINE
  5
31F0
100
AcDbEntity
  8
0
100
AcDbLine
 10
726.530154
 20
558.330303
 30
0.0
 11
729.420154
 21
558.420303
 31
0.0
  0
LINE
  5
31F1
100
AcDbEntity
  8
0
100
AcDbLine
 10
736.450154
 20
557.750303
 30
0.0
 11
729.420154
 21
557.750303
 31
0.0
  0
LINE
  5
31F2
100
AcDbEntity
  8
0
100
AcDbLine
 10
734.030154
 20
575.820303
 30
0.0
 11
734.030154
 21
557.750303
 31
0.0
  0
LINE
  5
31F3
100
AcDbEntity
  8
0
100
AcDbLine
 10
735.530154
 20
557.750303
 30
0.0
 11
735.530154
 21
574.320303
 31
0.0
  0
ARC
  5
31F4
100
AcDbEntity
  8
0
100
AcDbCircle
 10
719.73369
 20
586.023469
 30
0.0
 40
9.796848
100
AcDbArc
 50
0.507848
 51
89.903716
  0
ARC
  5
31F5
100
AcDbEntity
  8
0
100
AcDbCircle
 10
719.796282
 20
586.06158
 30
0.0
 40
4.012848
100
AcDbArc
 50
278.241054
 51
171.597104
  0
LINE
  5
31F6
100
AcDbEntity
  8
0
100
AcDbLine
 10
751.198022
 20
691.658836
 30
0.0
 11
782.710397
 21
691.658836
 31
0.0
  0
LINE
  5
31F7
100
AcDbEntity
  8
0
100
AcDbLine
 10
789.012647
 20
697.961086
 30
0.0
 11
770.105897
 21
697.961086
 31
0.0
  0
ARC
  5
31F8
100
AcDbEntity
  8
0
100
AcDbCircle
 10
660.484112
 20
724.647013
 30
0.0
 40
4.046202
100
AcDbArc
 50
287.638517
 51
359.490521
  0
ARC
  5
31F9
100
AcDbEntity
  8
0
100
AcDbCircle
 10
652.535515
 20
724.605672
 30
0.0
 40
3.994642
100
AcDbArc
 50
269.9231
 51
0.0769
  0
ARC
  5
31FA
100
AcDbEntity
  8
0
100
AcDbCircle
 10
718.5602
 20
724.64108
 30
0.0
 40
4.030158
100
AcDbArc
 50
180.427165
 51
269.572835
  0
ARC
  5
31FB
100
AcDbEntity
  8
0
100
AcDbCircle
 10
710.576196
 20
724.647013
 30
0.0
 40
4.046202
100
AcDbArc
 50
180.509479
 51
252.361483
  0
LINE
  5
31FC
100
AcDbEntity
  8
0
100
AcDbLine
 10
658.530154
 20
658.611034
 30
0.0
 11
712.530154
 21
658.611034
 31
0.0
  0
LINE
  5
31FD
100
AcDbEntity
  8
0
100
AcDbLine
 10
712.530154
 20
658.611034
 30
0.0
 11
658.530154
 21
658.611034
 31
0.0
  0
LINE
  5
31FE
100
AcDbEntity
  8
0
100
AcDbLine
 10
711.530154
 20
652.611034
 30
0.0
 11
659.530154
 21
652.611034
 31
0.0
  0
LINE
  5
31FF
100
AcDbEntity
  8
0
100
AcDbLine
 10
712.530154
 20
658.611034
 30
0.0
 11
658.530154
 21
658.611034
 31
0.0
  0
LINE
  5
3200
100
AcDbEntity
  8
0
100
AcDbLine
 10
709.350154
 20
720.791034
 30
0.0
 11
710.530154
 21
720.611034
 31
0.0
  0
LINE
  5
3201
100
AcDbEntity
  8
0
100
AcDbLine
 10
711.870154
 20
718.411034
 30
0.0
 11
700.850154
 21
709.291034
 31
0.0
  0
ARC
  5
3202
100
AcDbEntity
  8
0
100
AcDbCircle
 10
700.547126
 20
687.644978
 30
0.0
 40
14.966066
100
AcDbArc
 50
36.804923
 51
90.064975
  0
LINE
  5
3203
100
AcDbEntity
  8
0
100
AcDbLine
 10
653.530154
 20
672.611034
 30
0.0
 11
656.770154
 21
688.171034
 31
0.0
  0
LINE
  5
3204
100
AcDbEntity
  8
0
100
AcDbLine
 10
658.530154
 20
671.271288
 30
0.0
 11
658.530154
 21
658.611034
 31
0.0
  0
LINE
  5
3205
100
AcDbEntity
  8
0
100
AcDbLine
 10
659.530154
 20
652.611034
 30
0.0
 11
658.530154
 21
653.611034
 31
0.0
  0
LINE
  5
3206
100
AcDbEntity
  8
0
100
AcDbLine
 10
658.530154
 20
658.611034
 30
0.0
 11
658.530154
 21
653.611034
 31
0.0
  0
LINE
  5
3207
100
AcDbEntity
  8
0
100
AcDbLine
 10
667.530154
 20
640.843085
 30
0.0
 11
667.530154
 21
652.611034
 31
0.0
  0
LINE
  5
3208
100
AcDbEntity
  8
0
100
AcDbLine
 10
675.796853
 20
640.843085
 30
0.0
 11
677.283943
 21
640.843085
 31
0.0
  0
LINE
  5
3209
100
AcDbEntity
  8
0
100
AcDbLine
 10
675.796853
 20
640.843085
 30
0.0
 11
675.796853
 21
652.611034
 31
0.0
  0
LINE
  5
320A
100
AcDbEntity
  8
0
100
AcDbLine
 10
677.283943
 20
640.843085
 30
0.0
 11
677.283943
 21
652.611034
 31
0.0
  0
LINE
  5
320B
100
AcDbEntity
  8
0
100
AcDbLine
 10
657.756651
 20
672.611034
 30
0.0
 11
658.530154
 21
671.271288
 31
0.0
  0
LINE
  5
320C
100
AcDbEntity
  8
0
100
AcDbLine
 10
693.776365
 20
640.843085
 30
0.0
 11
695.263455
 21
640.843085
 31
0.0
  0
LINE
  5
320D
100
AcDbEntity
  8
0
100
AcDbLine
 10
693.776365
 20
640.843085
 30
0.0
 11
693.776365
 21
652.611034
 31
0.0
  0
LINE
  5
320E
100
AcDbEntity
  8
0
100
AcDbLine
 10
695.263455
 20
640.843085
 30
0.0
 11
695.263455
 21
652.611034
 31
0.0
  0
LINE
  5
320F
100
AcDbEntity
  8
0
100
AcDbLine
 10
703.530154
 20
640.843085
 30
0.0
 11
703.530154
 21
652.611034
 31
0.0
  0
LINE
  5
3210
100
AcDbEntity
  8
0
100
AcDbLine
 10
700.530154
 20
702.611034
 30
0.0
 11
670.530154
 21
702.611034
 31
0.0
  0
ARC
  5
3211
100
AcDbEntity
  8
0
100
AcDbCircle
 10
670.513182
 20
687.644978
 30
0.0
 40
14.966066
100
AcDbArc
 50
89.935025
 51
143.195077
  0
LINE
  5
3212
100
AcDbEntity
  8
0
100
AcDbLine
 10
659.190154
 20
718.411034
 30
0.0
 11
670.210154
 21
709.291034
 31
0.0
  0
LINE
  5
3213
100
AcDbEntity
  8
0
100
AcDbLine
 10
661.710154
 20
720.791034
 30
0.0
 11
660.530154
 21
720.611034
 31
0.0
  0
LINE
  5
3214
100
AcDbEntity
  8
0
100
AcDbLine
 10
735.530154
 20
696.611034
 30
0.0
 11
735.530154
 21
674.111034
 31
0.0
  0
LINE
  5
3215
100
AcDbEntity
  8
0
100
AcDbLine
 10
717.530154
 20
672.611034
 30
0.0
 11
714.290154
 21
688.171034
 31
0.0
  0
LINE
  5
3216
100
AcDbEntity
  8
0
100
AcDbLine
 10
734.030154
 20
720.611034
 30
0.0
 11
734.030154
 21
672.611034
 31
0.0
  0
LINE
  5
3217
100
AcDbEntity
  8
0
100
AcDbLine
 10
712.530154
 20
671.271288
 30
0.0
 11
712.530154
 21
658.611034
 31
0.0
  0
LINE
  5
3218
100
AcDbEntity
  8
0
100
AcDbLine
 10
711.530154
 20
652.611034
 30
0.0
 11
712.530154
 21
653.611034
 31
0.0
  0
LINE
  5
3219
100
AcDbEntity
  8
0
100
AcDbLine
 10
712.530154
 20
658.611034
 30
0.0
 11
712.530154
 21
653.611034
 31
0.0
  0
LINE
  5
321A
100
AcDbEntity
  8
0
100
AcDbLine
 10
713.303657
 20
672.611034
 30
0.0
 11
734.030154
 21
672.611034
 31
0.0
  0
LINE
  5
321B
100
AcDbEntity
  8
0
100
AcDbLine
 10
713.303657
 20
672.611034
 30
0.0
 11
712.530154
 21
671.271288
 31
0.0
  0
LINE
  5
321C
100
AcDbEntity
  8
0
100
AcDbLine
 10
734.030154
 20
672.611034
 30
0.0
 11
735.530154
 21
674.111034
 31
0.0
  0
LINE
  5
321D
100
AcDbEntity
  8
0
100
AcDbLine
 10
735.530154
 20
696.611034
 30
0.0
 11
735.530154
 21
719.111034
 31
0.0
  0
LINE
  5
321E
100
AcDbEntity
  8
0
100
AcDbLine
 10
734.030154
 20
720.611034
 30
0.0
 11
718.530154
 21
720.611034
 31
0.0
  0
LINE
  5
321F
100
AcDbEntity
  8
0
100
AcDbLine
 10
735.530154
 20
719.111034
 30
0.0
 11
734.030154
 21
720.611034
 31
0.0
  0
LINE
  5
3220
100
AcDbEntity
  8
0
100
AcDbLine
 10
757.637522
 20
697.961086
 30
0.0
 11
751.198022
 21
691.658836
 31
0.0
  0
LINE
  5
3221
100
AcDbEntity
  8
0
100
AcDbLine
 10
770.105897
 20
697.961086
 30
0.0
 11
766.953647
 21
694.809961
 31
0.0
  0
LINE
  5
3222
100
AcDbEntity
  8
0
100
AcDbLine
 10
757.637522
 20
694.809961
 30
0.0
 11
757.637522
 21
697.961086
 31
0.0
  0
LINE
  5
3223
100
AcDbEntity
  8
0
100
AcDbLine
 10
766.953647
 20
694.809961
 30
0.0
 11
757.637522
 21
694.809961
 31
0.0
  0
LINE
  5
3224
100
AcDbEntity
  8
0
100
AcDbLine
 10
720.030154
 20
767.611034
 30
0.0
 11
650.920154
 21
767.601034
 31
0.0
  0
LINE
  5
3225
100
AcDbEntity
  8
0
100
AcDbLine
 10
649.530154
 20
756.611034
 30
0.0
 11
721.530154
 21
756.611034
 31
0.0
  0
LINE
  5
3226
100
AcDbEntity
  8
0
100
AcDbLine
 10
716.030154
 20
745.611034
 30
0.0
 11
655.030154
 21
745.611034
 31
0.0
  0
LINE
  5
3227
100
AcDbEntity
  8
0
100
AcDbLine
 10
651.030154
 20
794.411034
 30
0.0
 11
720.030154
 21
794.411034
 31
0.0
  0
LINE
  5
3228
100
AcDbEntity
  8
0
100
AcDbLine
 10
706.670154
 20
792.611034
 30
0.0
 11
714.670154
 21
792.611034
 31
0.0
  0
LINE
  5
3229
100
AcDbEntity
  8
0
100
AcDbLine
 10
707.870154
 20
791.411034
 30
0.0
 11
713.470154
 21
791.411034
 31
0.0
  0
ARC
  5
322A
100
AcDbEntity
  8
0
100
AcDbCircle
 10
710.985154
 20
759.448996
 30
0.0
 40
14.467822
100
AcDbArc
 50
74.957143
 51
105.042857
  0
LINE
  5
322B
100
AcDbEntity
  8
0
100
AcDbLine
 10
714.990154
 20
775.911034
 30
0.0
 11
706.990154
 21
775.911034
 31
0.0
  0
ARC
  5
322C
100
AcDbEntity
  8
0
100
AcDbCircle
 10
710.990154
 20
769.844367
 30
0.0
 40
7.266667
100
AcDbArc
 50
56.601512
 51
123.398488
  0
LINE
  5
322D
100
AcDbEntity
  8
0
100
AcDbLine
 10
710.990154
 20
774.111034
 30
0.0
 11
704.680154
 21
774.111034
 31
0.0
  0
LINE
  5
322E
100
AcDbEntity
  8
0
100
AcDbLine
 10
725.530154
 20
781.611034
 30
0.0
 11
705.530154
 21
781.611034
 31
0.0
  0
LINE
  5
322F
100
AcDbEntity
  8
0
100
AcDbLine
 10
713.790154
 20
742.111034
 30
0.0
 11
708.190154
 21
742.111034
 31
0.0
  0
LINE
  5
3230
100
AcDbEntity
  8
0
100
AcDbLine
 10
714.990154
 20
743.311034
 30
0.0
 11
706.990154
 21
743.311034
 31
0.0
  0
LINE
  5
3231
100
AcDbEntity
  8
0
100
AcDbLine
 10
685.530154
 20
756.611034
 30
0.0
 11
721.530154
 21
756.611034
 31
0.0
  0
LINE
  5
3232
100
AcDbEntity
  8
0
100
AcDbLine
 10
649.530154
 20
766.111034
 30
0.0
 11
649.530154
 21
747.111034
 31
0.0
  0
LINE
  5
3233
100
AcDbEntity
  8
0
100
AcDbLine
 10
649.530154
 20
756.611034
 30
0.0
 11
685.530154
 21
756.611034
 31
0.0
  0
LINE
  5
3234
100
AcDbEntity
  8
0
100
AcDbLine
 10
656.530154
 20
742.851034
 30
0.0
 11
656.530154
 21
724.611034
 31
0.0
  0
LINE
  5
3235
100
AcDbEntity
  8
0
100
AcDbLine
 10
664.530154
 20
741.611034
 30
0.0
 11
664.530154
 21
724.611034
 31
0.0
  0
LINE
  5
3236
100
AcDbEntity
  8
0
100
AcDbLine
 10
664.070154
 20
743.311034
 30
0.0
 11
664.070154
 21
745.611034
 31
0.0
  0
LINE
  5
3237
100
AcDbEntity
  8
0
100
AcDbLine
 10
662.870154
 20
742.111034
 30
0.0
 11
664.070154
 21
743.311034
 31
0.0
  0
LINE
  5
3238
100
AcDbEntity
  8
0
100
AcDbLine
 10
655.030154
 20
745.611034
 30
0.0
 11
651.030154
 21
745.611034
 31
0.0
  0
LINE
  5
3239
100
AcDbEntity
  8
0
100
AcDbLine
 10
656.070154
 20
745.611034
 30
0.0
 11
656.070154
 21
743.311034
 31
0.0
  0
ARC
  5
323A
100
AcDbEntity
  8
0
100
AcDbCircle
 10
655.046154
 20
744.153034
 30
0.0
 40
1.458088
100
AcDbArc
 50
45.389005
 51
90.628735
  0
LINE
  5
323B
100
AcDbEntity
  8
0
100
AcDbLine
 10
656.070154
 20
743.311034
 30
0.0
 11
657.270154
 21
742.111034
 31
0.0
  0
LINE
  5
323C
100
AcDbEntity
  8
0
100
AcDbLine
 10
657.270154
 20
742.111034
 30
0.0
 11
662.870154
 21
742.111034
 31
0.0
  0
LINE
  5
323D
100
AcDbEntity
  8
0
100
AcDbLine
 10
656.070154
 20
743.311034
 30
0.0
 11
664.070154
 21
743.311034
 31
0.0
  0
LINE
  5
323E
100
AcDbEntity
  8
0
100
AcDbLine
 10
706.530154
 20
741.611034
 30
0.0
 11
706.530154
 21
724.611034
 31
0.0
  0
LINE
  5
323F
100
AcDbEntity
  8
0
100
AcDbLine
 10
706.990154
 20
743.311034
 30
0.0
 11
706.990154
 21
745.611034
 31
0.0
  0
LINE
  5
3240
100
AcDbEntity
  8
0
100
AcDbLine
 10
708.190154
 20
742.111034
 30
0.0
 11
706.990154
 21
743.311034
 31
0.0
  0
LINE
  5
3241
100
AcDbEntity
  8
0
100
AcDbLine
 10
700.090154
 20
790.581034
 30
0.0
 11
677.540154
 21
790.581034
 31
0.0
  0
LINE
  5
3242
100
AcDbEntity
  8
0
100
AcDbLine
 10
665.970154
 20
792.771034
 30
0.0
 11
663.270154
 21
777.481034
 31
0.0
  0
ARC
  5
3243
100
AcDbEntity
  8
0
100
AcDbCircle
 10
655.728274
 20
780.582863
 30
0.0
 40
4.028297
100
AcDbArc
 50
350.399501
 51
89.546563
  0
ARC
  5
3244
100
AcDbEntity
  8
0
100
AcDbCircle
 10
665.710154
 20
769.277046
 30
0.0
 40
4.550498
100
AcDbArc
 50
65.597663
 51
114.402337
  0
LINE
  5
3245
100
AcDbEntity
  8
0
100
AcDbLine
 10
666.380154
 20
774.111034
 30
0.0
 11
660.080154
 21
774.111034
 31
0.0
  0
LINE
  5
3246
100
AcDbEntity
  8
0
100
AcDbLine
 10
659.700154
 20
779.911034
 30
0.0
 11
659.200154
 21
777.061034
 31
0.0
  0
LINE
  5
3247
100
AcDbEntity
  8
0
100
AcDbLine
 10
664.080154
 20
774.111034
 30
0.0
 11
664.080154
 21
775.911034
 31
0.0
  0
LINE
  5
3248
100
AcDbEntity
  8
0
100
AcDbLine
 10
653.770154
 20
774.111034
 30
0.0
 11
652.570154
 21
773.421034
 31
0.0
  0
ARC
  5
3249
100
AcDbEntity
  8
0
100
AcDbCircle
 10
654.440154
 20
769.277046
 30
0.0
 40
4.550498
100
AcDbArc
 50
65.597663
 51
114.402337
  0
LINE
  5
324A
100
AcDbEntity
  8
0
100
AcDbLine
 10
652.560154
 20
773.421034
 30
0.0
 11
652.570154
 21
773.421034
 31
0.0
  0
LINE
  5
324B
100
AcDbEntity
  8
0
100
AcDbLine
 10
656.080154
 20
775.911034
 30
0.0
 11
656.080154
 21
774.111034
 31
0.0
  0
ARC
  5
324C
100
AcDbEntity
  8
0
100
AcDbCircle
 10
660.075154
 20
759.448996
 30
0.0
 40
14.467822
100
AcDbArc
 50
74.957143
 51
105.042857
  0
ARC
  5
324D
100
AcDbEntity
  8
0
100
AcDbCircle
 10
660.080154
 20
769.844367
 30
0.0
 40
7.266667
100
AcDbArc
 50
56.601512
 51
123.398488
  0
LINE
  5
324E
100
AcDbEntity
  8
0
100
AcDbLine
 10
660.080154
 20
774.111034
 30
0.0
 11
653.770154
 21
774.111034
 31
0.0
  0
LINE
  5
324F
100
AcDbEntity
  8
0
100
AcDbLine
 10
664.080154
 20
775.911034
 30
0.0
 11
656.080154
 21
775.911034
 31
0.0
  0
LINE
  5
3250
100
AcDbEntity
  8
0
100
AcDbLine
 10
652.570154
 20
773.421034
 30
0.0
 11
652.570154
 21
767.611034
 31
0.0
  0
LINE
  5
3251
100
AcDbEntity
  8
0
100
AcDbLine
 10
656.320154
 20
767.611034
 30
0.0
 11
656.320154
 21
773.421034
 31
0.0
  0
LINE
  5
3252
100
AcDbEntity
  8
0
100
AcDbLine
 10
663.830154
 20
767.611034
 30
0.0
 11
663.830154
 21
773.421034
 31
0.0
  0
LINE
  5
3253
100
AcDbEntity
  8
0
100
AcDbLine
 10
667.590154
 20
773.421034
 30
0.0
 11
666.390154
 21
774.111034
 31
0.0
  0
LINE
  5
3254
100
AcDbEntity
  8
0
100
AcDbLine
 10
667.590154
 20
773.421034
 30
0.0
 11
667.590154
 21
767.611034
 31
0.0
  0
LINE
  5
3255
100
AcDbEntity
  8
0
100
AcDbLine
 10
664.070154
 20
792.611034
 30
0.0
 11
664.070154
 21
794.411034
 31
0.0
  0
LINE
  5
3256
100
AcDbEntity
  8
0
100
AcDbLine
 10
661.640154
 20
790.881034
 30
0.0
 11
660.960154
 21
787.041034
 31
0.0
  0
LINE
  5
3257
100
AcDbEntity
  8
0
100
AcDbLine
 10
662.870154
 20
791.411034
 30
0.0
 11
664.070154
 21
792.611034
 31
0.0
  0
LINE
  5
3258
100
AcDbEntity
  8
0
100
AcDbLine
 10
656.070154
 20
794.411034
 30
0.0
 11
656.070154
 21
792.611034
 31
0.0
  0
LINE
  5
3259
100
AcDbEntity
  8
0
100
AcDbLine
 10
656.070154
 20
792.611034
 30
0.0
 11
657.270154
 21
791.411034
 31
0.0
  0
LINE
  5
325A
100
AcDbEntity
  8
0
100
AcDbLine
 10
657.270154
 20
791.411034
 30
0.0
 11
662.870154
 21
791.411034
 31
0.0
  0
LINE
  5
325B
100
AcDbEntity
  8
0
100
AcDbLine
 10
656.070154
 20
792.611034
 30
0.0
 11
664.070154
 21
792.611034
 31
0.0
  0
ARC
  5
325C
100
AcDbEntity
  8
0
100
AcDbCircle
 10
705.528572
 20
783.609452
 30
0.0
 40
1.998418
100
AcDbArc
 50
179.954635
 51
270.045365
  0
LINE
  5
325D
100
AcDbEntity
  8
0
100
AcDbLine
 10
706.990154
 20
775.911034
 30
0.0
 11
706.990154
 21
774.111034
 31
0.0
  0
LINE
  5
325E
100
AcDbEntity
  8
0
100
AcDbLine
 10
704.680154
 20
774.111034
 30
0.0
 11
703.480154
 21
773.421034
 31
0.0
  0
LINE
  5
325F
100
AcDbEntity
  8
0
100
AcDbLine
 10
703.470154
 20
773.421034
 30
0.0
 11
703.480154
 21
773.421034
 31
0.0
  0
ARC
  5
3260
100
AcDbEntity
  8
0
100
AcDbCircle
 10
705.350154
 20
769.277046
 30
0.0
 40
4.550498
100
AcDbArc
 50
65.597663
 51
114.402337
  0
LINE
  5
3261
100
AcDbEntity
  8
0
100
AcDbLine
 10
703.480154
 20
773.421034
 30
0.0
 11
703.480154
 21
767.611034
 31
0.0
  0
LINE
  5
3262
100
AcDbEntity
  8
0
100
AcDbLine
 10
707.230154
 20
767.611034
 30
0.0
 11
707.230154
 21
773.421034
 31
0.0
  0
LINE
  5
3263
100
AcDbEntity
  8
0
100
AcDbLine
 10
706.670154
 20
794.411034
 30
0.0
 11
706.670154
 21
792.611034
 31
0.0
  0
ARC
  5
3264
100
AcDbEntity
  8
0
100
AcDbCircle
 10
710.832097
 20
784.201894
 30
0.0
 40
10.261093
100
AcDbArc
 50
113.928996
 51
131.969435
  0
LINE
  5
3265
100
AcDbEntity
  8
0
100
AcDbLine
 10
703.530154
 20
783.611034
 30
0.0
 11
703.530154
 21
790.581034
 31
0.0
  0
LINE
  5
3266
100
AcDbEntity
  8
0
100
AcDbLine
 10
706.670154
 20
792.611034
 30
0.0
 11
707.870154
 21
791.411034
 31
0.0
  0
ARC
  5
3267
100
AcDbEntity
  8
0
100
AcDbCircle
 10
705.478643
 20
790.597606
 30
0.0
 40
1.94856
100
AcDbArc
 50
140.728577
 51
180.487286
  0
ARC
  5
3268
100
AcDbEntity
  8
0
100
AcDbCircle
 10
726.38478
 20
759.216034
 30
0.0
 40
6.145376
100
AcDbArc
 50
325.678321
 51
34.321679
  0
ARC
  5
3269
100
AcDbEntity
  8
0
100
AcDbCircle
 10
731.675528
 20
759.216034
 30
0.0
 40
6.145376
100
AcDbArc
 50
145.678321
 51
214.321679
  0
LINE
  5
326A
100
AcDbEntity
  8
0
100
AcDbLine
 10
721.530154
 20
766.111034
 30
0.0
 11
721.510154
 21
746.891034
 31
0.0
  0
LINE
  5
326B
100
AcDbEntity
  8
0
100
AcDbLine
 10
732.530154
 20
757.611034
 30
0.0
 11
732.530154
 21
781.611034
 31
0.0
  0
LINE
  5
326C
100
AcDbEntity
  8
0
100
AcDbLine
 10
725.530154
 20
781.611034
 30
0.0
 11
725.530154
 21
757.611034
 31
0.0
  0
LINE
  5
326D
100
AcDbEntity
  8
0
100
AcDbLine
 10
714.530154
 20
724.611034
 30
0.0
 11
714.530154
 21
742.851034
 31
0.0
  0
LINE
  5
326E
100
AcDbEntity
  8
0
100
AcDbLine
 10
721.530154
 20
757.611034
 30
0.0
 11
725.530154
 21
757.611034
 31
0.0
  0
ARC
  5
326F
100
AcDbEntity
  8
0
100
AcDbCircle
 10
716.014154
 20
744.153034
 30
0.0
 40
1.458088
100
AcDbArc
 50
89.371265
 51
134.610995
  0
LINE
  5
3270
100
AcDbEntity
  8
0
100
AcDbLine
 10
714.990154
 20
743.311034
 30
0.0
 11
713.790154
 21
742.111034
 31
0.0
  0
LINE
  5
3271
100
AcDbEntity
  8
0
100
AcDbLine
 10
714.990154
 20
745.611034
 30
0.0
 11
714.990154
 21
743.311034
 31
0.0
  0
LINE
  5
3272
100
AcDbEntity
  8
0
100
AcDbLine
 10
720.030154
 20
745.611034
 30
0.0
 11
716.030154
 21
745.611034
 31
0.0
  0
ARC
  5
3273
100
AcDbEntity
  8
0
100
AcDbCircle
 10
720.026171
 20
747.115017
 30
0.0
 40
1.503988
100
AcDbArc
 50
270.151738
 51
359.848262
  0
LINE
  5
3274
100
AcDbEntity
  8
0
100
AcDbLine
 10
731.460154
 20
755.751034
 30
0.0
 11
732.530154
 21
757.611034
 31
0.0
  0
LINE
  5
3275
100
AcDbEntity
  8
0
100
AcDbLine
 10
725.530154
 20
757.611034
 30
0.0
 11
726.600154
 21
755.751034
 31
0.0
  0
LINE
  5
3276
100
AcDbEntity
  8
0
100
AcDbLine
 10
726.600154
 20
755.751034
 30
0.0
 11
731.460154
 21
755.751034
 31
0.0
  0
LINE
  5
3277
100
AcDbEntity
  8
0
100
AcDbLine
 10
726.600154
 20
783.471034
 30
0.0
 11
725.530154
 21
781.611034
 31
0.0
  0
ARC
  5
3278
100
AcDbEntity
  8
0
100
AcDbCircle
 10
731.675528
 20
780.006034
 30
0.0
 40
6.145376
100
AcDbArc
 50
145.678321
 51
214.321679
  0
LINE
  5
3279
100
AcDbEntity
  8
0
100
AcDbLine
 10
732.530154
 20
781.611034
 30
0.0
 11
731.460154
 21
783.471034
 31
0.0
  0
ARC
  5
327A
100
AcDbEntity
  8
0
100
AcDbCircle
 10
726.38478
 20
780.006034
 30
0.0
 40
6.145376
100
AcDbArc
 50
325.678321
 51
34.321679
  0
LINE
  5
327B
100
AcDbEntity
  8
0
100
AcDbLine
 10
718.490154
 20
773.421034
 30
0.0
 11
717.290154
 21
774.111034
 31
0.0
  0
ARC
  5
327C
100
AcDbEntity
  8
0
100
AcDbCircle
 10
716.620154
 20
769.277046
 30
0.0
 40
4.550498
100
AcDbArc
 50
65.597663
 51
114.402337
  0
LINE
  5
327D
100
AcDbEntity
  8
0
100
AcDbLine
 10
714.990154
 20
774.111034
 30
0.0
 11
714.990154
 21
775.911034
 31
0.0
  0
LINE
  5
327E
100
AcDbEntity
  8
0
100
AcDbLine
 10
717.290154
 20
774.111034
 30
0.0
 11
710.990154
 21
774.111034
 31
0.0
  0
ARC
  5
327F
100
AcDbEntity
  8
0
100
AcDbCircle
 10
720.026171
 20
766.107051
 30
0.0
 40
1.503988
100
AcDbArc
 50
0.151738
 51
89.848262
  0
LINE
  5
3280
100
AcDbEntity
  8
0
100
AcDbLine
 10
714.740154
 20
767.611034
 30
0.0
 11
714.740154
 21
773.421034
 31
0.0
  0
LINE
  5
3281
100
AcDbEntity
  8
0
100
AcDbLine
 10
718.490154
 20
767.611034
 30
0.0
 11
718.490154
 21
773.421034
 31
0.0
  0
LINE
  5
3282
100
AcDbEntity
  8
0
100
AcDbLine
 10
731.460154
 20
776.541034
 30
0.0
 11
726.600154
 21
776.541034
 31
0.0
  0
LINE
  5
3283
100
AcDbEntity
  8
0
100
AcDbLine
 10
731.460154
 20
762.681034
 30
0.0
 11
726.600154
 21
762.681034
 31
0.0
  0
ARC
  5
3284
100
AcDbEntity
  8
0
100
AcDbCircle
 10
709.553612
 20
769.611034
 30
0.0
 40
22.976542
100
AcDbArc
 50
342.445553
 51
17.554447
  0
ARC
  5
3285
100
AcDbEntity
  8
0
100
AcDbCircle
 10
748.506696
 20
769.611034
 30
0.0
 40
22.976542
100
AcDbArc
 50
162.445553
 51
197.554447
  0
LINE
  5
3286
100
AcDbEntity
  8
0
100
AcDbLine
 10
714.670154
 20
792.611034
 30
0.0
 11
714.670154
 21
794.411034
 31
0.0
  0
LINE
  5
3287
100
AcDbEntity
  8
0
100
AcDbLine
 10
713.470154
 20
791.411034
 30
0.0
 11
714.670154
 21
792.611034
 31
0.0
  0
ARC
  5
3288
100
AcDbEntity
  8
0
100
AcDbCircle
 10
720.014307
 20
795.926881
 30
0.0
 40
1.51593
100
AcDbArc
 50
270.598965
 51
359.401035
  0
LINE
  5
3289
100
AcDbEntity
  8
0
100
AcDbLine
 10
731.460154
 20
783.471034
 30
0.0
 11
726.600154
 21
783.471034
 31
0.0
  0
LINE
  5
328A
100
AcDbEntity
  8
0
100
AcDbLine
 10
782.710397
 20
691.658836
 30
0.0
 11
789.012647
 21
697.961086
 31
0.0
  0
LINE
  5
328B
100
AcDbEntity
  8
0
100
AcDbLine
 10
672.830154
 20
880.391034
 30
0.0
 11
672.830154
 21
885.431034
 31
0.0
  0
LINE
  5
328C
100
AcDbEntity
  8
0
100
AcDbLine
 10
691.880154
 20
880.391034
 30
0.0
 11
691.880154
 21
885.431034
 31
0.0
  0
LINE
  5
328D
100
AcDbEntity
  8
0
100
AcDbLine
 10
698.230154
 20
885.431034
 30
0.0
 11
698.230154
 21
880.391034
 31
0.0
  0
LINE
  5
328E
100
AcDbEntity
  8
0
100
AcDbLine
 10
679.180154
 20
885.431034
 30
0.0
 11
679.180154
 21
880.391034
 31
0.0
  0
LINE
  5
328F
100
AcDbEntity
  8
0
100
AcDbLine
 10
720.030154
 20
816.411034
 30
0.0
 11
651.030154
 21
816.411034
 31
0.0
  0
LINE
  5
3291
100
AcDbEntity
  8
0
100
AcDbLine
 10
649.530154
 20
805.411034
 30
0.0
 11
721.530154
 21
805.411034
 31
0.0
  0
ARC
  5
3292
100
AcDbEntity
  8
0
100
AcDbCircle
 10
710.985154
 20
808.248996
 30
0.0
 40
14.467822
100
AcDbArc
 50
74.957143
 51
105.042857
  0
LINE
  5
3293
100
AcDbEntity
  8
0
100
AcDbLine
 10
717.290154
 20
822.911034
 30
0.0
 11
704.680154
 21
822.911034
 31
0.0
  0
LINE
  5
3294
100
AcDbEntity
  8
0
100
AcDbLine
 10
705.050154
 20
822.911034
 30
0.0
 11
701.530154
 21
846.411034
 31
0.0
  0
LINE
  5
3295
100
AcDbEntity
  8
0
100
AcDbLine
 10
669.530154
 20
846.411034
 30
0.0
 11
666.000154
 21
822.911034
 31
0.0
  0
ARC
  5
3296
100
AcDbEntity
  8
0
100
AcDbCircle
 10
665.710154
 20
818.077025
 30
0.0
 40
4.550517
100
AcDbArc
 50
65.597773
 51
114.402227
  0
LINE
  5
3297
100
AcDbEntity
  8
0
100
AcDbLine
 10
653.770154
 20
822.911034
 30
0.0
 11
666.380154
 21
822.911034
 31
0.0
  0
LINE
  5
3298
100
AcDbEntity
  8
0
100
AcDbLine
 10
663.830154
 20
816.411034
 30
0.0
 11
663.830154
 21
822.221034
 31
0.0
  0
LINE
  5
3299
100
AcDbEntity
  8
0
100
AcDbLine
 10
652.570154
 20
822.221034
 30
0.0
 11
653.770154
 21
822.911034
 31
0.0
  0
ARC
  5
329A
100
AcDbEntity
  8
0
100
AcDbCircle
 10
654.440154
 20
818.077025
 30
0.0
 40
4.550517
100
AcDbArc
 50
65.597773
 51
114.402227
  0
LINE
  5
329B
100
AcDbEntity
  8
0
100
AcDbLine
 10
652.570154
 20
816.411034
 30
0.0
 11
652.570154
 21
822.221034
 31
0.0
  0
LINE
  5
329C
100
AcDbEntity
  8
0
100
AcDbLine
 10
656.320154
 20
816.411034
 30
0.0
 11
656.320154
 21
822.221034
 31
0.0
  0
ARC
  5
329D
100
AcDbEntity
  8
0
100
AcDbCircle
 10
660.075154
 20
808.248996
 30
0.0
 40
14.467822
100
AcDbArc
 50
74.957143
 51
105.042857
  0
LINE
  5
329F
100
AcDbEntity
  8
0
100
AcDbLine
 10
649.530154
 20
814.911034
 30
0.0
 11
649.530154
 21
805.411034
 31
0.0
  0
LINE
  5
32A0
100
AcDbEntity
  8
0
100
AcDbLine
 10
666.380154
 20
822.911034
 30
0.0
 11
667.580154
 21
822.221034
 31
0.0
  0
LINE
  5
32A1
100
AcDbEntity
  8
0
100
AcDbLine
 10
667.590154
 20
822.221034
 30
0.0
 11
667.580154
 21
822.221034
 31
0.0
  0
LINE
  5
32A2
100
AcDbEntity
  8
0
100
AcDbLine
 10
667.580154
 20
822.221034
 30
0.0
 11
667.580154
 21
816.411034
 31
0.0
  0
LINE
  5
32A3
100
AcDbEntity
  8
0
100
AcDbLine
 10
707.230154
 20
816.411034
 30
0.0
 11
707.230154
 21
822.221034
 31
0.0
  0
LINE
  5
32A4
100
AcDbEntity
  8
0
100
AcDbLine
 10
703.470154
 20
822.221034
 30
0.0
 11
703.480154
 21
822.221034
 31
0.0
  0
LINE
  5
32A5
100
AcDbEntity
  8
0
100
AcDbLine
 10
704.680154
 20
822.911034
 30
0.0
 11
703.480154
 21
822.221034
 31
0.0
  0
LINE
  5
32A6
100
AcDbEntity
  8
0
100
AcDbLine
 10
703.480154
 20
822.221034
 30
0.0
 11
703.480154
 21
816.411034
 31
0.0
  0
ARC
  5
32A7
100
AcDbEntity
  8
0
100
AcDbCircle
 10
705.350154
 20
818.077025
 30
0.0
 40
4.550517
100
AcDbArc
 50
65.597773
 51
114.402227
  0
LINE
  5
32A8
100
AcDbEntity
  8
0
100
AcDbLine
 10
701.530154
 20
846.411034
 30
0.0
 11
669.530154
 21
846.411034
 31
0.0
  0
LINE
  5
32A9
100
AcDbEntity
  8
0
100
AcDbLine
 10
701.530154
 20
878.411034
 30
0.0
 11
669.530154
 21
878.411034
 31
0.0
  0
LINE
  5
32AA
100
AcDbEntity
  8
0
100
AcDbLine
 10
700.530154
 20
879.411034
 30
0.0
 11
670.530154
 21
879.411034
 31
0.0
  0
ARC
  5
32AB
100
AcDbEntity
  8
0
100
AcDbCircle
 10
685.530154
 20
900.473738
 30
0.0
 40
21.062704
100
AcDbArc
 50
252.453437
 51
287.546563
  0
LINE
  5
32AC
100
AcDbEntity
  8
0
100
AcDbLine
 10
669.530154
 20
878.411034
 30
0.0
 11
669.530154
 21
846.411034
 31
0.0
  0
ARC
  5
32AD
100
AcDbEntity
  8
0
100
AcDbCircle
 10
676.005154
 20
885.044197
 30
0.0
 40
5.633165
100
AcDbArc
 50
235.693049
 51
304.306951
  0
LINE
  5
32AE
100
AcDbEntity
  8
0
100
AcDbLine
 10
670.530154
 20
879.411034
 30
0.0
 11
669.530154
 21
878.411034
 31
0.0
  0
LINE
  5
32AF
100
AcDbEntity
  8
0
100
AcDbLine
 10
674.530154
 20
879.411034
 30
0.0
 11
672.830154
 21
880.391034
 31
0.0
  0
LINE
  5
32B0
100
AcDbEntity
  8
0
100
AcDbLine
 10
701.530154
 20
846.411034
 30
0.0
 11
701.530154
 21
878.411034
 31
0.0
  0
ARC
  5
32B1
100
AcDbEntity
  8
0
100
AcDbCircle
 10
695.055154
 20
885.058265
 30
0.0
 40
5.644791
100
AcDbArc
 50
235.773528
 51
304.226472
  0
LINE
  5
32B2
100
AcDbEntity
  8
0
100
AcDbLine
 10
701.530154
 20
878.411034
 30
0.0
 11
700.530154
 21
879.411034
 31
0.0
  0
LINE
  5
32B3
100
AcDbEntity
  8
0
100
AcDbLine
 10
698.230154
 20
880.391034
 30
0.0
 11
696.530154
 21
879.411034
 31
0.0
  0
LINE
  5
32B4
100
AcDbEntity
  8
0
100
AcDbLine
 10
718.490154
 20
822.221034
 30
0.0
 11
717.290154
 21
822.911034
 31
0.0
  0
ARC
  5
32B5
100
AcDbEntity
  8
0
100
AcDbCircle
 10
716.620154
 20
818.077025
 30
0.0
 40
4.550517
100
AcDbArc
 50
65.597773
 51
114.402227
  0
LINE
  5
32B6
100
AcDbEntity
  8
0
100
AcDbLine
 10
714.740154
 20
816.411034
 30
0.0
 11
714.740154
 21
822.221034
 31
0.0
  0
LINE
  5
32B7
100
AcDbEntity
  8
0
100
AcDbLine
 10
718.490154
 20
816.411034
 30
0.0
 11
718.490154
 21
822.221034
 31
0.0
  0
ARC
  5
32B8
100
AcDbEntity
  8
0
100
AcDbCircle
 10
720.014307
 20
814.895187
 30
0.0
 40
1.51593
100
AcDbArc
 50
0.598965
 51
89.401035
  0
LINE
  5
32BA
100
AcDbEntity
  8
0
100
AcDbLine
 10
721.530154
 20
805.411034
 30
0.0
 11
721.530154
 21
814.911034
 31
0.0
  0
LINE
  5
32BB
100
AcDbEntity
  8
0
100
AcDbLine
 10
660.030154
 20
915.111034
 30
0.0
 11
711.030154
 21
915.111034
 31
0.0
  0
ARC
  5
32BC
100
AcDbEntity
  8
0
100
AcDbCircle
 10
704.03343
 20
920.492364
 30
0.0
 40
9.996724
100
AcDbArc
 50
359.992377
 51
76.953229
  0
ARC
  5
32BD
100
AcDbEntity
  8
0
100
AcDbCircle
 10
700.361592
 20
917.00835
 30
0.0
 40
11.315639
100
AcDbArc
 50
12.933592
 51
88.690678
  0
ARC
  5
32BE
100
AcDbEntity
  8
0
100
AcDbCircle
 10
709.440701
 20
919.108003
 30
0.0
 40
1.996969
100
AcDbArc
 50
269.984315
 51
12.52375
  0
ARC
  5
32BF
100
AcDbEntity
  8
0
100
AcDbCircle
 10
670.531592
 20
917.01835
 30
0.0
 40
11.315639
100
AcDbArc
 50
12.933592
 51
88.690678
  0
ARC
  5
32C0
100
AcDbEntity
  8
0
100
AcDbCircle
 10
670.612077
 20
917.101976
 30
0.0
 40
11.210472
100
AcDbArc
 50
89.089827
 51
167.433676
  0
ARC
  5
32C1
100
AcDbEntity
  8
0
100
AcDbCircle
 10
667.026811
 20
920.492417
 30
0.0
 40
9.996657
100
AcDbArc
 50
103.046465
 51
180.00793
  0
ARC
  5
32C2
100
AcDbEntity
  8
0
100
AcDbCircle
 10
700.442077
 20
917.111976
 30
0.0
 40
11.210472
100
AcDbArc
 50
89.089827
 51
167.433676
  0
LINE
  5
32C3
100
AcDbEntity
  8
0
100
AcDbLine
 10
674.530154
 20
886.411034
 30
0.0
 11
696.530154
 21
886.411034
 31
0.0
  0
LINE
  5
32C4
100
AcDbEntity
  8
0
100
AcDbLine
 10
698.530154
 20
912.611034
 30
0.0
 11
672.530154
 21
912.611034
 31
0.0
  0
ARC
  5
32C5
100
AcDbEntity
  8
0
100
AcDbCircle
 10
679.607238
 20
919.112565
 30
0.0
 40
2.001533
100
AcDbArc
 50
270.083475
 51
12.654204
  0
LINE
  5
32C6
100
AcDbEntity
  8
0
100
AcDbLine
 10
692.530154
 20
909.611034
 30
0.0
 11
678.530154
 21
909.611034
 31
0.0
  0
ARC
  5
32C7
100
AcDbEntity
  8
0
100
AcDbCircle
 10
685.530154
 20
865.34833
 30
0.0
 40
21.062704
100
AcDbArc
 50
72.453437
 51
107.546563
  0
LINE
  5
32C8
100
AcDbEntity
  8
0
100
AcDbLine
 10
678.530154
 20
886.411034
 30
0.0
 11
678.530154
 21
909.611034
 31
0.0
  0
ARC
  5
32C9
100
AcDbEntity
  8
0
100
AcDbCircle
 10
676.005154
 20
880.777871
 30
0.0
 40
5.633165
100
AcDbArc
 50
55.693049
 51
124.306951
  0
LINE
  5
32CA
100
AcDbEntity
  8
0
100
AcDbLine
 10
672.830154
 20
885.431034
 30
0.0
 11
674.530154
 21
886.411034
 31
0.0
  0
LINE
  5
32CB
100
AcDbEntity
  8
0
100
AcDbLine
 10
679.610154
 20
917.111034
 30
0.0
 11
661.610154
 21
917.111034
 31
0.0
  0
LINE
  5
32CC
100
AcDbEntity
  8
0
100
AcDbLine
 10
661.610154
 20
917.111034
 30
0.0
 11
661.620154
 21
917.111034
 31
0.0
  0
ARC
  5
32CD
100
AcDbEntity
  8
0
100
AcDbCircle
 10
660.034197
 20
918.115077
 30
0.0
 40
3.004046
100
AcDbArc
 50
180.07711
 51
269.92289
  0
LINE
  5
32CE
100
AcDbEntity
  8
0
100
AcDbLine
 10
657.030154
 20
920.491034
 30
0.0
 11
657.030154
 21
918.111034
 31
0.0
  0
ARC
  5
32CF
100
AcDbEntity
  8
0
100
AcDbCircle
 10
661.619617
 20
919.10801
 30
0.0
 40
1.996977
100
AcDbArc
 50
167.476529
 51
270.015405
  0
LINE
  5
32D0
100
AcDbEntity
  8
0
100
AcDbLine
 10
672.530154
 20
912.611034
 30
0.0
 11
672.530154
 21
915.111034
 31
0.0
  0
ARC
  5
32D1
100
AcDbEntity
  8
0
100
AcDbCircle
 10
678.028487
 20
911.111034
 30
0.0
 40
1.581667
100
AcDbArc
 50
288.492225
 51
71.507775
  0
LINE
  5
32D2
100
AcDbEntity
  8
0
100
AcDbLine
 10
692.530154
 20
909.611034
 30
0.0
 11
692.530154
 21
886.411034
 31
0.0
  0
ARC
  5
32D3
100
AcDbEntity
  8
0
100
AcDbCircle
 10
695.055154
 20
880.763803
 30
0.0
 40
5.644791
100
AcDbArc
 50
55.773528
 51
124.226472
  0
LINE
  5
32D4
100
AcDbEntity
  8
0
100
AcDbLine
 10
696.530154
 20
886.411034
 30
0.0
 11
698.230154
 21
885.431034
 31
0.0
  0
LINE
  5
32D5
100
AcDbEntity
  8
0
100
AcDbLine
 10
691.450154
 20
917.111034
 30
0.0
 11
709.430154
 21
917.111034
 31
0.0
  0
ARC
  5
32D6
100
AcDbEntity
  8
0
100
AcDbCircle
 10
693.031821
 20
911.111034
 30
0.0
 40
1.581667
100
AcDbArc
 50
108.492225
 51
251.507775
  0
ARC
  5
32D7
100
AcDbEntity
  8
0
100
AcDbCircle
 10
691.45307
 20
919.112565
 30
0.0
 40
2.001533
100
AcDbArc
 50
167.345796
 51
269.916525
  0
LINE
  5
32D8
100
AcDbEntity
  8
0
100
AcDbLine
 10
709.430154
 20
917.111034
 30
0.0
 11
709.440154
 21
917.111034
 31
0.0
  0
LINE
  5
32D9
100
AcDbEntity
  8
0
100
AcDbLine
 10
698.530154
 20
915.111034
 30
0.0
 11
698.530154
 21
912.611034
 31
0.0
  0
LINE
  5
32DA
100
AcDbEntity
  8
0
100
AcDbLine
 10
702.030154
 20
931.111034
 30
0.0
 11
669.030154
 21
931.111034
 31
0.0
  0
LINE
  5
32DB
100
AcDbEntity
  8
0
100
AcDbLine
 10
669.030154
 20
931.111034
 30
0.0
 11
664.770154
 21
930.231034
 31
0.0
  0
ARC
  5
32DC
100
AcDbEntity
  8
0
100
AcDbCircle
 10
685.539202
 20
840.528701
 30
0.0
 40
92.071226
100
AcDbArc
 50
76.974815
 51
79.682029
  0
ARC
  5
32DD
100
AcDbEntity
  8
0
100
AcDbCircle
 10
711.026111
 20
918.115077
 30
0.0
 40
3.004046
100
AcDbArc
 50
270.07711
 51
359.92289
  0
LINE
  5
32DE
100
AcDbEntity
  8
0
100
AcDbLine
 10
714.030154
 20
918.111034
 30
0.0
 11
714.030154
 21
920.491034
 31
0.0
  0
VIEWPORT
  5
41
100
AcDbEntity
 67
     1
  8
0
100
AcDbViewport
 10
117.358407
 20
73.5
 30
0.0
 40
234.716814
 41
147.0
 68
    -1
 69
     1
1001
ACAD
1000
MVIEW
1002
{
1070
    16
1010
0.0
1020
0.0
1030
0.0
1010
0.0
1020
0.0
1030
1.0
1040
0.0
1040
147.0
1040
117.358407
1040
73.5
1040
50.0
1040
0.0
1040
0.0
1070
     0
1070
   100
1070
     1
1070
     1
1070
     0
1070
     0
1070
     0
1070
     0
1040
0.0
1040
0.0
1040
0.0
1040
1.0
1040
1.0
1040
0.0
1040
0.0
1070
     0
1002
{
1002
}
1002
}
  0
ENDSEC
  0
SECTION
  2
OBJECTS
  0
DICTIONARY
  5
C
100
AcDbDictionary
  3
ACAD_GROUP
350
D
  3
ACAD_MLINESTYLE
350
E
  0
DICTIONARY
  5
D
102
{ACAD_REACTORS
330
C
102
}
100
AcDbDictionary
  0
DICTIONARY
  5
E
102
{ACAD_REACTORS
330
C
102
}
100
AcDbDictionary
  3
STANDARD
350
1B
  0
MLINESTYLE
  5
1B
102
{ACAD_REACTORS
330
E
102
}
100
AcDbMlineStyle
  2
STANDARD
 70
     0
  3

 62
     0
 51
90.0
 52
90.0
 71
     2
 49
0.5
 62
   256
  6
BYLAYER
 49
-0.5
 62
   256
  6
BYLAYER
  0
ENDSEC
  0
EOF
