  0
SECTION
  2
HEADER
  9
$ACADVER
  1
AC1009
  9
$INSBASE
 10
0.0
 20
0.0
 30
0.0
  9
$EXTMIN
 10
88.0
 20
40.0
 30
0.0
  9
$EXTMAX
 10
2288.0
 20
1528.0
 30
0.0
  9
$LIMMIN
 10
0.0
 20
0.0
  9
$LIMMAX
 10
2376.0
 20
1680.0
  9
$ORTHOMODE
 70
     1
  9
$REGENMODE
 70
     1
  9
$FILLMODE
 70
     1
  9
$QTEXTMODE
 70
     0
  9
$MIRRTEXT
 70
     1
  9
$DRAGMODE
 70
     2
  9
$LTSCALE
 40
32.0
  9
$OSMODE
 70
   163
  9
$ATTMODE
 70
     1
  9
$TEXTSIZE
 40
32.0
  9
$TRACEWID
 40
0.05
  9
$TEXTSTYLE
  7
STANDARD
  9
$CLAYER
  8
0
  9
$CELTYPE
  6
BYLAYER
  9
$CECOLOR
 62
   256
  9
$DIMSCALE
 40
8.0
  9
$DIMASZ
 40
2.7999999999999989
  9
$DIMEXO
 40
1.0
  9
$DIMDLI
 40
5.0
  9
$DIMRND
 40
0.1
  9
$DIMDLE
 40
0.0
  9
$DIMEXE
 40
1.0
  9
$DIMTP
 40
0.0
  9
$DIMTM
 40
0.0
  9
$DIMTXT
 40
2.5
  9
$DIMCEN
 40
0.0
  9
$DIMTSZ
 40
0.0
  9
$DIMTOL
 70
     0
  9
$DIMLIM
 70
     0
  9
$DIMTIH
 70
     0
  9
$DIMTOH
 70
     0
  9
$DIMSE1
 70
     0
  9
$DIMSE2
 70
     0
  9
$DIMTAD
 70
     3
  9
$DIMZIN
 70
     8
  9
$DIMBLK
  1

  9
$DIMASO
 70
     1
  9
$DIMSHO
 70
     1
  9
$DIMPOST
  1
 
  9
$DIMAPOST
  1

  9
$DIMALT
 70
     0
  9
$DIMALTD
 70
     2
  9
$DIMALTF
 40
1.0
  9
$DIMLFAC
 40
1.0
  9
$DIMTOFL
 70
     1
  9
$DIMTVP
 40
0.0
  9
$DIMTIX
 70
     0
  9
$DIMSOXD
 70
     0
  9
$DIMSAH
 70
     1
  9
$DIMBLK1
  1
OPEN
  9
$DIMBLK2
  1
OPEN
  9
$DIMSTYLE
  2
DIM1
  9
$DIMCLRD
 70
     2
  9
$DIMCLRE
 70
     2
  9
$DIMCLRT
 70
     2
  9
$DIMTFAC
 40
0.7
  9
$DIMGAP
 40
0.85
  9
$LUNITS
 70
     2
  9
$LUPREC
 70
     4
  9
$SKETCHINC
 40
0.1
  9
$FILLETRAD
 40
11.0
  9
$AUNITS
 70
     0
  9
$AUPREC
 70
     0
  9
$MENU
  1
C:\ACADR13\WIN\SUPPORT\ACAD.mnc
  9
$ELEVATION
 40
0.0
  9
$PELEVATION
 40
0.0
  9
$THICKNESS
 40
0.0
  9
$LIMCHECK
 70
     0
  9
$BLIPMODE
 70
     0
  9
$CHAMFERA
 40
0.0
  9
$CHAMFERB
 40
0.0
  9
$SKPOLY
 70
     0
  9
$TDCREATE
 40
2451564.6675101742
  9
$TDUPDATE
 40
2454851.726413195
  9
$TDINDWG
 40
0.1718346644
  9
$TDUSRTIMER
 40
0.1718346644
  9
$USRTIMER
 70
     1
  9
$ANGBASE
 50
0.0
  9
$ANGDIR
 70
     0
  9
$PDMODE
 70
     0
  9
$PDSIZE
 40
0.0
  9
$PLINEWID
 40
0.0
  9
$COORDS
 70
     0
  9
$SPLFRAME
 70
     0
  9
$SPLINETYPE
 70
     6
  9
$SPLINESEGS
 70
     8
  9
$ATTDIA
 70
     0
  9
$ATTREQ
 70
     1
  9
$HANDLING
 70
     1
  9
$HANDSEED
  5
3C64
  9
$SURFTAB1
 70
     6
  9
$SURFTAB2
 70
     6
  9
$SURFTYPE
 70
     6
  9
$SURFU
 70
     6
  9
$SURFV
 70
     6
  9
$UCSNAME
  2

  9
$UCSORG
 10
0.0
 20
0.0
 30
0.0
  9
$UCSXDIR
 10
1.0
 20
0.0
 30
0.0
  9
$UCSYDIR
 10
0.0
 20
1.0
 30
0.0
  9
$PUCSNAME
  2

  9
$PUCSORG
 10
0.0
 20
0.0
 30
0.0
  9
$PUCSXDIR
 10
1.0
 20
0.0
 30
0.0
  9
$PUCSYDIR
 10
0.0
 20
1.0
 30
0.0
  9
$USERI1
 70
     0
  9
$USERI2
 70
     0
  9
$USERI3
 70
     0
  9
$USERI4
 70
     0
  9
$USERI5
 70
     0
  9
$USERR1
 40
0.0
  9
$USERR2
 40
0.0
  9
$USERR3
 40
0.0
  9
$USERR4
 40
0.0
  9
$USERR5
 40
0.0
  9
$WORLDVIEW
 70
     1
  9
$SHADEDGE
 70
     3
  9
$SHADEDIF
 70
    70
  9
$TILEMODE
 70
     1
  9
$MAXACTVP
 70
    16
  9
$PLIMCHECK
 70
     0
  9
$PEXTMIN
 10
1.0000000000000000E+020
 20
1.0000000000000000E+020
 30
1.0000000000000000E+020
  9
$PEXTMAX
 10
-1.0000000000000000E+020
 20
-1.0000000000000000E+020
 30
-1.0000000000000000E+020
  9
$PLIMMIN
 10
0.0
 20
0.0
  9
$PLIMMAX
 10
20.0
 20
147.0
  9
$UNITMODE
 70
     0
  9
$VISRETAIN
 70
     0
  9
$PLINEGEN
 70
     0
  9
$PSLTSCALE
 70
     1
  0
ENDSEC
  0
SECTION
  2
TABLES
  0
TABLE
  2
VPORT
 70
     1
  0
VPORT
  2
*ACTIVE
 70
     0
 10
0.0
 20
0.0
 11
1.0
 21
1.0
 12
1187.9999999999991
 22
975.34057971014477
 13
0.0
 23
0.0
 14
1.0
 24
1.0
 15
0.0
 25
0.0
 16
0.0
 26
0.0
 36
1.0
 17
0.0
 27
0.0
 37
0.0
 40
1965.100256614744
 41
1.5742574257425741
 42
50.0
 43
0.0
 44
0.0
 50
0.0
 51
0.0
 71
     0
 72
   100
 73
     1
 74
     1
 75
     0
 76
     0
 77
     0
 78
     0
  0
ENDTAB
  0
TABLE
  2
LTYPE
 70
     1
  0
LTYPE
  2
CONTINUOUS
 70
     0
  3
Solid line
 72
    65
 73
     0
 40
0.0
  0
ENDTAB
  0
TABLE
  2
LAYER
 70
     1
  0
LAYER
  2
0
 70
     0
 62
     7
  6
CONTINUOUS
  0
ENDTAB
  0
TABLE
  2
STYLE
 70
     3
  0
STYLE
  2
STANDARD
 70
     0
 40
0.0
 41
0.8
 50
0.0
 71
     0
 42
32.0
  3
simplex
  4
extfont
  0
STYLE
  2
PTSH
 70
     0
 40
0.0
 41
0.9
 50
0.0
 71
     0
 42
4.0
  3
SIMPLEX
  4
EXTFONT
  0
STYLE
  2
DIM
 70
     0
 40
0.0
 41
0.8
 50
0.0
 71
     0
 42
4.0
  3
simplex
  4
extfont
  0
ENDTAB
  0
TABLE
  2
VIEW
 70
     0
  0
ENDTAB
  0
TABLE
  2
UCS
 70
     0
  0
ENDTAB
  0
TABLE
  2
APPID
 70
     3
  0
APPID
  2
ACAD
 70
     0
  0
APPID
  2
ACAD_MLEADERVER
 70
     0
  0
APPID
  2
ACAD_PSEXT
 70
     0
  0
ENDTAB
  0
TABLE
  2
DIMSTYLE
 70
     1
  0
DIMSTYLE
  2
DIM1
 70
     0
  3
 
  4

  5

  6
OPEN
  7
OPEN
 40
8.0
 41
2.7999999999999989
 42
1.0
 43
5.0
 44
1.0
 45
0.1
 46
0.0
 47
0.0
 48
0.0
140
2.5
141
0.0
142
0.0
143
1.0
144
1.0
145
0.0
146
0.7
147
0.85
 71
     0
 72
     0
 73
     0
 74
     0
 75
     0
 76
     0
 77
     3
 78
     8
170
     0
171
     2
172
     1
173
     1
174
     0
175
     0
176
     2
177
     2
178
     2
  0
ENDTAB
  0
ENDSEC
  0
SECTION
  2
BLOCKS
  0
BLOCK
  8
0
  2
$MODEL_SPACE
 70
     0
 10
0.0
 20
0.0
 30
0.0
  3
$MODEL_SPACE
  1

  0
ENDBLK
  5
3D
  8
0
  0
BLOCK
 67
     1
  8
0
  2
$PAPER_SPACE
 70
     0
 10
0.0
 20
0.0
 30
0.0
  3
$PAPER_SPACE
  1

  0
ENDBLK
  5
3B
 67
     1
  8
0
  0
BLOCK
  8
0
  2
_OPEN
 70
     0
 10
0.0
 20
0.0
 30
0.0
  3
_OPEN
  1
H1111.DWG
  0
LINE
  5
244A
  8
0
  6
BYBLOCK
 62
     0
 10
-1.0
 20
0.1666666666666666
 30
0.0
 11
0.0
 21
0.0
 31
0.0
  0
LINE
  5
244B
  8
0
  6
BYBLOCK
 62
     0
 10
0.0
 20
0.0
 30
0.0
 11
-1.0
 21
-0.1666666666666666
 31
0.0
  0
LINE
  5
244C
  8
0
  6
BYBLOCK
 62
     0
 10
0.0
 20
0.0
 30
0.0
 11
-1.0
 21
0.0
 31
0.0
  0
ENDBLK
  5
244D
  8
0
  0
ENDSEC
  0
SECTION
  2
ENTITIES
  0
TEXT
  5
2529
  8
0
  6
CONTINUOUS
 10
2174.1419421517662
 20
53.096776147835037
 30
0.0
 40
20.0
  1
SS5N-F
 41
0.9
  7
PTSH
 72
     1
 11
2225.999085008908
 21
63.096776147835037
 31
0.0
 73
     2
  0
POLYLINE
  5
2563
  8
0
 66
     1
 10
0.0
 20
0.0
 30
0.0
 70
     1
  0
VERTEX
  5
37EF
  8
0
 10
88.0
 20
40.0
 30
0.0
  0
VERTEX
  5
37F0
  8
0
 10
2288.0
 20
40.0
 30
0.0
  0
VERTEX
  5
37F1
  8
0
 10
2288.0
 20
1528.0
 30
0.0
  0
VERTEX
  5
37F2
  8
0
 10
88.0
 20
1528.0
 30
0.0
  0
SEQEND
  5
37F3
  8
0
  0
LINE
  5
2D6E
  8
0
 10
1234.019438773405
 20
1098.6470157072929
 30
0.0
 11
1146.4194387734051
 21
1098.6470157072929
 31
0.0
  0
LINE
  5
2D6F
  8
0
 10
1163.6357953013851
 20
994.64701570729324
 30
0.0
 11
1216.8030822454259
 21
994.64701570729255
 31
0.0
  0
LINE
  5
2D70
  8
0
 10
1225.448559355415
 20
906.99952093763852
 30
0.0
 11
1154.9905181913971
 21
906.99952093763852
 31
0.0
  0
LINE
  5
2D71
  8
0
 10
1225.448559355413
 20
802.99952093763841
 30
0.0
 11
1154.9905181913989
 21
802.99952093763841
 31
0.0
  0
LINE
  5
2D72
  8
0
 10
1234.0194387734171
 20
701.121594308412
 30
0.0
 11
1146.4194387734169
 21
701.121594308412
 31
0.0
  0
LINE
  5
2D73
  8
0
 10
1163.6357953013969
 20
597.121594308412
 30
0.0
 11
1216.803082245438
 21
597.12159430841155
 31
0.0
  0
TEXT
  5
2D74
  8
0
 10
1165.9463250399419
 20
555.99575933648237
 30
0.0
 40
20.0
  1
20
 41
0.8
 72
     4
 11
1178.8987059923229
 21
565.99575933648248
 31
0.0
  0
TEXT
  5
2D75
  8
0
 10
946.86280207072275
 20
422.85951497603122
 30
0.0
 40
30.0
  1
TLV  SS5N (JIS20K)
  0
LINE
  5
2D82
  8
0
 10
438.86769124987512
 20
1018.083987770076
 30
0.0
 11
459.08404777785529
 21
997.86864591568167
 31
0.0
  0
ARC
  5
2D83
  8
0
 10
531.23947465758829
 20
854.882390027768
 30
0.0
 40
96.914208615771685
 50
152.9873721155823
 51
170.5312698539405
  0
ARC
  5
2D84
  8
0
 10
531.23947465729998
 20
855.11665184739957
 30
0.0
 40
96.914208615464702
 50
189.46873014600669
 51
207.0126278844393
  0
LINE
  5
2D86
  8
0
 10
438.86769124988712
 20
620.49594391926382
 30
0.0
 11
459.08404777786723
 21
600.28060206486975
 31
0.0
  0
CIRCLE
  5
2D87
  8
0
 10
248.50539970777481
 20
668.121594308412
 30
0.0
 40
47.5
  0
POLYLINE
  5
2D88
  8
0
 10
255.5638676445987
 20
621.14896365624577
 30
0.0
 66
     1
 70
     8
  0
VERTEX
  8
0
  5
3958
 10
255.564
 20
621.149
 30
0.000000
  70
    32
  0
VERTEX
  8
0
  5
3959
 10
256.146
 20
620.915
 30
0.000000
  70
    32
  0
VERTEX
  8
0
  5
395A
 10
256.714
 20
620.663
 30
0.000000
  70
    32
  0
VERTEX
  8
0
  5
395B
 10
257.268
 20
620.394
 30
0.000000
  70
    32
  0
VERTEX
  8
0
  5
395C
 10
257.807
 20
620.107
 30
0.000000
  70
    32
  0
VERTEX
  8
0
  5
395D
 10
258.329
 20
619.803
 30
0.000000
  70
    32
  0
VERTEX
  8
0
  5
395E
 10
258.835
 20
619.482
 30
0.000000
  70
    32
  0
VERTEX
  8
0
  5
395F
 10
259.322
 20
619.146
 30
0.000000
  70
    32
  0
VERTEX
  8
0
  5
3960
 10
259.790
 20
618.795
 30
0.000000
  70
    32
  0
VERTEX
  8
0
  5
3961
 10
260.239
 20
618.429
 30
0.000000
  70
    32
  0
VERTEX
  8
0
  5
3962
 10
260.667
 20
618.050
 30
0.000000
  70
    32
  0
VERTEX
  8
0
  5
3963
 10
261.074
 20
617.656
 30
0.000000
  70
    32
  0
VERTEX
  8
0
  5
3964
 10
261.458
 20
617.251
 30
0.000000
  70
    32
  0
VERTEX
  8
0
  5
3965
 10
261.821
 20
616.833
 30
0.000000
  70
    32
  0
VERTEX
  8
0
  5
3966
 10
262.160
 20
616.405
 30
0.000000
  70
    32
  0
VERTEX
  8
0
  5
3967
 10
262.475
 20
615.966
 30
0.000000
  70
    32
  0
VERTEX
  8
0
  5
3968
 10
262.765
 20
615.517
 30
0.000000
  70
    32
  0
VERTEX
  8
0
  5
3969
 10
263.031
 20
615.060
 30
0.000000
  70
    32
  0
VERTEX
  8
0
  5
396A
 10
263.271
 20
614.594
 30
0.000000
  70
    32
  0
VERTEX
  8
0
  5
396B
 10
263.486
 20
614.121
 30
0.000000
  70
    32
  0
VERTEX
  8
0
  5
396C
 10
263.674
 20
613.642
 30
0.000000
  70
    32
  0
VERTEX
  8
0
  5
396D
 10
263.835
 20
613.158
 30
0.000000
  70
    32
  0
VERTEX
  8
0
  5
396E
 10
263.970
 20
612.668
 30
0.000000
  70
    32
  0
VERTEX
  8
0
  5
396F
 10
264.078
 20
612.175
 30
0.000000
  70
    32
  0
VERTEX
  8
0
  5
3970
 10
264.159
 20
611.679
 30
0.000000
  70
    32
  0
VERTEX
  8
0
  5
3971
 10
264.212
 20
611.180
 30
0.000000
  70
    32
  0
VERTEX
  8
0
  5
3972
 10
264.238
 20
610.681
 30
0.000000
  70
    32
  0
VERTEX
  8
0
  5
3973
 10
264.236
 20
610.180
 30
0.000000
  70
    32
  0
VERTEX
  8
0
  5
3974
 10
264.207
 20
609.681
 30
0.000000
  70
    32
  0
VERTEX
  8
0
  5
3975
 10
264.150
 20
609.183
 30
0.000000
  70
    32
  0
VERTEX
  8
0
  5
3976
 10
264.066
 20
608.687
 30
0.000000
  70
    32
  0
VERTEX
  8
0
  5
3977
 10
263.955
 20
608.194
 30
0.000000
  70
    32
  0
VERTEX
  8
0
  5
3978
 10
263.817
 20
607.705
 30
0.000000
  70
    32
  0
VERTEX
  8
0
  5
3979
 10
263.652
 20
607.221
 30
0.000000
  70
    32
  0
VERTEX
  8
0
  5
397A
 10
263.460
 20
606.743
 30
0.000000
  70
    32
  0
VERTEX
  8
0
  5
397B
 10
263.243
 20
606.271
 30
0.000000
  70
    32
  0
VERTEX
  8
0
  5
397C
 10
262.999
 20
605.806
 30
0.000000
  70
    32
  0
VERTEX
  8
0
  5
397D
 10
262.731
 20
605.350
 30
0.000000
  70
    32
  0
VERTEX
  8
0
  5
397E
 10
262.437
 20
604.902
 30
0.000000
  70
    32
  0
VERTEX
  8
0
  5
397F
 10
262.119
 20
604.464
 30
0.000000
  70
    32
  0
VERTEX
  8
0
  5
3980
 10
261.777
 20
604.037
 30
0.000000
  70
    32
  0
VERTEX
  8
0
  5
3981
 10
261.412
 20
603.621
 30
0.000000
  70
    32
  0
VERTEX
  8
0
  5
3982
 10
261.025
 20
603.217
 30
0.000000
  70
    32
  0
VERTEX
  8
0
  5
3983
 10
260.615
 20
602.826
 30
0.000000
  70
    32
  0
VERTEX
  8
0
  5
3984
 10
260.184
 20
602.447
 30
0.000000
  70
    32
  0
VERTEX
  8
0
  5
3985
 10
259.733
 20
602.083
 30
0.000000
  70
    32
  0
VERTEX
  8
0
  5
3986
 10
259.263
 20
601.734
 30
0.000000
  70
    32
  0
VERTEX
  8
0
  5
3987
 10
258.773
 20
601.400
 30
0.000000
  70
    32
  0
VERTEX
  8
0
  5
3988
 10
258.266
 20
601.082
 30
0.000000
  70
    32
  0
VERTEX
  8
0
  5
3989
 10
257.741
 20
600.780
 30
0.000000
  70
    32
  0
VERTEX
  8
0
  5
398A
 10
257.201
 20
600.495
 30
0.000000
  70
    32
  0
VERTEX
  8
0
  5
398B
 10
256.645
 20
600.227
 30
0.000000
  70
    32
  0
VERTEX
  8
0
  5
398C
 10
256.075
 20
599.977
 30
0.000000
  70
    32
  0
VERTEX
  8
0
  5
398D
 10
255.491
 20
599.746
 30
0.000000
  70
    32
  0
VERTEX
  8
0
  5
398E
 10
254.896
 20
599.534
 30
0.000000
  70
    32
  0
VERTEX
  8
0
  5
398F
 10
254.289
 20
599.340
 30
0.000000
  70
    32
  0
VERTEX
  8
0
  5
3990
 10
253.672
 20
599.166
 30
0.000000
  70
    32
  0
VERTEX
  8
0
  5
3991
 10
253.046
 20
599.012
 30
0.000000
  70
    32
  0
VERTEX
  8
0
  5
3992
 10
252.412
 20
598.878
 30
0.000000
  70
    32
  0
VERTEX
  8
0
  5
3993
 10
251.772
 20
598.764
 30
0.000000
  70
    32
  0
VERTEX
  8
0
  5
3994
 10
251.125
 20
598.670
 30
0.000000
  70
    32
  0
VERTEX
  8
0
  5
3995
 10
250.474
 20
598.597
 30
0.000000
  70
    32
  0
VERTEX
  8
0
  5
3996
 10
249.820
 20
598.545
 30
0.000000
  70
    32
  0
VERTEX
  8
0
  5
3997
 10
249.163
 20
598.514
 30
0.000000
  70
    32
  0
VERTEX
  8
0
  5
3998
 10
248.505
 20
598.503
 30
0.000000
  70
    32
  0
VERTEX
  8
0
  5
3999
 10
247.848
 20
598.514
 30
0.000000
  70
    32
  0
VERTEX
  8
0
  5
399A
 10
247.191
 20
598.545
 30
0.000000
  70
    32
  0
VERTEX
  8
0
  5
399B
 10
246.536
 20
598.597
 30
0.000000
  70
    32
  0
VERTEX
  8
0
  5
399C
 10
245.886
 20
598.670
 30
0.000000
  70
    32
  0
VERTEX
  8
0
  5
399D
 10
245.239
 20
598.764
 30
0.000000
  70
    32
  0
VERTEX
  8
0
  5
399E
 10
244.598
 20
598.878
 30
0.000000
  70
    32
  0
VERTEX
  8
0
  5
399F
 10
243.965
 20
599.012
 30
0.000000
  70
    32
  0
VERTEX
  8
0
  5
39A0
 10
243.339
 20
599.166
 30
0.000000
  70
    32
  0
VERTEX
  8
0
  5
39A1
 10
242.722
 20
599.340
 30
0.000000
  70
    32
  0
VERTEX
  8
0
  5
39A2
 10
242.115
 20
599.534
 30
0.000000
  70
    32
  0
VERTEX
  8
0
  5
39A3
 10
241.520
 20
599.746
 30
0.000000
  70
    32
  0
VERTEX
  8
0
  5
39A4
 10
240.936
 20
599.977
 30
0.000000
  70
    32
  0
VERTEX
  8
0
  5
39A5
 10
240.366
 20
600.227
 30
0.000000
  70
    32
  0
VERTEX
  8
0
  5
39A6
 10
239.810
 20
600.495
 30
0.000000
  70
    32
  0
VERTEX
  8
0
  5
39A7
 10
239.270
 20
600.780
 30
0.000000
  70
    32
  0
VERTEX
  8
0
  5
39A8
 10
238.745
 20
601.082
 30
0.000000
  70
    32
  0
VERTEX
  8
0
  5
39A9
 10
238.238
 20
601.400
 30
0.000000
  70
    32
  0
VERTEX
  8
0
  5
39AA
 10
237.748
 20
601.734
 30
0.000000
  70
    32
  0
VERTEX
  8
0
  5
39AB
 10
237.277
 20
602.083
 30
0.000000
  70
    32
  0
VERTEX
  8
0
  5
39AC
 10
236.826
 20
602.447
 30
0.000000
  70
    32
  0
VERTEX
  8
0
  5
39AD
 10
236.396
 20
602.826
 30
0.000000
  70
    32
  0
VERTEX
  8
0
  5
39AE
 10
235.986
 20
603.217
 30
0.000000
  70
    32
  0
VERTEX
  8
0
  5
39AF
 10
235.599
 20
603.621
 30
0.000000
  70
    32
  0
VERTEX
  8
0
  5
39B0
 10
235.234
 20
604.037
 30
0.000000
  70
    32
  0
VERTEX
  8
0
  5
39B1
 10
234.892
 20
604.464
 30
0.000000
  70
    32
  0
VERTEX
  8
0
  5
39B2
 10
234.574
 20
604.902
 30
0.000000
  70
    32
  0
VERTEX
  8
0
  5
39B3
 10
234.280
 20
605.350
 30
0.000000
  70
    32
  0
VERTEX
  8
0
  5
39B4
 10
234.011
 20
605.806
 30
0.000000
  70
    32
  0
VERTEX
  8
0
  5
39B5
 10
233.768
 20
606.271
 30
0.000000
  70
    32
  0
VERTEX
  8
0
  5
39B6
 10
233.550
 20
606.743
 30
0.000000
  70
    32
  0
VERTEX
  8
0
  5
39B7
 10
233.359
 20
607.221
 30
0.000000
  70
    32
  0
VERTEX
  8
0
  5
39B8
 10
233.194
 20
607.705
 30
0.000000
  70
    32
  0
VERTEX
  8
0
  5
39B9
 10
233.056
 20
608.194
 30
0.000000
  70
    32
  0
VERTEX
  8
0
  5
39BA
 10
232.944
 20
608.687
 30
0.000000
  70
    32
  0
VERTEX
  8
0
  5
39BB
 10
232.860
 20
609.183
 30
0.000000
  70
    32
  0
VERTEX
  8
0
  5
39BC
 10
232.804
 20
609.681
 30
0.000000
  70
    32
  0
VERTEX
  8
0
  5
39BD
 10
232.774
 20
610.180
 30
0.000000
  70
    32
  0
VERTEX
  8
0
  5
39BE
 10
232.773
 20
610.681
 30
0.000000
  70
    32
  0
VERTEX
  8
0
  5
39BF
 10
232.799
 20
611.180
 30
0.000000
  70
    32
  0
VERTEX
  8
0
  5
39C0
 10
232.852
 20
611.679
 30
0.000000
  70
    32
  0
VERTEX
  8
0
  5
39C1
 10
232.933
 20
612.175
 30
0.000000
  70
    32
  0
VERTEX
  8
0
  5
39C2
 10
233.040
 20
612.668
 30
0.000000
  70
    32
  0
VERTEX
  8
0
  5
39C3
 10
233.175
 20
613.158
 30
0.000000
  70
    32
  0
VERTEX
  8
0
  5
39C4
 10
233.337
 20
613.642
 30
0.000000
  70
    32
  0
VERTEX
  8
0
  5
39C5
 10
233.525
 20
614.121
 30
0.000000
  70
    32
  0
VERTEX
  8
0
  5
39C6
 10
233.740
 20
614.594
 30
0.000000
  70
    32
  0
VERTEX
  8
0
  5
39C7
 10
233.980
 20
615.060
 30
0.000000
  70
    32
  0
VERTEX
  8
0
  5
39C8
 10
234.246
 20
615.517
 30
0.000000
  70
    32
  0
VERTEX
  8
0
  5
39C9
 10
234.536
 20
615.966
 30
0.000000
  70
    32
  0
VERTEX
  8
0
  5
39CA
 10
234.851
 20
616.405
 30
0.000000
  70
    32
  0
VERTEX
  8
0
  5
39CB
 10
235.190
 20
616.833
 30
0.000000
  70
    32
  0
VERTEX
  8
0
  5
39CC
 10
235.552
 20
617.251
 30
0.000000
  70
    32
  0
VERTEX
  8
0
  5
39CD
 10
235.937
 20
617.656
 30
0.000000
  70
    32
  0
VERTEX
  8
0
  5
39CE
 10
236.344
 20
618.050
 30
0.000000
  70
    32
  0
VERTEX
  8
0
  5
39CF
 10
236.772
 20
618.429
 30
0.000000
  70
    32
  0
VERTEX
  8
0
  5
39D0
 10
237.221
 20
618.795
 30
0.000000
  70
    32
  0
VERTEX
  8
0
  5
39D1
 10
237.689
 20
619.146
 30
0.000000
  70
    32
  0
VERTEX
  8
0
  5
39D2
 10
238.176
 20
619.482
 30
0.000000
  70
    32
  0
VERTEX
  8
0
  5
39D3
 10
238.681
 20
619.803
 30
0.000000
  70
    32
  0
VERTEX
  8
0
  5
39D4
 10
239.204
 20
620.107
 30
0.000000
  70
    32
  0
VERTEX
  8
0
  5
39D5
 10
239.743
 20
620.394
 30
0.000000
  70
    32
  0
VERTEX
  8
0
  5
39D6
 10
240.297
 20
620.663
 30
0.000000
  70
    32
  0
VERTEX
  8
0
  5
39D7
 10
240.865
 20
620.915
 30
0.000000
  70
    32
  0
VERTEX
  8
0
  5
39D8
 10
241.447
 20
621.149
 30
0.000000
  70
    32
  0
SEQEND
  8
0
  5
39D9
  0
ARC
  5
2D89
  8
0
 10
248.50539970777481
 20
649.13434430841198
 30
0.0
 40
51.887249999999987
 50
156.15518736497839
 51
23.844812635021551
  0
CIRCLE
  5
2D8B
  8
0
 10
223.75666236624599
 20
643.37285696688275
 30
0.0
 40
6.0
  0
CIRCLE
  5
2D8C
  8
0
 10
223.75666236624599
 20
692.87033164994125
 30
0.0
 40
6.0
  0
LINE
  5
2D8D
  8
0
 10
322.68823538286188
 20
680.26099538194376
 30
0.0
 11
351.04836038286197
 21
680.26099538194376
 31
0.0
  0
LINE
  5
2D8E
  8
0
 10
379.41017288286179
 20
670.80762038194405
 30
0.0
 11
332.14161038286147
 21
670.80762038194405
 31
0.0
  0
LINE
  5
2D8F
  8
0
 10
332.14161038286147
 20
670.80762038194405
 30
0.0
 11
322.68823538286188
 21
680.26099538194376
 31
0.0
  0
CIRCLE
  5
2D90
  8
0
 10
273.25413704930452
 20
643.37285696688275
 30
0.0
 40
6.0
  0
CIRCLE
  5
2D91
  8
0
 10
273.25413704930452
 20
692.87033164994125
 30
0.0
 40
6.0
  0
LINE
  5
2D92
  8
0
 10
369.7509228828626
 20
680.26099538194376
 30
0.0
 11
379.41017288286179
 21
670.80762038194405
 31
0.0
  0
LINE
  5
2D93
  8
0
 10
435.64567063948112
 20
687.05897185648109
 30
0.0
 11
435.64567063948112
 21
628.27431371087505
 31
0.0
  0
LINE
  5
2D94
  8
0
 10
434.67796611164511
 20
683.05897185648064
 30
0.0
 11
434.67796611164431
 21
653.05897185648018
 31
0.0
  0
LINE
  5
2D9B
  8
0
 10
392.44567063948131
 20
668.05897185648098
 30
0.0
 11
392.44567063948131
 21
715.55897185648109
 31
0.0
  0
LINE
  5
2D9D
  8
0
 10
392.44567063948131
 20
620.55897185648109
 30
0.0
 11
392.44567063948131
 21
668.05897185648098
 31
0.0
  0
POLYLINE
  5
2DAD
  8
0
 66
     1
 10
0.0
 20
0.0
 30
0.0
  0
VERTEX
  5
37F4
  8
0
 10
435.64567063948101
 20
652.23281374032058
 30
0.0
  0
VERTEX
  5
37F5
  8
0
 10
434.67796611164511
 20
653.05897185648018
 30
0.0
  0
SEQEND
  5
37F6
  8
0
  0
LINE
  5
2DB0
  8
0
 10
355.77673538286223
 20
675.53430788194385
 30
0.0
 11
369.7509228828626
 21
675.53430788194385
 31
0.0
  0
LINE
  5
2DB1
  8
0
 10
351.04836038286197
 20
680.26099538194376
 30
0.0
 11
355.77673538286223
 21
675.53430788194385
 31
0.0
  0
LINE
  5
2DB2
  8
0
 10
369.7509228828626
 20
675.53430788194385
 30
0.0
 11
369.7509228828626
 21
680.26099538194376
 31
0.0
  0
POLYLINE
  5
2DB8
  8
0
 66
     1
 10
0.0
 20
0.0
 30
0.0
  0
VERTEX
  5
37F7
  8
0
 10
435.64567063948101
 20
683.88512997264024
 30
0.0
  0
VERTEX
  5
37F8
  8
0
 10
434.67796611164511
 20
683.05897185648064
 30
0.0
  0
SEQEND
  5
37F9
  8
0
  0
LINE
  5
2DC1
  8
0
 10
435.64567063947561
 20
870.82567905381256
 30
0.0
 11
435.64567063947561
 21
839.1733628214929
 31
0.0
  0
LINE
  5
2DC2
  8
0
 10
434.67796611163971
 20
869.99952093765285
 30
0.0
 11
434.6779661116388
 21
839.99952093765251
 31
0.0
  0
LINE
  5
2DC6
  8
0
 10
392.44567063947579
 20
807.49952093765353
 30
0.0
 11
392.44567063947579
 21
854.99952093765341
 31
0.0
  0
POLYLINE
  5
2DCA
  8
0
 66
     1
 10
0.0
 20
0.0
 30
0.0
  0
VERTEX
  5
37FA
  8
0
 10
435.64567063947561
 20
839.1733628214929
 30
0.0
  0
VERTEX
  5
37FB
  8
0
 10
434.67796611163971
 20
839.99952093765251
 30
0.0
  0
SEQEND
  5
37FC
  8
0
  0
LINE
  5
2DCB
  8
0
 10
376.83713525386059
 20
855.92687008604889
 30
0.0
 11
329.56857275386028
 21
855.92687008604889
 31
0.0
  0
LINE
  5
2DCC
  8
0
 10
348.47532275386078
 20
865.38024508604849
 30
0.0
 11
353.20369775386098
 21
860.65355758604869
 31
0.0
  0
LINE
  5
2DCD
  8
0
 10
320.11519775386068
 20
865.38024508604849
 30
0.0
 11
348.47532275386078
 21
865.38024508604849
 31
0.0
  0
LINE
  5
2DCE
  8
0
 10
329.56857275386028
 20
855.92687008604889
 30
0.0
 11
320.11519775386068
 21
865.38024508604849
 31
0.0
  0
LINE
  5
2DCF
  8
0
 10
392.44567063947579
 20
854.99952093765341
 30
0.0
 11
392.44567063947579
 21
902.49952093765341
 31
0.0
  0
LINE
  5
2DD0
  8
0
 10
353.20369775386098
 20
860.65355758604869
 30
0.0
 11
367.1778852538614
 21
860.65355758604869
 31
0.0
  0
LINE
  5
2DD1
  8
0
 10
367.1778852538614
 20
865.38024508604849
 30
0.0
 11
376.83713525386059
 21
855.92687008604889
 31
0.0
  0
LINE
  5
2DD2
  8
0
 10
367.1778852538614
 20
860.65355758604869
 30
0.0
 11
367.1778852538614
 21
865.38024508604849
 31
0.0
  0
POLYLINE
  5
2DDD
  8
0
 66
     1
 10
0.0
 20
0.0
 30
0.0
  0
VERTEX
  5
37FD
  8
0
 10
435.64567063947561
 20
870.82567905381256
 30
0.0
  0
VERTEX
  5
37FE
  8
0
 10
434.67796611163971
 20
869.99952093765285
 30
0.0
  0
SEQEND
  5
37FF
  8
0
  0
LINE
  5
2DE6
  8
0
 10
434.67796611163328
 20
1080.647015707292
 30
0.0
 11
434.67796611163237
 21
1050.647015707292
 31
0.0
  0
LINE
  5
2DE7
  8
0
 10
392.44567063946943
 20
1065.6470157072929
 30
0.0
 11
392.44567063946943
 21
1113.1470157072929
 31
0.0
  0
LINE
  5
2DE9
  8
0
 10
435.64567063946907
 20
1084.6470157072929
 30
0.0
 11
435.64567063946919
 21
1025.8623575616871
 31
0.0
  0
LINE
  5
2DEB
  8
0
 10
392.44567063946943
 20
1018.147015707293
 30
0.0
 11
392.44567063946943
 21
1065.6470157072929
 31
0.0
  0
POLYLINE
  5
2DFB
  8
0
 66
     1
 10
0.0
 20
0.0
 30
0.0
  0
VERTEX
  5
3800
  8
0
 10
435.64567063946919
 20
1049.8208575911319
 30
0.0
  0
VERTEX
  5
3801
  8
0
 10
434.67796611163328
 20
1050.647015707292
 30
0.0
  0
SEQEND
  5
3802
  8
0
  0
POLYLINE
  5
2E07
  8
0
 66
     1
 10
0.0
 20
0.0
 30
0.0
  0
VERTEX
  5
3803
  8
0
 10
435.64567063946919
 20
1081.473173823452
 30
0.0
  0
VERTEX
  5
3804
  8
0
 10
434.67796611163328
 20
1080.647015707292
 30
0.0
  0
SEQEND
  5
3805
  8
0
  0
LINE
  5
2E09
  8
0
 10
527.80729350109584
 20
600.28060206486953
 30
0.0
 11
548.02365002907561
 21
620.49594391926405
 31
0.0
  0
LINE
  5
2E0B
  8
0
 10
466.86202716746112
 20
597.05897185648098
 30
0.0
 11
520.02931411150155
 21
597.05897185648064
 31
0.0
  0
TEXT
  5
2E0C
  8
0
 10
467.58725645679721
 20
559.10215535479801
 30
0.0
 40
20.0
  1
15
 41
0.8
 72
     4
 11
479.01582788536871
 21
569.10215535479801
 31
0.0
  0
LINE
  5
2E21
  8
0
 10
537.24567063948143
 20
701.05897185648098
 30
0.0
 11
449.64567063948112
 21
701.05897185648098
 31
0.0
  0
LINE
  5
2E28
  8
0
 10
551.24567063948132
 20
628.27431371087516
 30
0.0
 11
551.24567063948132
 21
687.05897185648109
 31
0.0
  0
LINE
  5
2E29
  8
0
 10
552.21337516731717
 20
683.05897185648064
 30
0.0
 11
552.21337516731808
 21
653.05897185648018
 31
0.0
  0
LINE
  5
2E30
  8
0
 10
594.44567063948125
 20
668.05897185648098
 30
0.0
 11
594.44567063948125
 21
715.55897185648109
 31
0.0
  0
POLYLINE
  5
2E3C
  8
0
 66
     1
 10
0.0
 20
0.0
 30
0.0
  0
VERTEX
  5
3806
  8
0
 10
551.24567063948132
 20
652.23281374032058
 30
0.0
  0
VERTEX
  5
3807
  8
0
 10
552.21337516731717
 20
653.05897185648018
 30
0.0
  0
SEQEND
  5
3808
  8
0
  0
LINE
  5
2E3E
  8
0
 10
594.44567063948125
 20
620.55897185648109
 30
0.0
 11
594.44567063948125
 21
668.05897185648098
 31
0.0
  0
POLYLINE
  5
2E46
  8
0
 66
     1
 10
0.0
 20
0.0
 30
0.0
  0
VERTEX
  5
3809
  8
0
 10
551.24567063948132
 20
683.88512997264024
 30
0.0
  0
VERTEX
  5
380A
  8
0
 10
552.21337516731717
 20
683.05897185648064
 30
0.0
  0
SEQEND
  5
380B
  8
0
  0
POLYLINE
  5
2E56
  8
0
 10
665.6161761397035
 20
621.14896365624577
 30
0.0
 66
     1
 70
     8
  0
VERTEX
  8
0
  5
39DA
 10
665.616
 20
621.149
 30
0.000000
  70
    32
  0
VERTEX
  8
0
  5
39DB
 10
665.034
 20
620.915
 30
0.000000
  70
    32
  0
VERTEX
  8
0
  5
39DC
 10
664.466
 20
620.663
 30
0.000000
  70
    32
  0
VERTEX
  8
0
  5
39DD
 10
663.912
 20
620.394
 30
0.000000
  70
    32
  0
VERTEX
  8
0
  5
39DE
 10
663.373
 20
620.107
 30
0.000000
  70
    32
  0
VERTEX
  8
0
  5
39DF
 10
662.851
 20
619.803
 30
0.000000
  70
    32
  0
VERTEX
  8
0
  5
39E0
 10
662.345
 20
619.482
 30
0.000000
  70
    32
  0
VERTEX
  8
0
  5
39E1
 10
661.858
 20
619.146
 30
0.000000
  70
    32
  0
VERTEX
  8
0
  5
39E2
 10
661.390
 20
618.795
 30
0.000000
  70
    32
  0
VERTEX
  8
0
  5
39E3
 10
660.941
 20
618.429
 30
0.000000
  70
    32
  0
VERTEX
  8
0
  5
39E4
 10
660.513
 20
618.050
 30
0.000000
  70
    32
  0
VERTEX
  8
0
  5
39E5
 10
660.106
 20
617.656
 30
0.000000
  70
    32
  0
VERTEX
  8
0
  5
39E6
 10
659.722
 20
617.251
 30
0.000000
  70
    32
  0
VERTEX
  8
0
  5
39E7
 10
659.359
 20
616.833
 30
0.000000
  70
    32
  0
VERTEX
  8
0
  5
39E8
 10
659.021
 20
616.405
 30
0.000000
  70
    32
  0
VERTEX
  8
0
  5
39E9
 10
658.705
 20
615.966
 30
0.000000
  70
    32
  0
VERTEX
  8
0
  5
39EA
 10
658.415
 20
615.517
 30
0.000000
  70
    32
  0
VERTEX
  8
0
  5
39EB
 10
658.149
 20
615.060
 30
0.000000
  70
    32
  0
VERTEX
  8
0
  5
39EC
 10
657.909
 20
614.594
 30
0.000000
  70
    32
  0
VERTEX
  8
0
  5
39ED
 10
657.695
 20
614.121
 30
0.000000
  70
    32
  0
VERTEX
  8
0
  5
39EE
 10
657.506
 20
613.642
 30
0.000000
  70
    32
  0
VERTEX
  8
0
  5
39EF
 10
657.345
 20
613.158
 30
0.000000
  70
    32
  0
VERTEX
  8
0
  5
39F0
 10
657.210
 20
612.668
 30
0.000000
  70
    32
  0
VERTEX
  8
0
  5
39F1
 10
657.102
 20
612.175
 30
0.000000
  70
    32
  0
VERTEX
  8
0
  5
39F2
 10
657.021
 20
611.679
 30
0.000000
  70
    32
  0
VERTEX
  8
0
  5
39F3
 10
656.968
 20
611.180
 30
0.000000
  70
    32
  0
VERTEX
  8
0
  5
39F4
 10
656.942
 20
610.681
 30
0.000000
  70
    32
  0
VERTEX
  8
0
  5
39F5
 10
656.944
 20
610.180
 30
0.000000
  70
    32
  0
VERTEX
  8
0
  5
39F6
 10
656.973
 20
609.681
 30
0.000000
  70
    32
  0
VERTEX
  8
0
  5
39F7
 10
657.030
 20
609.183
 30
0.000000
  70
    32
  0
VERTEX
  8
0
  5
39F8
 10
657.114
 20
608.687
 30
0.000000
  70
    32
  0
VERTEX
  8
0
  5
39F9
 10
657.225
 20
608.194
 30
0.000000
  70
    32
  0
VERTEX
  8
0
  5
39FA
 10
657.363
 20
607.705
 30
0.000000
  70
    32
  0
VERTEX
  8
0
  5
39FB
 10
657.528
 20
607.221
 30
0.000000
  70
    32
  0
VERTEX
  8
0
  5
39FC
 10
657.720
 20
606.743
 30
0.000000
  70
    32
  0
VERTEX
  8
0
  5
39FD
 10
657.937
 20
606.271
 30
0.000000
  70
    32
  0
VERTEX
  8
0
  5
39FE
 10
658.181
 20
605.806
 30
0.000000
  70
    32
  0
VERTEX
  8
0
  5
39FF
 10
658.449
 20
605.350
 30
0.000000
  70
    32
  0
VERTEX
  8
0
  5
3A00
 10
658.743
 20
604.902
 30
0.000000
  70
    32
  0
VERTEX
  8
0
  5
3A01
 10
659.061
 20
604.464
 30
0.000000
  70
    32
  0
VERTEX
  8
0
  5
3A02
 10
659.403
 20
604.037
 30
0.000000
  70
    32
  0
VERTEX
  8
0
  5
3A03
 10
659.768
 20
603.621
 30
0.000000
  70
    32
  0
VERTEX
  8
0
  5
3A04
 10
660.155
 20
603.217
 30
0.000000
  70
    32
  0
VERTEX
  8
0
  5
3A05
 10
660.565
 20
602.826
 30
0.000000
  70
    32
  0
VERTEX
  8
0
  5
3A06
 10
660.996
 20
602.447
 30
0.000000
  70
    32
  0
VERTEX
  8
0
  5
3A07
 10
661.447
 20
602.083
 30
0.000000
  70
    32
  0
VERTEX
  8
0
  5
3A08
 10
661.917
 20
601.734
 30
0.000000
  70
    32
  0
VERTEX
  8
0
  5
3A09
 10
662.407
 20
601.400
 30
0.000000
  70
    32
  0
VERTEX
  8
0
  5
3A0A
 10
662.914
 20
601.082
 30
0.000000
  70
    32
  0
VERTEX
  8
0
  5
3A0B
 10
663.439
 20
600.780
 30
0.000000
  70
    32
  0
VERTEX
  8
0
  5
3A0C
 10
663.980
 20
600.495
 30
0.000000
  70
    32
  0
VERTEX
  8
0
  5
3A0D
 10
664.535
 20
600.227
 30
0.000000
  70
    32
  0
VERTEX
  8
0
  5
3A0E
 10
665.106
 20
599.977
 30
0.000000
  70
    32
  0
VERTEX
  8
0
  5
3A0F
 10
665.689
 20
599.746
 30
0.000000
  70
    32
  0
VERTEX
  8
0
  5
3A10
 10
666.284
 20
599.534
 30
0.000000
  70
    32
  0
VERTEX
  8
0
  5
3A11
 10
666.891
 20
599.340
 30
0.000000
  70
    32
  0
VERTEX
  8
0
  5
3A12
 10
667.508
 20
599.166
 30
0.000000
  70
    32
  0
VERTEX
  8
0
  5
3A13
 10
668.134
 20
599.012
 30
0.000000
  70
    32
  0
VERTEX
  8
0
  5
3A14
 10
668.768
 20
598.878
 30
0.000000
  70
    32
  0
VERTEX
  8
0
  5
3A15
 10
669.408
 20
598.764
 30
0.000000
  70
    32
  0
VERTEX
  8
0
  5
3A16
 10
670.055
 20
598.670
 30
0.000000
  70
    32
  0
VERTEX
  8
0
  5
3A17
 10
670.706
 20
598.597
 30
0.000000
  70
    32
  0
VERTEX
  8
0
  5
3A18
 10
671.360
 20
598.545
 30
0.000000
  70
    32
  0
VERTEX
  8
0
  5
3A19
 10
672.017
 20
598.514
 30
0.000000
  70
    32
  0
VERTEX
  8
0
  5
3A1A
 10
672.675
 20
598.503
 30
0.000000
  70
    32
  0
VERTEX
  8
0
  5
3A1B
 10
673.332
 20
598.514
 30
0.000000
  70
    32
  0
VERTEX
  8
0
  5
3A1C
 10
673.989
 20
598.545
 30
0.000000
  70
    32
  0
VERTEX
  8
0
  5
3A1D
 10
674.644
 20
598.597
 30
0.000000
  70
    32
  0
VERTEX
  8
0
  5
3A1E
 10
675.295
 20
598.670
 30
0.000000
  70
    32
  0
VERTEX
  8
0
  5
3A1F
 10
675.941
 20
598.764
 30
0.000000
  70
    32
  0
VERTEX
  8
0
  5
3A20
 10
676.582
 20
598.878
 30
0.000000
  70
    32
  0
VERTEX
  8
0
  5
3A21
 10
677.215
 20
599.012
 30
0.000000
  70
    32
  0
VERTEX
  8
0
  5
3A22
 10
677.841
 20
599.166
 30
0.000000
  70
    32
  0
VERTEX
  8
0
  5
3A23
 10
678.458
 20
599.340
 30
0.000000
  70
    32
  0
VERTEX
  8
0
  5
3A24
 10
679.065
 20
599.534
 30
0.000000
  70
    32
  0
VERTEX
  8
0
  5
3A25
 10
679.660
 20
599.746
 30
0.000000
  70
    32
  0
VERTEX
  8
0
  5
3A26
 10
680.244
 20
599.977
 30
0.000000
  70
    32
  0
VERTEX
  8
0
  5
3A27
 10
680.814
 20
600.227
 30
0.000000
  70
    32
  0
VERTEX
  8
0
  5
3A28
 10
681.370
 20
600.495
 30
0.000000
  70
    32
  0
VERTEX
  8
0
  5
3A29
 10
681.910
 20
600.780
 30
0.000000
  70
    32
  0
VERTEX
  8
0
  5
3A2A
 10
682.435
 20
601.082
 30
0.000000
  70
    32
  0
VERTEX
  8
0
  5
3A2B
 10
682.942
 20
601.400
 30
0.000000
  70
    32
  0
VERTEX
  8
0
  5
3A2C
 10
683.432
 20
601.734
 30
0.000000
  70
    32
  0
VERTEX
  8
0
  5
3A2D
 10
683.903
 20
602.083
 30
0.000000
  70
    32
  0
VERTEX
  8
0
  5
3A2E
 10
684.354
 20
602.447
 30
0.000000
  70
    32
  0
VERTEX
  8
0
  5
3A2F
 10
684.784
 20
602.826
 30
0.000000
  70
    32
  0
VERTEX
  8
0
  5
3A30
 10
685.194
 20
603.217
 30
0.000000
  70
    32
  0
VERTEX
  8
0
  5
3A31
 10
685.581
 20
603.621
 30
0.000000
  70
    32
  0
VERTEX
  8
0
  5
3A32
 10
685.946
 20
604.037
 30
0.000000
  70
    32
  0
VERTEX
  8
0
  5
3A33
 10
686.288
 20
604.464
 30
0.000000
  70
    32
  0
VERTEX
  8
0
  5
3A34
 10
686.606
 20
604.902
 30
0.000000
  70
    32
  0
VERTEX
  8
0
  5
3A35
 10
686.900
 20
605.350
 30
0.000000
  70
    32
  0
VERTEX
  8
0
  5
3A36
 10
687.169
 20
605.806
 30
0.000000
  70
    32
  0
VERTEX
  8
0
  5
3A37
 10
687.412
 20
606.271
 30
0.000000
  70
    32
  0
VERTEX
  8
0
  5
3A38
 10
687.630
 20
606.743
 30
0.000000
  70
    32
  0
VERTEX
  8
0
  5
3A39
 10
687.821
 20
607.221
 30
0.000000
  70
    32
  0
VERTEX
  8
0
  5
3A3A
 10
687.986
 20
607.705
 30
0.000000
  70
    32
  0
VERTEX
  8
0
  5
3A3B
 10
688.124
 20
608.194
 30
0.000000
  70
    32
  0
VERTEX
  8
0
  5
3A3C
 10
688.236
 20
608.687
 30
0.000000
  70
    32
  0
VERTEX
  8
0
  5
3A3D
 10
688.320
 20
609.183
 30
0.000000
  70
    32
  0
VERTEX
  8
0
  5
3A3E
 10
688.376
 20
609.681
 30
0.000000
  70
    32
  0
VERTEX
  8
0
  5
3A3F
 10
688.406
 20
610.180
 30
0.000000
  70
    32
  0
VERTEX
  8
0
  5
3A40
 10
688.407
 20
610.681
 30
0.000000
  70
    32
  0
VERTEX
  8
0
  5
3A41
 10
688.381
 20
611.180
 30
0.000000
  70
    32
  0
VERTEX
  8
0
  5
3A42
 10
688.328
 20
611.679
 30
0.000000
  70
    32
  0
VERTEX
  8
0
  5
3A43
 10
688.248
 20
612.175
 30
0.000000
  70
    32
  0
VERTEX
  8
0
  5
3A44
 10
688.140
 20
612.668
 30
0.000000
  70
    32
  0
VERTEX
  8
0
  5
3A45
 10
688.005
 20
613.158
 30
0.000000
  70
    32
  0
VERTEX
  8
0
  5
3A46
 10
687.843
 20
613.642
 30
0.000000
  70
    32
  0
VERTEX
  8
0
  5
3A47
 10
687.655
 20
614.121
 30
0.000000
  70
    32
  0
VERTEX
  8
0
  5
3A48
 10
687.440
 20
614.594
 30
0.000000
  70
    32
  0
VERTEX
  8
0
  5
3A49
 10
687.200
 20
615.060
 30
0.000000
  70
    32
  0
VERTEX
  8
0
  5
3A4A
 10
686.934
 20
615.517
 30
0.000000
  70
    32
  0
VERTEX
  8
0
  5
3A4B
 10
686.644
 20
615.966
 30
0.000000
  70
    32
  0
VERTEX
  8
0
  5
3A4C
 10
686.329
 20
616.405
 30
0.000000
  70
    32
  0
VERTEX
  8
0
  5
3A4D
 10
685.990
 20
616.833
 30
0.000000
  70
    32
  0
VERTEX
  8
0
  5
3A4E
 10
685.628
 20
617.251
 30
0.000000
  70
    32
  0
VERTEX
  8
0
  5
3A4F
 10
685.243
 20
617.656
 30
0.000000
  70
    32
  0
VERTEX
  8
0
  5
3A50
 10
684.836
 20
618.050
 30
0.000000
  70
    32
  0
VERTEX
  8
0
  5
3A51
 10
684.408
 20
618.429
 30
0.000000
  70
    32
  0
VERTEX
  8
0
  5
3A52
 10
683.959
 20
618.795
 30
0.000000
  70
    32
  0
VERTEX
  8
0
  5
3A53
 10
683.491
 20
619.146
 30
0.000000
  70
    32
  0
VERTEX
  8
0
  5
3A54
 10
683.004
 20
619.482
 30
0.000000
  70
    32
  0
VERTEX
  8
0
  5
3A55
 10
682.499
 20
619.803
 30
0.000000
  70
    32
  0
VERTEX
  8
0
  5
3A56
 10
681.976
 20
620.107
 30
0.000000
  70
    32
  0
VERTEX
  8
0
  5
3A57
 10
681.437
 20
620.394
 30
0.000000
  70
    32
  0
VERTEX
  8
0
  5
3A58
 10
680.883
 20
620.663
 30
0.000000
  70
    32
  0
VERTEX
  8
0
  5
3A59
 10
680.315
 20
620.915
 30
0.000000
  70
    32
  0
VERTEX
  8
0
  5
3A5A
 10
679.733
 20
621.149
 30
0.000000
  70
    32
  0
SEQEND
  8
0
  5
3A5B
  0
ARC
  5
2E57
  8
0
 10
672.67464407652733
 20
649.13434430841198
 30
0.0
 40
51.887249999999987
 50
156.15518736497839
 51
23.844812635021551
  0
CIRCLE
  5
2E58
  8
0
 10
672.67464407652733
 20
668.121594308412
 30
0.0
 40
47.5
  0
CIRCLE
  5
2E59
  8
0
 10
647.92590673499762
 20
643.37285696688275
 30
0.0
 40
6.0
  0
CIRCLE
  5
2E5A
  8
0
 10
647.92590673499762
 20
692.87033164994125
 30
0.0
 40
6.0
  0
CIRCLE
  5
2E5B
  8
0
 10
697.42338141805612
 20
643.37285696688275
 30
0.0
 40
6.0
  0
CIRCLE
  5
2E5C
  8
0
 10
697.42338141805612
 20
692.87033164994125
 30
0.0
 40
6.0
  0
ARC
  5
2E5D
  8
0
 10
939.75968714598991
 20
649.13434430841198
 30
0.0
 40
51.887249999999987
 50
163.70670041658229
 51
16.293299583417671
  0
POLYLINE
  5
2E5E
  8
0
 10
950.40462947593107
 20
619.26788203603496
 30
0.0
 66
     1
 70
     8
  0
VERTEX
  8
0
  5
3A5C
 10
950.405
 20
619.268
 30
0.000000
  70
    32
  0
VERTEX
  8
0
  5
3A5D
 10
950.831
 20
618.959
 30
0.000000
  70
    32
  0
VERTEX
  8
0
  5
3A5E
 10
951.243
 20
618.637
 30
0.000000
  70
    32
  0
VERTEX
  8
0
  5
3A5F
 10
951.638
 20
618.305
 30
0.000000
  70
    32
  0
VERTEX
  8
0
  5
3A60
 10
952.016
 20
617.961
 30
0.000000
  70
    32
  0
VERTEX
  8
0
  5
3A61
 10
952.377
 20
617.607
 30
0.000000
  70
    32
  0
VERTEX
  8
0
  5
3A62
 10
952.721
 20
617.242
 30
0.000000
  70
    32
  0
VERTEX
  8
0
  5
3A63
 10
953.046
 20
616.869
 30
0.000000
  70
    32
  0
VERTEX
  8
0
  5
3A64
 10
953.352
 20
616.486
 30
0.000000
  70
    32
  0
VERTEX
  8
0
  5
3A65
 10
953.640
 20
616.094
 30
0.000000
  70
    32
  0
VERTEX
  8
0
  5
3A66
 10
953.908
 20
615.695
 30
0.000000
  70
    32
  0
VERTEX
  8
0
  5
3A67
 10
954.156
 20
615.289
 30
0.000000
  70
    32
  0
VERTEX
  8
0
  5
3A68
 10
954.384
 20
614.875
 30
0.000000
  70
    32
  0
VERTEX
  8
0
  5
3A69
 10
954.591
 20
614.456
 30
0.000000
  70
    32
  0
VERTEX
  8
0
  5
3A6A
 10
954.778
 20
614.031
 30
0.000000
  70
    32
  0
VERTEX
  8
0
  5
3A6B
 10
954.943
 20
613.601
 30
0.000000
  70
    32
  0
VERTEX
  8
0
  5
3A6C
 10
955.087
 20
613.166
 30
0.000000
  70
    32
  0
VERTEX
  8
0
  5
3A6D
 10
955.210
 20
612.728
 30
0.000000
  70
    32
  0
VERTEX
  8
0
  5
3A6E
 10
955.311
 20
612.286
 30
0.000000
  70
    32
  0
VERTEX
  8
0
  5
3A6F
 10
955.390
 20
611.842
 30
0.000000
  70
    32
  0
VERTEX
  8
0
  5
3A70
 10
955.447
 20
611.396
 30
0.000000
  70
    32
  0
VERTEX
  8
0
  5
3A71
 10
955.482
 20
610.949
 30
0.000000
  70
    32
  0
VERTEX
  8
0
  5
3A72
 10
955.495
 20
610.501
 30
0.000000
  70
    32
  0
VERTEX
  8
0
  5
3A73
 10
955.486
 20
610.052
 30
0.000000
  70
    32
  0
VERTEX
  8
0
  5
3A74
 10
955.455
 20
609.605
 30
0.000000
  70
    32
  0
VERTEX
  8
0
  5
3A75
 10
955.401
 20
609.159
 30
0.000000
  70
    32
  0
VERTEX
  8
0
  5
3A76
 10
955.326
 20
608.714
 30
0.000000
  70
    32
  0
VERTEX
  8
0
  5
3A77
 10
955.229
 20
608.272
 30
0.000000
  70
    32
  0
VERTEX
  8
0
  5
3A78
 10
955.110
 20
607.833
 30
0.000000
  70
    32
  0
VERTEX
  8
0
  5
3A79
 10
954.970
 20
607.398
 30
0.000000
  70
    32
  0
VERTEX
  8
0
  5
3A7A
 10
954.808
 20
606.967
 30
0.000000
  70
    32
  0
VERTEX
  8
0
  5
3A7B
 10
954.625
 20
606.541
 30
0.000000
  70
    32
  0
VERTEX
  8
0
  5
3A7C
 10
954.422
 20
606.120
 30
0.000000
  70
    32
  0
VERTEX
  8
0
  5
3A7D
 10
954.197
 20
605.706
 30
0.000000
  70
    32
  0
VERTEX
  8
0
  5
3A7E
 10
953.953
 20
605.298
 30
0.000000
  70
    32
  0
VERTEX
  8
0
  5
3A7F
 10
953.688
 20
604.898
 30
0.000000
  70
    32
  0
VERTEX
  8
0
  5
3A80
 10
953.404
 20
604.505
 30
0.000000
  70
    32
  0
VERTEX
  8
0
  5
3A81
 10
953.101
 20
604.121
 30
0.000000
  70
    32
  0
VERTEX
  8
0
  5
3A82
 10
952.779
 20
603.745
 30
0.000000
  70
    32
  0
VERTEX
  8
0
  5
3A83
 10
952.438
 20
603.379
 30
0.000000
  70
    32
  0
VERTEX
  8
0
  5
3A84
 10
952.080
 20
603.023
 30
0.000000
  70
    32
  0
VERTEX
  8
0
  5
3A85
 10
951.705
 20
602.677
 30
0.000000
  70
    32
  0
VERTEX
  8
0
  5
3A86
 10
951.313
 20
602.343
 30
0.000000
  70
    32
  0
VERTEX
  8
0
  5
3A87
 10
950.904
 20
602.019
 30
0.000000
  70
    32
  0
VERTEX
  8
0
  5
3A88
 10
950.480
 20
601.708
 30
0.000000
  70
    32
  0
VERTEX
  8
0
  5
3A89
 10
950.041
 20
601.409
 30
0.000000
  70
    32
  0
VERTEX
  8
0
  5
3A8A
 10
949.588
 20
601.122
 30
0.000000
  70
    32
  0
VERTEX
  8
0
  5
3A8B
 10
949.120
 20
600.849
 30
0.000000
  70
    32
  0
VERTEX
  8
0
  5
3A8C
 10
948.640
 20
600.589
 30
0.000000
  70
    32
  0
VERTEX
  8
0
  5
3A8D
 10
948.147
 20
600.343
 30
0.000000
  70
    32
  0
VERTEX
  8
0
  5
3A8E
 10
947.642
 20
600.112
 30
0.000000
  70
    32
  0
VERTEX
  8
0
  5
3A8F
 10
947.126
 20
599.895
 30
0.000000
  70
    32
  0
VERTEX
  8
0
  5
3A90
 10
946.600
 20
599.692
 30
0.000000
  70
    32
  0
VERTEX
  8
0
  5
3A91
 10
946.064
 20
599.505
 30
0.000000
  70
    32
  0
VERTEX
  8
0
  5
3A92
 10
945.520
 20
599.333
 30
0.000000
  70
    32
  0
VERTEX
  8
0
  5
3A93
 10
944.967
 20
599.177
 30
0.000000
  70
    32
  0
VERTEX
  8
0
  5
3A94
 10
944.407
 20
599.037
 30
0.000000
  70
    32
  0
VERTEX
  8
0
  5
3A95
 10
943.841
 20
598.912
 30
0.000000
  70
    32
  0
VERTEX
  8
0
  5
3A96
 10
943.268
 20
598.804
 30
0.000000
  70
    32
  0
VERTEX
  8
0
  5
3A97
 10
942.691
 20
598.712
 30
0.000000
  70
    32
  0
VERTEX
  8
0
  5
3A98
 10
942.110
 20
598.637
 30
0.000000
  70
    32
  0
VERTEX
  8
0
  5
3A99
 10
941.525
 20
598.579
 30
0.000000
  70
    32
  0
VERTEX
  8
0
  5
3A9A
 10
940.938
 20
598.537
 30
0.000000
  70
    32
  0
VERTEX
  8
0
  5
3A9B
 10
940.349
 20
598.511
 30
0.000000
  70
    32
  0
VERTEX
  8
0
  5
3A9C
 10
939.760
 20
598.503
 30
0.000000
  70
    32
  0
VERTEX
  8
0
  5
3A9D
 10
939.170
 20
598.511
 30
0.000000
  70
    32
  0
VERTEX
  8
0
  5
3A9E
 10
938.581
 20
598.537
 30
0.000000
  70
    32
  0
VERTEX
  8
0
  5
3A9F
 10
937.994
 20
598.579
 30
0.000000
  70
    32
  0
VERTEX
  8
0
  5
3AA0
 10
937.410
 20
598.637
 30
0.000000
  70
    32
  0
VERTEX
  8
0
  5
3AA1
 10
936.828
 20
598.712
 30
0.000000
  70
    32
  0
VERTEX
  8
0
  5
3AA2
 10
936.251
 20
598.804
 30
0.000000
  70
    32
  0
VERTEX
  8
0
  5
3AA3
 10
935.679
 20
598.912
 30
0.000000
  70
    32
  0
VERTEX
  8
0
  5
3AA4
 10
935.112
 20
599.037
 30
0.000000
  70
    32
  0
VERTEX
  8
0
  5
3AA5
 10
934.552
 20
599.177
 30
0.000000
  70
    32
  0
VERTEX
  8
0
  5
3AA6
 10
934.000
 20
599.333
 30
0.000000
  70
    32
  0
VERTEX
  8
0
  5
3AA7
 10
933.455
 20
599.505
 30
0.000000
  70
    32
  0
VERTEX
  8
0
  5
3AA8
 10
932.919
 20
599.692
 30
0.000000
  70
    32
  0
VERTEX
  8
0
  5
3AA9
 10
932.393
 20
599.895
 30
0.000000
  70
    32
  0
VERTEX
  8
0
  5
3AAA
 10
931.877
 20
600.112
 30
0.000000
  70
    32
  0
VERTEX
  8
0
  5
3AAB
 10
931.372
 20
600.343
 30
0.000000
  70
    32
  0
VERTEX
  8
0
  5
3AAC
 10
930.879
 20
600.589
 30
0.000000
  70
    32
  0
VERTEX
  8
0
  5
3AAD
 10
930.399
 20
600.849
 30
0.000000
  70
    32
  0
VERTEX
  8
0
  5
3AAE
 10
929.932
 20
601.122
 30
0.000000
  70
    32
  0
VERTEX
  8
0
  5
3AAF
 10
929.478
 20
601.409
 30
0.000000
  70
    32
  0
VERTEX
  8
0
  5
3AB0
 10
929.039
 20
601.708
 30
0.000000
  70
    32
  0
VERTEX
  8
0
  5
3AB1
 10
928.615
 20
602.019
 30
0.000000
  70
    32
  0
VERTEX
  8
0
  5
3AB2
 10
928.207
 20
602.343
 30
0.000000
  70
    32
  0
VERTEX
  8
0
  5
3AB3
 10
927.814
 20
602.677
 30
0.000000
  70
    32
  0
VERTEX
  8
0
  5
3AB4
 10
927.439
 20
603.023
 30
0.000000
  70
    32
  0
VERTEX
  8
0
  5
3AB5
 10
927.081
 20
603.379
 30
0.000000
  70
    32
  0
VERTEX
  8
0
  5
3AB6
 10
926.741
 20
603.745
 30
0.000000
  70
    32
  0
VERTEX
  8
0
  5
3AB7
 10
926.419
 20
604.121
 30
0.000000
  70
    32
  0
VERTEX
  8
0
  5
3AB8
 10
926.115
 20
604.505
 30
0.000000
  70
    32
  0
VERTEX
  8
0
  5
3AB9
 10
925.831
 20
604.898
 30
0.000000
  70
    32
  0
VERTEX
  8
0
  5
3ABA
 10
925.567
 20
605.298
 30
0.000000
  70
    32
  0
VERTEX
  8
0
  5
3ABB
 10
925.322
 20
605.706
 30
0.000000
  70
    32
  0
VERTEX
  8
0
  5
3ABC
 10
925.098
 20
606.120
 30
0.000000
  70
    32
  0
VERTEX
  8
0
  5
3ABD
 10
924.894
 20
606.541
 30
0.000000
  70
    32
  0
VERTEX
  8
0
  5
3ABE
 10
924.711
 20
606.967
 30
0.000000
  70
    32
  0
VERTEX
  8
0
  5
3ABF
 10
924.550
 20
607.398
 30
0.000000
  70
    32
  0
VERTEX
  8
0
  5
3AC0
 10
924.409
 20
607.833
 30
0.000000
  70
    32
  0
VERTEX
  8
0
  5
3AC1
 10
924.290
 20
608.272
 30
0.000000
  70
    32
  0
VERTEX
  8
0
  5
3AC2
 10
924.193
 20
608.714
 30
0.000000
  70
    32
  0
VERTEX
  8
0
  5
3AC3
 10
924.118
 20
609.159
 30
0.000000
  70
    32
  0
VERTEX
  8
0
  5
3AC4
 10
924.065
 20
609.605
 30
0.000000
  70
    32
  0
VERTEX
  8
0
  5
3AC5
 10
924.034
 20
610.052
 30
0.000000
  70
    32
  0
VERTEX
  8
0
  5
3AC6
 10
924.025
 20
610.501
 30
0.000000
  70
    32
  0
VERTEX
  8
0
  5
3AC7
 10
924.037
 20
610.949
 30
0.000000
  70
    32
  0
VERTEX
  8
0
  5
3AC8
 10
924.073
 20
611.396
 30
0.000000
  70
    32
  0
VERTEX
  8
0
  5
3AC9
 10
924.130
 20
611.842
 30
0.000000
  70
    32
  0
VERTEX
  8
0
  5
3ACA
 10
924.209
 20
612.286
 30
0.000000
  70
    32
  0
VERTEX
  8
0
  5
3ACB
 10
924.310
 20
612.728
 30
0.000000
  70
    32
  0
VERTEX
  8
0
  5
3ACC
 10
924.432
 20
613.166
 30
0.000000
  70
    32
  0
VERTEX
  8
0
  5
3ACD
 10
924.576
 20
613.601
 30
0.000000
  70
    32
  0
VERTEX
  8
0
  5
3ACE
 10
924.742
 20
614.031
 30
0.000000
  70
    32
  0
VERTEX
  8
0
  5
3ACF
 10
924.928
 20
614.456
 30
0.000000
  70
    32
  0
VERTEX
  8
0
  5
3AD0
 10
925.136
 20
614.875
 30
0.000000
  70
    32
  0
VERTEX
  8
0
  5
3AD1
 10
925.363
 20
615.289
 30
0.000000
  70
    32
  0
VERTEX
  8
0
  5
3AD2
 10
925.612
 20
615.695
 30
0.000000
  70
    32
  0
VERTEX
  8
0
  5
3AD3
 10
925.880
 20
616.094
 30
0.000000
  70
    32
  0
VERTEX
  8
0
  5
3AD4
 10
926.167
 20
616.486
 30
0.000000
  70
    32
  0
VERTEX
  8
0
  5
3AD5
 10
926.474
 20
616.869
 30
0.000000
  70
    32
  0
VERTEX
  8
0
  5
3AD6
 10
926.799
 20
617.242
 30
0.000000
  70
    32
  0
VERTEX
  8
0
  5
3AD7
 10
927.142
 20
617.607
 30
0.000000
  70
    32
  0
VERTEX
  8
0
  5
3AD8
 10
927.503
 20
617.961
 30
0.000000
  70
    32
  0
VERTEX
  8
0
  5
3AD9
 10
927.882
 20
618.305
 30
0.000000
  70
    32
  0
VERTEX
  8
0
  5
3ADA
 10
928.277
 20
618.637
 30
0.000000
  70
    32
  0
VERTEX
  8
0
  5
3ADB
 10
928.688
 20
618.959
 30
0.000000
  70
    32
  0
VERTEX
  8
0
  5
3ADC
 10
929.115
 20
619.268
 30
0.000000
  70
    32
  0
SEQEND
  8
0
  5
3ADD
  0
CIRCLE
  5
2E5F
  8
0
 10
939.75968714598991
 20
668.121594308412
 30
0.0
 40
50.0
  0
CIRCLE
  5
2E60
  8
0
 10
913.24318285149445
 20
641.60509001391665
 30
0.0
 40
6.0
  0
CIRCLE
  5
2E61
  8
0
 10
913.24318285149445
 20
694.63809860290746
 30
0.0
 40
6.0
  0
CIRCLE
  5
2E62
  8
0
 10
966.27619144048549
 20
641.60509001391665
 30
0.0
 40
6.0
  0
CIRCLE
  5
2E63
  8
0
 10
966.27619144048549
 20
694.63809860290746
 30
0.0
 40
6.0
  0
LINE
  5
2E64
  8
0
 10
1135.6414593838231
 20
620.55856637119473
 30
0.0
 11
1155.8578159118031
 21
600.34322451680066
 31
0.0
  0
LINE
  5
2E72
  8
0
 10
1018.834889754572
 20
668.23650972970836
 30
0.0
 11
1009.381514754572
 21
677.68988472970796
 31
0.0
  0
LINE
  5
2E73
  8
0
 10
1056.4442022545729
 20
677.68988472970796
 30
0.0
 11
1066.1034522545719
 21
668.23650972970836
 31
0.0
  0
LINE
  5
2E77
  8
0
 10
1079.2194387734171
 20
668.121594308412
 30
0.0
 11
1079.2194387734171
 21
718.121594308412
 31
0.0
  0
LINE
  5
2E78
  8
0
 10
1066.1034522545719
 20
668.23650972970836
 30
0.0
 11
1018.834889754572
 21
668.23650972970836
 31
0.0
  0
LINE
  5
2E79
  8
0
 10
1079.2194387734171
 20
618.121594308412
 30
0.0
 11
1079.2194387734171
 21
668.121594308412
 31
0.0
  0
LINE
  5
2E7D
  8
0
 10
1009.381514754572
 20
677.68988472970796
 30
0.0
 11
1037.7416397545719
 21
677.68988472970796
 31
0.0
  0
LINE
  5
2E7E
  8
0
 10
1042.470014754573
 20
672.96319722970804
 30
0.0
 11
1056.4442022545729
 21
672.96319722970804
 31
0.0
  0
LINE
  5
2E7F
  8
0
 10
1037.7416397545719
 20
677.68988472970796
 30
0.0
 11
1042.470014754573
 21
672.96319722970804
 31
0.0
  0
LINE
  5
2E80
  8
0
 10
1056.4442022545729
 20
672.96319722970804
 30
0.0
 11
1056.4442022545729
 21
677.68988472970796
 31
0.0
  0
LINE
  5
2E84
  8
0
 10
1130.9783528160419
 20
683.12159430841155
 30
0.0
 11
1130.9783528160419
 21
653.12159430841211
 31
0.0
  0
LINE
  5
2E87
  8
0
 10
1132.4194387734169
 20
687.12159430841211
 30
0.0
 11
1132.4194387734169
 21
628.33693616280607
 31
0.0
  0
LINE
  5
2E94
  8
0
 10
1130.9783528160419
 20
653.12159430841211
 30
0.0
 11
1132.4194387734169
 21
651.78403039989325
 31
0.0
  0
LINE
  5
2E99
  8
0
 10
1130.9783528160419
 20
683.12159430841155
 30
0.0
 11
1132.4194387734169
 21
684.45915821693052
 31
0.0
  0
LINE
  5
2EA5
  8
0
 10
551.24567063947586
 20
839.1733628214929
 30
0.0
 11
551.24567063947586
 21
870.82567905381256
 31
0.0
  0
LINE
  5
2EA6
  8
0
 10
552.21337516731182
 20
869.99952093765285
 30
0.0
 11
552.21337516731273
 21
839.99952093765251
 31
0.0
  0
LINE
  5
2EAA
  8
0
 10
594.44567063947579
 20
807.49952093765353
 30
0.0
 11
594.44567063947579
 21
854.99952093765341
 31
0.0
  0
LINE
  5
2EAB
  8
0
 10
528.67479122147768
 20
802.99952093763841
 30
0.0
 11
458.21675005746329
 21
802.99952093763841
 31
0.0
  0
ARC
  5
2EAC
  8
0
 10
458.21675005746329
 20
817.99952093763841
 30
0.0
 40
15.0
 50
207.38723512491771
 51
270.00000000000171
  0
ARC
  5
2EAD
  8
0
 10
455.17656042302491
 20
855.2726801105913
 30
0.0
 40
97.40873654326748
 50
333.03264118730181
 51
350.48673715867062
  0
ARC
  5
2EAE
  8
0
 10
528.67479122147768
 20
817.99952093763841
 30
0.0
 40
15.0
 50
269.99999999999829
 51
332.61276487508229
  0
POLYLINE
  5
2EAF
  8
0
 66
     1
 10
0.0
 20
0.0
 30
0.0
  0
VERTEX
  5
380C
  8
0
 10
551.24567063947586
 20
839.1733628214929
 30
0.0
  0
VERTEX
  5
380D
  8
0
 10
552.21337516731182
 20
839.99952093765251
 30
0.0
  0
SEQEND
  5
380E
  8
0
  0
LINE
  5
2EB3
  8
0
 10
528.67479122147961
 20
906.99952093763852
 30
0.0
 11
458.21675005746141
 21
906.99952093763852
 31
0.0
  0
ARC
  5
2EB4
  8
0
 10
458.21675005746141
 20
891.99952093763841
 30
0.0
 40
15.0
 50
90.0
 51
152.61276487508209
  0
LINE
  5
2EB5
  8
0
 10
594.44567063947579
 20
854.99952093765341
 30
0.0
 11
594.44567063947579
 21
902.49952093765341
 31
0.0
  0
ARC
  5
2EB6
  8
0
 10
528.67479122147961
 20
891.99952093763841
 30
0.0
 40
15.0
 50
27.387235124917819
 51
90.0
  0
ARC
  5
2EB8
  8
0
 10
455.66005813840809
 20
854.88570475202914
 30
0.0
 40
96.905583419872144
 50
9.4675937671153143
 51
27.01302788694635
  0
POLYLINE
  5
2EB9
  8
0
 66
     1
 10
0.0
 20
0.0
 30
0.0
  0
VERTEX
  5
380F
  8
0
 10
551.24567063947586
 20
870.82567905381256
 30
0.0
  0
VERTEX
  5
3810
  8
0
 10
552.21337516731182
 20
869.99952093765285
 30
0.0
  0
SEQEND
  5
3811
  8
0
  0
LINE
  5
2ECA
  8
0
 10
552.21337516730534
 20
1080.647015707292
 30
0.0
 11
552.21337516730625
 21
1050.647015707292
 31
0.0
  0
LINE
  5
2ECB
  8
0
 10
594.44567063946943
 20
1065.6470157072929
 30
0.0
 11
594.44567063946943
 21
1113.1470157072929
 31
0.0
  0
LINE
  5
2ECD
  8
0
 10
551.24567063946972
 20
1025.8623575616871
 30
0.0
 11
551.24567063946949
 21
1084.6470157072929
 31
0.0
  0
LINE
  5
2ECF
  8
0
 10
466.86202716744913
 20
994.64701570729301
 30
0.0
 11
520.02931411148961
 21
994.64701570729255
 31
0.0
  0
LINE
  5
2EDD
  8
0
 10
527.80729350108402
 20
997.86864591568155
 30
0.0
 11
548.02365002906379
 21
1018.083987770076
 31
0.0
  0
POLYLINE
  5
2EF1
  8
0
 66
     1
 10
0.0
 20
0.0
 30
0.0
  0
VERTEX
  5
3812
  8
0
 10
551.24567063946949
 20
1049.8208575911319
 30
0.0
  0
VERTEX
  5
3813
  8
0
 10
552.21337516730534
 20
1050.647015707292
 30
0.0
  0
SEQEND
  5
3814
  8
0
  0
LINE
  5
2EF2
  8
0
 10
594.44567063946943
 20
1018.147015707293
 30
0.0
 11
594.44567063946943
 21
1065.6470157072929
 31
0.0
  0
LINE
  5
2EF8
  8
0
 10
537.24567063946961
 20
1098.6470157072929
 30
0.0
 11
449.64567063946919
 21
1098.6470157072929
 31
0.0
  0
POLYLINE
  5
2F0B
  8
0
 66
     1
 10
0.0
 20
0.0
 30
0.0
  0
VERTEX
  5
3815
  8
0
 10
551.24567063946949
 20
1081.473173823452
 30
0.0
  0
VERTEX
  5
3816
  8
0
 10
552.21337516730534
 20
1080.647015707292
 30
0.0
  0
SEQEND
  5
3817
  8
0
  0
LINE
  5
2F11
  8
0
 10
669.63662017651995
 20
1073.6393881949939
 30
0.0
 11
641.2764951765198
 21
1073.6393881949939
 31
0.0
  0
LINE
  5
2F12
  8
0
 10
612.91468267651987
 20
1064.1860131949941
 30
0.0
 11
660.18324517652024
 21
1064.1860131949941
 31
0.0
  0
LINE
  5
2F13
  8
0
 10
636.54812017651955
 20
1068.9127006949941
 30
0.0
 11
622.57393267651923
 21
1068.9127006949941
 31
0.0
  0
LINE
  5
2F14
  8
0
 10
622.57393267651923
 20
1073.6393881949939
 30
0.0
 11
612.91468267651987
 21
1064.1860131949941
 31
0.0
  0
LINE
  5
2F15
  8
0
 10
622.57393267651923
 20
1068.9127006949941
 30
0.0
 11
622.57393267651923
 21
1073.6393881949939
 31
0.0
  0
LINE
  5
2F16
  8
0
 10
641.2764951765198
 20
1073.6393881949939
 30
0.0
 11
636.54812017651955
 21
1068.9127006949941
 31
0.0
  0
LINE
  5
2F17
  8
0
 10
660.18324517652024
 20
1064.1860131949941
 30
0.0
 11
669.63662017651995
 21
1073.6393881949939
 31
0.0
  0
LINE
  5
2F19
  8
0
 10
1079.219438773411
 20
804.99952093765341
 30
0.0
 11
1079.219438773411
 21
854.99952093765341
 31
0.0
  0
LINE
  5
2F1A
  8
0
 10
1132.419438773411
 20
871.33708484617182
 30
0.0
 11
1132.419438773411
 21
838.6619570291349
 31
0.0
  0
LINE
  5
2F1E
  8
0
 10
1130.9783528160369
 20
869.99952093765285
 30
0.0
 11
1130.9783528160369
 21
839.99952093765341
 31
0.0
  0
ARC
  5
2F24
  8
0
 10
1154.9905181913989
 20
817.99952093763841
 30
0.0
 40
15.0
 50
207.38723512491771
 51
270.00000000000171
  0
ARC
  5
2F25
  8
0
 10
1231.7183831258831
 20
856.66097555074157
 30
0.0
 40
100.91702045371881
 50
190.27393669663221
 51
206.83834035076561
  0
LINE
  5
2F28
  8
0
 10
1130.9783528160369
 20
839.99952093765341
 30
0.0
 11
1132.419438773411
 21
838.66195702913456
 31
0.0
  0
LINE
  5
2F2A
  8
0
 10
1079.219438773411
 20
854.99952093765341
 30
0.0
 11
1079.219438773411
 21
904.99952093765341
 31
0.0
  0
LINE
  5
2F2B
  8
0
 10
1063.530414625586
 20
858.4979807382847
 30
0.0
 11
1016.2618521255851
 21
858.4979807382847
 31
0.0
  0
LINE
  5
2F2C
  8
0
 10
1053.8711646255861
 20
867.95135573828429
 30
0.0
 11
1063.530414625586
 21
858.4979807382847
 31
0.0
  0
LINE
  5
2F2D
  8
0
 10
1006.808477125586
 20
867.95135573828429
 30
0.0
 11
1035.1686021255859
 21
867.95135573828429
 31
0.0
  0
LINE
  5
2F2E
  8
0
 10
1016.2618521255851
 20
858.4979807382847
 30
0.0
 11
1006.808477125586
 21
867.95135573828429
 31
0.0
  0
LINE
  5
2F2F
  8
0
 10
1039.8969771255861
 20
863.22466823828449
 30
0.0
 11
1053.8711646255861
 21
863.22466823828449
 31
0.0
  0
LINE
  5
2F30
  8
0
 10
1035.1686021255859
 20
867.95135573828429
 30
0.0
 11
1039.8969771255861
 21
863.22466823828449
 31
0.0
  0
LINE
  5
2F31
  8
0
 10
1053.8711646255861
 20
863.22466823828449
 30
0.0
 11
1053.8711646255861
 21
867.95135573828429
 31
0.0
  0
ARC
  5
2F35
  8
0
 10
1154.9905181913971
 20
891.99952093763841
 30
0.0
 40
15.0
 50
90.0
 51
152.61276487508209
  0
ARC
  5
2F36
  8
0
 10
1231.7183831262639
 20
853.33806632439007
 30
0.0
 40
100.91702045412499
 50
153.1616596492598
 51
169.72606330330819
  0
LINE
  5
2F39
  8
0
 10
1130.9783528160369
 20
869.99952093765285
 30
0.0
 11
1132.419438773411
 21
871.33708484617182
 31
0.0
  0
LINE
  5
2F3A
  8
0
 10
1130.9783528160301
 20
1080.647015707292
 30
0.0
 11
1130.9783528160301
 21
1050.6470157072929
 31
0.0
  0
LINE
  5
2F40
  8
0
 10
1132.4194387734051
 20
1084.6470157072929
 30
0.0
 11
1132.4194387734051
 21
1025.8623575616871
 31
0.0
  0
LINE
  5
2F41
  8
0
 10
1079.219438773405
 20
1065.6470157072929
 30
0.0
 11
1079.219438773405
 21
1115.6470157072929
 31
0.0
  0
LINE
  5
2F44
  8
0
 10
1079.219438773405
 20
1015.647015707293
 30
0.0
 11
1079.219438773405
 21
1065.6470157072929
 31
0.0
  0
LINE
  5
2F47
  8
0
 10
1135.641459383811
 20
1018.083987770076
 30
0.0
 11
1155.857815911791
 21
997.86864591568167
 31
0.0
  0
LINE
  5
2F5F
  8
0
 10
1130.9783528160301
 20
1050.6470157072929
 30
0.0
 11
1132.4194387734051
 21
1049.309451798774
 31
0.0
  0
LINE
  5
2F6E
  8
0
 10
1130.9783528160301
 20
1080.647015707292
 30
0.0
 11
1132.4194387734051
 21
1081.9845796158111
 31
0.0
  0
LINE
  5
30CC
  8
0
 10
1998.157239870689
 20
1098.6470157072929
 30
0.0
 11
1910.557239870689
 21
1098.6470157072929
 31
0.0
  0
LINE
  5
30CD
  8
0
 10
1927.7735963986679
 20
994.64701570729324
 30
0.0
 11
1980.940883342709
 21
994.64701570729255
 31
0.0
  0
LINE
  5
30CE
  8
0
 10
1989.586360452699
 20
906.99952093763852
 30
0.0
 11
1919.1283192886799
 21
906.99952093763852
 31
0.0
  0
LINE
  5
30CF
  8
0
 10
1989.586360452696
 20
802.99952093763841
 30
0.0
 11
1919.128319288682
 21
802.99952093763841
 31
0.0
  0
LINE
  5
30D0
  8
0
 10
1998.1572398707001
 20
701.121594308412
 30
0.0
 11
1910.5572398707
 21
701.121594308412
 31
0.0
  0
LINE
  5
30D1
  8
0
 10
1927.7735963986811
 20
597.121594308412
 30
0.0
 11
1980.940883342721
 21
597.12159430841155
 31
0.0
  0
TEXT
  5
30D2
  8
0
 10
1926.624946017603
 20
550.49635030082845
 30
0.0
 40
20.0
  1
25
 41
0.8
 72
     4
 11
1939.5773269699839
 21
560.49635030082845
 31
0.0
  0
LINE
  5
30D3
  8
0
 10
1833.3572398706999
 20
668.121594308412
 30
0.0
 11
1833.3572398706999
 21
730.621594308412
 31
0.0
  0
CIRCLE
  5
30D5
  8
0
 10
1682.812694782197
 20
668.121594308412
 30
0.0
 40
62.5
  0
CIRCLE
  5
30D6
  8
0
 10
1383.3810906807059
 20
668.121594308412
 30
0.0
 40
50.0
  0
ARC
  5
30D7
  8
0
 10
1383.3810906807059
 20
649.13434430841198
 30
0.0
 40
51.887249999999987
 50
163.70670041658229
 51
16.293299583417671
  0
LINE
  5
30D8
  8
0
 10
1224.581061635032
 20
600.34322451680055
 30
0.0
 11
1244.7974181630109
 21
620.55856637119518
 31
0.0
  0
LINE
  5
30E5
  8
0
 10
1249.460524730792
 20
683.12159430841155
 30
0.0
 11
1249.460524730792
 21
653.12159430841211
 31
0.0
  0
LINE
  5
30E6
  8
0
 10
1248.0194387734171
 20
628.3369361628063
 30
0.0
 11
1248.0194387734171
 21
687.12159430841211
 31
0.0
  0
LINE
  5
30F1
  8
0
 10
1249.460524730792
 20
653.12159430841211
 30
0.0
 11
1248.0194387734171
 21
651.78403039989325
 31
0.0
  0
LINE
  5
30F3
  8
0
 10
1245.4134387734171
 20
695.25659430841188
 30
0.0
 11
1243.9194387734169
 21
697.020594308412
 31
0.0
  0
LINE
  5
30F5
  8
0
 10
1249.460524730792
 20
683.12159430841155
 30
0.0
 11
1248.0194387734171
 21
684.45915821693052
 31
0.0
  0
LINE
  5
3101
  8
0
 10
1301.2194387734171
 20
668.121594308412
 30
0.0
 11
1301.2194387734171
 21
718.121594308412
 31
0.0
  0
LINE
  5
3103
  8
0
 10
1301.2194387734171
 20
618.121594308412
 30
0.0
 11
1301.2194387734171
 21
668.121594308412
 31
0.0
  0
POLYLINE
  5
310E
  8
0
 10
1372.7361483507648
 20
619.26788203603496
 30
0.0
 66
     1
 70
     8
  0
VERTEX
  8
0
  5
3ADE
 10
1372.74
 20
619.268
 30
0.000000
  70
    32
  0
VERTEX
  8
0
  5
3ADF
 10
1372.31
 20
618.959
 30
0.000000
  70
    32
  0
VERTEX
  8
0
  5
3AE0
 10
1371.90
 20
618.637
 30
0.000000
  70
    32
  0
VERTEX
  8
0
  5
3AE1
 10
1371.50
 20
618.305
 30
0.000000
  70
    32
  0
VERTEX
  8
0
  5
3AE2
 10
1371.12
 20
617.961
 30
0.000000
  70
    32
  0
VERTEX
  8
0
  5
3AE3
 10
1370.76
 20
617.607
 30
0.000000
  70
    32
  0
VERTEX
  8
0
  5
3AE4
 10
1370.42
 20
617.242
 30
0.000000
  70
    32
  0
VERTEX
  8
0
  5
3AE5
 10
1370.10
 20
616.869
 30
0.000000
  70
    32
  0
VERTEX
  8
0
  5
3AE6
 10
1369.79
 20
616.486
 30
0.000000
  70
    32
  0
VERTEX
  8
0
  5
3AE7
 10
1369.50
 20
616.094
 30
0.000000
  70
    32
  0
VERTEX
  8
0
  5
3AE8
 10
1369.23
 20
615.695
 30
0.000000
  70
    32
  0
VERTEX
  8
0
  5
3AE9
 10
1368.98
 20
615.289
 30
0.000000
  70
    32
  0
VERTEX
  8
0
  5
3AEA
 10
1368.76
 20
614.875
 30
0.000000
  70
    32
  0
VERTEX
  8
0
  5
3AEB
 10
1368.55
 20
614.456
 30
0.000000
  70
    32
  0
VERTEX
  8
0
  5
3AEC
 10
1368.36
 20
614.031
 30
0.000000
  70
    32
  0
VERTEX
  8
0
  5
3AED
 10
1368.20
 20
613.601
 30
0.000000
  70
    32
  0
VERTEX
  8
0
  5
3AEE
 10
1368.05
 20
613.166
 30
0.000000
  70
    32
  0
VERTEX
  8
0
  5
3AEF
 10
1367.93
 20
612.728
 30
0.000000
  70
    32
  0
VERTEX
  8
0
  5
3AF0
 10
1367.83
 20
612.286
 30
0.000000
  70
    32
  0
VERTEX
  8
0
  5
3AF1
 10
1367.75
 20
611.842
 30
0.000000
  70
    32
  0
VERTEX
  8
0
  5
3AF2
 10
1367.69
 20
611.396
 30
0.000000
  70
    32
  0
VERTEX
  8
0
  5
3AF3
 10
1367.66
 20
610.949
 30
0.000000
  70
    32
  0
VERTEX
  8
0
  5
3AF4
 10
1367.65
 20
610.501
 30
0.000000
  70
    32
  0
VERTEX
  8
0
  5
3AF5
 10
1367.66
 20
610.052
 30
0.000000
  70
    32
  0
VERTEX
  8
0
  5
3AF6
 10
1367.69
 20
609.605
 30
0.000000
  70
    32
  0
VERTEX
  8
0
  5
3AF7
 10
1367.74
 20
609.159
 30
0.000000
  70
    32
  0
VERTEX
  8
0
  5
3AF8
 10
1367.81
 20
608.714
 30
0.000000
  70
    32
  0
VERTEX
  8
0
  5
3AF9
 10
1367.91
 20
608.272
 30
0.000000
  70
    32
  0
VERTEX
  8
0
  5
3AFA
 10
1368.03
 20
607.833
 30
0.000000
  70
    32
  0
VERTEX
  8
0
  5
3AFB
 10
1368.17
 20
607.398
 30
0.000000
  70
    32
  0
VERTEX
  8
0
  5
3AFC
 10
1368.33
 20
606.967
 30
0.000000
  70
    32
  0
VERTEX
  8
0
  5
3AFD
 10
1368.52
 20
606.541
 30
0.000000
  70
    32
  0
VERTEX
  8
0
  5
3AFE
 10
1368.72
 20
606.120
 30
0.000000
  70
    32
  0
VERTEX
  8
0
  5
3AFF
 10
1368.94
 20
605.706
 30
0.000000
  70
    32
  0
VERTEX
  8
0
  5
3B00
 10
1369.19
 20
605.298
 30
0.000000
  70
    32
  0
VERTEX
  8
0
  5
3B01
 10
1369.45
 20
604.898
 30
0.000000
  70
    32
  0
VERTEX
  8
0
  5
3B02
 10
1369.74
 20
604.505
 30
0.000000
  70
    32
  0
VERTEX
  8
0
  5
3B03
 10
1370.04
 20
604.121
 30
0.000000
  70
    32
  0
VERTEX
  8
0
  5
3B04
 10
1370.36
 20
603.745
 30
0.000000
  70
    32
  0
VERTEX
  8
0
  5
3B05
 10
1370.70
 20
603.379
 30
0.000000
  70
    32
  0
VERTEX
  8
0
  5
3B06
 10
1371.06
 20
603.023
 30
0.000000
  70
    32
  0
VERTEX
  8
0
  5
3B07
 10
1371.44
 20
602.677
 30
0.000000
  70
    32
  0
VERTEX
  8
0
  5
3B08
 10
1371.83
 20
602.343
 30
0.000000
  70
    32
  0
VERTEX
  8
0
  5
3B09
 10
1372.24
 20
602.019
 30
0.000000
  70
    32
  0
VERTEX
  8
0
  5
3B0A
 10
1372.66
 20
601.708
 30
0.000000
  70
    32
  0
VERTEX
  8
0
  5
3B0B
 10
1373.10
 20
601.409
 30
0.000000
  70
    32
  0
VERTEX
  8
0
  5
3B0C
 10
1373.55
 20
601.122
 30
0.000000
  70
    32
  0
VERTEX
  8
0
  5
3B0D
 10
1374.02
 20
600.849
 30
0.000000
  70
    32
  0
VERTEX
  8
0
  5
3B0E
 10
1374.50
 20
600.589
 30
0.000000
  70
    32
  0
VERTEX
  8
0
  5
3B0F
 10
1374.99
 20
600.343
 30
0.000000
  70
    32
  0
VERTEX
  8
0
  5
3B10
 10
1375.50
 20
600.112
 30
0.000000
  70
    32
  0
VERTEX
  8
0
  5
3B11
 10
1376.01
 20
599.895
 30
0.000000
  70
    32
  0
VERTEX
  8
0
  5
3B12
 10
1376.54
 20
599.692
 30
0.000000
  70
    32
  0
VERTEX
  8
0
  5
3B13
 10
1377.08
 20
599.505
 30
0.000000
  70
    32
  0
VERTEX
  8
0
  5
3B14
 10
1377.62
 20
599.333
 30
0.000000
  70
    32
  0
VERTEX
  8
0
  5
3B15
 10
1378.17
 20
599.177
 30
0.000000
  70
    32
  0
VERTEX
  8
0
  5
3B16
 10
1378.73
 20
599.037
 30
0.000000
  70
    32
  0
VERTEX
  8
0
  5
3B17
 10
1379.30
 20
598.912
 30
0.000000
  70
    32
  0
VERTEX
  8
0
  5
3B18
 10
1379.87
 20
598.804
 30
0.000000
  70
    32
  0
VERTEX
  8
0
  5
3B19
 10
1380.45
 20
598.712
 30
0.000000
  70
    32
  0
VERTEX
  8
0
  5
3B1A
 10
1381.03
 20
598.637
 30
0.000000
  70
    32
  0
VERTEX
  8
0
  5
3B1B
 10
1381.62
 20
598.579
 30
0.000000
  70
    32
  0
VERTEX
  8
0
  5
3B1C
 10
1382.20
 20
598.537
 30
0.000000
  70
    32
  0
VERTEX
  8
0
  5
3B1D
 10
1382.79
 20
598.511
 30
0.000000
  70
    32
  0
VERTEX
  8
0
  5
3B1E
 10
1383.38
 20
598.503
 30
0.000000
  70
    32
  0
VERTEX
  8
0
  5
3B1F
 10
1383.97
 20
598.511
 30
0.000000
  70
    32
  0
VERTEX
  8
0
  5
3B20
 10
1384.56
 20
598.537
 30
0.000000
  70
    32
  0
VERTEX
  8
0
  5
3B21
 10
1385.15
 20
598.579
 30
0.000000
  70
    32
  0
VERTEX
  8
0
  5
3B22
 10
1385.73
 20
598.637
 30
0.000000
  70
    32
  0
VERTEX
  8
0
  5
3B23
 10
1386.31
 20
598.712
 30
0.000000
  70
    32
  0
VERTEX
  8
0
  5
3B24
 10
1386.89
 20
598.804
 30
0.000000
  70
    32
  0
VERTEX
  8
0
  5
3B25
 10
1387.46
 20
598.912
 30
0.000000
  70
    32
  0
VERTEX
  8
0
  5
3B26
 10
1388.03
 20
599.037
 30
0.000000
  70
    32
  0
VERTEX
  8
0
  5
3B27
 10
1388.59
 20
599.177
 30
0.000000
  70
    32
  0
VERTEX
  8
0
  5
3B28
 10
1389.14
 20
599.333
 30
0.000000
  70
    32
  0
VERTEX
  8
0
  5
3B29
 10
1389.69
 20
599.505
 30
0.000000
  70
    32
  0
VERTEX
  8
0
  5
3B2A
 10
1390.22
 20
599.692
 30
0.000000
  70
    32
  0
VERTEX
  8
0
  5
3B2B
 10
1390.75
 20
599.895
 30
0.000000
  70
    32
  0
VERTEX
  8
0
  5
3B2C
 10
1391.26
 20
600.112
 30
0.000000
  70
    32
  0
VERTEX
  8
0
  5
3B2D
 10
1391.77
 20
600.343
 30
0.000000
  70
    32
  0
VERTEX
  8
0
  5
3B2E
 10
1392.26
 20
600.589
 30
0.000000
  70
    32
  0
VERTEX
  8
0
  5
3B2F
 10
1392.74
 20
600.849
 30
0.000000
  70
    32
  0
VERTEX
  8
0
  5
3B30
 10
1393.21
 20
601.122
 30
0.000000
  70
    32
  0
VERTEX
  8
0
  5
3B31
 10
1393.66
 20
601.409
 30
0.000000
  70
    32
  0
VERTEX
  8
0
  5
3B32
 10
1394.10
 20
601.708
 30
0.000000
  70
    32
  0
VERTEX
  8
0
  5
3B33
 10
1394.53
 20
602.019
 30
0.000000
  70
    32
  0
VERTEX
  8
0
  5
3B34
 10
1394.93
 20
602.343
 30
0.000000
  70
    32
  0
VERTEX
  8
0
  5
3B35
 10
1395.33
 20
602.677
 30
0.000000
  70
    32
  0
VERTEX
  8
0
  5
3B36
 10
1395.70
 20
603.023
 30
0.000000
  70
    32
  0
VERTEX
  8
0
  5
3B37
 10
1396.06
 20
603.379
 30
0.000000
  70
    32
  0
VERTEX
  8
0
  5
3B38
 10
1396.40
 20
603.745
 30
0.000000
  70
    32
  0
VERTEX
  8
0
  5
3B39
 10
1396.72
 20
604.121
 30
0.000000
  70
    32
  0
VERTEX
  8
0
  5
3B3A
 10
1397.03
 20
604.505
 30
0.000000
  70
    32
  0
VERTEX
  8
0
  5
3B3B
 10
1397.31
 20
604.898
 30
0.000000
  70
    32
  0
VERTEX
  8
0
  5
3B3C
 10
1397.57
 20
605.298
 30
0.000000
  70
    32
  0
VERTEX
  8
0
  5
3B3D
 10
1397.82
 20
605.706
 30
0.000000
  70
    32
  0
VERTEX
  8
0
  5
3B3E
 10
1398.04
 20
606.120
 30
0.000000
  70
    32
  0
VERTEX
  8
0
  5
3B3F
 10
1398.25
 20
606.541
 30
0.000000
  70
    32
  0
VERTEX
  8
0
  5
3B40
 10
1398.43
 20
606.967
 30
0.000000
  70
    32
  0
VERTEX
  8
0
  5
3B41
 10
1398.59
 20
607.398
 30
0.000000
  70
    32
  0
VERTEX
  8
0
  5
3B42
 10
1398.73
 20
607.833
 30
0.000000
  70
    32
  0
VERTEX
  8
0
  5
3B43
 10
1398.85
 20
608.272
 30
0.000000
  70
    32
  0
VERTEX
  8
0
  5
3B44
 10
1398.95
 20
608.714
 30
0.000000
  70
    32
  0
VERTEX
  8
0
  5
3B45
 10
1399.02
 20
609.159
 30
0.000000
  70
    32
  0
VERTEX
  8
0
  5
3B46
 10
1399.08
 20
609.605
 30
0.000000
  70
    32
  0
VERTEX
  8
0
  5
3B47
 10
1399.11
 20
610.052
 30
0.000000
  70
    32
  0
VERTEX
  8
0
  5
3B48
 10
1399.12
 20
610.501
 30
0.000000
  70
    32
  0
VERTEX
  8
0
  5
3B49
 10
1399.10
 20
610.949
 30
0.000000
  70
    32
  0
VERTEX
  8
0
  5
3B4A
 10
1399.07
 20
611.396
 30
0.000000
  70
    32
  0
VERTEX
  8
0
  5
3B4B
 10
1399.01
 20
611.842
 30
0.000000
  70
    32
  0
VERTEX
  8
0
  5
3B4C
 10
1398.93
 20
612.286
 30
0.000000
  70
    32
  0
VERTEX
  8
0
  5
3B4D
 10
1398.83
 20
612.728
 30
0.000000
  70
    32
  0
VERTEX
  8
0
  5
3B4E
 10
1398.71
 20
613.166
 30
0.000000
  70
    32
  0
VERTEX
  8
0
  5
3B4F
 10
1398.56
 20
613.601
 30
0.000000
  70
    32
  0
VERTEX
  8
0
  5
3B50
 10
1398.40
 20
614.031
 30
0.000000
  70
    32
  0
VERTEX
  8
0
  5
3B51
 10
1398.21
 20
614.456
 30
0.000000
  70
    32
  0
VERTEX
  8
0
  5
3B52
 10
1398.01
 20
614.875
 30
0.000000
  70
    32
  0
VERTEX
  8
0
  5
3B53
 10
1397.78
 20
615.289
 30
0.000000
  70
    32
  0
VERTEX
  8
0
  5
3B54
 10
1397.53
 20
615.695
 30
0.000000
  70
    32
  0
VERTEX
  8
0
  5
3B55
 10
1397.26
 20
616.094
 30
0.000000
  70
    32
  0
VERTEX
  8
0
  5
3B56
 10
1396.97
 20
616.486
 30
0.000000
  70
    32
  0
VERTEX
  8
0
  5
3B57
 10
1396.67
 20
616.869
 30
0.000000
  70
    32
  0
VERTEX
  8
0
  5
3B58
 10
1396.34
 20
617.242
 30
0.000000
  70
    32
  0
VERTEX
  8
0
  5
3B59
 10
1396.00
 20
617.607
 30
0.000000
  70
    32
  0
VERTEX
  8
0
  5
3B5A
 10
1395.64
 20
617.961
 30
0.000000
  70
    32
  0
VERTEX
  8
0
  5
3B5B
 10
1395.26
 20
618.305
 30
0.000000
  70
    32
  0
VERTEX
  8
0
  5
3B5C
 10
1394.86
 20
618.637
 30
0.000000
  70
    32
  0
VERTEX
  8
0
  5
3B5D
 10
1394.45
 20
618.959
 30
0.000000
  70
    32
  0
VERTEX
  8
0
  5
3B5E
 10
1394.03
 20
619.268
 30
0.000000
  70
    32
  0
SEQEND
  8
0
  5
3B5F
  0
CIRCLE
  5
310F
  8
0
 10
1356.86458638621
 20
641.60509001391665
 30
0.0
 40
6.0
  0
CIRCLE
  5
3110
  8
0
 10
1409.8975949752009
 20
641.60509001391665
 30
0.0
 40
6.0
  0
CIRCLE
  5
3111
  8
0
 10
1356.86458638621
 20
694.63809860290746
 30
0.0
 40
6.0
  0
CIRCLE
  5
3112
  8
0
 10
1409.8975949752009
 20
694.63809860290746
 30
0.0
 40
6.0
  0
ARC
  5
3113
  8
0
 10
1682.812694782197
 20
649.13434430841198
 30
0.0
 40
51.887249999999987
 50
205.66673588085931
 51
334.33326411914072
  0
POLYLINE
  5
3114
  8
0
 10
1698.0612871560384
 20
607.51028817980136
 30
0.0
 66
     1
 70
     8
  0
VERTEX
  8
0
  5
3B60
 10
1698.06
 20
607.510
 30
0.000000
  70
    32
  0
VERTEX
  8
0
  5
3B61
 10
1697.98
 20
607.272
 30
0.000000
  70
    32
  0
VERTEX
  8
0
  5
3B62
 10
1697.89
 20
607.034
 30
0.000000
  70
    32
  0
VERTEX
  8
0
  5
3B63
 10
1697.79
 20
606.799
 30
0.000000
  70
    32
  0
VERTEX
  8
0
  5
3B64
 10
1697.69
 20
606.564
 30
0.000000
  70
    32
  0
VERTEX
  8
0
  5
3B65
 10
1697.58
 20
606.332
 30
0.000000
  70
    32
  0
VERTEX
  8
0
  5
3B66
 10
1697.46
 20
606.101
 30
0.000000
  70
    32
  0
VERTEX
  8
0
  5
3B67
 10
1697.34
 20
605.872
 30
0.000000
  70
    32
  0
VERTEX
  8
0
  5
3B68
 10
1697.22
 20
605.645
 30
0.000000
  70
    32
  0
VERTEX
  8
0
  5
3B69
 10
1697.08
 20
605.420
 30
0.000000
  70
    32
  0
VERTEX
  8
0
  5
3B6A
 10
1696.94
 20
605.197
 30
0.000000
  70
    32
  0
VERTEX
  8
0
  5
3B6B
 10
1696.80
 20
604.977
 30
0.000000
  70
    32
  0
VERTEX
  8
0
  5
3B6C
 10
1696.64
 20
604.758
 30
0.000000
  70
    32
  0
VERTEX
  8
0
  5
3B6D
 10
1696.49
 20
604.543
 30
0.000000
  70
    32
  0
VERTEX
  8
0
  5
3B6E
 10
1696.32
 20
604.329
 30
0.000000
  70
    32
  0
VERTEX
  8
0
  5
3B6F
 10
1696.15
 20
604.119
 30
0.000000
  70
    32
  0
VERTEX
  8
0
  5
3B70
 10
1695.98
 20
603.911
 30
0.000000
  70
    32
  0
VERTEX
  8
0
  5
3B71
 10
1695.80
 20
603.706
 30
0.000000
  70
    32
  0
VERTEX
  8
0
  5
3B72
 10
1695.61
 20
603.503
 30
0.000000
  70
    32
  0
VERTEX
  8
0
  5
3B73
 10
1695.42
 20
603.304
 30
0.000000
  70
    32
  0
VERTEX
  8
0
  5
3B74
 10
1695.22
 20
603.108
 30
0.000000
  70
    32
  0
VERTEX
  8
0
  5
3B75
 10
1695.02
 20
602.915
 30
0.000000
  70
    32
  0
VERTEX
  8
0
  5
3B76
 10
1694.81
 20
602.725
 30
0.000000
  70
    32
  0
VERTEX
  8
0
  5
3B77
 10
1694.60
 20
602.538
 30
0.000000
  70
    32
  0
VERTEX
  8
0
  5
3B78
 10
1694.38
 20
602.355
 30
0.000000
  70
    32
  0
VERTEX
  8
0
  5
3B79
 10
1694.16
 20
602.175
 30
0.000000
  70
    32
  0
VERTEX
  8
0
  5
3B7A
 10
1693.93
 20
601.999
 30
0.000000
  70
    32
  0
VERTEX
  8
0
  5
3B7B
 10
1693.70
 20
601.826
 30
0.000000
  70
    32
  0
VERTEX
  8
0
  5
3B7C
 10
1693.46
 20
601.657
 30
0.000000
  70
    32
  0
VERTEX
  8
0
  5
3B7D
 10
1693.22
 20
601.492
 30
0.000000
  70
    32
  0
VERTEX
  8
0
  5
3B7E
 10
1692.97
 20
601.331
 30
0.000000
  70
    32
  0
VERTEX
  8
0
  5
3B7F
 10
1692.72
 20
601.173
 30
0.000000
  70
    32
  0
VERTEX
  8
0
  5
3B80
 10
1692.47
 20
601.020
 30
0.000000
  70
    32
  0
VERTEX
  8
0
  5
3B81
 10
1692.21
 20
600.870
 30
0.000000
  70
    32
  0
VERTEX
  8
0
  5
3B82
 10
1691.95
 20
600.725
 30
0.000000
  70
    32
  0
VERTEX
  8
0
  5
3B83
 10
1691.68
 20
600.584
 30
0.000000
  70
    32
  0
VERTEX
  8
0
  5
3B84
 10
1691.41
 20
600.446
 30
0.000000
  70
    32
  0
VERTEX
  8
0
  5
3B85
 10
1691.14
 20
600.314
 30
0.000000
  70
    32
  0
VERTEX
  8
0
  5
3B86
 10
1690.86
 20
600.185
 30
0.000000
  70
    32
  0
VERTEX
  8
0
  5
3B87
 10
1690.58
 20
600.061
 30
0.000000
  70
    32
  0
VERTEX
  8
0
  5
3B88
 10
1690.29
 20
599.942
 30
0.000000
  70
    32
  0
VERTEX
  8
0
  5
3B89
 10
1690.01
 20
599.826
 30
0.000000
  70
    32
  0
VERTEX
  8
0
  5
3B8A
 10
1689.72
 20
599.716
 30
0.000000
  70
    32
  0
VERTEX
  8
0
  5
3B8B
 10
1689.42
 20
599.610
 30
0.000000
  70
    32
  0
VERTEX
  8
0
  5
3B8C
 10
1689.13
 20
599.508
 30
0.000000
  70
    32
  0
VERTEX
  8
0
  5
3B8D
 10
1688.83
 20
599.412
 30
0.000000
  70
    32
  0
VERTEX
  8
0
  5
3B8E
 10
1688.53
 20
599.320
 30
0.000000
  70
    32
  0
VERTEX
  8
0
  5
3B8F
 10
1688.22
 20
599.232
 30
0.000000
  70
    32
  0
VERTEX
  8
0
  5
3B90
 10
1687.92
 20
599.150
 30
0.000000
  70
    32
  0
VERTEX
  8
0
  5
3B91
 10
1687.61
 20
599.072
 30
0.000000
  70
    32
  0
VERTEX
  8
0
  5
3B92
 10
1687.30
 20
598.999
 30
0.000000
  70
    32
  0
VERTEX
  8
0
  5
3B93
 10
1686.99
 20
598.931
 30
0.000000
  70
    32
  0
VERTEX
  8
0
  5
3B94
 10
1686.67
 20
598.868
 30
0.000000
  70
    32
  0
VERTEX
  8
0
  5
3B95
 10
1686.36
 20
598.810
 30
0.000000
  70
    32
  0
VERTEX
  8
0
  5
3B96
 10
1686.04
 20
598.757
 30
0.000000
  70
    32
  0
VERTEX
  8
0
  5
3B97
 10
1685.72
 20
598.709
 30
0.000000
  70
    32
  0
VERTEX
  8
0
  5
3B98
 10
1685.40
 20
598.666
 30
0.000000
  70
    32
  0
VERTEX
  8
0
  5
3B99
 10
1685.08
 20
598.628
 30
0.000000
  70
    32
  0
VERTEX
  8
0
  5
3B9A
 10
1684.76
 20
598.595
 30
0.000000
  70
    32
  0
VERTEX
  8
0
  5
3B9B
 10
1684.43
 20
598.567
 30
0.000000
  70
    32
  0
VERTEX
  8
0
  5
3B9C
 10
1684.11
 20
598.544
 30
0.000000
  70
    32
  0
VERTEX
  8
0
  5
3B9D
 10
1683.79
 20
598.526
 30
0.000000
  70
    32
  0
VERTEX
  8
0
  5
3B9E
 10
1683.46
 20
598.513
 30
0.000000
  70
    32
  0
VERTEX
  8
0
  5
3B9F
 10
1683.14
 20
598.506
 30
0.000000
  70
    32
  0
VERTEX
  8
0
  5
3BA0
 10
1682.81
 20
598.503
 30
0.000000
  70
    32
  0
VERTEX
  8
0
  5
3BA1
 10
1682.49
 20
598.506
 30
0.000000
  70
    32
  0
VERTEX
  8
0
  5
3BA2
 10
1682.16
 20
598.513
 30
0.000000
  70
    32
  0
VERTEX
  8
0
  5
3BA3
 10
1681.84
 20
598.526
 30
0.000000
  70
    32
  0
VERTEX
  8
0
  5
3BA4
 10
1681.51
 20
598.544
 30
0.000000
  70
    32
  0
VERTEX
  8
0
  5
3BA5
 10
1681.19
 20
598.567
 30
0.000000
  70
    32
  0
VERTEX
  8
0
  5
3BA6
 10
1680.87
 20
598.595
 30
0.000000
  70
    32
  0
VERTEX
  8
0
  5
3BA7
 10
1680.55
 20
598.628
 30
0.000000
  70
    32
  0
VERTEX
  8
0
  5
3BA8
 10
1680.23
 20
598.666
 30
0.000000
  70
    32
  0
VERTEX
  8
0
  5
3BA9
 10
1679.91
 20
598.709
 30
0.000000
  70
    32
  0
VERTEX
  8
0
  5
3BAA
 10
1679.59
 20
598.757
 30
0.000000
  70
    32
  0
VERTEX
  8
0
  5
3BAB
 10
1679.27
 20
598.810
 30
0.000000
  70
    32
  0
VERTEX
  8
0
  5
3BAC
 10
1678.95
 20
598.868
 30
0.000000
  70
    32
  0
VERTEX
  8
0
  5
3BAD
 10
1678.64
 20
598.931
 30
0.000000
  70
    32
  0
VERTEX
  8
0
  5
3BAE
 10
1678.33
 20
598.999
 30
0.000000
  70
    32
  0
VERTEX
  8
0
  5
3BAF
 10
1678.02
 20
599.072
 30
0.000000
  70
    32
  0
VERTEX
  8
0
  5
3BB0
 10
1677.71
 20
599.150
 30
0.000000
  70
    32
  0
VERTEX
  8
0
  5
3BB1
 10
1677.40
 20
599.232
 30
0.000000
  70
    32
  0
VERTEX
  8
0
  5
3BB2
 10
1677.10
 20
599.320
 30
0.000000
  70
    32
  0
VERTEX
  8
0
  5
3BB3
 10
1676.80
 20
599.412
 30
0.000000
  70
    32
  0
VERTEX
  8
0
  5
3BB4
 10
1676.50
 20
599.508
 30
0.000000
  70
    32
  0
VERTEX
  8
0
  5
3BB5
 10
1676.20
 20
599.610
 30
0.000000
  70
    32
  0
VERTEX
  8
0
  5
3BB6
 10
1675.91
 20
599.716
 30
0.000000
  70
    32
  0
VERTEX
  8
0
  5
3BB7
 10
1675.62
 20
599.826
 30
0.000000
  70
    32
  0
VERTEX
  8
0
  5
3BB8
 10
1675.33
 20
599.942
 30
0.000000
  70
    32
  0
VERTEX
  8
0
  5
3BB9
 10
1675.05
 20
600.061
 30
0.000000
  70
    32
  0
VERTEX
  8
0
  5
3BBA
 10
1674.77
 20
600.185
 30
0.000000
  70
    32
  0
VERTEX
  8
0
  5
3BBB
 10
1674.49
 20
600.314
 30
0.000000
  70
    32
  0
VERTEX
  8
0
  5
3BBC
 10
1674.21
 20
600.446
 30
0.000000
  70
    32
  0
VERTEX
  8
0
  5
3BBD
 10
1673.94
 20
600.584
 30
0.000000
  70
    32
  0
VERTEX
  8
0
  5
3BBE
 10
1673.68
 20
600.725
 30
0.000000
  70
    32
  0
VERTEX
  8
0
  5
3BBF
 10
1673.41
 20
600.870
 30
0.000000
  70
    32
  0
VERTEX
  8
0
  5
3BC0
 10
1673.16
 20
601.020
 30
0.000000
  70
    32
  0
VERTEX
  8
0
  5
3BC1
 10
1672.90
 20
601.173
 30
0.000000
  70
    32
  0
VERTEX
  8
0
  5
3BC2
 10
1672.65
 20
601.331
 30
0.000000
  70
    32
  0
VERTEX
  8
0
  5
3BC3
 10
1672.41
 20
601.492
 30
0.000000
  70
    32
  0
VERTEX
  8
0
  5
3BC4
 10
1672.16
 20
601.657
 30
0.000000
  70
    32
  0
VERTEX
  8
0
  5
3BC5
 10
1671.93
 20
601.826
 30
0.000000
  70
    32
  0
VERTEX
  8
0
  5
3BC6
 10
1671.70
 20
601.999
 30
0.000000
  70
    32
  0
VERTEX
  8
0
  5
3BC7
 10
1671.47
 20
602.175
 30
0.000000
  70
    32
  0
VERTEX
  8
0
  5
3BC8
 10
1671.24
 20
602.355
 30
0.000000
  70
    32
  0
VERTEX
  8
0
  5
3BC9
 10
1671.03
 20
602.538
 30
0.000000
  70
    32
  0
VERTEX
  8
0
  5
3BCA
 10
1670.81
 20
602.725
 30
0.000000
  70
    32
  0
VERTEX
  8
0
  5
3BCB
 10
1670.61
 20
602.915
 30
0.000000
  70
    32
  0
VERTEX
  8
0
  5
3BCC
 10
1670.40
 20
603.108
 30
0.000000
  70
    32
  0
VERTEX
  8
0
  5
3BCD
 10
1670.21
 20
603.304
 30
0.000000
  70
    32
  0
VERTEX
  8
0
  5
3BCE
 10
1670.02
 20
603.503
 30
0.000000
  70
    32
  0
VERTEX
  8
0
  5
3BCF
 10
1669.83
 20
603.706
 30
0.000000
  70
    32
  0
VERTEX
  8
0
  5
3BD0
 10
1669.65
 20
603.911
 30
0.000000
  70
    32
  0
VERTEX
  8
0
  5
3BD1
 10
1669.47
 20
604.119
 30
0.000000
  70
    32
  0
VERTEX
  8
0
  5
3BD2
 10
1669.30
 20
604.329
 30
0.000000
  70
    32
  0
VERTEX
  8
0
  5
3BD3
 10
1669.14
 20
604.543
 30
0.000000
  70
    32
  0
VERTEX
  8
0
  5
3BD4
 10
1668.98
 20
604.758
 30
0.000000
  70
    32
  0
VERTEX
  8
0
  5
3BD5
 10
1668.83
 20
604.977
 30
0.000000
  70
    32
  0
VERTEX
  8
0
  5
3BD6
 10
1668.68
 20
605.197
 30
0.000000
  70
    32
  0
VERTEX
  8
0
  5
3BD7
 10
1668.54
 20
605.420
 30
0.000000
  70
    32
  0
VERTEX
  8
0
  5
3BD8
 10
1668.41
 20
605.645
 30
0.000000
  70
    32
  0
VERTEX
  8
0
  5
3BD9
 10
1668.28
 20
605.872
 30
0.000000
  70
    32
  0
VERTEX
  8
0
  5
3BDA
 10
1668.16
 20
606.101
 30
0.000000
  70
    32
  0
VERTEX
  8
0
  5
3BDB
 10
1668.05
 20
606.332
 30
0.000000
  70
    32
  0
VERTEX
  8
0
  5
3BDC
 10
1667.94
 20
606.564
 30
0.000000
  70
    32
  0
VERTEX
  8
0
  5
3BDD
 10
1667.83
 20
606.799
 30
0.000000
  70
    32
  0
VERTEX
  8
0
  5
3BDE
 10
1667.74
 20
607.034
 30
0.000000
  70
    32
  0
VERTEX
  8
0
  5
3BDF
 10
1667.65
 20
607.272
 30
0.000000
  70
    32
  0
VERTEX
  8
0
  5
3BE0
 10
1667.56
 20
607.510
 30
0.000000
  70
    32
  0
SEQEND
  8
0
  5
3BE1
  0
CIRCLE
  5
3115
  8
0
 10
1650.9928896288029
 20
636.30178915501756
 30
0.0
 40
7.5
  0
CIRCLE
  5
3116
  8
0
 10
1650.9928896288029
 20
699.94139946180655
 30
0.0
 40
7.5
  0
CIRCLE
  5
3117
  8
0
 10
1714.632499935592
 20
636.30178915501756
 30
0.0
 40
7.5
  0
CIRCLE
  5
3118
  8
0
 10
1714.632499935592
 20
699.94139946180655
 30
0.0
 40
7.5
  0
LINE
  5
3119
  8
0
 10
1833.3572398706999
 20
605.621594308412
 30
0.0
 11
1833.3572398706999
 21
668.121594308412
 31
0.0
  0
LINE
  5
311A
  8
0
 10
1833.3572398706999
 20
668.121594308412
 30
0.0
 11
1833.3572398706999
 21
605.621594308412
 31
0.0
  0
LINE
  5
311B
  8
0
 10
1899.7792604811059
 20
620.55856637119496
 30
0.0
 11
1919.995617009087
 21
600.34322451680066
 31
0.0
  0
LINE
  5
312A
  8
0
 10
1775.830589843192
 20
668.23650972970836
 30
0.0
 11
1766.377214843192
 21
677.68988472970796
 31
0.0
  0
LINE
  5
312B
  8
0
 10
1813.4399023431929
 20
677.68988472970796
 30
0.0
 11
1823.0991523431919
 21
668.23650972970836
 31
0.0
  0
LINE
  5
312D
  8
0
 10
1823.0991523431919
 20
668.23650972970836
 30
0.0
 11
1775.830589843192
 21
668.23650972970836
 31
0.0
  0
LINE
  5
312F
  8
0
 10
1766.377214843192
 20
677.68988472970796
 30
0.0
 11
1794.7373398431921
 21
677.68988472970796
 31
0.0
  0
LINE
  5
3130
  8
0
 10
1799.465714843192
 20
672.96319722970804
 30
0.0
 11
1813.4399023431929
 21
672.96319722970804
 31
0.0
  0
LINE
  5
3131
  8
0
 10
1794.7373398431921
 20
677.68988472970796
 30
0.0
 11
1799.465714843192
 21
672.96319722970804
 31
0.0
  0
LINE
  5
3132
  8
0
 10
1813.4399023431929
 20
672.96319722970804
 30
0.0
 11
1813.4399023431929
 21
677.68988472970796
 31
0.0
  0
LINE
  5
3134
  8
0
 10
1893.6506972185639
 20
685.121594308412
 30
0.0
 11
1893.6506972185639
 21
651.121594308412
 31
0.0
  0
LINE
  5
3135
  8
0
 10
1896.5572398707
 20
687.12159430841211
 30
0.0
 11
1896.5572398707
 21
628.33693616280652
 31
0.0
  0
ARC
  5
3140
  8
0
 10
1900.174631648591
 20
656.53308631562822
 30
0.0
 40
8.4761999853395515
 50
219.6751258965827
 51
244.73722060084049
  0
ARC
  5
3143
  8
0
 10
1900.174631648591
 20
679.71010230119555
 30
0.0
 40
8.4761999853395515
 50
115.245401912247
 51
140.3248741034173
  0
LINE
  5
314D
  8
0
 10
1248.0194387734109
 20
838.6619570291349
 30
0.0
 11
1248.019438773412
 21
871.33708484617091
 31
0.0
  0
LINE
  5
314E
  8
0
 10
1249.4605247307859
 20
869.99952093765285
 30
0.0
 11
1249.4605247307859
 21
839.99952093765341
 31
0.0
  0
LINE
  5
3154
  8
0
 10
1301.219438773411
 20
804.99952093765341
 30
0.0
 11
1301.219438773411
 21
854.99952093765341
 31
0.0
  0
ARC
  5
3156
  8
0
 10
1148.1881614332699
 20
856.83901457742456
 30
0.0
 40
101.4726039701255
 50
333.20771408529743
 51
349.68075616463818
  0
ARC
  5
3157
  8
0
 10
1225.448559355413
 20
817.99952093763841
 30
0.0
 40
15.0
 50
269.99999999999829
 51
332.61276487508229
  0
LINE
  5
3158
  8
0
 10
1249.4605247307859
 20
839.99952093765341
 30
0.0
 11
1248.019438773412
 21
838.66195702913456
 31
0.0
  0
ARC
  5
315F
  8
0
 10
1225.448559355415
 20
891.99952093763841
 30
0.0
 40
15.0
 50
27.387235124917819
 51
90.0
  0
ARC
  5
3160
  8
0
 10
1148.729790308977
 20
853.34184014994798
 30
0.0
 40
100.9072005551037
 50
10.27276965401092
 51
26.838760096089668
  0
LINE
  5
3161
  8
0
 10
1249.4605247307859
 20
869.99952093765285
 30
0.0
 11
1248.019438773412
 21
871.33708484617182
 31
0.0
  0
LINE
  5
3162
  8
0
 10
1301.219438773411
 20
854.99952093765341
 30
0.0
 11
1301.219438773411
 21
904.99952093765341
 31
0.0
  0
LINE
  5
3168
  8
0
 10
1371.7677508851609
 20
1076.210498847237
 30
0.0
 11
1343.4076258851601
 21
1076.210498847237
 31
0.0
  0
LINE
  5
3169
  8
0
 10
1362.3143758851611
 20
1066.7571238472381
 30
0.0
 11
1371.7677508851609
 21
1076.210498847237
 31
0.0
  0
LINE
  5
316A
  8
0
 10
1324.70506338516
 20
1076.210498847237
 30
0.0
 11
1315.045813385161
 21
1066.7571238472381
 31
0.0
  0
LINE
  5
316B
  8
0
 10
1324.70506338516
 20
1071.4838113472381
 30
0.0
 11
1324.70506338516
 21
1076.210498847237
 31
0.0
  0
LINE
  5
316C
  8
0
 10
1343.4076258851601
 20
1076.210498847237
 30
0.0
 11
1338.6792508851599
 21
1071.4838113472381
 31
0.0
  0
LINE
  5
316F
  8
0
 10
1249.46052473078
 20
1080.647015707292
 30
0.0
 11
1249.46052473078
 21
1050.6470157072929
 31
0.0
  0
LINE
  5
3173
  8
0
 10
1248.019438773405
 20
1025.8623575616871
 30
0.0
 11
1248.019438773405
 21
1084.6470157072929
 31
0.0
  0
LINE
  5
3174
  8
0
 10
1301.219438773405
 20
1065.6470157072929
 30
0.0
 11
1301.219438773405
 21
1115.6470157072929
 31
0.0
  0
LINE
  5
3176
  8
0
 10
1224.58106163502
 20
997.86864591568155
 30
0.0
 11
1244.7974181629991
 21
1018.083987770076
 31
0.0
  0
LINE
  5
318B
  8
0
 10
1249.46052473078
 20
1050.6470157072929
 30
0.0
 11
1248.019438773405
 21
1049.309451798774
 31
0.0
  0
LINE
  5
318D
  8
0
 10
1301.219438773405
 20
1015.647015707293
 30
0.0
 11
1301.219438773405
 21
1065.6470157072929
 31
0.0
  0
LINE
  5
3192
  8
0
 10
1315.045813385161
 20
1066.7571238472381
 30
0.0
 11
1362.3143758851611
 21
1066.7571238472381
 31
0.0
  0
LINE
  5
3193
  8
0
 10
1338.6792508851599
 20
1071.4838113472381
 30
0.0
 11
1324.70506338516
 21
1071.4838113472381
 31
0.0
  0
LINE
  5
319F
  8
0
 10
1249.46052473078
 20
1080.647015707292
 30
0.0
 11
1248.019438773405
 21
1081.9845796158111
 31
0.0
  0
LINE
  5
31A5
  8
0
 10
1759.8308840786631
 20
862.80913443380541
 30
0.0
 11
1788.191009078663
 21
862.80913443380541
 31
0.0
  0
LINE
  5
31A6
  8
0
 10
1769.2842590786629
 20
853.3557594338057
 30
0.0
 11
1759.8308840786631
 21
862.80913443380541
 31
0.0
  0
LINE
  5
31A8
  8
0
 10
1893.650697218558
 20
871.99952093765341
 30
0.0
 11
1893.650697218558
 21
837.99952093765341
 31
0.0
  0
LINE
  5
31A9
  8
0
 10
1896.557239870694
 20
873.99952093765523
 30
0.0
 11
1896.557239870695
 21
835.74547689598683
 31
0.0
  0
LINE
  5
31AB
  8
0
 10
1833.3572398706949
 20
792.4995209376533
 30
0.0
 11
1833.3572398706949
 21
854.99952093765341
 31
0.0
  0
LINE
  5
31AC
  8
0
 10
1833.3572398706949
 20
854.99952093765341
 30
0.0
 11
1833.3572398706949
 21
792.4995209376533
 31
0.0
  0
ARC
  5
31B1
  8
0
 10
2049.5970154611809
 20
879.13820992603553
 30
0.0
 40
159.07263181516589
 50
195.8300973848992
 51
205.3230211674101
  0
ARC
  5
31B2
  8
0
 10
1900.174631648586
 20
843.41101294486953
 30
0.0
 40
8.4761999853395515
 50
219.6751258965827
 51
244.73722060084049
  0
ARC
  5
31B3
  8
0
 10
1919.128319288682
 20
817.99952093763841
 30
0.0
 40
15.0
 50
207.38723512491771
 51
270.00000000000171
  0
LINE
  5
31B5
  8
0
 10
1833.3572398706949
 20
854.99952093765341
 30
0.0
 11
1833.3572398706949
 21
917.49952093765341
 31
0.0
  0
LINE
  5
31B6
  8
0
 10
1816.552821578664
 20
853.3557594338057
 30
0.0
 11
1769.2842590786629
 21
853.3557594338057
 31
0.0
  0
LINE
  5
31B7
  8
0
 10
1792.9193840786641
 20
858.08244693380561
 30
0.0
 11
1806.893571578664
 21
858.08244693380561
 31
0.0
  0
LINE
  5
31B8
  8
0
 10
1788.191009078663
 20
862.80913443380541
 30
0.0
 11
1792.9193840786641
 21
858.08244693380561
 31
0.0
  0
LINE
  5
31B9
  8
0
 10
1806.893571578664
 20
862.80913443380541
 30
0.0
 11
1816.552821578664
 21
853.3557594338057
 31
0.0
  0
LINE
  5
31BA
  8
0
 10
1806.893571578664
 20
858.08244693380561
 30
0.0
 11
1806.893571578664
 21
862.80913443380541
 31
0.0
  0
ARC
  5
31BD
  8
0
 10
1919.1283192886799
 20
891.99952093763841
 30
0.0
 40
15.0
 50
90.0
 51
152.61276487508209
  0
ARC
  5
31BE
  8
0
 10
2040.1395077257159
 20
834.81645773843127
 30
0.0
 40
148.8327251785214
 50
154.4961812899034
 51
164.73586999644391
  0
ARC
  5
31BF
  8
0
 10
1900.174631648586
 20
866.58802893043685
 30
0.0
 40
8.4761999853395515
 50
114.9562416132249
 51
140.3248741034173
  0
LINE
  5
31C0
  8
0
 10
1896.598302781845
 20
874.27280856477785
 30
0.0
 11
1896.557239870694
 21
873.99952093765341
 31
0.0
  0
LINE
  5
31C1
  8
0
 10
1833.3572398706881
 20
1065.6470157072929
 30
0.0
 11
1833.3572398706881
 21
1128.1470157072929
 31
0.0
  0
LINE
  5
31C3
  8
0
 10
1893.6506972185509
 20
1082.6470157072929
 30
0.0
 11
1893.6506972185509
 21
1048.6470157072929
 31
0.0
  0
LINE
  5
31C4
  8
0
 10
1896.5572398706879
 20
1084.6470157072929
 30
0.0
 11
1896.5572398706879
 21
1025.8623575616871
 31
0.0
  0
LINE
  5
31C7
  8
0
 10
1833.3572398706881
 20
1003.147015707293
 30
0.0
 11
1833.3572398706881
 21
1065.6470157072929
 31
0.0
  0
LINE
  5
31C8
  8
0
 10
1833.3572398706881
 20
1065.6470157072929
 30
0.0
 11
1833.3572398706881
 21
1003.147015707293
 31
0.0
  0
LINE
  5
31CB
  8
0
 10
1899.7792604810941
 20
1018.0839877700751
 30
0.0
 11
1919.9956170090741
 21
997.86864591568178
 31
0.0
  0
ARC
  5
31E1
  8
0
 10
1900.1746316485801
 20
1054.058507714509
 30
0.0
 40
8.4761999853395515
 50
219.6751258965827
 51
244.73722060084049
  0
ARC
  5
31E6
  8
0
 10
1900.1746316485801
 20
1077.2355237000761
 30
0.0
 40
8.4761999853395515
 50
115.2454019122429
 51
140.3248741034173
  0
LINE
  5
31F1
  8
0
 10
2075.3572398707001
 20
668.121594308412
 30
0.0
 11
2075.3572398707001
 21
730.621594308412
 31
0.0
  0
CIRCLE
  5
31F3
  8
0
 10
2170.0284188827468
 20
668.121594308412
 30
0.0
 40
62.5
  0
LINE
  5
31F4
  8
0
 10
2075.3572398707001
 20
668.121594308412
 30
0.0
 11
2075.3572398707001
 21
605.621594308412
 31
0.0
  0
LINE
  5
31F5
  8
0
 10
2075.3572398707001
 20
605.621594308412
 30
0.0
 11
2075.3572398707001
 21
668.121594308412
 31
0.0
  0
LINE
  5
31F6
  8
0
 10
1988.7188627323151
 20
600.34322451680055
 30
0.0
 11
2008.9352192602939
 21
620.5585663711953
 31
0.0
  0
LINE
  5
3204
  8
0
 10
2015.0637825228371
 20
685.121594308412
 30
0.0
 11
2015.0637825228371
 21
651.121594308412
 31
0.0
  0
LINE
  5
3205
  8
0
 10
2012.157239870701
 20
628.3369361628063
 30
0.0
 11
2012.1572398707001
 21
687.12159430841211
 31
0.0
  0
ARC
  5
3210
  8
0
 10
2008.5398480928091
 20
656.53308631562822
 30
0.0
 40
8.4761999853395515
 50
295.26277939915951
 51
320.3248741034173
  0
ARC
  5
3212
  8
0
 10
2008.5398480928091
 20
679.71010230119555
 30
0.0
 40
8.4761999853395515
 50
39.675125896582692
 51
64.75459808775291
  0
ARC
  5
321E
  8
0
 10
2170.0284188827468
 20
649.13434430841198
 30
0.0
 40
51.887249999999987
 50
205.66673588085931
 51
334.33326411914072
  0
POLYLINE
  5
321F
  8
0
 10
2154.7798265089054
 20
607.51028817980136
 30
0.0
 66
     1
 70
     8
  0
VERTEX
  8
0
  5
3BE2
 10
2154.78
 20
607.510
 30
0.000000
  70
    32
  0
VERTEX
  8
0
  5
3BE3
 10
2154.86
 20
607.272
 30
0.000000
  70
    32
  0
VERTEX
  8
0
  5
3BE4
 10
2154.95
 20
607.034
 30
0.000000
  70
    32
  0
VERTEX
  8
0
  5
3BE5
 10
2155.05
 20
606.799
 30
0.000000
  70
    32
  0
VERTEX
  8
0
  5
3BE6
 10
2155.15
 20
606.564
 30
0.000000
  70
    32
  0
VERTEX
  8
0
  5
3BE7
 10
2155.26
 20
606.332
 30
0.000000
  70
    32
  0
VERTEX
  8
0
  5
3BE8
 10
2155.38
 20
606.101
 30
0.000000
  70
    32
  0
VERTEX
  8
0
  5
3BE9
 10
2155.50
 20
605.872
 30
0.000000
  70
    32
  0
VERTEX
  8
0
  5
3BEA
 10
2155.63
 20
605.645
 30
0.000000
  70
    32
  0
VERTEX
  8
0
  5
3BEB
 10
2155.76
 20
605.420
 30
0.000000
  70
    32
  0
VERTEX
  8
0
  5
3BEC
 10
2155.90
 20
605.197
 30
0.000000
  70
    32
  0
VERTEX
  8
0
  5
3BED
 10
2156.05
 20
604.977
 30
0.000000
  70
    32
  0
VERTEX
  8
0
  5
3BEE
 10
2156.20
 20
604.758
 30
0.000000
  70
    32
  0
VERTEX
  8
0
  5
3BEF
 10
2156.36
 20
604.543
 30
0.000000
  70
    32
  0
VERTEX
  8
0
  5
3BF0
 10
2156.52
 20
604.329
 30
0.000000
  70
    32
  0
VERTEX
  8
0
  5
3BF1
 10
2156.69
 20
604.119
 30
0.000000
  70
    32
  0
VERTEX
  8
0
  5
3BF2
 10
2156.86
 20
603.911
 30
0.000000
  70
    32
  0
VERTEX
  8
0
  5
3BF3
 10
2157.04
 20
603.706
 30
0.000000
  70
    32
  0
VERTEX
  8
0
  5
3BF4
 10
2157.23
 20
603.503
 30
0.000000
  70
    32
  0
VERTEX
  8
0
  5
3BF5
 10
2157.42
 20
603.304
 30
0.000000
  70
    32
  0
VERTEX
  8
0
  5
3BF6
 10
2157.62
 20
603.108
 30
0.000000
  70
    32
  0
VERTEX
  8
0
  5
3BF7
 10
2157.82
 20
602.915
 30
0.000000
  70
    32
  0
VERTEX
  8
0
  5
3BF8
 10
2158.03
 20
602.725
 30
0.000000
  70
    32
  0
VERTEX
  8
0
  5
3BF9
 10
2158.24
 20
602.538
 30
0.000000
  70
    32
  0
VERTEX
  8
0
  5
3BFA
 10
2158.46
 20
602.355
 30
0.000000
  70
    32
  0
VERTEX
  8
0
  5
3BFB
 10
2158.68
 20
602.175
 30
0.000000
  70
    32
  0
VERTEX
  8
0
  5
3BFC
 10
2158.91
 20
601.999
 30
0.000000
  70
    32
  0
VERTEX
  8
0
  5
3BFD
 10
2159.14
 20
601.826
 30
0.000000
  70
    32
  0
VERTEX
  8
0
  5
3BFE
 10
2159.38
 20
601.657
 30
0.000000
  70
    32
  0
VERTEX
  8
0
  5
3BFF
 10
2159.62
 20
601.492
 30
0.000000
  70
    32
  0
VERTEX
  8
0
  5
3C00
 10
2159.87
 20
601.331
 30
0.000000
  70
    32
  0
VERTEX
  8
0
  5
3C01
 10
2160.12
 20
601.173
 30
0.000000
  70
    32
  0
VERTEX
  8
0
  5
3C02
 10
2160.37
 20
601.020
 30
0.000000
  70
    32
  0
VERTEX
  8
0
  5
3C03
 10
2160.63
 20
600.870
 30
0.000000
  70
    32
  0
VERTEX
  8
0
  5
3C04
 10
2160.89
 20
600.725
 30
0.000000
  70
    32
  0
VERTEX
  8
0
  5
3C05
 10
2161.16
 20
600.584
 30
0.000000
  70
    32
  0
VERTEX
  8
0
  5
3C06
 10
2161.43
 20
600.446
 30
0.000000
  70
    32
  0
VERTEX
  8
0
  5
3C07
 10
2161.70
 20
600.314
 30
0.000000
  70
    32
  0
VERTEX
  8
0
  5
3C08
 10
2161.98
 20
600.185
 30
0.000000
  70
    32
  0
VERTEX
  8
0
  5
3C09
 10
2162.26
 20
600.061
 30
0.000000
  70
    32
  0
VERTEX
  8
0
  5
3C0A
 10
2162.55
 20
599.942
 30
0.000000
  70
    32
  0
VERTEX
  8
0
  5
3C0B
 10
2162.83
 20
599.826
 30
0.000000
  70
    32
  0
VERTEX
  8
0
  5
3C0C
 10
2163.12
 20
599.716
 30
0.000000
  70
    32
  0
VERTEX
  8
0
  5
3C0D
 10
2163.42
 20
599.610
 30
0.000000
  70
    32
  0
VERTEX
  8
0
  5
3C0E
 10
2163.71
 20
599.508
 30
0.000000
  70
    32
  0
VERTEX
  8
0
  5
3C0F
 10
2164.01
 20
599.412
 30
0.000000
  70
    32
  0
VERTEX
  8
0
  5
3C10
 10
2164.31
 20
599.320
 30
0.000000
  70
    32
  0
VERTEX
  8
0
  5
3C11
 10
2164.62
 20
599.232
 30
0.000000
  70
    32
  0
VERTEX
  8
0
  5
3C12
 10
2164.92
 20
599.150
 30
0.000000
  70
    32
  0
VERTEX
  8
0
  5
3C13
 10
2165.23
 20
599.072
 30
0.000000
  70
    32
  0
VERTEX
  8
0
  5
3C14
 10
2165.54
 20
598.999
 30
0.000000
  70
    32
  0
VERTEX
  8
0
  5
3C15
 10
2165.86
 20
598.931
 30
0.000000
  70
    32
  0
VERTEX
  8
0
  5
3C16
 10
2166.17
 20
598.868
 30
0.000000
  70
    32
  0
VERTEX
  8
0
  5
3C17
 10
2166.49
 20
598.810
 30
0.000000
  70
    32
  0
VERTEX
  8
0
  5
3C18
 10
2166.80
 20
598.757
 30
0.000000
  70
    32
  0
VERTEX
  8
0
  5
3C19
 10
2167.12
 20
598.709
 30
0.000000
  70
    32
  0
VERTEX
  8
0
  5
3C1A
 10
2167.44
 20
598.666
 30
0.000000
  70
    32
  0
VERTEX
  8
0
  5
3C1B
 10
2167.76
 20
598.628
 30
0.000000
  70
    32
  0
VERTEX
  8
0
  5
3C1C
 10
2168.08
 20
598.595
 30
0.000000
  70
    32
  0
VERTEX
  8
0
  5
3C1D
 10
2168.41
 20
598.567
 30
0.000000
  70
    32
  0
VERTEX
  8
0
  5
3C1E
 10
2168.73
 20
598.544
 30
0.000000
  70
    32
  0
VERTEX
  8
0
  5
3C1F
 10
2169.05
 20
598.526
 30
0.000000
  70
    32
  0
VERTEX
  8
0
  5
3C20
 10
2169.38
 20
598.513
 30
0.000000
  70
    32
  0
VERTEX
  8
0
  5
3C21
 10
2169.70
 20
598.506
 30
0.000000
  70
    32
  0
VERTEX
  8
0
  5
3C22
 10
2170.03
 20
598.503
 30
0.000000
  70
    32
  0
VERTEX
  8
0
  5
3C23
 10
2170.35
 20
598.506
 30
0.000000
  70
    32
  0
VERTEX
  8
0
  5
3C24
 10
2170.68
 20
598.513
 30
0.000000
  70
    32
  0
VERTEX
  8
0
  5
3C25
 10
2171.00
 20
598.526
 30
0.000000
  70
    32
  0
VERTEX
  8
0
  5
3C26
 10
2171.33
 20
598.544
 30
0.000000
  70
    32
  0
VERTEX
  8
0
  5
3C27
 10
2171.65
 20
598.567
 30
0.000000
  70
    32
  0
VERTEX
  8
0
  5
3C28
 10
2171.97
 20
598.595
 30
0.000000
  70
    32
  0
VERTEX
  8
0
  5
3C29
 10
2172.29
 20
598.628
 30
0.000000
  70
    32
  0
VERTEX
  8
0
  5
3C2A
 10
2172.62
 20
598.666
 30
0.000000
  70
    32
  0
VERTEX
  8
0
  5
3C2B
 10
2172.94
 20
598.709
 30
0.000000
  70
    32
  0
VERTEX
  8
0
  5
3C2C
 10
2173.25
 20
598.757
 30
0.000000
  70
    32
  0
VERTEX
  8
0
  5
3C2D
 10
2173.57
 20
598.810
 30
0.000000
  70
    32
  0
VERTEX
  8
0
  5
3C2E
 10
2173.89
 20
598.868
 30
0.000000
  70
    32
  0
VERTEX
  8
0
  5
3C2F
 10
2174.20
 20
598.931
 30
0.000000
  70
    32
  0
VERTEX
  8
0
  5
3C30
 10
2174.51
 20
598.999
 30
0.000000
  70
    32
  0
VERTEX
  8
0
  5
3C31
 10
2174.82
 20
599.072
 30
0.000000
  70
    32
  0
VERTEX
  8
0
  5
3C32
 10
2175.13
 20
599.150
 30
0.000000
  70
    32
  0
VERTEX
  8
0
  5
3C33
 10
2175.44
 20
599.232
 30
0.000000
  70
    32
  0
VERTEX
  8
0
  5
3C34
 10
2175.74
 20
599.320
 30
0.000000
  70
    32
  0
VERTEX
  8
0
  5
3C35
 10
2176.04
 20
599.412
 30
0.000000
  70
    32
  0
VERTEX
  8
0
  5
3C36
 10
2176.34
 20
599.508
 30
0.000000
  70
    32
  0
VERTEX
  8
0
  5
3C37
 10
2176.64
 20
599.610
 30
0.000000
  70
    32
  0
VERTEX
  8
0
  5
3C38
 10
2176.93
 20
599.716
 30
0.000000
  70
    32
  0
VERTEX
  8
0
  5
3C39
 10
2177.22
 20
599.826
 30
0.000000
  70
    32
  0
VERTEX
  8
0
  5
3C3A
 10
2177.51
 20
599.942
 30
0.000000
  70
    32
  0
VERTEX
  8
0
  5
3C3B
 10
2177.79
 20
600.061
 30
0.000000
  70
    32
  0
VERTEX
  8
0
  5
3C3C
 10
2178.08
 20
600.185
 30
0.000000
  70
    32
  0
VERTEX
  8
0
  5
3C3D
 10
2178.35
 20
600.314
 30
0.000000
  70
    32
  0
VERTEX
  8
0
  5
3C3E
 10
2178.63
 20
600.446
 30
0.000000
  70
    32
  0
VERTEX
  8
0
  5
3C3F
 10
2178.90
 20
600.584
 30
0.000000
  70
    32
  0
VERTEX
  8
0
  5
3C40
 10
2179.16
 20
600.725
 30
0.000000
  70
    32
  0
VERTEX
  8
0
  5
3C41
 10
2179.43
 20
600.870
 30
0.000000
  70
    32
  0
VERTEX
  8
0
  5
3C42
 10
2179.68
 20
601.020
 30
0.000000
  70
    32
  0
VERTEX
  8
0
  5
3C43
 10
2179.94
 20
601.173
 30
0.000000
  70
    32
  0
VERTEX
  8
0
  5
3C44
 10
2180.19
 20
601.331
 30
0.000000
  70
    32
  0
VERTEX
  8
0
  5
3C45
 10
2180.44
 20
601.492
 30
0.000000
  70
    32
  0
VERTEX
  8
0
  5
3C46
 10
2180.68
 20
601.657
 30
0.000000
  70
    32
  0
VERTEX
  8
0
  5
3C47
 10
2180.91
 20
601.826
 30
0.000000
  70
    32
  0
VERTEX
  8
0
  5
3C48
 10
2181.15
 20
601.999
 30
0.000000
  70
    32
  0
VERTEX
  8
0
  5
3C49
 10
2181.37
 20
602.175
 30
0.000000
  70
    32
  0
VERTEX
  8
0
  5
3C4A
 10
2181.60
 20
602.355
 30
0.000000
  70
    32
  0
VERTEX
  8
0
  5
3C4B
 10
2181.81
 20
602.538
 30
0.000000
  70
    32
  0
VERTEX
  8
0
  5
3C4C
 10
2182.03
 20
602.725
 30
0.000000
  70
    32
  0
VERTEX
  8
0
  5
3C4D
 10
2182.23
 20
602.915
 30
0.000000
  70
    32
  0
VERTEX
  8
0
  5
3C4E
 10
2182.44
 20
603.108
 30
0.000000
  70
    32
  0
VERTEX
  8
0
  5
3C4F
 10
2182.63
 20
603.304
 30
0.000000
  70
    32
  0
VERTEX
  8
0
  5
3C50
 10
2182.83
 20
603.503
 30
0.000000
  70
    32
  0
VERTEX
  8
0
  5
3C51
 10
2183.01
 20
603.706
 30
0.000000
  70
    32
  0
VERTEX
  8
0
  5
3C52
 10
2183.19
 20
603.911
 30
0.000000
  70
    32
  0
VERTEX
  8
0
  5
3C53
 10
2183.37
 20
604.119
 30
0.000000
  70
    32
  0
VERTEX
  8
0
  5
3C54
 10
2183.54
 20
604.329
 30
0.000000
  70
    32
  0
VERTEX
  8
0
  5
3C55
 10
2183.70
 20
604.543
 30
0.000000
  70
    32
  0
VERTEX
  8
0
  5
3C56
 10
2183.86
 20
604.758
 30
0.000000
  70
    32
  0
VERTEX
  8
0
  5
3C57
 10
2184.01
 20
604.977
 30
0.000000
  70
    32
  0
VERTEX
  8
0
  5
3C58
 10
2184.16
 20
605.197
 30
0.000000
  70
    32
  0
VERTEX
  8
0
  5
3C59
 10
2184.30
 20
605.420
 30
0.000000
  70
    32
  0
VERTEX
  8
0
  5
3C5A
 10
2184.43
 20
605.645
 30
0.000000
  70
    32
  0
VERTEX
  8
0
  5
3C5B
 10
2184.56
 20
605.872
 30
0.000000
  70
    32
  0
VERTEX
  8
0
  5
3C5C
 10
2184.68
 20
606.101
 30
0.000000
  70
    32
  0
VERTEX
  8
0
  5
3C5D
 10
2184.80
 20
606.332
 30
0.000000
  70
    32
  0
VERTEX
  8
0
  5
3C5E
 10
2184.90
 20
606.564
 30
0.000000
  70
    32
  0
VERTEX
  8
0
  5
3C5F
 10
2185.01
 20
606.799
 30
0.000000
  70
    32
  0
VERTEX
  8
0
  5
3C60
 10
2185.10
 20
607.034
 30
0.000000
  70
    32
  0
VERTEX
  8
0
  5
3C61
 10
2185.19
 20
607.272
 30
0.000000
  70
    32
  0
VERTEX
  8
0
  5
3C62
 10
2185.28
 20
607.510
 30
0.000000
  70
    32
  0
SEQEND
  8
0
  5
3C63
  0
CIRCLE
  5
3220
  8
0
 10
2138.2086137293518
 20
636.30178915501756
 30
0.0
 40
7.5
  0
CIRCLE
  5
3221
  8
0
 10
2138.2086137293518
 20
699.94139946180655
 30
0.0
 40
7.5
  0
CIRCLE
  5
3222
  8
0
 10
2201.8482240361409
 20
636.30178915501756
 30
0.0
 40
7.5
  0
CIRCLE
  5
3223
  8
0
 10
2201.8482240361409
 20
699.94139946180655
 30
0.0
 40
7.5
  0
LINE
  5
3225
  8
0
 10
2075.3572398706951
 20
854.99952093765341
 30
0.0
 11
2075.3572398706951
 21
792.4995209376533
 31
0.0
  0
LINE
  5
3226
  8
0
 10
2075.3572398706951
 20
792.4995209376533
 30
0.0
 11
2075.3572398706951
 21
854.99952093765341
 31
0.0
  0
LINE
  5
3228
  8
0
 10
2015.0637825228309
 20
871.99952093765341
 30
0.0
 11
2015.0637825228309
 21
837.99952093765341
 31
0.0
  0
LINE
  5
3229
  8
0
 10
2012.157239870696
 20
835.74547689598739
 30
0.0
 11
2012.1572398706951
 21
873.99952093765887
 31
0.0
  0
ARC
  5
322B
  8
0
 10
1857.4946481258751
 20
879.74624881744512
 30
0.0
 40
160.7998296482601
 50
334.7284971104562
 51
344.1191993754955
  0
ARC
  5
322C
  8
0
 10
1989.586360452696
 20
817.99952093763841
 30
0.0
 40
15.0
 50
269.99999999999829
 51
332.61276487508229
  0
ARC
  5
322D
  8
0
 10
2008.5398480928029
 20
843.41101294486953
 30
0.0
 40
8.4761999853395515
 50
295.26277939915951
 51
320.3248741034173
  0
ARC
  5
3232
  8
0
 10
1989.586360452699
 20
891.99952093763841
 30
0.0
 40
15.0
 50
27.387235124917819
 51
90.0
  0
ARC
  5
3233
  8
0
 10
1868.600979370083
 20
834.82720025339404
 30
0.0
 40
148.8048071693583
 50
15.262775968078801
 51
25.504363994760642
  0
ARC
  5
3234
  8
0
 10
2008.5398480928029
 20
866.58802893043685
 30
0.0
 40
8.4761999853395515
 50
39.675125896582692
 51
65.04375838677511
  0
LINE
  5
3235
  8
0
 10
2012.1572398706951
 20
873.99952093765341
 30
0.0
 11
2012.1380411305049
 21
874.26259556673006
 31
0.0
  0
LINE
  5
3236
  8
0
 10
2075.3572398706951
 20
854.99952093765341
 30
0.0
 11
2075.3572398706951
 21
917.49952093765341
 31
0.0
  0
LINE
  5
3239
  8
0
 10
2090.0524024396832
 20
1069.328234499473
 30
0.0
 11
2137.3209649396831
 21
1069.328234499473
 31
0.0
  0
LINE
  5
323A
  8
0
 10
2118.414214939683
 20
1078.781609499473
 30
0.0
 11
2113.685839939682
 21
1074.054921999473
 31
0.0
  0
LINE
  5
323B
  8
0
 10
2099.711652439682
 20
1078.781609499473
 30
0.0
 11
2090.0524024396832
 21
1069.328234499473
 31
0.0
  0
LINE
  5
323C
  8
0
 10
2099.711652439682
 20
1074.054921999473
 30
0.0
 11
2099.711652439682
 21
1078.781609499473
 31
0.0
  0
LINE
  5
323E
  8
0
 10
2075.3572398706879
 20
1065.6470157072929
 30
0.0
 11
2075.3572398706879
 21
1128.1470157072929
 31
0.0
  0
LINE
  5
323F
  8
0
 10
2015.063782522825
 20
1082.6470157072929
 30
0.0
 11
2015.063782522825
 21
1048.6470157072929
 31
0.0
  0
LINE
  5
3241
  8
0
 10
2012.157239870688
 20
1025.8623575616871
 30
0.0
 11
2012.157239870689
 21
1084.6470157072929
 31
0.0
  0
LINE
  5
3243
  8
0
 10
1988.718862732303
 20
997.86864591568155
 30
0.0
 11
2008.935219260283
 21
1018.083987770076
 31
0.0
  0
ARC
  5
3258
  8
0
 10
2008.539848092797
 20
1054.058507714509
 30
0.0
 40
8.4761999853395515
 50
295.26277939915951
 51
320.3248741034173
  0
LINE
  5
3259
  8
0
 10
2075.3572398706879
 20
1065.6470157072929
 30
0.0
 11
2075.3572398706879
 21
1003.147015707293
 31
0.0
  0
LINE
  5
325A
  8
0
 10
2075.3572398706879
 20
1003.147015707293
 30
0.0
 11
2075.3572398706879
 21
1065.6470157072929
 31
0.0
  0
LINE
  5
325D
  8
0
 10
2113.685839939682
 20
1074.054921999473
 30
0.0
 11
2099.711652439682
 21
1074.054921999473
 31
0.0
  0
ARC
  5
3262
  8
0
 10
2008.539848092797
 20
1077.2355237000761
 30
0.0
 40
8.4761999853395515
 50
39.675125896582692
 51
64.754598087750381
  0
LINE
  5
326B
  8
0
 10
2137.3209649396831
 20
1069.328234499473
 30
0.0
 11
2146.7743399396832
 21
1078.781609499473
 31
0.0
  0
LINE
  5
326C
  8
0
 10
2146.7743399396832
 20
1078.781609499473
 30
0.0
 11
2118.414214939683
 21
1078.781609499473
 31
0.0
  0
LINE
  5
35AD
  8
0
 10
572.44567063948125
 20
678.908971856481
 30
0.0
 11
572.44567063948125
 21
657.20897185648107
 31
0.0
  0
LINE
  5
35AE
  8
0
 10
564.59567063948134
 20
678.908971856481
 30
0.0
 11
564.59567063948134
 21
657.20897185648107
 31
0.0
  0
LINE
  5
35AF
  8
0
 10
560.44567063948125
 20
683.05897185648109
 30
0.0
 11
560.44567063948125
 21
653.05897185648109
 31
0.0
  0
LINE
  5
35B0
  8
0
 10
580.44567063948125
 20
715.55897185648109
 30
0.0
 11
580.44567063948125
 21
620.55897185648109
 31
0.0
  0
LINE
  5
35B1
  8
0
 10
594.44567063948125
 20
620.55897185648109
 30
0.0
 11
580.44567063948125
 21
620.55897185648109
 31
0.0
  0
LINE
  5
35B2
  8
0
 10
560.44567063948125
 20
653.05897185648109
 30
0.0
 11
552.21337516731808
 21
653.05897185648109
 31
0.0
  0
ARC
  5
35B3
  8
0
 10
576.44567063948125
 20
649.08861508019652
 30
0.0
 40
4.0
 50
0.0
 51
52.448717873821387
  0
LINE
  5
35B4
  8
0
 10
572.44567063948125
 20
657.20897185648107
 30
0.0
 11
564.59567063948134
 21
657.20897185648107
 31
0.0
  0
LINE
  5
35B5
  8
0
 10
560.44567063948125
 20
653.05897185648109
 30
0.0
 11
564.59567063948111
 21
657.20897185648107
 31
0.0
  0
LINE
  5
35B6
  8
0
 10
572.44567063948125
 20
657.20897185648107
 30
0.0
 11
578.88355571785974
 21
652.2598477024776
 31
0.0
  0
LINE
  5
35B7
  8
0
 10
594.44567063948125
 20
715.55897185648109
 30
0.0
 11
580.44567063948125
 21
715.55897185648109
 31
0.0
  0
LINE
  5
35B8
  8
0
 10
560.44567063948125
 20
683.05897185648109
 30
0.0
 11
552.21337516731717
 21
683.05897185648109
 31
0.0
  0
LINE
  5
35B9
  8
0
 10
572.44567063948125
 20
678.908971856481
 30
0.0
 11
564.59567063948134
 21
678.908971856481
 31
0.0
  0
ARC
  5
35BA
  8
0
 10
576.44567063948125
 20
687.02932863276556
 30
0.0
 40
4.0
 50
307.55128212617842
 51
0.0
  0
LINE
  5
35BB
  8
0
 10
560.44567063948125
 20
683.05897185648109
 30
0.0
 11
564.59567063948134
 21
678.908971856481
 31
0.0
  0
LINE
  5
35BC
  8
0
 10
572.44567063948125
 20
678.908971856481
 30
0.0
 11
578.88355571785974
 21
683.85809601048447
 31
0.0
  0
LINE
  5
35BD
  8
0
 10
406.44567063948119
 20
715.55897185648109
 30
0.0
 11
406.44567063948119
 21
620.55897185648109
 31
0.0
  0
LINE
  5
35BE
  8
0
 10
392.44567063948131
 20
620.55897185648109
 30
0.0
 11
406.44567063948119
 21
620.55897185648109
 31
0.0
  0
LINE
  5
35BF
  8
0
 10
426.44567063948119
 20
683.05897185648109
 30
0.0
 11
426.44567063948119
 21
653.05897185648109
 31
0.0
  0
LINE
  5
35C0
  8
0
 10
422.2956706394811
 20
678.908971856481
 30
0.0
 11
422.2956706394811
 21
657.20897185648107
 31
0.0
  0
LINE
  5
35C1
  8
0
 10
414.44567063948119
 20
678.908971856481
 30
0.0
 11
414.44567063948119
 21
657.20897185648107
 31
0.0
  0
LINE
  5
35C2
  8
0
 10
426.44567063948119
 20
653.05897185648109
 30
0.0
 11
422.29567063948127
 21
657.20897185648107
 31
0.0
  0
LINE
  5
35C3
  8
0
 10
426.44567063948119
 20
653.05897185648109
 30
0.0
 11
434.67796611164431
 21
653.05897185648109
 31
0.0
  0
LINE
  5
35C4
  8
0
 10
414.44567063948119
 20
657.20897185648107
 30
0.0
 11
408.00778556110271
 21
652.2598477024776
 31
0.0
  0
LINE
  5
35C5
  8
0
 10
414.44567063948119
 20
657.20897185648107
 30
0.0
 11
422.2956706394811
 21
657.20897185648107
 31
0.0
  0
ARC
  5
35C6
  8
0
 10
410.44567063948119
 20
649.08861508019652
 30
0.0
 40
4.0
 50
127.55128212617861
 51
180.0
  0
LINE
  5
35C7
  8
0
 10
426.44567063948119
 20
683.05897185648109
 30
0.0
 11
422.2956706394811
 21
678.908971856481
 31
0.0
  0
LINE
  5
35C8
  8
0
 10
426.44567063948119
 20
683.05897185648109
 30
0.0
 11
434.67796611164511
 21
683.05897185648109
 31
0.0
  0
LINE
  5
35C9
  8
0
 10
414.44567063948119
 20
678.908971856481
 30
0.0
 11
408.00778556110271
 21
683.85809601048447
 31
0.0
  0
ARC
  5
35CA
  8
0
 10
410.44567063948119
 20
687.02932863276556
 30
0.0
 40
4.0
 50
180.0
 51
232.44871787382149
  0
LINE
  5
35CB
  8
0
 10
414.44567063948119
 20
678.908971856481
 30
0.0
 11
422.2956706394811
 21
678.908971856481
 31
0.0
  0
LINE
  5
35CC
  8
0
 10
392.44567063948131
 20
715.55897185648109
 30
0.0
 11
406.44567063948119
 21
715.55897185648109
 31
0.0
  0
LINE
  5
35CD
  8
0
 10
580.44567063947568
 20
902.49952093765341
 30
0.0
 11
580.44567063947568
 21
807.49952093765353
 31
0.0
  0
LINE
  5
35CE
  8
0
 10
594.44567063947579
 20
807.49952093765353
 30
0.0
 11
580.44567063947568
 21
807.49952093765353
 31
0.0
  0
LINE
  5
35CF
  8
0
 10
560.44567063947568
 20
869.99952093765353
 30
0.0
 11
560.44567063947568
 21
839.99952093765341
 31
0.0
  0
LINE
  5
35D0
  8
0
 10
564.59567063947577
 20
865.84952093765344
 30
0.0
 11
564.59567063947577
 21
844.14952093765328
 31
0.0
  0
LINE
  5
35D1
  8
0
 10
572.44567063947568
 20
865.84952093765344
 30
0.0
 11
572.44567063947568
 21
844.14952093765328
 31
0.0
  0
LINE
  5
35D2
  8
0
 10
560.44567063947568
 20
839.99952093765341
 30
0.0
 11
564.59567063947566
 21
844.14952093765328
 31
0.0
  0
LINE
  5
35D3
  8
0
 10
560.44567063947568
 20
839.99952093765341
 30
0.0
 11
552.21337516731273
 21
839.99952093765341
 31
0.0
  0
LINE
  5
35D4
  8
0
 10
572.44567063947568
 20
844.14952093765328
 30
0.0
 11
578.88355571785428
 21
839.20039678364992
 31
0.0
  0
LINE
  5
35D5
  8
0
 10
572.44567063947568
 20
844.14952093765328
 30
0.0
 11
564.59567063947577
 21
844.14952093765328
 31
0.0
  0
ARC
  5
35D6
  8
0
 10
576.44567063947568
 20
836.02916416136884
 30
0.0
 40
4.0
 50
0.0
 51
52.448717873821387
  0
LINE
  5
35D7
  8
0
 10
560.44567063947568
 20
869.99952093765353
 30
0.0
 11
564.59567063947577
 21
865.84952093765344
 31
0.0
  0
LINE
  5
35D8
  8
0
 10
560.44567063947568
 20
869.99952093765353
 30
0.0
 11
552.21337516731182
 21
869.99952093765353
 31
0.0
  0
LINE
  5
35D9
  8
0
 10
572.44567063947568
 20
865.84952093765344
 30
0.0
 11
578.88355571785428
 21
870.79864509165691
 31
0.0
  0
ARC
  5
35DA
  8
0
 10
576.44567063947568
 20
873.96987771393788
 30
0.0
 40
4.0
 50
307.55128212617842
 51
0.0
  0
LINE
  5
35DB
  8
0
 10
572.44567063947568
 20
865.84952093765344
 30
0.0
 11
564.59567063947577
 21
865.84952093765344
 31
0.0
  0
LINE
  5
35DC
  8
0
 10
594.44567063947579
 20
902.49952093765341
 30
0.0
 11
580.44567063947568
 21
902.49952093765341
 31
0.0
  0
LINE
  5
35DD
  8
0
 10
406.44567063947568
 20
902.49952093765341
 30
0.0
 11
406.44567063947568
 21
807.49952093765353
 31
0.0
  0
LINE
  5
35DE
  8
0
 10
392.44567063947579
 20
807.49952093765353
 30
0.0
 11
406.44567063947568
 21
807.49952093765353
 31
0.0
  0
LINE
  5
35DF
  8
0
 10
414.44567063947568
 20
865.84952093765344
 30
0.0
 11
414.44567063947568
 21
844.14952093765328
 31
0.0
  0
LINE
  5
35E0
  8
0
 10
422.29567063947559
 20
865.84952093765344
 30
0.0
 11
422.29567063947559
 21
844.14952093765328
 31
0.0
  0
LINE
  5
35E1
  8
0
 10
426.44567063947568
 20
869.99952093765353
 30
0.0
 11
426.44567063947568
 21
839.99952093765341
 31
0.0
  0
LINE
  5
35E2
  8
0
 10
426.44567063947568
 20
839.99952093765341
 30
0.0
 11
422.29567063947587
 21
844.14952093765328
 31
0.0
  0
ARC
  5
35E3
  8
0
 10
410.44567063947568
 20
836.02916416136884
 30
0.0
 40
4.0
 50
127.55128212617861
 51
180.0
  0
LINE
  5
35E4
  8
0
 10
414.44567063947568
 20
844.14952093765328
 30
0.0
 11
422.29567063947559
 21
844.14952093765328
 31
0.0
  0
LINE
  5
35E5
  8
0
 10
414.44567063947568
 20
844.14952093765328
 30
0.0
 11
408.00778556109731
 21
839.20039678364992
 31
0.0
  0
LINE
  5
35E6
  8
0
 10
426.44567063947568
 20
839.99952093765341
 30
0.0
 11
434.6779661116388
 21
839.99952093765341
 31
0.0
  0
LINE
  5
35E7
  8
0
 10
426.44567063947568
 20
869.99952093765353
 30
0.0
 11
422.29567063947559
 21
865.84952093765344
 31
0.0
  0
LINE
  5
35E8
  8
0
 10
414.44567063947568
 20
865.84952093765344
 30
0.0
 11
422.29567063947559
 21
865.84952093765344
 31
0.0
  0
ARC
  5
35E9
  8
0
 10
410.44567063947568
 20
873.96987771393788
 30
0.0
 40
4.0
 50
180.0
 51
232.44871787382149
  0
LINE
  5
35EA
  8
0
 10
414.44567063947568
 20
865.84952093765344
 30
0.0
 11
408.00778556109731
 21
870.79864509165691
 31
0.0
  0
LINE
  5
35EB
  8
0
 10
426.44567063947568
 20
869.99952093765353
 30
0.0
 11
434.67796611163971
 21
869.99952093765353
 31
0.0
  0
LINE
  5
35EC
  8
0
 10
392.44567063947579
 20
902.49952093765341
 30
0.0
 11
406.44567063947568
 21
902.49952093765341
 31
0.0
  0
LINE
  5
35ED
  8
0
 10
580.44567063946943
 20
1113.1470157072929
 30
0.0
 11
580.44567063946943
 21
1018.147015707293
 31
0.0
  0
LINE
  5
35EE
  8
0
 10
594.44567063946943
 20
1018.147015707293
 30
0.0
 11
580.44567063946943
 21
1018.147015707293
 31
0.0
  0
LINE
  5
35EF
  8
0
 10
560.44567063946943
 20
1080.6470157072929
 30
0.0
 11
560.44567063946943
 21
1050.6470157072929
 31
0.0
  0
LINE
  5
35F0
  8
0
 10
564.59567063946952
 20
1076.497015707293
 30
0.0
 11
564.59567063946952
 21
1054.797015707293
 31
0.0
  0
LINE
  5
35F1
  8
0
 10
572.44567063946943
 20
1076.497015707293
 30
0.0
 11
572.44567063946943
 21
1054.797015707293
 31
0.0
  0
LINE
  5
35F2
  8
0
 10
560.44567063946943
 20
1050.6470157072929
 30
0.0
 11
564.59567063946918
 21
1054.797015707293
 31
0.0
  0
LINE
  5
35F3
  8
0
 10
560.44567063946943
 20
1050.6470157072929
 30
0.0
 11
552.21337516730625
 21
1050.6470157072929
 31
0.0
  0
LINE
  5
35F4
  8
0
 10
572.44567063946943
 20
1054.797015707293
 30
0.0
 11
578.88355571784791
 21
1049.8478915532889
 31
0.0
  0
LINE
  5
35F5
  8
0
 10
572.44567063946943
 20
1054.797015707293
 30
0.0
 11
564.59567063946952
 21
1054.797015707293
 31
0.0
  0
ARC
  5
35F6
  8
0
 10
576.44567063946943
 20
1046.6766589310089
 30
0.0
 40
4.0
 50
0.0
 51
52.448717873821387
  0
LINE
  5
35F7
  8
0
 10
560.44567063946943
 20
1080.6470157072929
 30
0.0
 11
564.59567063946952
 21
1076.497015707293
 31
0.0
  0
LINE
  5
35F8
  8
0
 10
560.44567063946943
 20
1080.6470157072929
 30
0.0
 11
552.21337516730534
 21
1080.6470157072929
 31
0.0
  0
LINE
  5
35F9
  8
0
 10
572.44567063946943
 20
1076.497015707293
 30
0.0
 11
578.88355571784791
 21
1081.4461398612959
 31
0.0
  0
ARC
  5
35FA
  8
0
 10
576.44567063946943
 20
1084.6173724835769
 30
0.0
 40
4.0
 50
307.55128212617842
 51
0.0
  0
LINE
  5
35FB
  8
0
 10
572.44567063946943
 20
1076.497015707293
 30
0.0
 11
564.59567063946952
 21
1076.497015707293
 31
0.0
  0
LINE
  5
35FC
  8
0
 10
594.44567063946943
 20
1113.1470157072929
 30
0.0
 11
580.44567063946943
 21
1113.1470157072929
 31
0.0
  0
LINE
  5
35FD
  8
0
 10
406.44567063946943
 20
1113.1470157072929
 30
0.0
 11
406.44567063946943
 21
1018.147015707293
 31
0.0
  0
LINE
  5
35FE
  8
0
 10
392.44567063946943
 20
1018.147015707293
 30
0.0
 11
406.44567063946943
 21
1018.147015707293
 31
0.0
  0
LINE
  5
35FF
  8
0
 10
414.44567063946943
 20
1076.497015707293
 30
0.0
 11
414.44567063946943
 21
1054.797015707293
 31
0.0
  0
LINE
  5
3600
  8
0
 10
422.29567063946928
 20
1076.497015707293
 30
0.0
 11
422.29567063946928
 21
1054.797015707293
 31
0.0
  0
LINE
  5
3601
  8
0
 10
426.44567063946943
 20
1080.6470157072929
 30
0.0
 11
426.44567063946943
 21
1050.6470157072929
 31
0.0
  0
LINE
  5
3602
  8
0
 10
426.44567063946943
 20
1050.6470157072929
 30
0.0
 11
422.29567063946951
 21
1054.797015707293
 31
0.0
  0
ARC
  5
3603
  8
0
 10
410.44567063946943
 20
1046.6766589310089
 30
0.0
 40
4.0
 50
127.55128212617861
 51
180.0
  0
LINE
  5
3604
  8
0
 10
414.44567063946943
 20
1054.797015707293
 30
0.0
 11
422.29567063946928
 21
1054.797015707293
 31
0.0
  0
LINE
  5
3605
  8
0
 10
414.44567063946943
 20
1054.797015707293
 30
0.0
 11
408.00778556109088
 21
1049.8478915532889
 31
0.0
  0
LINE
  5
3606
  8
0
 10
426.44567063946943
 20
1050.6470157072929
 30
0.0
 11
434.67796611163237
 21
1050.6470157072929
 31
0.0
  0
LINE
  5
3607
  8
0
 10
426.44567063946943
 20
1080.6470157072929
 30
0.0
 11
422.29567063946928
 21
1076.497015707293
 31
0.0
  0
LINE
  5
3608
  8
0
 10
414.44567063946943
 20
1076.497015707293
 30
0.0
 11
422.29567063946928
 21
1076.497015707293
 31
0.0
  0
ARC
  5
3609
  8
0
 10
410.44567063946943
 20
1084.6173724835769
 30
0.0
 40
4.0
 50
180.0
 51
232.44871787382149
  0
LINE
  5
360A
  8
0
 10
414.44567063946943
 20
1076.497015707293
 30
0.0
 11
408.00778556109088
 21
1081.4461398612959
 31
0.0
  0
LINE
  5
360B
  8
0
 10
426.44567063946943
 20
1080.6470157072929
 30
0.0
 11
434.67796611163328
 21
1080.6470157072929
 31
0.0
  0
LINE
  5
360C
  8
0
 10
392.44567063946943
 20
1113.1470157072929
 30
0.0
 11
406.44567063946943
 21
1113.1470157072929
 31
0.0
  0
LINE
  5
360D
  8
0
 10
1249.4605247307909
 20
683.12159430841177
 30
0.0
 11
1259.2194387734171
 21
683.12159430841211
 31
0.0
  0
LINE
  5
360E
  8
0
 10
1249.4605247307909
 20
653.12159430841177
 30
0.0
 11
1259.2194387734171
 21
653.12159430841211
 31
0.0
  0
LINE
  5
360F
  8
0
 10
1259.2194387734171
 20
683.12159430841211
 30
0.0
 11
1259.219438773415
 21
653.12159430841211
 31
0.0
  0
LINE
  5
3610
  8
0
 10
1260.619438773417
 20
681.72159430841202
 30
0.0
 11
1260.619438773417
 21
654.52159430841186
 31
0.0
  0
LINE
  5
3611
  8
0
 10
1275.2194387734171
 20
681.72159430841202
 30
0.0
 11
1275.2194387734171
 21
654.52159430841186
 31
0.0
  0
LINE
  5
3612
  8
0
 10
1285.2194387734171
 20
718.121594308412
 30
0.0
 11
1285.2194387734171
 21
618.121594308412
 31
0.0
  0
LINE
  5
3613
  8
0
 10
1285.2194387734171
 20
618.121594308412
 30
0.0
 11
1301.2194387734171
 21
618.121594308412
 31
0.0
  0
LINE
  5
3614
  8
0
 10
1283.3756535591101
 20
649.30161684556833
 30
0.0
 11
1275.2194387734171
 21
654.52159430841186
 31
0.0
  0
LINE
  5
3615
  8
0
 10
1260.619438773417
 20
654.52159430841186
 30
0.0
 11
1275.2194387734171
 21
654.52159430841186
 31
0.0
  0
LINE
  5
3616
  8
0
 10
1259.2194387734171
 20
653.12159430841211
 30
0.0
 11
1260.619438773417
 21
654.52159430841186
 31
0.0
  0
ARC
  5
3617
  8
0
 10
1281.2194387734171
 20
645.93253124292232
 30
0.0
 40
4.0
 50
0.0
 51
57.38075692880642
  0
LINE
  5
3618
  8
0
 10
1283.3756535591101
 20
686.94157177125578
 30
0.0
 11
1275.2194387734171
 21
681.72159430841202
 31
0.0
  0
LINE
  5
3619
  8
0
 10
1260.619438773417
 20
681.72159430841202
 30
0.0
 11
1275.2194387734171
 21
681.72159430841202
 31
0.0
  0
LINE
  5
361A
  8
0
 10
1259.2194387734171
 20
683.12159430841211
 30
0.0
 11
1260.619438773417
 21
681.72159430841202
 31
0.0
  0
ARC
  5
361B
  8
0
 10
1281.2194387734171
 20
690.3106573739019
 30
0.0
 40
4.0
 50
302.61924307119352
 51
0.0
  0
LINE
  5
361C
  8
0
 10
1285.2194387734171
 20
718.121594308412
 30
0.0
 11
1301.2194387734171
 21
718.121594308412
 31
0.0
  0
LINE
  5
361D
  8
0
 10
1095.2194387734171
 20
718.121594308412
 30
0.0
 11
1095.2194387734171
 21
618.121594308412
 31
0.0
  0
LINE
  5
361E
  8
0
 10
1097.0632239877229
 20
686.94157177125578
 30
0.0
 11
1105.2194387734171
 21
681.72159430841202
 31
0.0
  0
LINE
  5
361F
  8
0
 10
1097.0632239877229
 20
649.30161684556833
 30
0.0
 11
1105.2194387734171
 21
654.52159430841186
 31
0.0
  0
LINE
  5
3620
  8
0
 10
1105.2194387734171
 20
681.72159430841202
 30
0.0
 11
1105.2194387734171
 21
654.52159430841186
 31
0.0
  0
LINE
  5
3621
  8
0
 10
1119.819438773417
 20
681.72159430841202
 30
0.0
 11
1119.819438773417
 21
654.52159430841186
 31
0.0
  0
LINE
  5
3622
  8
0
 10
1121.2194387734171
 20
683.12159430841211
 30
0.0
 11
1121.2194387734189
 21
653.12159430841211
 31
0.0
  0
LINE
  5
3623
  8
0
 10
1130.9783528160419
 20
653.12159430841177
 30
0.0
 11
1121.2194387734171
 21
653.12159430841211
 31
0.0
  0
LINE
  5
3624
  8
0
 10
1121.2194387734171
 20
653.12159430841211
 30
0.0
 11
1119.819438773417
 21
654.52159430841186
 31
0.0
  0
LINE
  5
3625
  8
0
 10
1119.819438773417
 20
654.52159430841186
 30
0.0
 11
1105.2194387734171
 21
654.52159430841186
 31
0.0
  0
LINE
  5
3626
  8
0
 10
1130.9783528160419
 20
683.12159430841177
 30
0.0
 11
1121.2194387734171
 21
683.12159430841211
 31
0.0
  0
LINE
  5
3627
  8
0
 10
1121.2194387734171
 20
683.12159430841211
 30
0.0
 11
1119.819438773417
 21
681.72159430841202
 31
0.0
  0
LINE
  5
3628
  8
0
 10
1119.819438773417
 20
681.72159430841202
 30
0.0
 11
1105.2194387734171
 21
681.72159430841202
 31
0.0
  0
LINE
  5
3629
  8
0
 10
1095.2194387734171
 20
618.121594308412
 30
0.0
 11
1079.2194387734171
 21
618.121594308412
 31
0.0
  0
ARC
  5
362A
  8
0
 10
1099.2194387734171
 20
645.93253124292232
 30
0.0
 40
4.0
 50
122.61924307119349
 51
180.0
  0
ARC
  5
362B
  8
0
 10
1099.2194387734171
 20
690.3106573739019
 30
0.0
 40
4.0
 50
180.0
 51
237.38075692880651
  0
LINE
  5
362C
  8
0
 10
1095.2194387734171
 20
718.121594308412
 30
0.0
 11
1079.2194387734171
 21
718.121594308412
 31
0.0
  0
LINE
  5
362D
  8
0
 10
1285.219438773405
 20
1115.6470157072929
 30
0.0
 11
1285.219438773405
 21
1015.647015707293
 31
0.0
  0
LINE
  5
362E
  8
0
 10
1283.3756535590981
 20
1084.4669931701369
 30
0.0
 11
1275.219438773405
 21
1079.247015707293
 31
0.0
  0
LINE
  5
362F
  8
0
 10
1283.3756535590981
 20
1046.8270382444491
 30
0.0
 11
1275.219438773405
 21
1052.047015707293
 31
0.0
  0
LINE
  5
3630
  8
0
 10
1275.219438773405
 20
1079.247015707293
 30
0.0
 11
1275.219438773405
 21
1052.047015707293
 31
0.0
  0
LINE
  5
3631
  8
0
 10
1260.6194387734049
 20
1079.247015707293
 30
0.0
 11
1260.6194387734049
 21
1052.047015707293
 31
0.0
  0
LINE
  5
3632
  8
0
 10
1259.219438773405
 20
1080.6470157072929
 30
0.0
 11
1259.219438773403
 21
1050.6470157072929
 31
0.0
  0
LINE
  5
3633
  8
0
 10
1249.4605247307791
 20
1050.6470157072929
 30
0.0
 11
1259.219438773405
 21
1050.6470157072929
 31
0.0
  0
LINE
  5
3634
  8
0
 10
1259.219438773405
 20
1050.6470157072929
 30
0.0
 11
1260.6194387734049
 21
1052.047015707293
 31
0.0
  0
LINE
  5
3635
  8
0
 10
1260.6194387734049
 20
1052.047015707293
 30
0.0
 11
1275.219438773405
 21
1052.047015707293
 31
0.0
  0
LINE
  5
3636
  8
0
 10
1249.4605247307791
 20
1080.6470157072929
 30
0.0
 11
1259.219438773405
 21
1080.6470157072929
 31
0.0
  0
LINE
  5
3637
  8
0
 10
1259.219438773405
 20
1080.6470157072929
 30
0.0
 11
1260.6194387734049
 21
1079.247015707293
 31
0.0
  0
LINE
  5
3638
  8
0
 10
1260.6194387734049
 20
1079.247015707293
 30
0.0
 11
1275.219438773405
 21
1079.247015707293
 31
0.0
  0
LINE
  5
3639
  8
0
 10
1285.219438773405
 20
1015.647015707293
 30
0.0
 11
1301.219438773405
 21
1015.647015707293
 31
0.0
  0
ARC
  5
363A
  8
0
 10
1281.219438773405
 20
1043.4579526418031
 30
0.0
 40
4.0
 50
0.0
 51
57.38075692880642
  0
ARC
  5
363B
  8
0
 10
1281.219438773405
 20
1087.8360787727829
 30
0.0
 40
4.0
 50
302.61924307119352
 51
0.0
  0
LINE
  5
363C
  8
0
 10
1285.219438773405
 20
1115.6470157072929
 30
0.0
 11
1301.219438773405
 21
1115.6470157072929
 31
0.0
  0
LINE
  5
363D
  8
0
 10
1095.219438773405
 20
1115.6470157072929
 30
0.0
 11
1095.219438773405
 21
1015.647015707293
 31
0.0
  0
ARC
  5
363E
  8
0
 10
1099.219438773405
 20
1087.8360787727829
 30
0.0
 40
4.0
 50
180.0
 51
237.38075692880651
  0
ARC
  5
363F
  8
0
 10
1099.219438773405
 20
1043.4579526418031
 30
0.0
 40
4.0
 50
122.61924307119349
 51
180.0
  0
LINE
  5
3640
  8
0
 10
1095.219438773405
 20
1015.647015707293
 30
0.0
 11
1079.219438773405
 21
1015.647015707293
 31
0.0
  0
LINE
  5
3641
  8
0
 10
1121.219438773405
 20
1080.6470157072929
 30
0.0
 11
1121.2194387734071
 21
1050.6470157072929
 31
0.0
  0
LINE
  5
3642
  8
0
 10
1119.819438773405
 20
1079.247015707293
 30
0.0
 11
1119.819438773405
 21
1052.047015707293
 31
0.0
  0
LINE
  5
3643
  8
0
 10
1105.219438773405
 20
1079.247015707293
 30
0.0
 11
1105.219438773405
 21
1052.047015707293
 31
0.0
  0
LINE
  5
3644
  8
0
 10
1119.819438773405
 20
1052.047015707293
 30
0.0
 11
1105.219438773405
 21
1052.047015707293
 31
0.0
  0
LINE
  5
3645
  8
0
 10
1097.063223987712
 20
1046.8270382444491
 30
0.0
 11
1105.219438773405
 21
1052.047015707293
 31
0.0
  0
LINE
  5
3646
  8
0
 10
1121.219438773405
 20
1050.6470157072929
 30
0.0
 11
1119.819438773405
 21
1052.047015707293
 31
0.0
  0
LINE
  5
3647
  8
0
 10
1130.978352816031
 20
1050.6470157072929
 30
0.0
 11
1121.219438773405
 21
1050.6470157072929
 31
0.0
  0
LINE
  5
3648
  8
0
 10
1119.819438773405
 20
1079.247015707293
 30
0.0
 11
1105.219438773405
 21
1079.247015707293
 31
0.0
  0
LINE
  5
3649
  8
0
 10
1097.063223987712
 20
1084.4669931701369
 30
0.0
 11
1105.219438773405
 21
1079.247015707293
 31
0.0
  0
LINE
  5
364A
  8
0
 10
1121.219438773405
 20
1080.6470157072929
 30
0.0
 11
1119.819438773405
 21
1079.247015707293
 31
0.0
  0
LINE
  5
364B
  8
0
 10
1130.978352816031
 20
1080.6470157072929
 30
0.0
 11
1121.219438773405
 21
1080.6470157072929
 31
0.0
  0
LINE
  5
364C
  8
0
 10
1095.219438773405
 20
1115.6470157072929
 30
0.0
 11
1079.219438773405
 21
1115.6470157072929
 31
0.0
  0
LINE
  5
364D
  8
0
 10
1285.219438773411
 20
904.99952093765341
 30
0.0
 11
1285.219438773411
 21
804.99952093765341
 31
0.0
  0
LINE
  5
364E
  8
0
 10
1283.3756535591051
 20
873.81949840049708
 30
0.0
 11
1275.219438773411
 21
868.59952093765344
 31
0.0
  0
LINE
  5
364F
  8
0
 10
1283.3756535591051
 20
836.17954347480963
 30
0.0
 11
1275.219438773411
 21
841.39952093765328
 31
0.0
  0
LINE
  5
3650
  8
0
 10
1275.219438773411
 20
868.59952093765344
 30
0.0
 11
1275.219438773411
 21
841.39952093765328
 31
0.0
  0
LINE
  5
3651
  8
0
 10
1260.619438773411
 20
868.59952093765344
 30
0.0
 11
1260.619438773411
 21
841.39952093765328
 31
0.0
  0
LINE
  5
3652
  8
0
 10
1259.219438773411
 20
869.99952093765353
 30
0.0
 11
1259.2194387734089
 21
839.99952093765341
 31
0.0
  0
LINE
  5
3653
  8
0
 10
1249.4605247307859
 20
839.99952093765319
 30
0.0
 11
1259.219438773411
 21
839.99952093765341
 31
0.0
  0
LINE
  5
3654
  8
0
 10
1259.219438773411
 20
839.99952093765341
 30
0.0
 11
1260.619438773411
 21
841.39952093765328
 31
0.0
  0
LINE
  5
3655
  8
0
 10
1260.619438773411
 20
841.39952093765328
 30
0.0
 11
1275.219438773411
 21
841.39952093765328
 31
0.0
  0
LINE
  5
3656
  8
0
 10
1249.4605247307859
 20
869.99952093765307
 30
0.0
 11
1259.219438773411
 21
869.99952093765353
 31
0.0
  0
LINE
  5
3657
  8
0
 10
1259.219438773411
 20
869.99952093765353
 30
0.0
 11
1260.619438773411
 21
868.59952093765344
 31
0.0
  0
LINE
  5
3658
  8
0
 10
1260.619438773411
 20
868.59952093765344
 30
0.0
 11
1275.219438773411
 21
868.59952093765344
 31
0.0
  0
LINE
  5
3659
  8
0
 10
1285.219438773411
 20
804.99952093765341
 30
0.0
 11
1301.219438773411
 21
804.99952093765341
 31
0.0
  0
ARC
  5
365A
  8
0
 10
1281.219438773411
 20
832.81045787216351
 30
0.0
 40
4.0
 50
0.0
 51
57.38075692880642
  0
ARC
  5
365B
  8
0
 10
1281.219438773411
 20
877.18858400314321
 30
0.0
 40
4.0
 50
302.61924307119352
 51
0.0
  0
LINE
  5
365C
  8
0
 10
1285.219438773411
 20
904.99952093765341
 30
0.0
 11
1301.219438773411
 21
904.99952093765341
 31
0.0
  0
LINE
  5
365D
  8
0
 10
1095.219438773411
 20
904.99952093765341
 30
0.0
 11
1095.219438773411
 21
804.99952093765341
 31
0.0
  0
ARC
  5
365E
  8
0
 10
1099.219438773411
 20
877.18858400314321
 30
0.0
 40
4.0
 50
180.0
 51
237.38075692880651
  0
ARC
  5
365F
  8
0
 10
1099.219438773411
 20
832.81045787216351
 30
0.0
 40
4.0
 50
122.61924307119349
 51
180.0
  0
LINE
  5
3660
  8
0
 10
1095.219438773411
 20
804.99952093765341
 30
0.0
 11
1079.219438773411
 21
804.99952093765341
 31
0.0
  0
LINE
  5
3661
  8
0
 10
1121.2194387734121
 20
869.99952093765353
 30
0.0
 11
1121.2194387734139
 21
839.99952093765341
 31
0.0
  0
LINE
  5
3662
  8
0
 10
1119.8194387734111
 20
868.59952093765344
 30
0.0
 11
1119.8194387734111
 21
841.39952093765328
 31
0.0
  0
LINE
  5
3663
  8
0
 10
1105.219438773411
 20
868.59952093765344
 30
0.0
 11
1105.219438773411
 21
841.39952093765328
 31
0.0
  0
LINE
  5
3664
  8
0
 10
1119.8194387734111
 20
841.39952093765328
 30
0.0
 11
1105.219438773411
 21
841.39952093765328
 31
0.0
  0
LINE
  5
3665
  8
0
 10
1097.0632239877179
 20
836.17954347480963
 30
0.0
 11
1105.219438773411
 21
841.39952093765328
 31
0.0
  0
LINE
  5
3666
  8
0
 10
1121.2194387734121
 20
839.99952093765341
 30
0.0
 11
1119.8194387734111
 21
841.39952093765328
 31
0.0
  0
LINE
  5
3667
  8
0
 10
1130.9783528160369
 20
839.99952093765319
 30
0.0
 11
1121.2194387734121
 21
839.99952093765341
 31
0.0
  0
LINE
  5
3668
  8
0
 10
1119.8194387734111
 20
868.59952093765344
 30
0.0
 11
1105.219438773411
 21
868.59952093765344
 31
0.0
  0
LINE
  5
3669
  8
0
 10
1097.0632239877179
 20
873.81949840049708
 30
0.0
 11
1105.219438773411
 21
868.59952093765344
 31
0.0
  0
LINE
  5
366A
  8
0
 10
1121.2194387734121
 20
869.99952093765353
 30
0.0
 11
1119.8194387734111
 21
868.59952093765344
 31
0.0
  0
LINE
  5
366B
  8
0
 10
1130.9783528160369
 20
869.99952093765307
 30
0.0
 11
1121.2194387734121
 21
869.99952093765353
 31
0.0
  0
LINE
  5
366C
  8
0
 10
1095.219438773411
 20
904.99952093765341
 30
0.0
 11
1079.219438773411
 21
904.99952093765341
 31
0.0
  0
LINE
  5
366D
  8
0
 10
2015.0637825228371
 20
651.121594308412
 30
0.0
 11
2049.3572398707001
 21
651.121594308412
 31
0.0
  0
LINE
  5
366E
  8
0
 10
2015.0637825228371
 20
685.12159430841189
 30
0.0
 11
2049.3572398707001
 21
685.121594308412
 31
0.0
  0
LINE
  5
366F
  8
0
 10
2023.8572398706999
 20
685.121594308412
 30
0.0
 11
2023.8572398706999
 21
651.121594308412
 31
0.0
  0
LINE
  5
3670
  8
0
 10
2049.3572398707001
 20
685.121594308412
 30
0.0
 11
2049.3572398707001
 21
651.121594308412
 31
0.0
  0
LINE
  5
3671
  8
0
 10
2059.3572398707001
 20
730.621594308412
 30
0.0
 11
2059.3572398707001
 21
605.621594308412
 31
0.0
  0
LINE
  5
3672
  8
0
 10
2059.3572398707001
 20
605.621594308412
 30
0.0
 11
2075.3572398707001
 21
605.621594308412
 31
0.0
  0
LINE
  5
3673
  8
0
 10
2049.3572398707001
 20
651.121594308412
 30
0.0
 11
2057.4807151084719
 21
644.62281411819413
 31
0.0
  0
ARC
  5
3674
  8
0
 10
2054.3572398707001
 20
640.71847007097915
 30
0.0
 40
5.0
 50
0.0
 51
51.340191745909188
  0
ARC
  5
3675
  8
0
 10
2054.3572398707001
 20
695.52471854584519
 30
0.0
 40
5.0
 50
308.65980825408838
 51
0.0
  0
LINE
  5
3676
  8
0
 10
2049.3572398707001
 20
685.121594308412
 30
0.0
 11
2057.4807151084719
 21
691.62037449862976
 31
0.0
  0
LINE
  5
3677
  8
0
 10
2059.3572398707001
 20
730.621594308412
 30
0.0
 11
2075.3572398707001
 21
730.621594308412
 31
0.0
  0
LINE
  5
3678
  8
0
 10
1849.3572398706999
 20
730.621594308412
 30
0.0
 11
1849.3572398706999
 21
605.621594308412
 31
0.0
  0
LINE
  5
3679
  8
0
 10
1893.6506972185639
 20
651.121594308412
 30
0.0
 11
1859.3572398706999
 21
651.121594308412
 31
0.0
  0
LINE
  5
367A
  8
0
 10
1893.6506972185639
 20
685.12159430841189
 30
0.0
 11
1859.3572398706999
 21
685.121594308412
 31
0.0
  0
LINE
  5
367B
  8
0
 10
1849.3572398706999
 20
605.621594308412
 30
0.0
 11
1833.3572398706999
 21
605.621594308412
 31
0.0
  0
LINE
  5
367C
  8
0
 10
1859.3572398706999
 20
685.121594308412
 30
0.0
 11
1859.3572398706999
 21
651.121594308412
 31
0.0
  0
LINE
  5
367D
  8
0
 10
1884.8572398706999
 20
685.121594308412
 30
0.0
 11
1884.8572398706999
 21
651.121594308412
 31
0.0
  0
ARC
  5
367E
  8
0
 10
1854.3572398706999
 20
640.71847007097915
 30
0.0
 40
5.0
 50
128.65980825409079
 51
180.0
  0
LINE
  5
367F
  8
0
 10
1859.3572398706999
 20
651.121594308412
 30
0.0
 11
1851.2337646329279
 21
644.62281411819413
 31
0.0
  0
LINE
  5
3680
  8
0
 10
1859.3572398706999
 20
685.121594308412
 30
0.0
 11
1851.2337646329279
 21
691.62037449862976
 31
0.0
  0
ARC
  5
3681
  8
0
 10
1854.3572398706999
 20
695.52471854584519
 30
0.0
 40
5.0
 50
180.0
 51
231.3401917459116
  0
LINE
  5
3682
  8
0
 10
1849.3572398706999
 20
730.621594308412
 30
0.0
 11
1833.3572398706999
 21
730.621594308412
 31
0.0
  0
LINE
  5
3683
  8
0
 10
2059.3572398706951
 20
917.49952093765341
 30
0.0
 11
2059.3572398706951
 21
792.4995209376533
 31
0.0
  0
LINE
  5
3684
  8
0
 10
2015.0637825228309
 20
837.99952093765341
 30
0.0
 11
2049.3572398706951
 21
837.99952093765341
 31
0.0
  0
LINE
  5
3685
  8
0
 10
2015.0637825228309
 20
871.99952093765319
 30
0.0
 11
2049.3572398706951
 21
871.99952093765341
 31
0.0
  0
LINE
  5
3686
  8
0
 10
2059.3572398706951
 20
792.4995209376533
 30
0.0
 11
2075.3572398706951
 21
792.4995209376533
 31
0.0
  0
LINE
  5
3687
  8
0
 10
2049.3572398706951
 20
871.99952093765341
 30
0.0
 11
2049.3572398706951
 21
837.99952093765341
 31
0.0
  0
LINE
  5
3688
  8
0
 10
2023.8572398706949
 20
871.99952093765341
 30
0.0
 11
2023.8572398706949
 21
837.99952093765341
 31
0.0
  0
ARC
  5
3689
  8
0
 10
2054.3572398706951
 20
827.59639670022045
 30
0.0
 40
5.0
 50
0.0
 51
51.340191745909188
  0
LINE
  5
368A
  8
0
 10
2049.3572398706951
 20
837.99952093765341
 30
0.0
 11
2057.4807151084669
 21
831.50074074743543
 31
0.0
  0
LINE
  5
368B
  8
0
 10
2049.3572398706951
 20
871.99952093765341
 30
0.0
 11
2057.4807151084669
 21
878.49830112787106
 31
0.0
  0
ARC
  5
368C
  8
0
 10
2054.3572398706951
 20
882.40264517508649
 30
0.0
 40
5.0
 50
308.65980825408838
 51
0.0
  0
LINE
  5
368D
  8
0
 10
2059.3572398706951
 20
917.49952093765341
 30
0.0
 11
2075.3572398706951
 21
917.49952093765341
 31
0.0
  0
LINE
  5
368E
  8
0
 10
1849.3572398706949
 20
917.49952093765341
 30
0.0
 11
1849.3572398706949
 21
792.4995209376533
 31
0.0
  0
LINE
  5
368F
  8
0
 10
1849.3572398706949
 20
792.4995209376533
 30
0.0
 11
1833.3572398706949
 21
792.4995209376533
 31
0.0
  0
LINE
  5
3690
  8
0
 10
1893.650697218558
 20
871.99952093765319
 30
0.0
 11
1859.3572398706949
 21
871.99952093765341
 31
0.0
  0
LINE
  5
3691
  8
0
 10
1893.650697218558
 20
837.99952093765341
 30
0.0
 11
1859.3572398706949
 21
837.99952093765341
 31
0.0
  0
LINE
  5
3692
  8
0
 10
1859.3572398706949
 20
871.99952093765341
 30
0.0
 11
1859.3572398706949
 21
837.99952093765341
 31
0.0
  0
LINE
  5
3693
  8
0
 10
1859.3572398706949
 20
837.99952093765341
 30
0.0
 11
1851.233764632922
 21
831.50074074743543
 31
0.0
  0
ARC
  5
3694
  8
0
 10
1854.357239870694
 20
827.59639670022045
 30
0.0
 40
5.0
 50
128.65980825409079
 51
180.0
  0
ARC
  5
3695
  8
0
 10
1854.357239870694
 20
882.40264517508649
 30
0.0
 40
5.0
 50
180.0
 51
231.3401917459116
  0
LINE
  5
3696
  8
0
 10
1859.3572398706949
 20
871.99952093765341
 30
0.0
 11
1851.233764632922
 21
878.49830112787106
 31
0.0
  0
LINE
  5
3697
  8
0
 10
1884.857239870694
 20
871.99952093765341
 30
0.0
 11
1884.857239870694
 21
837.99952093765341
 31
0.0
  0
LINE
  5
3698
  8
0
 10
1849.3572398706949
 20
917.49952093765341
 30
0.0
 11
1833.3572398706949
 21
917.49952093765341
 31
0.0
  0
LINE
  5
3699
  8
0
 10
2059.3572398706879
 20
1128.1470157072929
 30
0.0
 11
2059.3572398706879
 21
1003.147015707293
 31
0.0
  0
LINE
  5
369A
  8
0
 10
2015.063782522825
 20
1048.6470157072929
 30
0.0
 11
2049.3572398706892
 21
1048.6470157072929
 31
0.0
  0
LINE
  5
369B
  8
0
 10
2015.063782522825
 20
1082.6470157072929
 30
0.0
 11
2049.3572398706892
 21
1082.6470157072929
 31
0.0
  0
LINE
  5
369C
  8
0
 10
2059.3572398706879
 20
1003.147015707293
 30
0.0
 11
2075.3572398706879
 21
1003.147015707293
 31
0.0
  0
LINE
  5
369D
  8
0
 10
2049.3572398706892
 20
1082.6470157072929
 30
0.0
 11
2049.3572398706892
 21
1048.6470157072929
 31
0.0
  0
LINE
  5
369E
  8
0
 10
2023.857239870689
 20
1082.6470157072929
 30
0.0
 11
2023.857239870689
 21
1048.6470157072929
 31
0.0
  0
ARC
  5
369F
  8
0
 10
2054.3572398706879
 20
1038.24389146986
 30
0.0
 40
5.0
 50
0.0
 51
51.340191745909188
  0
LINE
  5
36A0
  8
0
 10
2049.3572398706892
 20
1048.6470157072929
 30
0.0
 11
2057.480715108461
 21
1042.1482355170749
 31
0.0
  0
LINE
  5
36A1
  8
0
 10
2049.3572398706892
 20
1082.6470157072929
 30
0.0
 11
2057.480715108461
 21
1089.1457958975111
 31
0.0
  0
ARC
  5
36A2
  8
0
 10
2054.3572398706879
 20
1093.050139944726
 30
0.0
 40
5.0
 50
308.65980825408838
 51
0.0
  0
LINE
  5
36A3
  8
0
 10
2059.3572398706879
 20
1128.1470157072929
 30
0.0
 11
2075.3572398706879
 21
1128.1470157072929
 31
0.0
  0
LINE
  5
36A4
  8
0
 10
1849.3572398706881
 20
1128.1470157072929
 30
0.0
 11
1849.3572398706881
 21
1003.147015707293
 31
0.0
  0
LINE
  5
36A5
  8
0
 10
1849.3572398706881
 20
1003.147015707293
 30
0.0
 11
1833.3572398706881
 21
1003.147015707293
 31
0.0
  0
LINE
  5
36A6
  8
0
 10
1893.6506972185509
 20
1082.6470157072929
 30
0.0
 11
1859.3572398706881
 21
1082.6470157072929
 31
0.0
  0
LINE
  5
36A7
  8
0
 10
1893.6506972185509
 20
1048.6470157072929
 30
0.0
 11
1859.3572398706881
 21
1048.6470157072929
 31
0.0
  0
LINE
  5
36A8
  8
0
 10
1859.3572398706881
 20
1082.6470157072929
 30
0.0
 11
1859.3572398706881
 21
1048.6470157072929
 31
0.0
  0
LINE
  5
36A9
  8
0
 10
1859.3572398706881
 20
1048.6470157072929
 30
0.0
 11
1851.2337646329161
 21
1042.1482355170749
 31
0.0
  0
ARC
  5
36AA
  8
0
 10
1854.3572398706881
 20
1038.24389146986
 30
0.0
 40
5.0
 50
128.65980825409079
 51
180.0
  0
ARC
  5
36AB
  8
0
 10
1854.3572398706881
 20
1093.050139944726
 30
0.0
 40
5.0
 50
180.0
 51
231.3401917459116
  0
LINE
  5
36AC
  8
0
 10
1859.3572398706881
 20
1082.6470157072929
 30
0.0
 11
1851.2337646329161
 21
1089.1457958975111
 31
0.0
  0
LINE
  5
36AD
  8
0
 10
1884.8572398706881
 20
1082.6470157072929
 30
0.0
 11
1884.8572398706881
 21
1048.6470157072929
 31
0.0
  0
LINE
  5
36AE
  8
0
 10
1849.3572398706881
 20
1128.1470157072929
 30
0.0
 11
1833.3572398706881
 21
1128.1470157072929
 31
0.0
  0
ARC
  5
36B6
  8
0
 10
1998.157239870689
 20
1084.6470157072929
 30
0.0
 40
14.0
 50
0.0
 51
90.0
  0
ARC
  5
36B7
  8
0
 10
1910.557239870689
 20
1084.6470157072929
 30
0.0
 40
14.0
 50
90.000000000000057
 51
180.0
  0
ARC
  5
36BB
  8
0
 10
1980.940883342709
 20
1005.647015707292
 30
0.0
 40
11.0
 50
269.99999999999949
 51
314.9985621055676
  0
ARC
  5
36BC
  8
0
 10
1927.7735963986679
 20
1005.647015707293
 30
0.0
 40
11.0
 50
225.00143789443501
 51
269.99999999999949
  0
ARC
  5
36BE
  8
0
 10
1907.5572398706879
 20
1025.8623575616859
 30
0.0
 40
11.0
 50
180.0
 51
225.0014378944349
  0
ARC
  5
36BF
  8
0
 10
2001.157239870689
 20
1025.8623575616871
 30
0.0
 40
11.0
 50
314.99856210556783
 51
0.0
  0
ARC
  5
36C0
  8
0
 10
2001.157239870701
 20
628.3369361628063
 30
0.0
 40
11.0
 50
314.99856210556788
 51
0.0
  0
ARC
  5
36C1
  8
0
 10
1980.940883342721
 20
608.12159430841155
 30
0.0
 40
11.0
 50
269.99999999999949
 51
314.99856210556811
  0
ARC
  5
36C2
  8
0
 10
1927.7735963986811
 20
608.12159430841211
 30
0.0
 40
11.0
 50
225.00143789443501
 51
269.99999999999949
  0
ARC
  5
36C3
  8
0
 10
1907.5572398707
 20
628.33693616280652
 30
0.0
 40
11.0
 50
180.0
 51
225.00143789443541
  0
ARC
  5
36C4
  8
0
 10
1998.1572398707001
 20
687.12159430841211
 30
0.0
 40
14.0
 50
0.0
 51
90.0
  0
ARC
  5
36C5
  8
0
 10
1910.5572398707
 20
687.12159430841211
 30
0.0
 40
14.0
 50
90.0
 51
180.0
  0
ARC
  5
36C6
  8
0
 10
1234.0194387734171
 20
687.12159430841211
 30
0.0
 40
14.0
 50
0.0
 51
90.0
  0
ARC
  5
36C7
  8
0
 10
1146.4194387734169
 20
687.12159430841211
 30
0.0
 40
14.0
 50
90.0
 51
180.0
  0
ARC
  5
36C8
  8
0
 10
1237.0194387734171
 20
628.3369361628063
 30
0.0
 40
11.0
 50
314.99856210556788
 51
0.0
  0
ARC
  5
36C9
  8
0
 10
1216.803082245438
 20
608.12159430841155
 30
0.0
 40
11.0
 50
269.99999999999949
 51
314.99856210556811
  0
ARC
  5
36CA
  8
0
 10
1163.6357953013969
 20
608.12159430841211
 30
0.0
 40
11.0
 50
225.00143789443501
 51
269.99999999999949
  0
ARC
  5
36CB
  8
0
 10
1143.4194387734169
 20
628.33693616280607
 30
0.0
 40
11.0
 50
180.0
 51
225.0014378944349
  0
ARC
  5
36CC
  8
0
 10
1237.019438773405
 20
1025.8623575616871
 30
0.0
 40
11.0
 50
314.99856210556788
 51
0.0
  0
ARC
  5
36CD
  8
0
 10
1216.8030822454259
 20
1005.647015707292
 30
0.0
 40
11.0
 50
269.99999999999949
 51
314.99856210556811
  0
ARC
  5
36CE
  8
0
 10
1163.6357953013851
 20
1005.647015707293
 30
0.0
 40
11.0
 50
225.00143789443501
 51
269.99999999999937
  0
ARC
  5
36CF
  8
0
 10
1143.4194387734051
 20
1025.8623575616871
 30
0.0
 40
11.0
 50
180.0
 51
225.0014378944324
  0
ARC
  5
36D0
  8
0
 10
1234.019438773405
 20
1084.6470157072929
 30
0.0
 40
14.0
 50
0.0
 51
90.0
  0
ARC
  5
36D1
  8
0
 10
1146.4194387734051
 20
1084.6470157072929
 30
0.0
 40
14.0
 50
90.0
 51
180.0
  0
ARC
  5
36D2
  8
0
 10
537.24567063946961
 20
1084.6470157072929
 30
0.0
 40
14.0
 50
0.0
 51
90.0
  0
ARC
  5
36D3
  8
0
 10
449.64567063946919
 20
1084.6470157072929
 30
0.0
 40
14.0
 50
90.000000000000057
 51
180.0
  0
ARC
  5
36D4
  8
0
 10
540.24567063946972
 20
1025.8623575616871
 30
0.0
 40
11.0
 50
314.99856210556788
 51
0.0
  0
ARC
  5
36D5
  8
0
 10
520.02931411148984
 20
1005.647015707292
 30
0.0
 40
11.0
 50
269.99999999999949
 51
314.99856210556788
  0
ARC
  5
36D6
  8
0
 10
466.8620271674493
 20
1005.647015707293
 30
0.0
 40
11.0
 50
225.00143789443501
 51
269.99999999999949
  0
ARC
  5
36D7
  8
0
 10
446.64567063946919
 20
1025.8623575616871
 30
0.0
 40
11.0
 50
180.0
 51
225.0014378944324
  0
ARC
  5
36D8
  8
0
 10
540.24567063948143
 20
628.27431371087516
 30
0.0
 40
11.0
 50
314.99856210556788
 51
0.0
  0
ARC
  5
36D9
  8
0
 10
520.02931411150155
 20
608.05897185648064
 30
0.0
 40
11.0
 50
269.99999999999949
 51
314.998562105568
  0
ARC
  5
36DA
  8
0
 10
466.86202716746118
 20
608.05897185648109
 30
0.0
 40
11.0
 50
225.00143789443501
 51
269.99999999999949
  0
ARC
  5
36DB
  8
0
 10
446.64567063948112
 20
628.27431371087505
 30
0.0
 40
11.0
 50
180.0
 51
225.0014378944349
  0
ARC
  5
36DC
  8
0
 10
537.24567063948143
 20
687.05897185648109
 30
0.0
 40
14.0
 50
0.0
 51
90.0
  0
ARC
  5
36DD
  8
0
 10
449.64567063948112
 20
687.05897185648109
 30
0.0
 40
14.0
 50
90.000000000000028
 51
180.0
  0
TEXT
  5
38DA
  8
0
 10
1157.1844202780369
 20
524.2875784709521
 30
0.0
 40
20.0
  1
3/4
 41
0.8
 72
     4
 11
1178.8987059923229
 21
532.85900704238065
 31
0.0
  0
TEXT
  5
38DB
  8
0
 10
459.20630407584491
 20
527.39397448926763
 30
0.0
 40
20.0
  1
1/2
 41
0.8
 72
     4
 11
479.01582788536871
 21
535.96540306069619
 31
0.0
  0
TEXT
  5
38DC
  8
0
 10
1937.672565065222
 20
517.35959800672663
 30
0.0
 40
20.0
  1
1
 41
0.8
 72
     4
 11
1939.5773269699839
 21
527.35959800672663
 31
0.0
  0
VIEWPORT
  5
41
 67
     1
  8
0
 10
117.358407079646
 20
73.5
 30
0.0
 40
234.716814159292
 41
147.0
 68
     1
 69
     1
1001
ACAD
1000
MVIEW
1002
{
1070
    16
1010
0.0
1020
0.0
1030
0.0
1010
0.0
1020
0.0
1030
1.0
1040
0.0
1040
147.0
1040
117.358407079646
1040
73.5
1040
50.0
1040
0.0
1040
0.0
1070
     0
1070
   100
1070
     1
1070
     1
1070
     0
1070
     0
1070
     0
1070
     0
1040
0.0
1040
0.0
1040
0.0
1040
1.0
1040
1.0
1040
0.0
1040
0.0
1070
     0
1002
{
1002
}
1002
}
  0
ENDSEC
  0
EOF
