  0
SECTION
  2
HEADER
  9
$ACADVER
  1
AC1012
  9
$DWGCODEPAGE
  3
dos932
  9
$INSBASE
 10
0.0
 20
0.0
 30
0.0
  9
$EXTMIN
 10
26.97802854862311
 20
10.48491295138956
 30
-0.0015258207003583
  9
$EXTMAX
 10
613.5271009103478
 20
423.0020333780466
 30
0.0000000349246037
  9
$LIMMIN
 10
0.0
 20
0.0
  9
$LIMMAX
 10
630.0
 20
445.5
  9
$ORTHOMODE
 70
     1
  9
$REGENMODE
 70
     1
  9
$FILLMODE
 70
     1
  9
$QTEXTMODE
 70
     0
  9
$MIRRTEXT
 70
     1
  9
$DRAGMODE
 70
     2
  9
$LTSCALE
 40
6.0
  9
$OSMODE
 70
   163
  9
$ATTMODE
 70
     1
  9
$TEXTSIZE
 40
6.0
  9
$TRACEWID
 40
0.05
  9
$TEXTSTYLE
  7
STANDARD
  9
$CLAYER
  8
0
  9
$CELTYPE
  6
BYLAYER
  9
$CECOLOR
 62
   256
  9
$CELTSCALE
 40
1.0
  9
$DELOBJ
 70
     1
  9
$DISPSILH
 70
     0
  9
$DIMSCALE
 40
1.5
  9
$DIMASZ
 40
2.799999999999999
  9
$DIMEXO
 40
1.0
  9
$DIMDLI
 40
5.0
  9
$DIMRND
 40
0.1
  9
$DIMDLE
 40
0.0
  9
$DIMEXE
 40
1.0
  9
$DIMTP
 40
0.0
  9
$DIMTM
 40
0.0
  9
$DIMTXT
 40
2.5
  9
$DIMCEN
 40
0.0
  9
$DIMTSZ
 40
0.0
  9
$DIMTOL
 70
     0
  9
$DIMLIM
 70
     0
  9
$DIMTIH
 70
     0
  9
$DIMTOH
 70
     0
  9
$DIMSE1
 70
     0
  9
$DIMSE2
 70
     0
  9
$DIMTAD
 70
     3
  9
$DIMZIN
 70
     8
  9
$DIMBLK
  1

  9
$DIMASO
 70
     1
  9
$DIMSHO
 70
     1
  9
$DIMPOST
  1
 
  9
$DIMAPOST
  1

  9
$DIMALT
 70
     0
  9
$DIMALTD
 70
     2
  9
$DIMALTF
 40
1.0
  9
$DIMLFAC
 40
1.0
  9
$DIMTOFL
 70
     1
  9
$DIMTVP
 40
0.0
  9
$DIMTIX
 70
     0
  9
$DIMSOXD
 70
     0
  9
$DIMSAH
 70
     1
  9
$DIMBLK1
  1
OPEN
  9
$DIMBLK2
  1
OPEN
  9
$DIMSTYLE
  2
DIM1
  9
$DIMCLRD
 70
     2
  9
$DIMCLRE
 70
     2
  9
$DIMCLRT
 70
     2
  9
$DIMTFAC
 40
0.7
  9
$DIMGAP
 40
0.85
  9
$DIMJUST
 70
     0
  9
$DIMSD1
 70
     0
  9
$DIMSD2
 70
     0
  9
$DIMTOLJ
 70
     1
  9
$DIMTZIN
 70
     8
  9
$DIMALTZ
 70
     8
  9
$DIMALTTZ
 70
     8
  9
$DIMFIT
 70
     0
  9
$DIMUPT
 70
     0
  9
$DIMUNIT
 70
     2
  9
$DIMDEC
 70
     2
  9
$DIMTDEC
 70
     3
  9
$DIMALTU
 70
     2
  9
$DIMALTTD
 70
     3
  9
$DIMTXSTY
  7
DIM
  9
$DIMAUNIT
 70
     0
  9
$LUNITS
 70
     2
  9
$LUPREC
 70
     4
  9
$SKETCHINC
 40
0.1
  9
$FILLETRAD
 40
1.0
  9
$AUNITS
 70
     0
  9
$AUPREC
 70
     0
  9
$MENU
  1
C:\ACADR13\WIN\SUPPORT\ACAD.mnc
  9
$ELEVATION
 40
0.0
  9
$PELEVATION
 40
0.0
  9
$THICKNESS
 40
0.0
  9
$LIMCHECK
 70
     0
  9
$BLIPMODE
 70
     0
  9
$CHAMFERA
 40
3.0
  9
$CHAMFERB
 40
3.0
  9
$CHAMFERC
 40
0.0
  9
$CHAMFERD
 40
0.0
  9
$SKPOLY
 70
     0
  9
$TDCREATE
 40
2451649.470714513
  9
$TDUPDATE
 40
2452695.657626771
  9
$TDINDWG
 40
0.1939294676
  9
$TDUSRTIMER
 40
0.1939294676
  9
$USRTIMER
 70
     1
  9
$ANGBASE
 50
0.0
  9
$ANGDIR
 70
     0
  9
$PDMODE
 70
     0
  9
$PDSIZE
 40
0.0
  9
$PLINEWID
 40
0.0
  9
$COORDS
 70
     2
  9
$SPLFRAME
 70
     0
  9
$SPLINETYPE
 70
     6
  9
$SPLINESEGS
 70
     8
  9
$ATTDIA
 70
     0
  9
$ATTREQ
 70
     1
  9
$HANDLING
 70
 22529
  9
$HANDSEED
  5
6738
  9
$SURFTAB1
 70
     6
  9
$SURFTAB2
 70
     6
  9
$SURFTYPE
 70
     6
  9
$SURFU
 70
     6
  9
$SURFV
 70
     6
  9
$UCSNAME
  2

  9
$UCSORG
 10
0.0
 20
0.0
 30
0.0
  9
$UCSXDIR
 10
1.0
 20
0.0
 30
0.0
  9
$UCSYDIR
 10
0.0
 20
1.0
 30
0.0
  9
$PUCSNAME
  2

  9
$PUCSORG
 10
0.0
 20
0.0
 30
0.0
  9
$PUCSXDIR
 10
1.0
 20
0.0
 30
0.0
  9
$PUCSYDIR
 10
0.0
 20
1.0
 30
0.0
  9
$USERI1
 70
     0
  9
$USERI2
 70
     0
  9
$USERI3
 70
     0
  9
$USERI4
 70
     0
  9
$USERI5
 70
     0
  9
$USERR1
 40
0.0
  9
$USERR2
 40
0.0
  9
$USERR3
 40
0.0
  9
$USERR4
 40
0.0
  9
$USERR5
 40
0.0
  9
$WORLDVIEW
 70
     1
  9
$SHADEDGE
 70
     3
  9
$SHADEDIF
 70
    70
  9
$TILEMODE
 70
     1
  9
$MAXACTVP
 70
    16
  9
$PINSBASE
 10
0.0
 20
0.0
 30
0.0
  9
$PLIMCHECK
 70
     0
  9
$PEXTMIN
 10
1.000000000000000E+20
 20
1.000000000000000E+20
 30
1.000000000000000E+20
  9
$PEXTMAX
 10
-1.000000000000000E+20
 20
-1.000000000000000E+20
 30
-1.000000000000000E+20
  9
$PLIMMIN
 10
0.0
 20
0.0
  9
$PLIMMAX
 10
20.0
 20
147.0
  9
$UNITMODE
 70
     0
  9
$VISRETAIN
 70
     0
  9
$PLINEGEN
 70
     0
  9
$PSLTSCALE
 70
     1
  9
$TREEDEPTH
 70
  3020
  9
$PICKSTYLE
 70
     1
  9
$CMLSTYLE
  2
STANDARD
  9
$CMLJUST
 70
     0
  9
$CMLSCALE
 40
1.0
  9
$SAVEIMAGES
 70
     1
  0
ENDSEC
  0
SECTION
  2
CLASSES
  0
CLASS
  1
LWPOLYLINE
  2
AcDbPolyline
  3
AutoCAD 2000
 90
    32768
280
     0
281
     1
  0
CLASS
  1
HATCH
  2
AcDbHatch
  3
AutoCAD 2000
 90
    32768
280
     0
281
     1
  0
CLASS
  1
ACDBDICTIONARYWDFLT
  2
AcDbDictionaryWithDefault
  3
AutoCAD 2000
 90
    32768
280
     0
281
     0
  0
CLASS
  1
ACDBPLACEHOLDER
  2
AcDbPlaceHolder
  3
AutoCAD 2000
 90
    32768
280
     0
281
     0
  0
CLASS
  1
LAYOUT
  2
AcDbLayout
  3
AutoCAD 2000
 90
    32768
280
     0
281
     0
  0
CLASS
  1
LONG_TRANSACTION
  2
AcDbLongTransaction
  3
AutoCAD 2000
 90
    32768
280
     0
281
     0
  0
CLASS
  1
LWPOLYLINE
  2
AcDbPolyline
  3
AutoCAD 2000
 90
    32768
280
     0
281
     1
  0
CLASS
  1
HATCH
  2
AcDbHatch
  3
AutoCAD 2000
 90
    32768
280
     0
281
     1
  0
CLASS
  1
XRECORD
  2
AcDbXrecord
  3
AutoCAD 2000
 90
    32768
280
     0
281
     0
  0
CLASS
  1
DICTIONARYVAR
  2
AcDbDictionaryVar
  3
AutoCAD 2000
 90
    32768
280
     0
281
     0
  0
CLASS
  1
LONG_TRANSACTION
  2
AcDbLongTransaction
  3
AutoCAD 2000
 90
    32768
280
     0
281
     0
  0
CLASS
  1
LWPOLYLINE
  2
AcDbPolyline
  3
AutoCAD 2000
 90
    32768
280
     0
281
     1
  0
CLASS
  1
HATCH
  2
AcDbHatch
  3
AutoCAD 2000
 90
    32768
280
     0
281
     1
  0
CLASS
  1
XRECORD
  2
AcDbXrecord
  3
AutoCAD 2000
 90
    32768
280
     0
281
     0
  0
CLASS
  1
LONG_TRANSACTION
  2
AcDbLongTransaction
  3
AutoCAD 2000
 90
    32768
280
     0
281
     0
  0
CLASS
  1
LWPOLYLINE
  2
AcDbPolyline
  3
AutoCAD 2000
 90
    32768
280
     0
281
     1
  0
CLASS
  1
HATCH
  2
AcDbHatch
  3
AutoCAD 2000
 90
    32768
280
     0
281
     1
  0
CLASS
  1
XRECORD
  2
AcDbXrecord
  3
AutoCAD 2000
 90
    32768
280
     0
281
     0
  0
CLASS
  1
LONG_TRANSACTION
  2
AcDbLongTransaction
  3
AutoCAD 2000
 90
    32768
280
     0
281
     0
  0
CLASS
  1
LWPOLYLINE
  2
AcDbPolyline
  3
AutoCAD 2000
 90
    32768
280
     0
281
     1
  0
CLASS
  1
HATCH
  2
AcDbHatch
  3
AutoCAD 2000
 90
    32768
280
     0
281
     1
  0
CLASS
  1
XRECORD
  2
AcDbXrecord
  3
AutoCAD 2000
 90
    32768
280
     0
281
     0
  0
ENDSEC
  0
SECTION
  2
TABLES
  0
TABLE
  2
VPORT
  5
8
330
0
100
AcDbSymbolTable
 70
     7
  0
VPORT
  5
6730
330
8
100
AcDbSymbolTableRecord
100
AcDbViewportTableRecord
  2
*ACTIVE
 70
     0
 10
0.0
 20
0.0
 11
1.0
 21
1.0
 12
315.0
 22
222.75
 13
0.0
 23
0.0
 14
1.0
 24
1.0
 15
0.0
 25
0.0
 16
0.0
 26
0.0
 36
1.0
 17
0.0
 27
0.0
 37
0.0
 40
511.7189368646927
 41
1.239189189189189
 42
50.0
 43
0.0
 44
0.0
 50
0.0
 51
0.0
 71
     0
 72
   100
 73
     1
 74
     1
 75
     1
 76
     0
 77
     0
 78
     0
  0
ENDTAB
  0
TABLE
  2
LTYPE
  5
5
330
0
100
AcDbSymbolTable
 70
     5
  0
LTYPE
  5
12
330
5
100
AcDbSymbolTableRecord
100
AcDbLinetypeTableRecord
  2
BYBLOCK
 70
     0
  3

 72
    65
 73
     0
 40
0.0
  0
LTYPE
  5
13
330
5
100
AcDbSymbolTableRecord
100
AcDbLinetypeTableRecord
  2
BYLAYER
 70
     0
  3

 72
    65
 73
     0
 40
0.0
  0
LTYPE
  5
14
330
5
100
AcDbSymbolTableRecord
100
AcDbLinetypeTableRecord
  2
CONTINUOUS
 70
     0
  3
Solid line
 72
    65
 73
     0
 40
0.0
  0
ENDTAB
  0
TABLE
  2
LAYER
  5
2
330
0
100
AcDbSymbolTable
 70
    15
  0
LAYER
  5
F
330
2
100
AcDbSymbolTableRecord
100
AcDbLayerTableRecord
  2
0
 70
     0
 62
     7
  6
CONTINUOUS
  0
ENDTAB
  0
TABLE
  2
STYLE
  5
3
330
0
100
AcDbSymbolTable
 70
     4
  0
STYLE
  5
10
330
3
100
AcDbSymbolTableRecord
100
AcDbTextStyleTableRecord
  2
STANDARD
 70
     0
 40
0.0
 41
0.8
 50
0.0
 71
     0
 42
6.0
  3
simplex
  4
extfont
  0
STYLE
  5
237C
330
3
100
AcDbSymbolTableRecord
100
AcDbTextStyleTableRecord
  2
PTSH
 70
     0
 40
0.0
 41
0.9
 50
0.0
 71
     0
 42
4.0
  3
SIMPLEX
  4
EXTFONT
  0
STYLE
  5
2592
330
3
100
AcDbSymbolTableRecord
100
AcDbTextStyleTableRecord
  2
DIM
 70
     0
 40
0.0
 41
0.8
 50
0.0
 71
     0
 42
4.0
  3
simplex
  4
extfont
  0
ENDTAB
  0
TABLE
  2
VIEW
  5
6
330
0
100
AcDbSymbolTable
 70
     0
  0
ENDTAB
  0
TABLE
  2
UCS
  5
7
330
0
100
AcDbSymbolTable
 70
     0
  0
ENDTAB
  0
TABLE
  2
APPID
  5
9
330
0
100
AcDbSymbolTable
 70
     1
  0
APPID
  5
11
330
9
100
AcDbSymbolTableRecord
100
AcDbRegAppTableRecord
  2
ACAD
 70
     0
  0
ENDTAB
  0
TABLE
  2
DIMSTYLE
  5
A
330
0
100
AcDbSymbolTable
 70
     3
  0
DIMSTYLE
105
2237
330
A
100
AcDbSymbolTableRecord
100
AcDbDimStyleTableRecord
  2
DIM1
 70
     0
  3
 
  4

  5

  6
OPEN
  7
OPEN
 40
1.5
 41
2.799999999999999
 42
1.0
 43
5.0
 44
1.0
 45
0.1
 46
0.0
 47
0.0
 48
0.0
140
2.5
141
0.0
142
0.0
143
1.0
144
1.0
145
0.0
146
0.7
147
0.85
 71
     0
 72
     0
 73
     0
 74
     0
 75
     0
 76
     0
 77
     3
 78
     8
170
     0
171
     2
172
     1
173
     1
174
     0
175
     0
176
     2
177
     2
178
     2
270
     2
271
     2
272
     3
273
     2
274
     3
340
2592
275
     0
280
     0
281
     0
282
     0
283
     1
284
     8
285
     8
286
     8
287
     0
288
     0
  0
ENDTAB
  0
TABLE
  2
BLOCK_RECORD
  5
1
330
0
100
AcDbSymbolTable
 70
     9
  0
BLOCK_RECORD
  5
18
102
{ACAD_XDICTIONARY
360
5272
102
}
330
1
100
AcDbSymbolTableRecord
100
AcDbBlockTableRecord
  2
*MODEL_SPACE
  0
BLOCK_RECORD
  5
15
102
{ACAD_XDICTIONARY
360
5270
102
}
330
1
100
AcDbSymbolTableRecord
100
AcDbBlockTableRecord
  2
*PAPER_SPACE
  0
BLOCK_RECORD
  5
2448
330
1
100
AcDbSymbolTableRecord
100
AcDbBlockTableRecord
  2
_OPEN
  0
BLOCK_RECORD
  5
6486
330
1
100
AcDbSymbolTableRecord
100
AcDbBlockTableRecord
  2
DT-U
  0
BLOCK_RECORD
  5
6492
330
1
100
AcDbSymbolTableRecord
100
AcDbBlockTableRecord
  2
DT-P
  0
ENDTAB
  0
ENDSEC
  0
SECTION
  2
BLOCKS
  0
BLOCK
  5
3C
330
18
100
AcDbEntity
  8
0
100
AcDbBlockBegin
  2
*MODEL_SPACE
 70
     0
 10
0.0
 20
0.0
 30
0.0
  3
*MODEL_SPACE
  1

  0
ENDBLK
  5
3D
330
18
100
AcDbEntity
  8
0
100
AcDbBlockEnd
  0
BLOCK
  5
3A
330
15
100
AcDbEntity
 67
     1
  8
0
100
AcDbBlockBegin
  2
*PAPER_SPACE
 70
     0
 10
0.0
 20
0.0
 30
0.0
  3
*PAPER_SPACE
  1

  0
ENDBLK
  5
3B
330
15
100
AcDbEntity
 67
     1
  8
0
100
AcDbBlockEnd
  0
BLOCK
  5
2449
330
2448
100
AcDbEntity
  8
0
 48
4.0
100
AcDbBlockBegin
  2
_OPEN
 70
     0
 10
0.0
 20
0.0
 30
0.0
  3
_OPEN
  1
H1111.DWG
  0
LINE
  5
244A
330
2448
100
AcDbEntity
  8
0
  6
BYBLOCK
 62
     0
 48
4.0
100
AcDbLine
 10
-1.0
 20
0.1666666666666666
 30
0.0
 11
0.0
 21
0.0
 31
0.0
  0
LINE
  5
244B
330
2448
100
AcDbEntity
  8
0
  6
BYBLOCK
 62
     0
 48
4.0
100
AcDbLine
 10
0.0
 20
0.0
 30
0.0
 11
-1.0
 21
-0.1666666666666666
 31
0.0
  0
LINE
  5
244C
330
2448
100
AcDbEntity
  8
0
  6
BYBLOCK
 62
     0
 48
4.0
100
AcDbLine
 10
0.0
 20
0.0
 30
0.0
 11
-1.0
 21
0.0
 31
0.0
  0
ENDBLK
  5
244D
330
2448
100
AcDbEntity
  8
0
 48
4.0
100
AcDbBlockEnd
  0
BLOCK
  5
6490
330
6486
100
AcDbEntity
  8
0
100
AcDbBlockBegin
  2
DT-U
 70
     0
 10
0.0
 20
0.0
 30
0.0
  3
DT-U
  1

  0
ARC
  5
6487
330
6486
100
AcDbEntity
  8
0
100
AcDbCircle
 10
0.0000073073373414
 20
-3.582961928944712
 30
0.0
 40
8.80000730741961
100
AcDbArc
 50
180.0002478760202
 51
359.8955780081086
  0
ARC
  5
6488
330
6486
100
AcDbEntity
  8
0
100
AcDbCircle
 10
6.900320578826267
 20
10.71730655467757
 30
0.0
 40
1.899693472371748
100
AcDbArc
 50
359.7796298276273
 51
90.009668830315
  0
LINE
  5
6489
330
6486
100
AcDbEntity
  8
0
100
AcDbLine
 10
-8.799999999999954
 20
-3.582999999999998
 30
0.0
 11
-8.799999999999954
 21
10.71700000000001
 31
0.0
  0
LINE
  5
648A
330
6486
100
AcDbEntity
  8
0
100
AcDbLine
 10
5.0
 20
-3.582999999999998
 30
0.0
 11
5.0
 21
10.71700000000001
 31
0.0
  0
LINE
  5
648B
330
6486
100
AcDbEntity
  8
0
100
AcDbLine
 10
-5.0
 20
10.71700000000001
 30
0.0
 11
-5.0
 21
-3.582999999999998
 31
0.0
  0
ARC
  5
648C
330
6486
100
AcDbEntity
  8
0
100
AcDbCircle
 10
0.0
 20
-3.582999999999998
 30
0.0
 40
5.0
100
AcDbArc
 50
180.0
 51
0.0
  0
ARC
  5
648D
330
6486
100
AcDbEntity
  8
0
100
AcDbCircle
 10
-6.899999999999977
 20
10.71700000000001
 30
0.0
 40
1.899999999999977
100
AcDbArc
 50
0.0
 51
180.0
  0
ARC
  5
648E
330
6486
100
AcDbEntity
  8
0
100
AcDbCircle
 10
6.899998580557166
 20
10.71700141944287
 30
0.0
 40
1.899998580557697
100
AcDbArc
 50
89.99995719571417
 51
180.0000428042875
  0
LINE
  5
648F
330
6486
100
AcDbEntity
  8
0
100
AcDbLine
 10
8.799999999999954
 20
10.71
 30
0.0
 11
8.799999999999954
 21
-3.598999999999989
 31
0.0
  0
ENDBLK
  5
6491
330
6486
100
AcDbEntity
  8
0
100
AcDbBlockEnd
  0
BLOCK
  5
64A9
330
6492
100
AcDbEntity
  8
0
100
AcDbBlockBegin
  2
DT-P
 70
     0
 10
0.0
 20
0.0
 30
0.0
  3
DT-P
  1

  0
ARC
  5
6493
330
6492
100
AcDbEntity
  8
0
100
AcDbCircle
 10
-0.0333057970603932
 20
4.166684418414007
 30
0.0
 40
8.333323786862374
100
AcDbArc
 50
0.1190533914176604
 51
90.08040353528253
  0
LINE
  5
6494
330
6492
100
AcDbEntity
  8
0
100
AcDbLine
 10
-9.299999999999954
 20
-10.59999999999999
 30
0.0
 11
-9.299999999999954
 21
10.59999999999999
 31
0.0
  0
LINE
  5
6495
330
6492
100
AcDbEntity
  8
0
100
AcDbLine
 10
-0.0330000000000155
 20
-4.167000000000001
 30
0.0
 11
-5.5
 21
-4.167000000000001
 31
0.0
  0
LINE
  5
6496
330
6492
100
AcDbEntity
  8
0
100
AcDbLine
 10
0.0
 20
-0.3629999999999995
 30
0.0
 11
-5.5
 21
-0.3629999999999995
 31
0.0
  0
LINE
  5
6497
330
6492
100
AcDbEntity
  8
0
100
AcDbLine
 10
-5.5
 20
8.699999999999988
 30
0.0
 11
-0.0330000000000155
 21
8.697000000000002
 31
0.0
  0
ARC
  5
6498
330
6492
100
AcDbEntity
  8
0
100
AcDbCircle
 10
-7.399994967434622
 20
-10.59867525034339
 30
0.0
 40
1.900005494396032
100
AcDbArc
 50
180.0399486057322
 51
359.809273114142
  0
LINE
  5
6499
330
6492
100
AcDbEntity
  8
0
100
AcDbLine
 10
-5.5
 20
-4.167000000000001
 30
0.0
 11
-5.5
 21
-10.605
 31
0.0
  0
LINE
  5
649A
330
6492
100
AcDbEntity
  8
0
100
AcDbLine
 10
-5.5
 20
-0.3629999999999995
 30
0.0
 11
-5.5
 21
8.699999999999988
 31
0.0
  0
ARC
  5
649B
330
6492
100
AcDbEntity
  8
0
100
AcDbCircle
 10
-0.0335218126759855
 20
4.166540086819338
 30
0.0
 40
8.333540103156279
100
AcDbArc
 50
270.0035876306682
 51
0.1200426295923052
  0
ARC
  5
649C
330
6492
100
AcDbEntity
  8
0
100
AcDbCircle
 10
0.0033220796765363
 20
4.166709701523302
 30
0.0
 40
4.529710919726274
100
AcDbArc
 50
269.9579794019732
 51
0.2187034785415967
  0
ARC
  5
649D
330
6492
100
AcDbEntity
  8
0
100
AcDbCircle
 10
0.0031241685029499
 20
4.167237193304799
 30
0.0
 40
4.529906846776126
100
AcDbArc
 50
0.2120220792371585
 51
90.4569154293325
  0
LINE
  5
649E
330
6492
100
AcDbEntity
  8
0
100
AcDbLine
 10
-7.399999999999977
 20
12.5
 30
0.0
 11
-0.0449999999999591
 21
12.5
 31
0.0
  0
LINE
  5
649F
330
6492
100
AcDbEntity
  8
0
100
AcDbLine
 10
-7.958000000000083
 20
12.41599999999999
 30
0.0
 11
-7.399999999999977
 21
12.5
 31
0.0
  0
LINE
  5
64A0
330
6492
100
AcDbEntity
  8
0
100
AcDbLine
 10
-8.238000000000056
 20
12.305
 30
0.0
 11
-7.958000000000083
 21
12.41599999999999
 31
0.0
  0
LINE
  5
64A1
330
6492
100
AcDbEntity
  8
0
100
AcDbLine
 10
-8.504000000000019
 20
12.14600000000001
 30
0.0
 11
-8.238000000000056
 21
12.305
 31
0.0
  0
LINE
  5
64A2
330
6492
100
AcDbEntity
  8
0
100
AcDbLine
 10
-8.743000000000051
 20
11.94299999999998
 30
0.0
 11
-8.504000000000019
 21
12.14600000000001
 31
0.0
  0
LINE
  5
64A3
330
6492
100
AcDbEntity
  8
0
100
AcDbLine
 10
-8.946000000000026
 20
11.704
 30
0.0
 11
-8.743000000000051
 21
11.94299999999998
 31
0.0
  0
LINE
  5
64A4
330
6492
100
AcDbEntity
  8
0
100
AcDbLine
 10
-9.105000000000018
 20
11.43799999999998
 30
0.0
 11
-8.946000000000026
 21
11.704
 31
0.0
  0
LINE
  5
64A5
330
6492
100
AcDbEntity
  8
0
100
AcDbLine
 10
-9.216000000000008
 20
11.15799999999998
 30
0.0
 11
-9.105000000000018
 21
11.43799999999998
 31
0.0
  0
LINE
  5
64A6
330
6492
100
AcDbEntity
  8
0
100
AcDbLine
 10
-9.279999999999972
 20
10.875
 30
0.0
 11
-9.216000000000008
 21
11.15799999999998
 31
0.0
  0
LINE
  5
64A7
330
6492
100
AcDbEntity
  8
0
100
AcDbLine
 10
-9.299999999999954
 20
10.59999999999999
 30
0.0
 11
-9.279999999999972
 21
10.875
 31
0.0
  0
LINE
  5
64A8
330
6492
100
AcDbEntity
  8
0
100
AcDbLine
 10
-9.299999999999954
 20
10.59999999999999
 30
0.0
 11
-9.299999999999954
 21
10.59999999999999
 31
0.0
  0
ENDBLK
  5
64AA
330
6492
100
AcDbEntity
  8
0
100
AcDbBlockEnd
  0
ENDSEC
  0
SECTION
  2
ENTITIES
  0
MTEXT
  5
ADA
330
18
100
AcDbEntity
  8
0
100
AcDbMText
 10
570.2089196575617
 20
74.76946670433415
 30
0.0
 40
0.3
 41
70.83969727311933
 71
     1
 72
     1
  1

1001
ACAD
1000
MTEXTBEGIN
1070
    73
1070
     1
1070
    44
1040
1.0
1070
    74
1070
     0
1000
MTEXTEND
  0
MTEXT
  5
ADB
330
18
100
AcDbEntity
  8
0
100
AcDbMText
 10
583.5748997503718
 20
86.77619059934864
 30
0.0
 40
0.3
 41
68.16650125455703
 71
     1
 72
     1
  1

1001
ACAD
1000
MTEXTBEGIN
1070
    73
1070
     1
1070
    44
1040
1.0
1070
    74
1070
     0
1000
MTEXTEND
  0
MTEXT
  5
ADC
330
18
100
AcDbEntity
  8
0
100
AcDbMText
 10
575.5553116946856
 20
-71.97936960823904
 30
0.0
 40
0.3
 41
77.52268731952472
 71
     1
 72
     1
  1

1001
ACAD
1000
MTEXTBEGIN
1070
    73
1070
     1
1070
    44
1040
1.0
1070
    74
1070
     0
1000
MTEXTEND
  0
TEXT
  5
2529
330
18
100
AcDbEntity
  8
0
  6
CONTINUOUS
100
AcDbText
 10
550.4451154687095
 20
22.875
 30
0.0
 40
5.25
  1
SS5P
 41
0.9
  7
PTSH
 72
     1
 11
558.7701154687096
 21
25.5
 31
0.0
100
AcDbText
 73
     2
  0
POLYLINE
  5
2563
330
18
100
AcDbEntity
  8
0
100
AcDb2dPolyline
 66
     1
 10
0.0
 20
0.0
 30
0.0
 70
     1
  0
VERTEX
  5
6733
330
2563
100
AcDbEntity
  8
0
100
AcDbVertex
100
AcDb2dVertex
 10
26.99999999999999
 20
10.5
 30
0.0
  0
VERTEX
  5
6734
330
2563
100
AcDbEntity
  8
0
100
AcDbVertex
100
AcDb2dVertex
 10
613.4999999999999
 20
10.5
 30
0.0
  0
VERTEX
  5
6735
330
2563
100
AcDbEntity
  8
0
100
AcDbVertex
100
AcDb2dVertex
 10
613.4999999999999
 20
423.0
 30
0.0
  0
VERTEX
  5
6736
330
2563
100
AcDbEntity
  8
0
100
AcDbVertex
100
AcDb2dVertex
 10
26.99999999999999
 20
423.0
 30
0.0
  0
SEQEND
  5
6737
330
2563
100
AcDbEntity
  8
0
  0
LINE
  5
6597
330
18
100
AcDbEntity
  8
0
100
AcDbLine
 10
287.3302042682706
 20
213.1332870017225
 30
0.0
 11
287.3302042682706
 21
208.2424780720024
 31
0.0
  0
LINE
  5
6598
330
18
100
AcDbEntity
  8
0
100
AcDbLine
 10
315.7302042682706
 20
213.1332870017225
 30
0.0
 11
315.7302042682705
 21
208.2424780720024
 31
0.0
  0
LINE
  5
6599
330
18
100
AcDbEntity
  8
0
100
AcDbLine
 10
266.6243156850007
 20
110.1680431522447
 30
0.0
 11
251.2520296752185
 21
125.5403291620268
 31
0.0
  0
LINE
  5
659A
330
18
100
AcDbEntity
  8
0
100
AcDbLine
 10
248.0302042682706
 20
161.8386166616915
 30
0.0
 11
327.0302042682707
 21
161.8386166616917
 31
0.0
  0
LINE
  5
659B
330
18
100
AcDbEntity
  8
0
100
AcDbLine
 10
248.3302042682706
 20
161.5386166616915
 30
0.0
 11
326.7302042682705
 21
161.5386166616915
 31
0.0
  0
LINE
  5
659C
330
18
100
AcDbEntity
  8
0
100
AcDbLine
 10
254.8929917571182
 20
141.3617827802171
 30
0.0
 11
326.7302042682705
 21
141.3617827802171
 31
0.0
  0
LINE
  5
659D
330
18
100
AcDbEntity
  8
0
100
AcDbLine
 10
254.8929917571182
 20
141.0617827802171
 30
0.0
 11
327.0302042682706
 21
141.061782780217
 31
0.0
  0
LINE
  5
659E
330
18
100
AcDbEntity
  8
0
100
AcDbLine
 10
244.7102395683687
 20
142.3377952560942
 30
0.0
 11
302.1242064297168
 21
142.3377952560942
 31
0.0
  0
LINE
  5
659F
330
18
100
AcDbEntity
  8
0
100
AcDbLine
 10
246.2102395683686
 20
159.1717952560942
 30
0.0
 11
302.1242064297169
 21
159.1717952560942
 31
0.0
  0
LINE
  5
65A0
330
18
100
AcDbEntity
  8
0
100
AcDbLine
 10
251.7089469658547
 20
133.3185037550788
 30
0.0
 11
280.8964214409968
 21
133.3185037550788
 31
0.0
  0
LINE
  5
65A1
330
18
100
AcDbEntity
  8
0
100
AcDbLine
 10
250.9591364564051
 20
177.5550477877882
 30
0.0
 11
265.0719745175114
 21
191.6678858488945
 31
0.0
  0
LINE
  5
65A2
330
18
100
AcDbEntity
  8
0
100
AcDbLine
 10
257.3338208187208
 20
153.2547952560942
 30
0.0
 11
257.3338208187207
 21
148.2547952560942
 31
0.0
  0
LINE
  5
65A3
330
18
100
AcDbEntity
  8
0
100
AcDbLine
 10
233.5440480696222
 20
158.1717952560942
 30
0.0
 11
233.5440480696222
 21
150.7547952560942
 31
0.0
  0
ARC
  5
65A4
330
18
100
AcDbEntity
  8
0
100
AcDbCircle
 10
254.8195457253874
 20
152.7547952560942
 30
0.0
 40
1.0
100
AcDbArc
 50
0.0
 51
90.0
  0
LINE
  5
65A5
330
18
100
AcDbEntity
  8
0
100
AcDbLine
 10
244.7102395683687
 20
142.3377952560942
 30
0.0
 11
234.5440480696221
 21
142.3377952560942
 31
0.0
  0
LINE
  5
65A6
330
18
100
AcDbEntity
  8
0
100
AcDbLine
 10
233.5440480696221
 20
143.3377952560942
 30
0.0
 11
233.5440480696222
 21
150.7547952560942
 31
0.0
  0
ARC
  5
65A7
330
18
100
AcDbEntity
  8
0
100
AcDbCircle
 10
234.5440480696221
 20
143.3377952560942
 30
0.0
 40
1.0
100
AcDbArc
 50
180.0
 51
270.0
  0
LINE
  5
65A8
330
18
100
AcDbEntity
  8
0
100
AcDbLine
 10
248.0302042682705
 20
140.7718222664113
 30
0.0
 11
248.0302042682705
 21
133.3185037550788
 31
0.0
  0
ARC
  5
65A9
330
18
100
AcDbEntity
  8
0
100
AcDbCircle
 10
259.0302042682705
 20
133.3185037550788
 30
0.0
 40
11.0
100
AcDbArc
 50
180.0
 51
225.0
  0
LINE
  5
65AA
330
18
100
AcDbEntity
  8
0
100
AcDbLine
 10
247.0929917571185
 20
147.2547952560942
 30
0.0
 11
256.3338208187207
 21
147.2547952560942
 31
0.0
  0
LINE
  5
65AB
330
18
100
AcDbEntity
  8
0
100
AcDbLine
 10
254.8195457253875
 20
147.7547952560941
 30
0.0
 11
246.7102395683686
 21
147.7547952560942
 31
0.0
  0
LINE
  5
65AC
330
18
100
AcDbEntity
  8
0
100
AcDbLine
 10
247.5929917571182
 20
140.7718222664113
 30
0.0
 11
250.9929917571182
 21
140.7718222664112
 31
0.0
  0
LINE
  5
65AD
330
18
100
AcDbEntity
  8
0
100
AcDbLine
 10
245.7102395683687
 20
143.3377952560942
 30
0.0
 11
245.7102395683687
 21
146.7547952560942
 31
0.0
  0
LINE
  5
65AE
330
18
100
AcDbEntity
  8
0
100
AcDbLine
 10
246.5929917571185
 20
146.7547952560942
 30
0.0
 11
246.5929917571185
 21
142.8377952560941
 31
0.0
  0
ARC
  5
65AF
330
18
100
AcDbEntity
  8
0
100
AcDbCircle
 10
244.7102395683687
 20
143.3377952560942
 30
0.0
 40
1.0
100
AcDbArc
 50
270.0
 51
0.0
  0
ARC
  5
65B0
330
18
100
AcDbEntity
  8
0
100
AcDbCircle
 10
247.0929917571185
 20
142.8377952560941
 30
0.0
 40
0.5
100
AcDbArc
 50
180.0
 51
270.0
  0
LINE
  5
65B1
330
18
100
AcDbEntity
  8
0
100
AcDbLine
 10
247.0929917571182
 20
142.3377952560944
 30
0.0
 11
247.0929917571182
 21
141.2718222664114
 31
0.0
  0
ARC
  5
65B2
330
18
100
AcDbEntity
  8
0
100
AcDbCircle
 10
247.5929917571182
 20
141.2718222664113
 30
0.0
 40
0.5
100
AcDbArc
 50
179.9999999999983
 51
269.9999999999967
  0
ARC
  5
65B3
330
18
100
AcDbEntity
  8
0
100
AcDbCircle
 10
246.7102395683686
 20
146.7547952560942
 30
0.0
 40
1.0
100
AcDbArc
 50
90.0
 51
180.0
  0
ARC
  5
65B4
330
18
100
AcDbEntity
  8
0
100
AcDbCircle
 10
247.0929917571185
 20
146.7547952560942
 30
0.0
 40
0.5
100
AcDbArc
 50
90.0
 51
180.0
  0
LINE
  5
65B5
330
18
100
AcDbEntity
  8
0
100
AcDbLine
 10
247.9929917571185
 20
147.7547952560942
 30
0.0
 11
247.9929917571185
 21
147.2547952560942
 31
0.0
  0
LINE
  5
65B6
330
18
100
AcDbEntity
  8
0
100
AcDbLine
 10
254.3929917571182
 20
140.7718222664111
 30
0.0
 11
250.9929917571181
 21
140.7718222664112
 31
0.0
  0
LINE
  5
65B7
330
18
100
AcDbEntity
  8
0
100
AcDbLine
 10
254.8929917571182
 20
142.3377952560942
 30
0.0
 11
254.8929917571182
 21
141.2718222664111
 31
0.0
  0
ARC
  5
65B8
330
18
100
AcDbEntity
  8
0
100
AcDbCircle
 10
254.3929917571182
 20
141.2718222664111
 30
0.0
 40
0.5
100
AcDbArc
 50
269.9999999999967
 51
359.9999999999983
  0
ARC
  5
65B9
330
18
100
AcDbEntity
  8
0
100
AcDbCircle
 10
254.8195457253875
 20
148.7547952560942
 30
0.0
 40
1.0
100
AcDbArc
 50
270.0
 51
0.0
  0
LINE
  5
65BA
330
18
100
AcDbEntity
  8
0
100
AcDbLine
 10
255.8195457253875
 20
152.7547952560942
 30
0.0
 11
255.8195457253875
 21
148.7547952560942
 31
0.0
  0
LINE
  5
65BB
330
18
100
AcDbEntity
  8
0
100
AcDbLine
 10
253.9929917571185
 20
147.7547952560941
 30
0.0
 11
253.9929917571185
 21
147.2547952560942
 31
0.0
  0
ARC
  5
65BC
330
18
100
AcDbEntity
  8
0
100
AcDbCircle
 10
256.3338208187207
 20
148.2547952560942
 30
0.0
 40
1.0
100
AcDbArc
 50
270.0
 51
0.0
  0
LINE
  5
65BD
330
18
100
AcDbEntity
  8
0
100
AcDbLine
 10
244.7102395683686
 20
159.1717952560942
 30
0.0
 11
234.5440480696222
 21
159.1717952560942
 31
0.0
  0
ARC
  5
65BE
330
18
100
AcDbEntity
  8
0
100
AcDbCircle
 10
234.5440480696222
 20
158.1717952560942
 30
0.0
 40
1.0
100
AcDbArc
 50
90.0
 51
180.0
  0
LINE
  5
65BF
330
18
100
AcDbEntity
  8
0
100
AcDbLine
 10
248.0302042682706
 20
161.8386166616915
 30
0.0
 11
248.0302042682706
 21
170.4839799759228
 31
0.0
  0
LINE
  5
65C0
330
18
100
AcDbEntity
  8
0
100
AcDbLine
 10
247.5929917571185
 20
160.7377682457773
 30
0.0
 11
250.9929917571186
 21
160.7377682457773
 31
0.0
  0
LINE
  5
65C1
330
18
100
AcDbEntity
  8
0
100
AcDbLine
 10
247.0929917571185
 20
154.2547952560942
 30
0.0
 11
256.3338208187208
 21
154.2547952560942
 31
0.0
  0
LINE
  5
65C2
330
18
100
AcDbEntity
  8
0
100
AcDbLine
 10
254.8195457253874
 20
153.7547952560942
 30
0.0
 11
246.7102395683686
 21
153.7547952560942
 31
0.0
  0
LINE
  5
65C3
330
18
100
AcDbEntity
  8
0
100
AcDbLine
 10
247.0929917571185
 20
159.1717952560942
 30
0.0
 11
247.0929917571186
 21
160.2377682457773
 31
0.0
  0
ARC
  5
65C4
330
18
100
AcDbEntity
  8
0
100
AcDbCircle
 10
246.7102395683686
 20
154.7547952560942
 30
0.0
 40
1.0
100
AcDbArc
 50
180.0
 51
270.0
  0
LINE
  5
65C5
330
18
100
AcDbEntity
  8
0
100
AcDbLine
 10
248.6242064297169
 20
159.1717952560942
 30
0.0
 11
244.3300064297169
 21
159.1717952560942
 31
0.0
  0
LINE
  5
65C6
330
18
100
AcDbEntity
  8
0
100
AcDbLine
 10
245.7102395683686
 20
158.1717952560942
 30
0.0
 11
245.7102395683686
 21
154.7547952560942
 31
0.0
  0
ARC
  5
65C7
330
18
100
AcDbEntity
  8
0
100
AcDbCircle
 10
244.7102395683686
 20
158.1717952560942
 30
0.0
 40
1.0
100
AcDbArc
 50
0.0
 51
90.0
  0
LINE
  5
65C8
330
18
100
AcDbEntity
  8
0
100
AcDbLine
 10
246.5929917571185
 20
154.7547952560942
 30
0.0
 11
246.5929917571185
 21
158.6717952560942
 31
0.0
  0
ARC
  5
65C9
330
18
100
AcDbEntity
  8
0
100
AcDbCircle
 10
247.0929917571185
 20
154.7547952560942
 30
0.0
 40
0.5
100
AcDbArc
 50
180.0
 51
270.0
  0
LINE
  5
65CA
330
18
100
AcDbEntity
  8
0
100
AcDbLine
 10
247.9929917571185
 20
154.2547952560942
 30
0.0
 11
247.9929917571185
 21
153.7547952560942
 31
0.0
  0
ARC
  5
65CB
330
18
100
AcDbEntity
  8
0
100
AcDbCircle
 10
247.0929917571185
 20
158.6717952560942
 30
0.0
 40
0.5
100
AcDbArc
 50
90.0
 51
180.0
  0
LINE
  5
65CC
330
18
100
AcDbEntity
  8
0
100
AcDbLine
 10
248.3302042682706
 20
160.7377682457773
 30
0.0
 11
248.3302042682706
 21
161.5386166616915
 31
0.0
  0
LINE
  5
65CD
330
18
100
AcDbEntity
  8
0
100
AcDbLine
 10
248.3302042682706
 20
161.5386166616915
 30
0.0
 11
248.0302042682706
 21
161.8386166616915
 31
0.0
  0
ARC
  5
65CE
330
18
100
AcDbEntity
  8
0
100
AcDbCircle
 10
247.5929917571185
 20
160.2377682457773
 30
0.0
 40
0.5
100
AcDbArc
 50
90.0
 51
180.0
  0
LINE
  5
65CF
330
18
100
AcDbEntity
  8
0
100
AcDbLine
 10
254.8929917571185
 20
159.1717952560942
 30
0.0
 11
254.8929917571185
 21
160.2377682457773
 31
0.0
  0
LINE
  5
65D0
330
18
100
AcDbEntity
  8
0
100
AcDbLine
 10
253.9929917571185
 20
154.2547952560942
 30
0.0
 11
253.9929917571185
 21
153.7547952560942
 31
0.0
  0
ARC
  5
65D1
330
18
100
AcDbEntity
  8
0
100
AcDbCircle
 10
256.3338208187208
 20
153.2547952560942
 30
0.0
 40
1.0
100
AcDbArc
 50
0.0
 51
90.0
  0
LINE
  5
65D2
330
18
100
AcDbEntity
  8
0
100
AcDbLine
 10
254.3929917571186
 20
160.7377682457773
 30
0.0
 11
250.9929917571185
 21
160.7377682457773
 31
0.0
  0
ARC
  5
65D3
330
18
100
AcDbEntity
  8
0
100
AcDbCircle
 10
254.3929917571186
 20
160.2377682457773
 30
0.0
 40
0.5
100
AcDbArc
 50
0.0
 51
90.0
  0
ARC
  5
65D4
330
18
100
AcDbEntity
  8
0
100
AcDbCircle
 10
258.0302042682706
 20
170.4839799759228
 30
0.0
 40
10.0
100
AcDbArc
 50
135.0
 51
180.0
  0
LINE
  5
65D5
330
18
100
AcDbEntity
  8
0
100
AcDbLine
 10
327.0302042682706
 20
141.0617827802171
 30
0.0
 11
327.0302042682706
 21
95.00499525609416
 31
0.0
  0
LINE
  5
65D6
330
18
100
AcDbEntity
  8
0
100
AcDbLine
 10
287.0302042682705
 20
100.4463640343456
 30
0.0
 11
287.0302042682705
 21
87.26767527445588
 31
0.0
  0
LINE
  5
65D7
330
18
100
AcDbEntity
  8
0
100
AcDbLine
 10
312.9348272286628
 20
103.1740453681483
 30
0.0
 11
312.9348272286629
 21
90.57557759930119
 31
0.0
  0
LINE
  5
65D8
330
18
100
AcDbEntity
  8
0
100
AcDbLine
 10
326.7802042682706
 20
75.00499525609416
 30
0.0
 11
276.2802042682706
 21
75.00499525609416
 31
0.0
  0
LINE
  5
65D9
330
18
100
AcDbEntity
  8
0
100
AcDbLine
 10
276.2802042682706
 20
77.85499525609418
 30
0.0
 11
326.7802042682706
 21
77.85499525609418
 31
0.0
  0
LINE
  5
65DA
330
18
100
AcDbEntity
  8
0
100
AcDbLine
 10
287.5302042682707
 20
81.94966039158897
 30
0.0
 11
315.5302042682706
 21
81.94966039158897
 31
0.0
  0
LINE
  5
65DB
330
18
100
AcDbEntity
  8
0
100
AcDbLine
 10
287.0302042682705
 20
87.26767527445588
 30
0.0
 11
316.0302042682705
 21
87.26767527445588
 31
0.0
  0
LINE
  5
65DC
330
18
100
AcDbEntity
  8
0
100
AcDbLine
 10
287.5302042682706
 20
86.76767527445589
 30
0.0
 11
315.5302042682706
 21
86.76767527445589
 31
0.0
  0
LINE
  5
65DE
330
18
100
AcDbEntity
  8
0
100
AcDbLine
 10
287.5302042682707
 20
81.94966039158897
 30
0.0
 11
276.2802042682706
 21
77.85499525609418
 31
0.0
  0
LINE
  5
65DF
330
18
100
AcDbEntity
  8
0
100
AcDbLine
 10
276.2802042682706
 20
77.85499525609418
 30
0.0
 11
276.2802042682706
 21
75.00499525609416
 31
0.0
  0
LINE
  5
65E0
330
18
100
AcDbEntity
  8
0
100
AcDbLine
 10
287.5302042682706
 20
86.76767527445589
 30
0.0
 11
287.5302042682706
 21
81.94966039158897
 31
0.0
  0
LINE
  5
65E1
330
18
100
AcDbEntity
  8
0
100
AcDbLine
 10
287.5302042682706
 20
86.76767527445589
 30
0.0
 11
287.0302042682705
 21
87.26767527445588
 31
0.0
  0
LINE
  5
65E2
330
18
100
AcDbEntity
  8
0
100
AcDbLine
 10
315.5302042682706
 20
81.94966039158897
 30
0.0
 11
326.7802042682706
 21
77.85499525609418
 31
0.0
  0
LINE
  5
65E3
330
18
100
AcDbEntity
  8
0
100
AcDbLine
 10
322.0302042682706
 20
90.00499525609416
 30
0.0
 11
315.9348272286629
 21
90.00499525609418
 31
0.0
  0
LINE
  5
65E4
330
18
100
AcDbEntity
  8
0
100
AcDbLine
 10
315.5302042682706
 20
86.76767527445589
 30
0.0
 11
315.5302042682706
 21
81.94966039158897
 31
0.0
  0
ARC
  5
65E5
330
18
100
AcDbEntity
  8
0
100
AcDbCircle
 10
315.9348272286628
 20
87.00499525609419
 30
0.0
 40
3.0
100
AcDbArc
 50
90.0
 51
163.3903620935814
  0
ARC
  5
65E6
330
18
100
AcDbEntity
  8
0
100
AcDbCircle
 10
319.0302042682706
 20
87.00499525609421
 30
0.0
 40
3.0
100
AcDbArc
 50
90.0
 51
174.7339383208904
  0
LINE
  5
65E7
330
18
100
AcDbEntity
  8
0
100
AcDbLine
 10
315.5302042682706
 20
86.76767527445589
 30
0.0
 11
316.0428665546501
 21
87.28033756083538
 31
0.0
  0
LINE
  5
65E8
330
18
100
AcDbEntity
  8
0
100
AcDbLine
 10
326.7802042682706
 20
77.85499525609418
 30
0.0
 11
326.7802042682706
 21
75.00499525609416
 31
0.0
  0
ARC
  5
65E9
330
18
100
AcDbEntity
  8
0
100
AcDbCircle
 10
322.0302042682706
 20
95.00499525609416
 30
0.0
 40
5.0
100
AcDbArc
 50
270.0
 51
0.0
  0
LINE
  5
65EA
330
18
100
AcDbEntity
  8
0
100
AcDbLine
 10
302.1242064297169
 20
159.1717952560942
 30
0.0
 11
367.5302042682706
 21
159.171795256094
 31
0.0
  0
LINE
  5
65EB
330
18
100
AcDbEntity
  8
0
100
AcDbLine
 10
302.1242064297168
 20
142.3377952560942
 30
0.0
 11
367.5302042682705
 21
142.3377952560942
 31
0.0
  0
ARC
  5
65EC
330
18
100
AcDbEntity
  8
0
100
AcDbCircle
 10
267.0165562283031
 20
79.88873468385006
 30
0.0
 40
57.2324206976474
100
AcDbArc
 50
28.94702489430644
 51
59.35737282399088
  0
LINE
  5
65ED
330
18
100
AcDbEntity
  8
0
100
AcDbLine
 10
283.2364603360121
 20
105.2986775340112
 30
0.0
 11
322.0302042682706
 21
105.2986775340112
 31
0.0
  0
LINE
  5
65EE
330
18
100
AcDbEntity
  8
0
100
AcDbLine
 10
271.223231499436
 20
107.7067781017053
 30
0.0
 11
283.0107849439615
 21
105.3492674128002
 31
0.0
  0
ARC
  5
65EF
330
18
100
AcDbEntity
  8
0
100
AcDbCircle
 10
272.9882767156797
 20
116.5320041829236
 30
0.0
 40
9.0
100
AcDbArc
 50
225.0
 51
258.6900675259791
  0
ARC
  5
65F0
330
18
100
AcDbEntity
  8
0
100
AcDbCircle
 10
282.0302042682706
 20
100.4463640343456
 30
0.0
 40
5.0
100
AcDbArc
 50
0.0
 51
78.69006752597916
  0
ARC
  5
65F1
330
18
100
AcDbEntity
  8
0
100
AcDbCircle
 10
280.8964214409968
 20
103.3185037550788
 30
0.0
 40
30.0
100
AcDbArc
 50
59.35737282399088
 51
90.0
  0
ARC
  5
65F2
330
18
100
AcDbEntity
  8
0
100
AcDbCircle
 10
322.0302042682706
 20
110.2986775340112
 30
0.0
 40
5.0
100
AcDbArc
 50
270.0
 51
0.0
  0
LINE
  5
65F3
330
18
100
AcDbEntity
  8
0
100
AcDbLine
 10
326.7302042682705
 20
142.3377952560942
 30
0.0
 11
326.7302042682705
 21
141.3617827802172
 31
0.0
  0
LINE
  5
65F4
330
18
100
AcDbEntity
  8
0
100
AcDbLine
 10
326.7302042682705
 20
141.3617827802171
 30
0.0
 11
327.0302042682706
 21
141.0617827802171
 31
0.0
  0
LINE
  5
65F5
330
18
100
AcDbEntity
  8
0
100
AcDbLine
 10
287.3302042682706
 20
208.2424780720023
 30
0.0
 11
315.7302042682705
 21
208.242478072002
 31
0.0
  0
LINE
  5
65F6
330
18
100
AcDbEntity
  8
0
100
AcDbLine
 10
287.0302042682705
 20
207.9424780720023
 30
0.0
 11
316.0302042682707
 21
207.9424780720023
 31
0.0
  0
ARC
  5
65F7
330
18
100
AcDbEntity
  8
0
100
AcDbCircle
 10
301.5988700068809
 20
-475.7674275928414
 30
0.0
 40
672.4341717454786
100
AcDbArc
 50
88.61400901574221
 51
91.40621917974112
  0
LINE
  5
65F8
330
18
100
AcDbEntity
  8
0
100
AcDbLine
 10
287.8187929736186
 20
198.2165139380416
 30
0.0
 11
315.1995114243718
 21
198.2165139380416
 31
0.0
  0
ARC
  5
65F9
330
18
100
AcDbEntity
  8
0
100
AcDbCircle
 10
287.5302042682707
 20
123.5047952560942
 30
0.0
 40
73.0
100
AcDbArc
 50
91.91021317170816
 51
104.1369638830452
  0
ARC
  5
65FA
330
18
100
AcDbEntity
  8
0
100
AcDbCircle
 10
272.1430423293769
 20
184.5968180370291
 30
0.0
 40
10.0
100
AcDbArc
 50
104.1369638830452
 51
135.0
  0
LINE
  5
65FB
330
18
100
AcDbEntity
  8
0
100
AcDbLine
 10
287.0302042682705
 20
207.9424780720023
 30
0.0
 11
287.0302042682705
 21
198.4631170089189
 31
0.0
  0
ARC
  5
65FC
330
18
100
AcDbEntity
  8
0
100
AcDbCircle
 10
285.0302042682706
 20
198.4631170089189
 30
0.0
 40
2.0
100
AcDbArc
 50
271.9102131717081
 51
0.0
  0
LINE
  5
65FD
330
18
100
AcDbEntity
  8
0
100
AcDbLine
 10
287.3302042682706
 20
208.2424780720023
 30
0.0
 11
287.0302042682705
 21
207.9424780720023
 31
0.0
  0
LINE
  5
65FE
330
18
100
AcDbEntity
  8
0
100
AcDbLine
 10
327.0302042682707
 20
161.8386166616917
 30
0.0
 11
327.0302042682707
 21
186.5047952560942
 31
0.0
  0
LINE
  5
65FF
330
18
100
AcDbEntity
  8
0
100
AcDbLine
 10
327.6242064297168
 20
159.1717952560942
 30
0.0
 11
331.9192064297168
 21
159.1717952560942
 31
0.0
  0
LINE
  5
6600
330
18
100
AcDbEntity
  8
0
100
AcDbLine
 10
326.7302042682705
 20
159.1717952560942
 30
0.0
 11
326.7302042682705
 21
161.5386166616915
 31
0.0
  0
LINE
  5
6601
330
18
100
AcDbEntity
  8
0
100
AcDbLine
 10
326.7302042682705
 20
161.5386166616915
 30
0.0
 11
327.0302042682704
 21
161.8386166616915
 31
0.0
  0
ARC
  5
6602
330
18
100
AcDbEntity
  8
0
100
AcDbCircle
 10
317.0302042682707
 20
186.5047952560942
 30
0.0
 40
10.0
100
AcDbArc
 50
0.0
 51
85.21980815280189
  0
LINE
  5
6603
330
18
100
AcDbEntity
  8
0
100
AcDbLine
 10
316.0302042682707
 20
207.9424780720023
 30
0.0
 11
316.0302042682707
 21
198.4630559991956
 31
0.0
  0
ARC
  5
6604
330
18
100
AcDbEntity
  8
0
100
AcDbCircle
 10
318.0302042682707
 20
198.4630559991956
 30
0.0
 40
2.0
100
AcDbArc
 50
180.0
 51
265.2198081527986
  0
LINE
  5
6605
330
18
100
AcDbEntity
  8
0
100
AcDbLine
 10
315.7302042682706
 20
208.2424780720023
 30
0.0
 11
316.0302042682705
 21
207.9424780720023
 31
0.0
  0
ARC
  5
6606
330
18
100
AcDbEntity
  8
0
100
AcDbCircle
 10
360.5302042682704
 20
150.7547952560942
 30
0.0
 40
5.669999999999959
100
AcDbArc
 50
20.65461101141962
 51
159.3453889885803
  0
ARC
  5
6607
330
18
100
AcDbEntity
  8
0
100
AcDbCircle
 10
360.5302042682704
 20
150.7547952560942
 30
0.0
 40
8.416999999999859
100
AcDbArc
 50
13.74578014039924
 51
166.2542198596007
  0
ARC
  5
6608
330
18
100
AcDbEntity
  8
0
100
AcDbCircle
 10
345.7456597774852
 20
150.7547952560942
 30
0.0
 40
2.0
100
AcDbArc
 50
90.0
 51
180.0
  0
LINE
  5
6609
330
18
100
AcDbEntity
  8
0
100
AcDbLine
 10
344.2192301167131
 20
159.1717952560941
 30
0.0
 11
344.2192301167131
 21
152.04708488722
 31
0.0
  0
ARC
  5
660A
330
18
100
AcDbEntity
  8
0
100
AcDbCircle
 10
375.3596440148724
 20
150.7547952560942
 30
0.0
 40
2.0
100
AcDbArc
 50
0.0
 51
90.0
  0
LINE
  5
660B
330
18
100
AcDbEntity
  8
0
100
AcDbLine
 10
345.7456597774852
 20
152.7547952560942
 30
0.0
 11
375.3596440148724
 21
152.7547952560942
 31
0.0
  0
LINE
  5
660C
330
18
100
AcDbEntity
  8
0
100
AcDbLine
 10
345.7456597774852
 20
148.7547952560942
 30
0.0
 11
375.3596440148724
 21
148.7547952560942
 31
0.0
  0
ARC
  5
660D
330
18
100
AcDbEntity
  8
0
100
AcDbCircle
 10
360.5302042682704
 20
150.7547952560942
 30
0.0
 40
8.416999999999859
100
AcDbArc
 50
193.7457801403992
 51
346.2542198596007
  0
ARC
  5
660E
330
18
100
AcDbEntity
  8
0
100
AcDbCircle
 10
360.5302042682704
 20
150.7547952560942
 30
0.0
 40
5.669999999999959
100
AcDbArc
 50
200.6546110114196
 51
339.3453889885803
  0
ARC
  5
660F
330
18
100
AcDbEntity
  8
0
100
AcDbCircle
 10
360.5302042682704
 20
145.7468587679483
 30
0.0
 40
5.000000000000014
100
AcDbArc
 50
222.9854569088887
 51
317.0145430911113
  0
LINE
  5
6610
330
18
100
AcDbEntity
  8
0
100
AcDbLine
 10
344.2192301167131
 20
149.4625056249684
 30
0.0
 11
344.2192301167131
 21
142.3377952560942
 31
0.0
  0
ARC
  5
6611
330
18
100
AcDbEntity
  8
0
100
AcDbCircle
 10
345.7456597774852
 20
150.7547952560942
 30
0.0
 40
2.0
100
AcDbArc
 50
180.0
 51
270.0
  0
LINE
  5
6612
330
18
100
AcDbEntity
  8
0
100
AcDbLine
 10
343.7456597774852
 20
150.7547952560942
 30
0.0
 11
343.7456597774852
 21
150.7547952560942
 31
0.0
  0
ARC
  5
6613
330
18
100
AcDbEntity
  8
0
100
AcDbCircle
 10
367.5302042682705
 20
144.7547952560942
 30
0.0
 40
1.0
100
AcDbArc
 50
0.0
 51
90.0
  0
ARC
  5
6614
330
18
100
AcDbEntity
  8
0
100
AcDbCircle
 10
367.5302042682705
 20
143.3377952560942
 30
0.0
 40
1.0
100
AcDbArc
 50
270.0
 51
0.0000000000016284
  0
LINE
  5
6615
330
18
100
AcDbEntity
  8
0
100
AcDbLine
 10
367.3011635060741
 20
145.7547952560942
 30
0.0
 11
367.5302042682705
 21
145.7547952560942
 31
0.0
  0
LINE
  5
6616
330
18
100
AcDbEntity
  8
0
100
AcDbLine
 10
368.5302042682705
 20
144.7547952560942
 30
0.0
 11
368.5302042682705
 21
143.3377952560942
 31
0.0
  0
ARC
  5
6617
330
18
100
AcDbEntity
  8
0
100
AcDbCircle
 10
375.3596440148724
 20
150.7547952560942
 30
0.0
 40
2.0
100
AcDbArc
 50
270.0
 51
0.0
  0
LINE
  5
6618
330
18
100
AcDbEntity
  8
0
100
AcDbLine
 10
377.3596440148724
 20
150.7547952560942
 30
0.0
 11
377.3596440148724
 21
150.7547952560942
 31
0.0
  0
ARC
  5
6619
330
18
100
AcDbEntity
  8
0
100
AcDbCircle
 10
360.5302042682704
 20
155.7627317442401
 30
0.0
 40
5.000000000000014
100
AcDbArc
 50
42.98545690888532
 51
137.0145430911146
  0
LINE
  5
661A
330
18
100
AcDbEntity
  8
0
100
AcDbLine
 10
368.5302042682706
 20
158.171795256094
 30
0.0
 11
368.5302042682705
 21
156.7547952560942
 31
0.0
  0
ARC
  5
661B
330
18
100
AcDbEntity
  8
0
100
AcDbCircle
 10
367.5302042682705
 20
156.7547952560942
 30
0.0
 40
1.0
100
AcDbArc
 50
270.0
 51
359.9999999999983
  0
LINE
  5
661C
330
18
100
AcDbEntity
  8
0
100
AcDbLine
 10
367.3011635060741
 20
155.7547952560942
 30
0.0
 11
367.5302042682705
 21
155.7547952560942
 31
0.0
  0
ARC
  5
661D
330
18
100
AcDbEntity
  8
0
100
AcDbCircle
 10
367.5302042682706
 20
158.171795256094
 30
0.0
 40
1.0
100
AcDbArc
 50
359.9999999999983
 51
90.0
  0
ARC
  5
661E
330
18
100
AcDbEntity
  8
0
100
AcDbCircle
 10
287.5302042682706
 20
340.2023107878231
 30
0.0
 40
39.5
100
AcDbArc
 50
0.0
 51
180.0
  0
ARC
  5
661F
330
18
100
AcDbEntity
  8
0
100
AcDbCircle
 10
287.5302042682706
 20
340.2023107878231
 30
0.0
 40
44.0
100
AcDbArc
 50
126.9753405663885
 51
180.0
  0
ELLIPSE
  5
6620
330
18
100
AcDbEntity
  8
0
100
AcDbEllipse
 10
259.0762156587381
 20
340.2023107878246
 30
0.0
 11
0.0
 21
-18.29065093510274
 31
0.0
210
0.0
220
0.0
230
1.0
 40
0.6039157069729276
 41
0.0
 42
6.283185307179586
  0
ARC
  5
6621
330
18
100
AcDbEntity
  8
0
100
AcDbCircle
 10
271.906657592591
 20
360.9170086147238
 30
0.0
 40
80.48195838786339
100
AcDbArc
 50
254.9349636697652
 51
332.7903418589861
  0
ARC
  5
6622
330
18
100
AcDbEntity
  8
0
100
AcDbCircle
 10
287.5302042682706
 20
340.2023107878229
 30
0.0
 40
39.5
100
AcDbArc
 50
180.0
 51
0.0
  0
ARC
  5
6623
330
18
100
AcDbEntity
  8
0
100
AcDbCircle
 10
259.8625270425084
 20
303.4531660776253
 30
0.0
 40
2.0
100
AcDbArc
 50
294.4892430080096
 51
53.02465943361148
  0
ARC
  5
6624
330
18
100
AcDbEntity
  8
0
100
AcDbCircle
 10
287.5302042682706
 20
340.2023107878229
 30
0.0
 40
44.0
100
AcDbArc
 50
180.0
 51
233.0246594336114
  0
LINE
  5
6625
330
18
100
AcDbEntity
  8
0
100
AcDbLine
 10
246.5658030328828
 20
293.0010989526631
 30
0.0
 11
265.0658781097954
 21
301.4278746018341
 31
0.0
  0
INSERT
  5
6626
330
18
100
AcDbEntity
  8
0
100
AcDbBlockReference
  2
DT-P
 10
258.3116545303014
 20
336.2117663743386
 30
0.0
 41
0.3199999999999932
 42
0.3199999999999932
 43
0.32
 50
270.0
  0
INSERT
  5
6627
330
18
100
AcDbEntity
  8
0
100
AcDbBlockReference
  2
DT-U
 10
258.3116545303014
 20
343.926818949766
 30
0.0
 41
0.3199999999999932
 42
0.3199999999999932
 43
0.32
 50
270.0
  0
ARC
  5
6628
330
18
100
AcDbEntity
  8
0
100
AcDbCircle
 10
271.9066575925913
 20
319.4876129609219
 30
0.0
 40
80.48195838786339
100
AcDbArc
 50
27.20965814102112
 51
105.0650363302347
  0
LINE
  5
6629
330
18
100
AcDbEntity
  8
0
100
AcDbLine
 10
246.5658030328819
 20
387.4035226229821
 30
0.0
 11
265.0658781097946
 21
378.9767469738114
 31
0.0
  0
ARC
  5
662A
330
18
100
AcDbEntity
  8
0
100
AcDbCircle
 10
259.8625270425077
 20
376.9514554980202
 30
0.0
 40
2.0
100
AcDbArc
 50
306.9753405663885
 51
65.51075699199031
  0
ARC
  5
662B
330
18
100
AcDbEntity
  8
0
100
AcDbCircle
 10
380.5408867643892
 20
340.2023107878239
 30
0.0
 40
146.996838694767
100
AcDbArc
 50
157.4421903024357
 51
202.5578096975642
  0
LINE
  5
662C
330
18
100
AcDbEntity
  8
0
100
AcDbLine
 10
246.7378966263097
 20
295.2771952462589
 30
0.0
 11
260.6915718319795
 21
301.6330878548418
 31
0.0
  0
ARC
  5
662D
330
18
100
AcDbEntity
  8
0
100
AcDbCircle
 10
250.9929917571185
 20
289.1010989526632
 30
0.0
 40
5.900000000000005
100
AcDbArc
 50
138.6225226977062
 51
270.0
  0
CIRCLE
  5
662E
330
18
100
AcDbEntity
  8
0
100
AcDbCircle
 10
250.9929917571185
 20
289.1010989526632
 30
0.0
 40
3.900000000000005
  0
LINE
  5
662F
330
18
100
AcDbEntity
  8
0
100
AcDbLine
 10
245.7102395683687
 20
283.2032596965117
 30
0.0
 11
250.9929917571187
 21
283.2010989526633
 31
0.0
  0
ARC
  5
6630
330
18
100
AcDbEntity
  8
0
100
AcDbCircle
 10
245.7106485869238
 20
284.2032596128636
 30
0.0
 40
1.0
100
AcDbArc
 50
203.029215555478
 51
269.9765649623933
  0
ARC
  5
6631
330
18
100
AcDbEntity
  8
0
100
AcDbCircle
 10
250.9929917571185
 20
289.1010989526632
 30
0.0
 40
7.5
100
AcDbArc
 50
124.5653620603499
 51
175.2100736339968
  0
ARC
  5
6632
330
18
100
AcDbEntity
  8
0
100
AcDbCircle
 10
243.0209313097148
 20
289.7691200772852
 30
0.0
 40
0.5
100
AcDbArc
 50
227.5420185743712
 51
355.2100736339969
  0
ARC
  5
6633
330
18
100
AcDbEntity
  8
0
100
AcDbCircle
 10
270.2622263208969
 20
318.2010989526636
 30
0.0
 40
25.25
100
AcDbArc
 50
230.3869318584509
 51
235.7691416600915
  0
LINE
  5
6634
330
18
100
AcDbEntity
  8
0
100
AcDbLine
 10
246.7378966263088
 20
385.1274263293863
 30
0.0
 11
260.6915718319787
 21
378.7715337208036
 31
0.0
  0
ARC
  5
6635
330
18
100
AcDbEntity
  8
0
100
AcDbCircle
 10
250.9929917571175
 20
391.3035226229821
 30
0.0
 40
5.900000000000005
100
AcDbArc
 50
90.0
 51
221.3774773022937
  0
LINE
  5
6636
330
18
100
AcDbEntity
  8
0
100
AcDbLine
 10
245.7102395683675
 20
397.2013618791335
 30
0.0
 11
250.9929917571175
 21
397.203522622982
 31
0.0
  0
CIRCLE
  5
6637
330
18
100
AcDbEntity
  8
0
100
AcDbCircle
 10
250.9929917571175
 20
391.3035226229821
 30
0.0
 40
3.900000000000005
  0
ARC
  5
6638
330
18
100
AcDbEntity
  8
0
100
AcDbCircle
 10
250.9929917571175
 20
391.3035226229821
 30
0.0
 40
7.5
100
AcDbArc
 50
184.7899263660031
 51
235.43463793965
  0
ARC
  5
6639
330
18
100
AcDbEntity
  8
0
100
AcDbCircle
 10
243.0209313097138
 20
390.6355014983599
 30
0.0
 40
0.5
100
AcDbArc
 50
4.789926366003092
 51
132.4579814256322
  0
ARC
  5
663A
330
18
100
AcDbEntity
  8
0
100
AcDbCircle
 10
245.7106485869228
 20
396.2013619627815
 30
0.0
 40
1.0
100
AcDbArc
 50
90.02343503760666
 51
156.9707844445219
  0
CIRCLE
  5
663B
330
18
100
AcDbEntity
  8
0
100
AcDbCircle
 10
301.5302042682705
 20
340.2023107878246
 30
0.0
 40
25.25
  0
CIRCLE
  5
663C
330
18
100
AcDbEntity
  8
0
100
AcDbCircle
 10
301.5302042682705
 20
340.2023107878246
 30
0.0
 40
20.275
  0
CIRCLE
  5
663D
330
18
100
AcDbEntity
  8
0
100
AcDbCircle
 10
301.5302042682705
 20
340.2023107878246
 30
0.0
 40
23.22499999999999
  0
ARC
  5
663E
330
18
100
AcDbEntity
  8
0
100
AcDbCircle
 10
287.5302042682706
 20
340.2023107878231
 30
0.0
 40
44.0
100
AcDbArc
 50
8.752929076883681
 51
118.0558627531216
  0
LINE
  5
663F
330
18
100
AcDbEntity
  8
0
100
AcDbLine
 10
332.9944759549476
 20
345.2023107878237
 30
0.0
 11
367.5302042682705
 21
345.2023107878237
 31
0.0
  0
LINE
  5
6640
330
18
100
AcDbEntity
  8
0
100
AcDbLine
 10
332.9944759549478
 20
335.2023107878231
 30
0.0
 11
367.5302042682706
 21
335.2023107878238
 31
0.0
  0
ARC
  5
6641
330
18
100
AcDbEntity
  8
0
100
AcDbCircle
 10
287.5302042682706
 20
340.2023107878229
 30
0.0
 40
44.0
100
AcDbArc
 50
241.9441372468819
 51
351.2470709231163
  0
ARC
  5
6642
330
18
100
AcDbEntity
  8
0
100
AcDbCircle
 10
287.5302042682706
 20
340.2023107878231
 30
0.0
 40
45.49999999999999
100
AcDbArc
 50
235.450074544967
 51
239.2997020355323
  0
LINE
  5
6643
330
18
100
AcDbEntity
  8
0
100
AcDbLine
 10
276.2802042682706
 20
220.0047952560942
 30
0.0
 11
301.5302042682705
 21
220.0047952560942
 31
0.0
  0
LINE
  5
6644
330
18
100
AcDbEntity
  8
0
100
AcDbLine
 10
276.2821379070395
 20
217.1544543034083
 30
0.0
 11
326.7782706295017
 21
217.1544543034083
 31
0.0
  0
LINE
  5
6645
330
18
100
AcDbEntity
  8
0
100
AcDbLine
 10
287.3302042682706
 20
213.1332870017225
 30
0.0
 11
315.7302042682706
 21
213.1332870017225
 31
0.0
  0
LINE
  5
6646
330
18
100
AcDbEntity
  8
0
100
AcDbLine
 10
276.2821379070395
 20
217.1544543034083
 30
0.0
 11
287.3302042682706
 21
213.1332870017225
 31
0.0
  0
LINE
  5
6647
330
18
100
AcDbEntity
  8
0
100
AcDbLine
 10
276.2802042682706
 20
220.0047952560942
 30
0.0
 11
276.2821379070395
 21
217.1544543034083
 31
0.0
  0
LINE
  5
6648
330
18
100
AcDbEntity
  8
0
100
AcDbLine
 10
326.7802042682706
 20
220.0047952560942
 30
0.0
 11
301.5302042682705
 21
220.0047952560942
 31
0.0
  0
LINE
  5
6649
330
18
100
AcDbEntity
  8
0
100
AcDbLine
 10
326.7782706295017
 20
217.1544543034083
 30
0.0
 11
315.7302042682706
 21
213.1332870017224
 31
0.0
  0
LINE
  5
664A
330
18
100
AcDbEntity
  8
0
100
AcDbLine
 10
326.7802042682706
 20
220.0047952560942
 30
0.0
 11
326.7782706295017
 21
217.1544543034083
 31
0.0
  0
CIRCLE
  5
664B
330
18
100
AcDbEntity
  8
0
100
AcDbCircle
 10
301.5302042682705
 20
340.2023107878246
 30
0.0
 40
12.5
  0
ARC
  5
664C
330
18
100
AcDbEntity
  8
0
100
AcDbCircle
 10
265.8949228992664
 20
299.6077963790506
 30
0.0
 40
2.0
100
AcDbArc
 50
61.94413724688196
 51
114.4892430080096
  0
ARC
  5
664D
330
18
100
AcDbEntity
  8
0
100
AcDbCircle
 10
287.5302042682706
 20
340.2023107878231
 30
0.0
 40
45.49999999999999
100
AcDbArc
 50
0.0
 51
6.327513965526748
  0
ARC
  5
664E
330
18
100
AcDbEntity
  8
0
100
AcDbCircle
 10
287.5302042682706
 20
340.2023107878229
 30
0.0
 40
45.49999999999999
100
AcDbArc
 50
353.6724860344732
 51
0.0
  0
ARC
  5
664F
330
18
100
AcDbEntity
  8
0
100
AcDbCircle
 10
332.9944759549478
 20
333.2023107878232
 30
0.0
 40
2.0
100
AcDbArc
 50
90.0
 51
171.2470709231163
  0
ARC
  5
6650
330
18
100
AcDbEntity
  8
0
100
AcDbCircle
 10
332.9944759549476
 20
347.2023107878237
 30
0.0
 40
2.0
100
AcDbArc
 50
188.7529290768837
 51
270.0
  0
LINE
  5
6651
330
18
100
AcDbEntity
  8
0
100
AcDbLine
 10
367.2502042682705
 20
300.6623107878236
 30
0.0
 11
363.8902042682705
 21
312.1823107878237
 31
0.0
  0
LINE
  5
6652
330
18
100
AcDbEntity
  8
0
100
AcDbLine
 10
353.8102042682705
 20
300.6623107878236
 30
0.0
 11
357.1702042682705
 21
312.1823107878237
 31
0.0
  0
ARC
  5
6653
330
18
100
AcDbEntity
  8
0
100
AcDbCircle
 10
376.5890355842589
 20
295.7700259090204
 30
0.0
 40
32.89429690957042
100
AcDbArc
 50
138.9247814523536
 51
191.5135973136046
  0
ARC
  5
6654
330
18
100
AcDbEntity
  8
0
100
AcDbCircle
 10
344.471372952282
 20
295.7700259090204
 30
0.0
 40
32.89429690957042
100
AcDbArc
 50
348.4864026863953
 51
41.07521854764637
  0
ARC
  5
6655
330
18
100
AcDbEntity
  8
0
100
AcDbCircle
 10
360.5302042682704
 20
298.7023107878237
 30
0.0
 40
7.0
100
AcDbArc
 50
163.7397952916861
 51
270.0
  0
LINE
  5
6656
330
18
100
AcDbEntity
  8
0
100
AcDbLine
 10
349.2560454732508
 20
285.2023107878236
 30
0.0
 11
360.5302042682704
 21
285.2023107878236
 31
0.0
  0
ARC
  5
6657
330
18
100
AcDbEntity
  8
0
100
AcDbCircle
 10
349.2560454732508
 20
290.2023107878237
 30
0.0
 40
5.0
100
AcDbArc
 50
191.5135973136046
 51
270.0
  0
ARC
  5
6658
330
18
100
AcDbEntity
  8
0
100
AcDbCircle
 10
371.8043630632902
 20
290.2023107878237
 30
0.0
 40
5.0
100
AcDbArc
 50
270.0
 51
348.4864026863953
  0
LINE
  5
6659
330
18
100
AcDbEntity
  8
0
100
AcDbLine
 10
371.8043630632902
 20
285.2023107878236
 30
0.0
 11
360.5302042682706
 21
285.2023107878236
 31
0.0
  0
ARC
  5
665A
330
18
100
AcDbEntity
  8
0
100
AcDbCircle
 10
360.5302042682706
 20
298.7023107878237
 30
0.0
 40
7.0
100
AcDbArc
 50
270.0
 51
16.26020470831391
  0
LINE
  5
665B
330
18
100
AcDbEntity
  8
0
100
AcDbLine
 10
368.5302042682708
 20
326.2023107878238
 30
0.0
 11
368.5302042682706
 21
334.2023107878238
 31
0.0
  0
LINE
  5
665C
330
18
100
AcDbEntity
  8
0
100
AcDbLine
 10
345.2611054967421
 20
325.2023107878234
 30
0.0
 11
367.5302042682708
 21
325.2023107878238
 31
0.0
  0
LINE
  5
665D
330
18
100
AcDbEntity
  8
0
100
AcDbLine
 10
356.5302042682704
 20
325.2023107878236
 30
0.0
 11
364.5302042682704
 21
325.2023107878237
 31
0.0
  0
LINE
  5
665E
330
18
100
AcDbEntity
  8
0
100
AcDbLine
 10
357.5302042682705
 20
301.7023107878237
 30
0.0
 11
360.5302042682704
 21
301.7023107878237
 31
0.0
  0
LINE
  5
665F
330
18
100
AcDbEntity
  8
0
100
AcDbLine
 10
357.0302042682705
 20
302.2023107878236
 30
0.0
 11
360.5302042682706
 21
302.2023107878236
 31
0.0
  0
ARC
  5
6660
330
18
100
AcDbEntity
  8
0
100
AcDbCircle
 10
360.5302042682704
 20
311.2023107878237
 30
0.0
 40
3.499999999999985
100
AcDbArc
 50
90.0
 51
163.7397952916861
  0
LINE
  5
6661
330
18
100
AcDbEntity
  8
0
100
AcDbLine
 10
357.5302042682706
 20
313.0050864255557
 30
0.0
 11
357.5302042682706
 21
301.7023107878237
 31
0.0
  0
LINE
  5
6662
330
18
100
AcDbEntity
  8
0
100
AcDbLine
 10
357.0302042682705
 20
311.7023107878236
 30
0.0
 11
357.0302042682705
 21
302.2023107878237
 31
0.0
  0
LINE
  5
6663
330
18
100
AcDbEntity
  8
0
100
AcDbLine
 10
357.5302042682705
 20
301.7023107878237
 30
0.0
 11
357.0302042682705
 21
302.2023107878236
 31
0.0
  0
ARC
  5
6664
330
18
100
AcDbEntity
  8
0
100
AcDbCircle
 10
345.2611054967421
 20
323.2023107878234
 30
0.0
 40
2.0
100
AcDbArc
 50
90.0
 51
152.7903418589861
  0
ARC
  5
6665
330
18
100
AcDbEntity
  8
0
100
AcDbCircle
 10
356.5302042682704
 20
321.2023107878236
 30
0.0
 40
4.0
100
AcDbArc
 50
90.0
 51
180.0
  0
ARC
  5
6666
330
18
100
AcDbEntity
  8
0
100
AcDbCircle
 10
349.5302042682705
 20
319.3543469390029
 30
0.0
 40
3.0
100
AcDbArc
 50
318.9247814523536
 51
0.0000000000032569
  0
LINE
  5
6667
330
18
100
AcDbEntity
  8
0
100
AcDbLine
 10
352.5302042682704
 20
319.3543469390029
 30
0.0
 11
352.5302042682704
 21
321.2023107878235
 31
0.0
  0
ARC
  5
6668
330
18
100
AcDbEntity
  8
0
100
AcDbCircle
 10
360.5302042682706
 20
311.2023107878237
 30
0.0
 40
3.499999999999985
100
AcDbArc
 50
16.26020470831391
 51
90.0
  0
LINE
  5
6669
330
18
100
AcDbEntity
  8
0
100
AcDbLine
 10
363.5302042682706
 20
313.0050864255557
 30
0.0
 11
363.5302042682706
 21
301.7023107878237
 31
0.0
  0
LINE
  5
666A
330
18
100
AcDbEntity
  8
0
100
AcDbLine
 10
364.0302042682705
 20
311.7023107878236
 30
0.0
 11
364.0302042682705
 21
302.2023107878237
 31
0.0
  0
LINE
  5
666B
330
18
100
AcDbEntity
  8
0
100
AcDbLine
 10
363.5302042682706
 20
301.7023107878237
 30
0.0
 11
364.0302042682705
 21
302.2023107878236
 31
0.0
  0
LINE
  5
666C
330
18
100
AcDbEntity
  8
0
100
AcDbLine
 10
364.0302042682705
 20
302.2023107878236
 30
0.0
 11
360.5302042682706
 21
302.2023107878236
 31
0.0
  0
LINE
  5
666D
330
18
100
AcDbEntity
  8
0
100
AcDbLine
 10
363.5302042682706
 20
301.7023107878237
 30
0.0
 11
360.5302042682706
 21
301.7023107878237
 31
0.0
  0
ARC
  5
666E
330
18
100
AcDbEntity
  8
0
100
AcDbCircle
 10
364.5302042682706
 20
321.2023107878237
 30
0.0
 40
4.0
100
AcDbArc
 50
359.9999999999967
 51
90.0
  0
ARC
  5
666F
330
18
100
AcDbEntity
  8
0
100
AcDbCircle
 10
371.5302042682706
 20
319.3543469390029
 30
0.0
 40
3.0
100
AcDbArc
 50
179.9999999999967
 51
221.0752185476463
  0
LINE
  5
6670
330
18
100
AcDbEntity
  8
0
100
AcDbLine
 10
368.5302042682706
 20
319.3543469390029
 30
0.0
 11
368.5302042682706
 21
321.2023107878237
 31
0.0
  0
ARC
  5
6671
330
18
100
AcDbEntity
  8
0
100
AcDbCircle
 10
367.5302042682708
 20
326.2023107878238
 30
0.0
 40
1.0
100
AcDbArc
 50
270.0
 51
0.0000000000032569
  0
LINE
  5
6672
330
18
100
AcDbEntity
  8
0
100
AcDbLine
 10
345.2611054967418
 20
355.2023107878237
 30
0.0
 11
367.5302042682705
 21
355.2023107878237
 31
0.0
  0
CIRCLE
  5
6673
330
18
100
AcDbEntity
  8
0
100
AcDbCircle
 10
360.5302042682706
 20
350.2023107878237
 30
0.0
 40
4.0
  0
LINE
  5
6674
330
18
100
AcDbEntity
  8
0
100
AcDbLine
 10
357.0302042682706
 20
335.2023107878236
 30
0.0
 11
357.0302042682706
 21
345.2023107878237
 31
0.0
  0
LINE
  5
6675
330
18
100
AcDbEntity
  8
0
100
AcDbLine
 10
357.5302042682706
 20
335.2023107878236
 30
0.0
 11
357.5302042682706
 21
345.2023107878237
 31
0.0
  0
ARC
  5
6676
330
18
100
AcDbEntity
  8
0
100
AcDbCircle
 10
345.2611054967418
 20
357.2023107878237
 30
0.0
 40
2.0
100
AcDbArc
 50
207.2096581410138
 51
270.0
  0
LINE
  5
6677
330
18
100
AcDbEntity
  8
0
100
AcDbLine
 10
364.0302042682705
 20
335.2023107878237
 30
0.0
 11
364.0302042682705
 21
345.2023107878237
 31
0.0
  0
LINE
  5
6678
330
18
100
AcDbEntity
  8
0
100
AcDbLine
 10
363.5302042682706
 20
335.2023107878237
 30
0.0
 11
363.5302042682706
 21
345.2023107878237
 31
0.0
  0
ARC
  5
6679
330
18
100
AcDbEntity
  8
0
100
AcDbCircle
 10
367.5302042682706
 20
334.2023107878238
 30
0.0
 40
1.0
100
AcDbArc
 50
0.0000000000032569
 51
90.0
  0
LINE
  5
667A
330
18
100
AcDbEntity
  8
0
100
AcDbLine
 10
368.5302042682705
 20
354.2023107878236
 30
0.0
 11
368.5302042682705
 21
346.2023107878237
 31
0.0
  0
ARC
  5
667B
330
18
100
AcDbEntity
  8
0
100
AcDbCircle
 10
367.5302042682705
 20
346.2023107878237
 30
0.0
 40
1.0
100
AcDbArc
 50
270.0
 51
0.0
  0
ARC
  5
667C
330
18
100
AcDbEntity
  8
0
100
AcDbCircle
 10
367.5302042682705
 20
354.2023107878236
 30
0.0
 40
1.0
100
AcDbArc
 50
0.0
 51
90.0
  0
ARC
  5
667D
330
18
100
AcDbEntity
  8
0
100
AcDbCircle
 10
265.8949228992657
 20
380.796825196595
 30
0.0
 40
2.0
100
AcDbArc
 50
245.5107569919903
 51
298.0558627531216
  0
ARC
  5
667E
330
18
100
AcDbEntity
  8
0
100
AcDbCircle
 10
287.5302042682706
 20
340.2023107878231
 30
0.0
 40
45.49999999999999
100
AcDbArc
 50
120.7002979644676
 51
124.549925455033
  0
TEXT
  5
668B
330
18
100
AcDbEntity
  8
0
100
AcDbText
 10
255.6257719145271
 20
39.94501881940891
 30
0.0
 40
10.0
  1
SS5P/SS5EP
100
AcDbText
  0
LINE
  5
668C
330
18
100
AcDbEntity
  8
0
100
AcDbLine
 10
301.390684176312
 20
244.7799037669946
 30
0.0
 11
304.5418091763118
 21
247.9310287669944
 31
0.0
  0
LINE
  5
668D
330
18
100
AcDbEntity
  8
0
100
AcDbLine
 10
304.5418091763118
 20
247.9310287669944
 30
0.0
 11
304.5418091763118
 21
238.4776537669944
 31
0.0
  0
LINE
  5
668E
330
18
100
AcDbEntity
  8
0
100
AcDbLine
 10
304.5418091763118
 20
232.2434662669941
 30
0.0
 11
301.390684176312
 21
229.0237162669944
 31
0.0
  0
LINE
  5
668F
330
18
100
AcDbEntity
  8
0
100
AcDbLine
 10
301.390684176312
 20
229.0237162669944
 30
0.0
 11
301.390684176312
 21
244.7799037669946
 31
0.0
  0
LINE
  5
6690
330
18
100
AcDbEntity
  8
0
100
AcDbLine
 10
304.5418091763118
 20
238.4776537669944
 30
0.0
 11
302.9662466763119
 21
236.9015287669943
 31
0.0
  0
LINE
  5
6691
330
18
100
AcDbEntity
  8
0
100
AcDbLine
 10
302.9662466763119
 20
232.2434662669941
 30
0.0
 11
304.5418091763118
 21
232.2434662669941
 31
0.0
  0
LINE
  5
6692
330
18
100
AcDbEntity
  8
0
100
AcDbLine
 10
302.9662466763119
 20
236.9015287669943
 30
0.0
 11
302.9662466763119
 21
232.2434662669941
 31
0.0
  0
VIEWPORT
  5
41
330
15
100
AcDbEntity
 67
     1
  8
0
100
AcDbViewport
 10
117.358407079646
 20
73.5
 30
0.0
 40
234.716814159292
 41
147.0
 68
     1
 69
     1
1001
ACAD
1000
MVIEW
1002
{
1070
    16
1010
0.0
1020
0.0
1030
0.0
1010
0.0
1020
0.0
1030
1.0
1040
0.0
1040
147.0
1040
117.358407079646
1040
73.5
1040
50.0
1040
0.0
1040
0.0
1070
     0
1070
   100
1070
     1
1070
     1
1070
     0
1070
     0
1070
     0
1070
     0
1040
0.0
1040
0.0
1040
0.0
1040
1.0
1040
1.0
1040
0.0
1040
0.0
1070
     0
1002
{
1002
}
1002
}
  0
ENDSEC
  0
SECTION
  2
OBJECTS
  0
DICTIONARY
  5
C
330
0
100
AcDbDictionary
  3
ACAD_GROUP
350
D
  3
ACAD_LAYOUT
350
452B
  3
ACAD_MLINESTYLE
350
E
  3
ACAD_PLOTSETTINGS
350
452C
1001
ACAD
1000
TREAT_AS_HARD
1070
     0
  0
DICTIONARY
  5
5272
330
18
100
AcDbDictionary
  3
ACAD_LAYOUTSELFREF
350
6732
1001
ACAD
1000
TREAT_AS_HARD
1070
     1
  0
DICTIONARY
  5
5270
330
15
100
AcDbDictionary
  3
ACAD_LAYOUTSELFREF
350
6731
1001
ACAD
1000
TREAT_AS_HARD
1070
     1
  0
DICTIONARY
  5
D
102
{ACAD_REACTORS
330
C
102
}
330
C
100
AcDbDictionary
1001
ACAD
1000
TREAT_AS_HARD
1070
     0
  0
DICTIONARY
  5
452B
102
{ACAD_REACTORS
330
C
102
}
330
C
100
AcDbDictionary
1001
ACAD
1000
TREAT_AS_HARD
1070
     0
  0
DICTIONARY
  5
E
102
{ACAD_REACTORS
330
C
102
}
330
C
100
AcDbDictionary
  3
STANDARD
350
1B
1001
ACAD
1000
TREAT_AS_HARD
1070
     0
  0
DICTIONARY
  5
452C
102
{ACAD_REACTORS
330
C
102
}
330
C
100
AcDbDictionary
1001
ACAD
1000
TREAT_AS_HARD
1070
     0
  0
XRECORD
  5
6732
102
{ACAD_REACTORS
330
5272
102
}
330
5272
100
AcDbXrecord
340
18
  0
XRECORD
  5
6731
102
{ACAD_REACTORS
330
5270
102
}
330
5270
100
AcDbXrecord
340
15
  0
MLINESTYLE
  5
1B
102
{ACAD_REACTORS
330
E
102
}
330
E
100
AcDbMlineStyle
  2
STANDARD
 70
     0
  3

 62
     0
 51
90.0
 52
90.0
 71
     2
 49
0.5
 62
   256
  6
BYLAYER
 49
-0.5
 62
   256
  6
BYLAYER
  0
ENDSEC
  0
EOF
