  0
SECTION
  2
HEADER
  9
$ACADVER
  1
AC1012
  9
$DWGCODEPAGE
  3
dos932
  9
$INSBASE
 10
0.0
 20
0.0
 30
0.0
  9
$EXTMIN
 10
99.0
 20
45.0
 30
0.0
  9
$EXTMAX
 10
2574.0
 20
1719.0
 30
0.0
  9
$LIMMIN
 10
0.0
 20
0.0
  9
$LIMMAX
 10
2673.0
 20
1890.0
  9
$ORTHOMODE
 70
     1
  9
$REGENMODE
 70
     1
  9
$FILLMODE
 70
     1
  9
$QTEXTMODE
 70
     0
  9
$MIRRTEXT
 70
     1
  9
$DRAGMODE
 70
     2
  9
$LTSCALE
 40
36.0
  9
$OSMODE
 70
   163
  9
$ATTMODE
 70
     1
  9
$TEXTSIZE
 40
36.0
  9
$TRACEWID
 40
0.05
  9
$TEXTSTYLE
  7
STANDARD
  9
$CLAYER
  8
0
  9
$CELTYPE
  6
BYLAYER
  9
$CECOLOR
 62
   256
  9
$CELTSCALE
 40
1.0
  9
$DELOBJ
 70
     1
  9
$DISPSILH
 70
     0
  9
$DIMSCALE
 40
9.0
  9
$DIMASZ
 40
2.8
  9
$DIMEXO
 40
1.0
  9
$DIMDLI
 40
5.0
  9
$DIMRND
 40
0.1
  9
$DIMDLE
 40
0.0
  9
$DIMEXE
 40
1.0
  9
$DIMTP
 40
0.0
  9
$DIMTM
 40
0.0
  9
$DIMTXT
 40
2.5
  9
$DIMCEN
 40
0.0
  9
$DIMTSZ
 40
0.0
  9
$DIMTOL
 70
     0
  9
$DIMLIM
 70
     0
  9
$DIMTIH
 70
     0
  9
$DIMTOH
 70
     0
  9
$DIMSE1
 70
     0
  9
$DIMSE2
 70
     0
  9
$DIMTAD
 70
     3
  9
$DIMZIN
 70
     8
  9
$DIMBLK
  1

  9
$DIMASO
 70
     1
  9
$DIMSHO
 70
     1
  9
$DIMPOST
  1
 
  9
$DIMAPOST
  1

  9
$DIMALT
 70
     0
  9
$DIMALTD
 70
     2
  9
$DIMALTF
 40
1.0
  9
$DIMLFAC
 40
1.0
  9
$DIMTOFL
 70
     1
  9
$DIMTVP
 40
0.0
  9
$DIMTIX
 70
     0
  9
$DIMSOXD
 70
     0
  9
$DIMSAH
 70
     1
  9
$DIMBLK1
  1
_OPEN
  9
$DIMBLK2
  1
_OPEN
  9
$DIMSTYLE
  2
DIM1
  9
$DIMCLRD
 70
     2
  9
$DIMCLRE
 70
     2
  9
$DIMCLRT
 70
     2
  9
$DIMTFAC
 40
0.7
  9
$DIMGAP
 40
0.85
  9
$DIMJUST
 70
     0
  9
$DIMSD1
 70
     0
  9
$DIMSD2
 70
     0
  9
$DIMTOLJ
 70
     1
  9
$DIMTZIN
 70
     8
  9
$DIMALTZ
 70
     8
  9
$DIMALTTZ
 70
     8
  9
$DIMFIT
 70
     0
  9
$DIMUPT
 70
     0
  9
$DIMUNIT
 70
     2
  9
$DIMDEC
 70
     2
  9
$DIMTDEC
 70
     3
  9
$DIMALTU
 70
     2
  9
$DIMALTTD
 70
     3
  9
$DIMTXSTY
  7
DIM
  9
$DIMAUNIT
 70
     0
  9
$LUNITS
 70
     2
  9
$LUPREC
 70
     4
  9
$SKETCHINC
 40
0.1
  9
$FILLETRAD
 40
11.5
  9
$AUNITS
 70
     0
  9
$AUPREC
 70
     0
  9
$MENU
  1
C:\ACADR13\WIN\SUPPORT\ACAD.mnc
  9
$ELEVATION
 40
0.0
  9
$PELEVATION
 40
0.0
  9
$THICKNESS
 40
0.0
  9
$LIMCHECK
 70
     0
  9
$BLIPMODE
 70
     1
  9
$CHAMFERA
 40
0.0
  9
$CHAMFERB
 40
0.0
  9
$CHAMFERC
 40
0.0
  9
$CHAMFERD
 40
0.0
  9
$SKPOLY
 70
     0
  9
$TDCREATE
 40
2451564.673924490
  9
$TDUPDATE
 40
2451967.652140289
  9
$TDINDWG
 40
0.0404067130
  9
$TDUSRTIMER
 40
0.0404067130
  9
$USRTIMER
 70
     1
  9
$ANGBASE
 50
0.0
  9
$ANGDIR
 70
     0
  9
$PDMODE
 70
     0
  9
$PDSIZE
 40
0.0
  9
$PLINEWID
 40
0.0
  9
$COORDS
 70
     1
  9
$SPLFRAME
 70
     0
  9
$SPLINETYPE
 70
     6
  9
$SPLINESEGS
 70
     8
  9
$ATTDIA
 70
     0
  9
$ATTREQ
 70
     1
  9
$HANDLING
 70
     1
  9
$HANDSEED
  5
35EF
  9
$SURFTAB1
 70
     6
  9
$SURFTAB2
 70
     6
  9
$SURFTYPE
 70
     6
  9
$SURFU
 70
     6
  9
$SURFV
 70
     6
  9
$UCSNAME
  2

  9
$UCSORG
 10
0.0
 20
0.0
 30
0.0
  9
$UCSXDIR
 10
1.0
 20
0.0
 30
0.0
  9
$UCSYDIR
 10
0.0
 20
1.0
 30
0.0
  9
$PUCSNAME
  2

  9
$PUCSORG
 10
0.0
 20
0.0
 30
0.0
  9
$PUCSXDIR
 10
1.0
 20
0.0
 30
0.0
  9
$PUCSYDIR
 10
0.0
 20
1.0
 30
0.0
  9
$USERI1
 70
     0
  9
$USERI2
 70
     0
  9
$USERI3
 70
     0
  9
$USERI4
 70
     0
  9
$USERI5
 70
     0
  9
$USERR1
 40
0.0
  9
$USERR2
 40
0.0
  9
$USERR3
 40
0.0
  9
$USERR4
 40
0.0
  9
$USERR5
 40
0.0
  9
$WORLDVIEW
 70
     1
  9
$SHADEDGE
 70
     3
  9
$SHADEDIF
 70
    70
  9
$TILEMODE
 70
     1
  9
$MAXACTVP
 70
    16
  9
$PINSBASE
 10
0.0
 20
0.0
 30
0.0
  9
$PLIMCHECK
 70
     0
  9
$PEXTMIN
 10
1.000000E+20
 20
1.000000E+20
 30
1.000000E+20
  9
$PEXTMAX
 10
-1.000000E+20
 20
-1.000000E+20
 30
-1.000000E+20
  9
$PLIMMIN
 10
0.0
 20
0.0
  9
$PLIMMAX
 10
20.0
 20
147.0
  9
$UNITMODE
 70
     0
  9
$VISRETAIN
 70
     0
  9
$PLINEGEN
 70
     0
  9
$PSLTSCALE
 70
     1
  9
$TREEDEPTH
 70
  3020
  9
$PICKSTYLE
 70
     1
  9
$CMLSTYLE
  2
STANDARD
  9
$CMLJUST
 70
     0
  9
$CMLSCALE
 40
1.0
  9
$SAVEIMAGES
 70
     1
  0
ENDSEC
  0
SECTION
  2
CLASSES
  0
CLASS
  1
LWPOLYLINE
  2
AcDbPolyline
  3
"AutoCAD"
 90
    32768
280
     0
281
     1
  0
ENDSEC
  0
SECTION
  2
TABLES
  0
TABLE
  2
VPORT
  5
8
100
AcDbSymbolTable
 70
     2
  0
VPORT
  5
35EE
100
AcDbSymbolTableRecord
100
AcDbViewportTableRecord
  2
*ACTIVE
 70
     0
 10
0.0
 20
0.0
 11
1.0
 21
1.0
 12
1381.623595
 22
979.901171
 13
0.0
 23
0.0
 14
1.0
 24
1.0
 15
0.0
 25
0.0
 16
0.0
 26
0.0
 36
1.0
 17
0.0
 27
0.0
 37
0.0
 40
1959.802344
 41
1.762063
 42
50.0
 43
0.0
 44
0.0
 50
0.0
 51
0.0
 71
     0
 72
   100
 73
     1
 74
     1
 75
     0
 76
     0
 77
     0
 78
     0
  0
ENDTAB
  0
TABLE
  2
LTYPE
  5
5
100
AcDbSymbolTable
 70
     5
  0
LTYPE
  5
12
100
AcDbSymbolTableRecord
100
AcDbLinetypeTableRecord
  2
BYBLOCK
 70
     0
  3

 72
    65
 73
     0
 40
0.0
  0
LTYPE
  5
13
100
AcDbSymbolTableRecord
100
AcDbLinetypeTableRecord
  2
BYLAYER
 70
     0
  3

 72
    65
 73
     0
 40
0.0
  0
LTYPE
  5
14
100
AcDbSymbolTableRecord
100
AcDbLinetypeTableRecord
  2
CONTINUOUS
 70
     0
  3
Solid line
 72
    65
 73
     0
 40
0.0
  0
ENDTAB
  0
TABLE
  2
LAYER
  5
2
100
AcDbSymbolTable
 70
     3
  0
LAYER
  5
F
100
AcDbSymbolTableRecord
100
AcDbLayerTableRecord
  2
0
 70
     0
 62
     7
  6
CONTINUOUS
  0
ENDTAB
  0
TABLE
  2
STYLE
  5
3
100
AcDbSymbolTable
 70
     3
  0
STYLE
  5
10
100
AcDbSymbolTableRecord
100
AcDbTextStyleTableRecord
  2
STANDARD
 70
     0
 40
0.0
 41
0.8
 50
0.0
 71
     0
 42
36.0
  3
simplex
  4
extfont
  0
STYLE
  5
237C
100
AcDbSymbolTableRecord
100
AcDbTextStyleTableRecord
  2
PTSH
 70
     0
 40
0.0
 41
0.9
 50
0.0
 71
     0
 42
4.0
  3
SIMPLEX
  4
EXTFONT
  0
STYLE
  5
2592
100
AcDbSymbolTableRecord
100
AcDbTextStyleTableRecord
  2
DIM
 70
     0
 40
0.0
 41
0.8
 50
0.0
 71
     0
 42
4.0
  3
simplex
  4
extfont
  0
ENDTAB
  0
TABLE
  2
VIEW
  5
6
100
AcDbSymbolTable
 70
     0
  0
ENDTAB
  0
TABLE
  2
UCS
  5
7
100
AcDbSymbolTable
 70
     0
  0
ENDTAB
  0
TABLE
  2
APPID
  5
9
100
AcDbSymbolTable
 70
     1
  0
APPID
  5
11
100
AcDbSymbolTableRecord
100
AcDbRegAppTableRecord
  2
ACAD
 70
     0
  0
ENDTAB
  0
TABLE
  2
DIMSTYLE
  5
A
100
AcDbSymbolTable
 70
     1
  0
DIMSTYLE
105
2237
100
AcDbSymbolTableRecord
100
AcDbDimStyleTableRecord
  2
DIM1
 70
     0
  3
 
  4

  5

  6
_OPEN
  7
_OPEN
 40
9.0
 41
2.8
 42
1.0
 43
5.0
 44
1.0
 45
0.1
 46
0.0
 47
0.0
 48
0.0
140
2.5
141
0.0
142
0.0
143
1.0
144
1.0
145
0.0
146
0.7
147
0.85
 71
     0
 72
     0
 73
     0
 74
     0
 75
     0
 76
     0
 77
     3
 78
     8
170
     0
171
     2
172
     1
173
     1
174
     0
175
     0
176
     2
177
     2
178
     2
270
     2
271
     2
272
     3
273
     2
274
     3
340
2592
275
     0
280
     0
281
     0
282
     0
283
     1
284
     8
285
     8
286
     8
287
     0
288
     0
  0
ENDTAB
  0
TABLE
  2
BLOCK_RECORD
  5
1
100
AcDbSymbolTable
 70
     1
  0
BLOCK_RECORD
  5
18
100
AcDbSymbolTableRecord
100
AcDbBlockTableRecord
  2
*MODEL_SPACE
  0
BLOCK_RECORD
  5
15
100
AcDbSymbolTableRecord
100
AcDbBlockTableRecord
  2
*PAPER_SPACE
  0
BLOCK_RECORD
  5
2448
100
AcDbSymbolTableRecord
100
AcDbBlockTableRecord
  2
_OPEN
  0
ENDTAB
  0
ENDSEC
  0
SECTION
  2
BLOCKS
  0
BLOCK
  5
3C
100
AcDbEntity
  8
0
100
AcDbBlockBegin
  2
*MODEL_SPACE
 70
     0
 10
0.0
 20
0.0
 30
0.0
  3
*MODEL_SPACE
  1

  0
ENDBLK
  5
3D
100
AcDbEntity
  8
0
100
AcDbBlockEnd
  0
BLOCK
  5
3A
100
AcDbEntity
 67
     1
  8
0
100
AcDbBlockBegin
  2
*PAPER_SPACE
 70
     0
 10
0.0
 20
0.0
 30
0.0
  3
*PAPER_SPACE
  1

  0
ENDBLK
  5
3B
100
AcDbEntity
 67
     1
  8
0
100
AcDbBlockEnd
  0
BLOCK
  5
2449
100
AcDbEntity
  8
0
 48
4.0
100
AcDbBlockBegin
  2
_OPEN
 70
     0
 10
0.0
 20
0.0
 30
0.0
  3
_OPEN
  1
H1111.DWG
  0
LINE
  5
244A
100
AcDbEntity
  8
0
  6
BYBLOCK
 62
     0
 48
4.0
100
AcDbLine
 10
-1.0
 20
0.166667
 30
0.0
 11
0.0
 21
0.0
 31
0.0
  0
LINE
  5
244B
100
AcDbEntity
  8
0
  6
BYBLOCK
 62
     0
 48
4.0
100
AcDbLine
 10
0.0
 20
0.0
 30
0.0
 11
-1.0
 21
-0.166667
 31
0.0
  0
LINE
  5
244C
100
AcDbEntity
  8
0
  6
BYBLOCK
 62
     0
 48
4.0
100
AcDbLine
 10
0.0
 20
0.0
 30
0.0
 11
-1.0
 21
0.0
 31
0.0
  0
ENDBLK
  5
244D
100
AcDbEntity
  8
0
 48
4.0
100
AcDbBlockEnd
  0
ENDSEC
  0
SECTION
  2
ENTITIES
  0
MTEXT
  5
ADA
100
AcDbEntity
  8
0
100
AcDbMText
 10
3421.253518
 20
448.6168
 30
0.0
 40
1.8
 41
425.038184
 71
     1
 72
     1
  1

  0
MTEXT
  5
ADB
100
AcDbEntity
  8
0
100
AcDbMText
 10
3501.449399
 20
520.657144
 30
0.0
 40
1.8
 41
408.999008
 71
     1
 72
     1
  1

  0
MTEXT
  5
ADC
100
AcDbEntity
  8
0
100
AcDbMText
 10
3453.33187
 20
-431.876218
 30
0.0
 40
1.8
 41
465.136124
 71
     1
 72
     1
  1

  0
TEXT
  5
2529
100
AcDbEntity
  8
0
  6
CONTINUOUS
100
AcDbText
 10
2489.557815
 20
56.419845
 30
0.0
 40
20.0
  1
SS5V
 41
0.9
  7
PTSH
 72
     1
 11
2522.129244
 21
66.419845
 31
0.0
100
AcDbText
 73
     2
  0
POLYLINE
  5
2563
100
AcDbEntity
  8
0
100
AcDb2dPolyline
 66
     1
 10
0.0
 20
0.0
 30
0.0
 70
     1
  0
VERTEX
  5
3574
100
AcDbEntity
  8
0
100
AcDbVertex
100
AcDb2dVertex
 10
99.0
 20
45.0
 30
0.0
  0
VERTEX
  5
3575
100
AcDbEntity
  8
0
100
AcDbVertex
100
AcDb2dVertex
 10
2574.0
 20
45.0
 30
0.0
  0
VERTEX
  5
3576
100
AcDbEntity
  8
0
100
AcDbVertex
100
AcDb2dVertex
 10
2574.0
 20
1719.0
 30
0.0
  0
VERTEX
  5
3577
100
AcDbEntity
  8
0
100
AcDbVertex
100
AcDb2dVertex
 10
99.0
 20
1719.0
 30
0.0
  0
SEQEND
  5
3578
100
AcDbEntity
  8
0
  0
LINE
  5
2BB7
100
AcDbEntity
  8
0
100
AcDbLine
 10
1520.723432
 20
419.728015
 30
0.0
 11
1570.723432
 21
419.728015
 31
0.0
  0
LINE
  5
2BBA
100
AcDbEntity
  8
0
100
AcDbLine
 10
1520.723432
 20
197.727015
 30
0.0
 11
1570.723432
 21
197.727015
 31
0.0
  0
LINE
  5
2BBE
100
AcDbEntity
  8
0
100
AcDbLine
 10
1608.723432
 20
250.927715
 30
0.0
 11
1532.723432
 21
250.927715
 31
0.0
  0
LINE
  5
2BBF
100
AcDbEntity
  8
0
100
AcDbLine
 10
1532.723432
 20
366.528015
 30
0.0
 11
1608.723432
 21
366.528015
 31
0.0
  0
TEXT
  5
2BC0
100
AcDbEntity
  8
0
100
AcDbText
 10
1208.347762
 20
97.176909
 30
0.0
 40
30.0
  1
TLV  SS5V (JIS20K)
100
AcDbText
  0
LINE
  5
2BC1
100
AcDbEntity
  8
0
100
AcDbLine
 10
1432.564683
 20
1680.743837
 30
0.0
 11
1415.064683
 21
1680.743837
 31
0.0
  0
ARC
  5
2BC2
100
AcDbEntity
  8
0
100
AcDbCircle
 10
1430.653141
 20
1671.956618
 30
0.0
 40
7.56827
100
AcDbArc
 50
46.640741
 51
133.359259
  0
LINE
  5
2BC3
100
AcDbEntity
  8
0
100
AcDbLine
 10
1400.064683
 20
1648.424801
 30
0.0
 11
1430.064683
 21
1648.424801
 31
0.0
  0
LINE
  5
2BC4
100
AcDbEntity
  8
0
100
AcDbLine
 10
1430.064683
 20
1652.743837
 30
0.0
 11
1400.064683
 21
1652.743837
 31
0.0
  0
ARC
  5
2BC5
100
AcDbEntity
  8
0
100
AcDbCircle
 10
1430.653141
 20
1668.265684
 30
0.0
 40
7.56827
100
AcDbArc
 50
226.640741
 51
313.359259
  0
LINE
  5
2BC6
100
AcDbEntity
  8
0
100
AcDbLine
 10
1454.640227
 20
1647.55061
 30
0.0
 11
1396.064683
 21
1647.55061
 31
0.0
  0
LINE
  5
2BC7
100
AcDbEntity
  8
0
100
AcDbLine
 10
1400.064683
 20
1531.076118
 30
0.0
 11
1430.064683
 21
1531.076118
 31
0.0
  0
LINE
  5
2BC8
100
AcDbEntity
  8
0
100
AcDbLine
 10
1430.064683
 20
1526.757083
 30
0.0
 11
1400.064683
 21
1526.757083
 31
0.0
  0
ARC
  5
2BC9
100
AcDbEntity
  8
0
100
AcDbCircle
 10
1430.653141
 20
1507.544302
 30
0.0
 40
7.56827
100
AcDbArc
 50
226.640741
 51
313.359259
  0
LINE
  5
2BCA
100
AcDbEntity
  8
0
100
AcDbLine
 10
1432.564683
 20
1498.757083
 30
0.0
 11
1415.064683
 21
1498.757083
 31
0.0
  0
ARC
  5
2BCB
100
AcDbEntity
  8
0
100
AcDbCircle
 10
1430.653141
 20
1511.235235
 30
0.0
 40
7.56827
100
AcDbArc
 50
46.640741
 51
133.359259
  0
LINE
  5
2BCC
100
AcDbEntity
  8
0
100
AcDbLine
 10
1396.064683
 20
1531.95031
 30
0.0
 11
1454.640927
 21
1531.95031
 31
0.0
  0
LINE
  5
2BCD
100
AcDbEntity
  8
0
100
AcDbLine
 10
1415.064683
 20
1269.994982
 30
0.0
 11
1432.564683
 21
1269.994982
 31
0.0
  0
ARC
  5
2BCE
100
AcDbEntity
  8
0
100
AcDbCircle
 10
1430.653141
 20
1261.207763
 30
0.0
 40
7.56827
100
AcDbArc
 50
46.640741
 51
133.359259
  0
LINE
  5
2BCF
100
AcDbEntity
  8
0
100
AcDbLine
 10
1400.064683
 20
1241.994982
 30
0.0
 11
1430.064683
 21
1241.994982
 31
0.0
  0
LINE
  5
2BD0
100
AcDbEntity
  8
0
100
AcDbLine
 10
1430.064683
 20
1237.675947
 30
0.0
 11
1400.064683
 21
1237.675947
 31
0.0
  0
ARC
  5
2BD1
100
AcDbEntity
  8
0
100
AcDbCircle
 10
1430.653141
 20
1257.516829
 30
0.0
 40
7.56827
100
AcDbArc
 50
226.640741
 51
313.359259
  0
LINE
  5
2BD2
100
AcDbEntity
  8
0
100
AcDbLine
 10
1375.489139
 20
1236.801755
 30
0.0
 11
1434.064683
 21
1236.801755
 31
0.0
  0
CIRCLE
  5
2BD3
100
AcDbEntity
  8
0
100
AcDbCircle
 10
1396.064683
 20
1422.462346
 30
0.0
 40
52.0
  0
POLYLINE
  5
2BD4
100
AcDbEntity
  8
0
100
AcDb2dPolyline
 66
     1
 10
0.0
 20
0.0
 30
0.0
 70
     1
  0
VERTEX
  5
3579
100
AcDbEntity
  8
0
100
AcDbVertex
100
AcDb2dVertex
 10
1394.280074
 20
1422.462346
 30
0.0
  0
VERTEX
  5
357A
100
AcDbEntity
  8
0
100
AcDbVertex
100
AcDb2dVertex
 10
1404.672379
 20
1404.462346
 30
0.0
  0
VERTEX
  5
357B
100
AcDbEntity
  8
0
100
AcDbVertex
100
AcDb2dVertex
 10
1425.456988
 20
1404.462346
 30
0.0
  0
VERTEX
  5
357C
100
AcDbEntity
  8
0
100
AcDbVertex
100
AcDb2dVertex
 10
1435.849293
 20
1422.462346
 30
0.0
  0
VERTEX
  5
357D
100
AcDbEntity
  8
0
100
AcDbVertex
100
AcDb2dVertex
 10
1425.456988
 20
1440.462346
 30
0.0
  0
VERTEX
  5
357E
100
AcDbEntity
  8
0
100
AcDbVertex
100
AcDb2dVertex
 10
1404.672379
 20
1440.462346
 30
0.0
  0
SEQEND
  5
357F
100
AcDbEntity
  8
0
  0
CIRCLE
  5
2BD5
100
AcDbEntity
  8
0
100
AcDbCircle
 10
1415.064683
 20
1422.462346
 30
0.0
 40
17.5
  0
ARC
  5
2BD6
100
AcDbEntity
  8
0
100
AcDbCircle
 10
1430.653141
 20
1100.48638
 30
0.0
 40
7.56827
100
AcDbArc
 50
46.640741
 51
133.359259
  0
LINE
  5
2BD7
100
AcDbEntity
  8
0
100
AcDbLine
 10
1430.064683
 20
1120.327263
 30
0.0
 11
1400.064683
 21
1120.327263
 31
0.0
  0
LINE
  5
2BD8
100
AcDbEntity
  8
0
100
AcDbLine
 10
1400.064683
 20
1116.008228
 30
0.0
 11
1430.064683
 21
1116.008228
 31
0.0
  0
LINE
  5
2BD9
100
AcDbEntity
  8
0
100
AcDbLine
 10
1434.064683
 20
1121.201455
 30
0.0
 11
1375.488439
 21
1121.201455
 31
0.0
  0
ARC
  5
2BDA
100
AcDbEntity
  8
0
100
AcDbCircle
 10
1430.653141
 20
1096.795447
 30
0.0
 40
7.56827
100
AcDbArc
 50
226.640741
 51
313.359259
  0
LINE
  5
2BDB
100
AcDbEntity
  8
0
100
AcDbLine
 10
1415.064683
 20
1088.008228
 30
0.0
 11
1432.564683
 21
1088.008228
 31
0.0
  0
TEXT
  5
2BDC
100
AcDbEntity
  8
0
100
AcDbText
 10
1391.921538
 20
1052.468091
 30
0.0
 40
20.0
  1
20A
 41
0.8
 11
1391.921538
 21
1052.468091
 31
0.0
100
AcDbText
 73
     1
  0
TEXT
  5
2BDD
100
AcDbEntity
  8
0
100
AcDbText
 10
1194.957049
 20
1001.847789
 30
0.0
 40
30.0
  1
TLV  SS5V (PT･SW)
100
AcDbText
  0
LINE
  5
2BE0
100
AcDbEntity
  8
0
100
AcDbLine
 10
679.004456
 20
357.869525
 30
0.0
 11
755.004456
 21
357.869525
 31
0.0
  0
LINE
  5
2BE1
100
AcDbEntity
  8
0
100
AcDbLine
 10
755.004456
 20
242.269225
 30
0.0
 11
679.004456
 21
242.269225
 31
0.0
  0
LINE
  5
2BE2
100
AcDbEntity
  8
0
100
AcDbLine
 10
669.504456
 20
199.068525
 30
0.0
 11
717.004456
 21
199.068525
 31
0.0
  0
ARC
  5
2BE9
100
AcDbEntity
  8
0
100
AcDbCircle
 10
400.186551
 20
330.461981
 30
0.0
 40
90.0
100
AcDbArc
 50
281.501493
 51
298.637876
  0
ARC
  5
2BEA
100
AcDbEntity
  8
0
100
AcDbCircle
 10
398.077374
 20
330.461981
 30
0.0
 40
90.0
100
AcDbArc
 50
241.362124
 51
258.498507
  0
LINE
  5
2BEB
100
AcDbEntity
  8
0
100
AcDbLine
 10
418.131962
 20
242.269225
 30
0.0
 11
380.131962
 21
242.269225
 31
0.0
  0
LINE
  5
2BED
100
AcDbEntity
  8
0
100
AcDbLine
 10
351.631962
 20
199.068525
 30
0.0
 11
399.131962
 21
199.068525
 31
0.0
  0
LINE
  5
2BF0
100
AcDbEntity
  8
0
100
AcDbLine
 10
399.131962
 20
199.068525
 30
0.0
 11
446.631962
 21
199.068525
 31
0.0
  0
LINE
  5
2BF3
100
AcDbEntity
  8
0
100
AcDbLine
 10
414.131962
 20
241.30082
 30
0.0
 11
384.131962
 21
241.30082
 31
0.0
  0
POLYLINE
  5
2BF7
100
AcDbEntity
  8
0
100
AcDb2dPolyline
 66
     1
 10
0.0
 20
0.0
 30
0.0
  0
VERTEX
  5
3580
100
AcDbEntity
  8
0
100
AcDbVertex
100
AcDb2dVertex
 10
383.305804
 20
242.268525
 30
0.0
  0
VERTEX
  5
3581
100
AcDbEntity
  8
0
100
AcDbVertex
100
AcDb2dVertex
 10
384.131962
 20
241.30082
 30
0.0
  0
SEQEND
  5
3582
100
AcDbEntity
  8
0
  0
POLYLINE
  5
2BFD
100
AcDbEntity
  8
0
100
AcDb2dPolyline
 66
     1
 10
0.0
 20
0.0
 30
0.0
  0
VERTEX
  5
3583
100
AcDbEntity
  8
0
100
AcDbVertex
100
AcDb2dVertex
 10
414.95812
 20
242.268525
 30
0.0
  0
VERTEX
  5
3584
100
AcDbEntity
  8
0
100
AcDbVertex
100
AcDb2dVertex
 10
414.131962
 20
241.30082
 30
0.0
  0
SEQEND
  5
3585
100
AcDbEntity
  8
0
  0
LINE
  5
2C07
100
AcDbEntity
  8
0
100
AcDbLine
 10
380.131962
 20
357.869525
 30
0.0
 11
418.131962
 21
357.869525
 31
0.0
  0
LINE
  5
2C08
100
AcDbEntity
  8
0
100
AcDbLine
 10
347.131962
 20
335.974791
 30
0.0
 11
347.131962
 21
264.637005
 31
0.0
  0
ARC
  5
2C09
100
AcDbEntity
  8
0
100
AcDbCircle
 10
362.131962
 20
264.637005
 30
0.0
 40
15.0
100
AcDbArc
 50
180.0
 51
241.362124
  0
ARC
  5
2C0A
100
AcDbEntity
  8
0
100
AcDbCircle
 10
396.674405
 20
269.402878
 30
0.0
 40
90.0
100
AcDbArc
 50
100.591465
 51
117.42363
  0
ARC
  5
2C0B
100
AcDbEntity
  8
0
100
AcDbCircle
 10
362.131962
 20
335.974791
 30
0.0
 40
15.0
100
AcDbArc
 50
117.42363
 51
180.0
  0
LINE
  5
2C0C
100
AcDbEntity
  8
0
100
AcDbLine
 10
451.131962
 20
335.974791
 30
0.0
 11
451.131962
 21
264.637005
 31
0.0
  0
ARC
  5
2C0D
100
AcDbEntity
  8
0
100
AcDbCircle
 10
436.131962
 20
264.637005
 30
0.0
 40
15.0
100
AcDbArc
 50
298.637876
 51
0.0
  0
ARC
  5
2C0E
100
AcDbEntity
  8
0
100
AcDbCircle
 10
401.589519
 20
269.402878
 30
0.0
 40
90.0
100
AcDbArc
 50
62.57637
 51
79.408535
  0
LINE
  5
2C14
100
AcDbEntity
  8
0
100
AcDbLine
 10
414.131962
 20
358.837229
 30
0.0
 11
384.131962
 21
358.837229
 31
0.0
  0
POLYLINE
  5
2C19
100
AcDbEntity
  8
0
100
AcDb2dPolyline
 66
     1
 10
0.0
 20
0.0
 30
0.0
  0
VERTEX
  5
3586
100
AcDbEntity
  8
0
100
AcDbVertex
100
AcDb2dVertex
 10
383.305804
 20
357.869525
 30
0.0
  0
VERTEX
  5
3587
100
AcDbEntity
  8
0
100
AcDbVertex
100
AcDb2dVertex
 10
384.131962
 20
358.837229
 30
0.0
  0
SEQEND
  5
3588
100
AcDbEntity
  8
0
  0
POLYLINE
  5
2C20
100
AcDbEntity
  8
0
100
AcDb2dPolyline
 66
     1
 10
0.0
 20
0.0
 30
0.0
  0
VERTEX
  5
3589
100
AcDbEntity
  8
0
100
AcDbVertex
100
AcDb2dVertex
 10
414.95812
 20
357.869525
 30
0.0
  0
VERTEX
  5
358A
100
AcDbEntity
  8
0
100
AcDbVertex
100
AcDb2dVertex
 10
414.131962
 20
358.837229
 30
0.0
  0
SEQEND
  5
358B
100
AcDbEntity
  8
0
  0
ARC
  5
2C22
100
AcDbEntity
  8
0
100
AcDbCircle
 10
436.131962
 20
335.974791
 30
0.0
 40
15.0
100
AcDbArc
 50
0.0
 51
62.57637
  0
ARC
  5
2C23
100
AcDbEntity
  8
0
100
AcDbCircle
 10
679.004456
 20
256.269225
 30
0.0
 40
14.0
100
AcDbArc
 50
180.0
 51
270.0
  0
ARC
  5
2C24
100
AcDbEntity
  8
0
100
AcDbCircle
 10
586.199038
 20
256.269225
 30
0.0
 40
14.0
100
AcDbArc
 50
270.0
 51
0.0
  0
LINE
  5
2C25
100
AcDbEntity
  8
0
100
AcDbLine
 10
519.491271
 20
245.637293
 30
0.0
 11
499.567515
 21
265.560048
 31
0.0
  0
LINE
  5
2C26
100
AcDbEntity
  8
0
100
AcDbLine
 10
567.199038
 20
199.068525
 30
0.0
 11
614.699038
 21
199.068525
 31
0.0
  0
TEXT
  5
2C28
100
AcDbEntity
  8
0
100
AcDbText
 10
548.799615
 20
163.148365
 30
0.0
 40
20.0
  1
15A
 41
0.8
 11
548.799615
 21
163.148365
 31
0.0
100
AcDbText
 73
     1
  0
LINE
  5
2C29
100
AcDbEntity
  8
0
100
AcDbLine
 10
586.199038
 20
242.269225
 30
0.0
 11
527.622794
 21
242.269225
 31
0.0
  0
LINE
  5
2C2A
100
AcDbEntity
  8
0
100
AcDbLine
 10
519.699038
 20
199.068525
 30
0.0
 11
567.199038
 21
199.068525
 31
0.0
  0
ARC
  5
2C2C
100
AcDbEntity
  8
0
100
AcDbCircle
 10
527.622794
 20
253.769225
 30
0.0
 40
11.5
100
AcDbArc
 50
225.001438
 51
270.0
  0
LINE
  5
2C2F
100
AcDbEntity
  8
0
100
AcDbLine
 10
582.199038
 20
241.30082
 30
0.0
 11
552.199038
 21
241.30082
 31
0.0
  0
POLYLINE
  5
2C34
100
AcDbEntity
  8
0
100
AcDb2dPolyline
 66
     1
 10
0.0
 20
0.0
 30
0.0
  0
VERTEX
  5
358C
100
AcDbEntity
  8
0
100
AcDbVertex
100
AcDb2dVertex
 10
551.37288
 20
242.268525
 30
0.0
  0
VERTEX
  5
358D
100
AcDbEntity
  8
0
100
AcDbVertex
100
AcDb2dVertex
 10
552.199038
 20
241.30082
 30
0.0
  0
SEQEND
  5
358E
100
AcDbEntity
  8
0
  0
POLYLINE
  5
2C3B
100
AcDbEntity
  8
0
100
AcDb2dPolyline
 66
     1
 10
0.0
 20
0.0
 30
0.0
  0
VERTEX
  5
358F
100
AcDbEntity
  8
0
100
AcDbVertex
100
AcDb2dVertex
 10
583.025197
 20
242.268525
 30
0.0
  0
VERTEX
  5
3590
100
AcDbEntity
  8
0
100
AcDbVertex
100
AcDb2dVertex
 10
582.199038
 20
241.30082
 30
0.0
  0
SEQEND
  5
3591
100
AcDbEntity
  8
0
  0
ARC
  5
2C44
100
AcDbEntity
  8
0
100
AcDbCircle
 10
586.199038
 20
343.869525
 30
0.0
 40
14.0
100
AcDbArc
 50
0.0
 51
90.0
  0
LINE
  5
2C45
100
AcDbEntity
  8
0
100
AcDbLine
 10
496.199038
 20
273.691981
 30
0.0
 11
496.199038
 21
326.446069
 31
0.0
  0
ARC
  5
2C46
100
AcDbEntity
  8
0
100
AcDbCircle
 10
507.699038
 20
273.691981
 30
0.0
 40
11.5
100
AcDbArc
 50
180.0
 51
225.001438
  0
LINE
  5
2C47
100
AcDbEntity
  8
0
100
AcDbLine
 10
527.623494
 20
357.869525
 30
0.0
 11
586.199038
 21
357.869525
 31
0.0
  0
ARC
  5
2C48
100
AcDbEntity
  8
0
100
AcDbCircle
 10
527.623494
 20
346.369525
 30
0.0
 40
11.5
100
AcDbArc
 50
90.0
 51
134.998562
  0
LINE
  5
2C49
100
AcDbEntity
  8
0
100
AcDbLine
 10
499.567515
 20
334.578001
 30
0.0
 11
519.491971
 21
354.501457
 31
0.0
  0
ARC
  5
2C4A
100
AcDbEntity
  8
0
100
AcDbCircle
 10
507.699038
 20
326.446069
 30
0.0
 40
11.5
100
AcDbArc
 50
134.998562
 51
180.0
  0
LINE
  5
2C50
100
AcDbEntity
  8
0
100
AcDbLine
 10
582.199038
 20
358.837229
 30
0.0
 11
552.199038
 21
358.837229
 31
0.0
  0
POLYLINE
  5
2C56
100
AcDbEntity
  8
0
100
AcDb2dPolyline
 66
     1
 10
0.0
 20
0.0
 30
0.0
  0
VERTEX
  5
3592
100
AcDbEntity
  8
0
100
AcDbVertex
100
AcDb2dVertex
 10
551.37288
 20
357.869525
 30
0.0
  0
VERTEX
  5
3593
100
AcDbEntity
  8
0
100
AcDbVertex
100
AcDb2dVertex
 10
552.199038
 20
358.837229
 30
0.0
  0
SEQEND
  5
3594
100
AcDbEntity
  8
0
  0
POLYLINE
  5
2C5D
100
AcDbEntity
  8
0
100
AcDb2dPolyline
 66
     1
 10
0.0
 20
0.0
 30
0.0
  0
VERTEX
  5
3595
100
AcDbEntity
  8
0
100
AcDbVertex
100
AcDb2dVertex
 10
583.025197
 20
357.869525
 30
0.0
  0
VERTEX
  5
3596
100
AcDbEntity
  8
0
100
AcDbVertex
100
AcDb2dVertex
 10
582.199038
 20
358.837229
 30
0.0
  0
SEQEND
  5
3597
100
AcDbEntity
  8
0
  0
LINE
  5
2C5F
100
AcDbEntity
  8
0
100
AcDbLine
 10
665.004456
 20
343.869525
 30
0.0
 11
665.004456
 21
256.269225
 31
0.0
  0
LINE
  5
2C60
100
AcDbEntity
  8
0
100
AcDbLine
 10
600.199038
 20
343.869525
 30
0.0
 11
600.199038
 21
256.269225
 31
0.0
  0
ARC
  5
2C61
100
AcDbEntity
  8
0
100
AcDbCircle
 10
679.004456
 20
343.869525
 30
0.0
 40
14.0
100
AcDbArc
 50
90.0
 51
180.0
  0
LINE
  5
2C62
100
AcDbEntity
  8
0
100
AcDbLine
 10
614.906806
 20
737.186012
 30
0.0
 11
634.830562
 21
757.108768
 31
0.0
  0
LINE
  5
2C63
100
AcDbEntity
  8
0
100
AcDbLine
 10
534.199038
 20
835.418244
 30
0.0
 11
534.199038
 21
747.817944
 31
0.0
  0
LINE
  5
2C64
100
AcDbEntity
  8
0
100
AcDbLine
 10
351.631962
 20
401.069525
 30
0.0
 11
399.131962
 21
401.069525
 31
0.0
  0
LINE
  5
2C65
100
AcDbEntity
  8
0
100
AcDbLine
 10
399.131962
 20
401.069525
 30
0.0
 11
446.631962
 21
401.069525
 31
0.0
  0
ELLIPSE
  5
2C66
100
AcDbEntity
  8
0
100
AcDbEllipse
 10
509.526038
 20
582.075624
 30
0.0
 11
-0.0000000000000029
 21
-15.73525959711332
 31
0.0
210
0.0
220
0.0
230
-1.0
 40
0.759965
 41
5.175853117289437
 42
10.53211015065952
  0
ARC
  5
2C67
100
AcDbEntity
  8
0
100
AcDbCircle
 10
548.199038
 20
582.075624
 30
0.0
 40
52.0
100
AcDbArc
 50
65.839982
 51
294.160018
  0
CIRCLE
  5
2C68
100
AcDbEntity
  8
0
100
AcDbCircle
 10
567.199038
 20
582.075624
 30
0.0
 40
47.5
  0
CIRCLE
  5
2C69
100
AcDbEntity
  8
0
100
AcDbCircle
 10
591.947776
 20
557.326887
 30
0.0
 40
6.0
  0
LINE
  5
2C6A
100
AcDbEntity
  8
0
100
AcDbLine
 10
567.199038
 20
401.069525
 30
0.0
 11
614.699038
 21
401.069525
 31
0.0
  0
LINE
  5
2C6B
100
AcDbEntity
  8
0
100
AcDbLine
 10
519.699038
 20
401.069525
 30
0.0
 11
567.199038
 21
401.069525
 31
0.0
  0
LINE
  5
2C6C
100
AcDbEntity
  8
0
100
AcDbLine
 10
570.597142
 20
422.259879
 30
0.0
 11
570.597142
 21
469.528441
 31
0.0
  0
LINE
  5
2C6D
100
AcDbEntity
  8
0
100
AcDbLine
 10
565.870455
 20
445.893316
 30
0.0
 11
565.870455
 21
431.919129
 31
0.0
  0
LINE
  5
2C6E
100
AcDbEntity
  8
0
100
AcDbLine
 10
561.143767
 20
431.919129
 30
0.0
 11
570.597142
 21
422.259879
 31
0.0
  0
LINE
  5
2C6F
100
AcDbEntity
  8
0
100
AcDbLine
 10
565.870455
 20
431.919129
 30
0.0
 11
561.143767
 21
431.919129
 31
0.0
  0
LINE
  5
2C70
100
AcDbEntity
  8
0
100
AcDbLine
 10
561.143767
 20
478.981816
 30
0.0
 11
561.143767
 21
450.621691
 31
0.0
  0
LINE
  5
2C71
100
AcDbEntity
  8
0
100
AcDbLine
 10
570.597142
 20
469.528441
 30
0.0
 11
561.143767
 21
478.981816
 31
0.0
  0
LINE
  5
2C72
100
AcDbEntity
  8
0
100
AcDbLine
 10
561.143767
 20
450.621691
 30
0.0
 11
565.870455
 21
445.893316
 31
0.0
  0
CIRCLE
  5
2C73
100
AcDbEntity
  8
0
100
AcDbCircle
 10
542.450301
 20
557.326887
 30
0.0
 40
6.0
  0
LINE
  5
2C74
100
AcDbEntity
  8
0
100
AcDbLine
 10
548.199038
 20
733.817944
 30
0.0
 11
606.775282
 21
733.817944
 31
0.0
  0
CIRCLE
  5
2C75
100
AcDbEntity
  8
0
100
AcDbCircle
 10
591.947776
 20
606.824362
 30
0.0
 40
6.0
  0
CIRCLE
  5
2C78
100
AcDbEntity
  8
0
100
AcDbCircle
 10
542.450301
 20
606.824362
 30
0.0
 40
6.0
  0
ARC
  5
2C79
100
AcDbEntity
  8
0
100
AcDbCircle
 10
548.199038
 20
747.817944
 30
0.0
 40
14.0
100
AcDbArc
 50
180.0
 51
270.0
  0
LINE
  5
2C87
100
AcDbEntity
  8
0
100
AcDbLine
 10
552.199038
 20
732.849539
 30
0.0
 11
582.199038
 21
732.849539
 31
0.0
  0
POLYLINE
  5
2C8C
100
AcDbEntity
  8
0
100
AcDb2dPolyline
 66
     1
 10
0.0
 20
0.0
 30
0.0
  0
VERTEX
  5
3598
100
AcDbEntity
  8
0
100
AcDbVertex
100
AcDb2dVertex
 10
551.37288
 20
733.817244
 30
0.0
  0
VERTEX
  5
3599
100
AcDbEntity
  8
0
100
AcDbVertex
100
AcDb2dVertex
 10
552.199038
 20
732.849539
 30
0.0
  0
SEQEND
  5
359A
100
AcDbEntity
  8
0
  0
POLYLINE
  5
2C8E
100
AcDbEntity
  8
0
100
AcDb2dPolyline
 66
     1
 10
0.0
 20
0.0
 30
0.0
  0
VERTEX
  5
359B
100
AcDbEntity
  8
0
100
AcDbVertex
100
AcDb2dVertex
 10
583.025197
 20
733.817244
 30
0.0
  0
VERTEX
  5
359C
100
AcDbEntity
  8
0
100
AcDbVertex
100
AcDb2dVertex
 10
582.199038
 20
732.849539
 30
0.0
  0
SEQEND
  5
359D
100
AcDbEntity
  8
0
  0
ARC
  5
2C91
100
AcDbEntity
  8
0
100
AcDbCircle
 10
606.775282
 20
745.317944
 30
0.0
 40
11.5
100
AcDbArc
 50
270.0
 51
314.998562
  0
LINE
  5
2C93
100
AcDbEntity
  8
0
100
AcDbLine
 10
606.774582
 20
849.418244
 30
0.0
 11
548.199038
 21
849.418244
 31
0.0
  0
LINE
  5
2C95
100
AcDbEntity
  8
0
100
AcDbLine
 10
567.199038
 20
892.618094
 30
0.0
 11
519.699038
 21
892.618094
 31
0.0
  0
ARC
  5
2C96
100
AcDbEntity
  8
0
100
AcDbCircle
 10
548.199038
 20
835.418244
 30
0.0
 40
14.0
100
AcDbArc
 50
90.0
 51
180.0
  0
LINE
  5
2C9A
100
AcDbEntity
  8
0
100
AcDbLine
 10
552.199038
 20
850.385948
 30
0.0
 11
582.199038
 21
850.385948
 31
0.0
  0
POLYLINE
  5
2C9C
100
AcDbEntity
  8
0
100
AcDb2dPolyline
 66
     1
 10
0.0
 20
0.0
 30
0.0
  0
VERTEX
  5
359E
100
AcDbEntity
  8
0
100
AcDbVertex
100
AcDb2dVertex
 10
551.37288
 20
849.418244
 30
0.0
  0
VERTEX
  5
359F
100
AcDbEntity
  8
0
100
AcDbVertex
100
AcDb2dVertex
 10
552.199038
 20
850.385948
 30
0.0
  0
SEQEND
  5
35A0
100
AcDbEntity
  8
0
  0
POLYLINE
  5
2C9E
100
AcDbEntity
  8
0
100
AcDb2dPolyline
 66
     1
 10
0.0
 20
0.0
 30
0.0
  0
VERTEX
  5
35A1
100
AcDbEntity
  8
0
100
AcDbVertex
100
AcDb2dVertex
 10
583.025197
 20
849.418244
 30
0.0
  0
VERTEX
  5
35A2
100
AcDbEntity
  8
0
100
AcDbVertex
100
AcDb2dVertex
 10
582.199038
 20
850.385948
 30
0.0
  0
SEQEND
  5
35A3
100
AcDbEntity
  8
0
  0
ARC
  5
2CAC
100
AcDbEntity
  8
0
100
AcDbCircle
 10
626.699038
 20
817.994788
 30
0.0
 40
11.5
100
AcDbArc
 50
360.0
 51
45.001438
  0
LINE
  5
2CAD
100
AcDbEntity
  8
0
100
AcDbLine
 10
638.199038
 20
765.2407
 30
0.0
 11
638.199038
 21
817.994788
 31
0.0
  0
ARC
  5
2CAE
100
AcDbEntity
  8
0
100
AcDbCircle
 10
626.699038
 20
765.2407
 30
0.0
 40
11.5
100
AcDbArc
 50
314.998562
 51
360.0
  0
LINE
  5
2CAF
100
AcDbEntity
  8
0
100
AcDbLine
 10
634.830562
 20
826.12672
 30
0.0
 11
614.906106
 21
846.050176
 31
0.0
  0
ARC
  5
2CB0
100
AcDbEntity
  8
0
100
AcDbCircle
 10
606.774582
 20
837.918244
 30
0.0
 40
11.5
100
AcDbArc
 50
45.001438
 51
90.0
  0
ARC
  5
2CB8
100
AcDbEntity
  8
0
100
AcDbCircle
 10
755.004456
 20
256.269225
 30
0.0
 40
14.0
100
AcDbArc
 50
270.0
 51
0.0
  0
LINE
  5
2CB9
100
AcDbEntity
  8
0
100
AcDbLine
 10
717.004456
 20
199.068525
 30
0.0
 11
764.504456
 21
199.068525
 31
0.0
  0
LINE
  5
2CBC
100
AcDbEntity
  8
0
100
AcDbLine
 10
732.004456
 20
241.30082
 30
0.0
 11
702.004456
 21
241.30082
 31
0.0
  0
POLYLINE
  5
2CC1
100
AcDbEntity
  8
0
100
AcDb2dPolyline
 66
     1
 10
0.0
 20
0.0
 30
0.0
  0
VERTEX
  5
35A4
100
AcDbEntity
  8
0
100
AcDbVertex
100
AcDb2dVertex
 10
701.178297
 20
242.268525
 30
0.0
  0
VERTEX
  5
35A5
100
AcDbEntity
  8
0
100
AcDbVertex
100
AcDb2dVertex
 10
702.004456
 20
241.30082
 30
0.0
  0
SEQEND
  5
35A6
100
AcDbEntity
  8
0
  0
POLYLINE
  5
2CC9
100
AcDbEntity
  8
0
100
AcDb2dPolyline
 66
     1
 10
0.0
 20
0.0
 30
0.0
  0
VERTEX
  5
35A7
100
AcDbEntity
  8
0
100
AcDbVertex
100
AcDb2dVertex
 10
732.830614
 20
242.268525
 30
0.0
  0
VERTEX
  5
35A8
100
AcDbEntity
  8
0
100
AcDbVertex
100
AcDb2dVertex
 10
732.004456
 20
241.30082
 30
0.0
  0
SEQEND
  5
35A9
100
AcDbEntity
  8
0
  0
LINE
  5
2CCF
100
AcDbEntity
  8
0
100
AcDbLine
 10
769.004456
 20
343.869525
 30
0.0
 11
769.004456
 21
256.269225
 31
0.0
  0
LINE
  5
2CD5
100
AcDbEntity
  8
0
100
AcDbLine
 10
732.004456
 20
358.837229
 30
0.0
 11
702.004456
 21
358.837229
 31
0.0
  0
POLYLINE
  5
2CDB
100
AcDbEntity
  8
0
100
AcDb2dPolyline
 66
     1
 10
0.0
 20
0.0
 30
0.0
  0
VERTEX
  5
35AA
100
AcDbEntity
  8
0
100
AcDbVertex
100
AcDb2dVertex
 10
701.178297
 20
357.869525
 30
0.0
  0
VERTEX
  5
35AB
100
AcDbEntity
  8
0
100
AcDbVertex
100
AcDb2dVertex
 10
702.004456
 20
358.837229
 30
0.0
  0
SEQEND
  5
35AC
100
AcDbEntity
  8
0
  0
POLYLINE
  5
2CE2
100
AcDbEntity
  8
0
100
AcDb2dPolyline
 66
     1
 10
0.0
 20
0.0
 30
0.0
  0
VERTEX
  5
35AD
100
AcDbEntity
  8
0
100
AcDbVertex
100
AcDb2dVertex
 10
732.830614
 20
357.869525
 30
0.0
  0
VERTEX
  5
35AE
100
AcDbEntity
  8
0
100
AcDbVertex
100
AcDb2dVertex
 10
732.004456
 20
358.837229
 30
0.0
  0
SEQEND
  5
35AF
100
AcDbEntity
  8
0
  0
ARC
  5
2CE4
100
AcDbEntity
  8
0
100
AcDbCircle
 10
755.004456
 20
343.869525
 30
0.0
 40
14.0
100
AcDbArc
 50
0.0
 51
90.0
  0
LINE
  5
2CE5
100
AcDbEntity
  8
0
100
AcDbLine
 10
1356.620299
 20
366.528015
 30
0.0
 11
1415.195843
 21
366.528015
 31
0.0
  0
LINE
  5
2CE6
100
AcDbEntity
  8
0
100
AcDbLine
 10
1415.195843
 20
250.927715
 30
0.0
 11
1356.619599
 21
250.927715
 31
0.0
  0
LINE
  5
2CE7
100
AcDbEntity
  8
0
100
AcDbLine
 10
1346.195843
 20
197.727015
 30
0.0
 11
1396.195843
 21
197.727015
 31
0.0
  0
ARC
  5
2CE9
100
AcDbEntity
  8
0
100
AcDbCircle
 10
1356.619599
 20
262.427715
 30
0.0
 40
11.5
100
AcDbArc
 50
225.001438
 51
270.0
  0
ARC
  5
2CEA
100
AcDbEntity
  8
0
100
AcDbCircle
 10
1229.033724
 20
339.120471
 30
0.0
 40
90.0
100
AcDbArc
 50
281.501493
 51
298.637876
  0
ARC
  5
2CEB
100
AcDbEntity
  8
0
100
AcDbCircle
 10
1226.924547
 20
339.120471
 30
0.0
 40
90.0
100
AcDbArc
 50
241.362124
 51
258.498507
  0
LINE
  5
2CED
100
AcDbEntity
  8
0
100
AcDbLine
 10
1227.979136
 20
197.727015
 30
0.0
 11
1277.979136
 21
197.727015
 31
0.0
  0
LINE
  5
2CF0
100
AcDbEntity
  8
0
100
AcDbLine
 10
1177.979136
 20
197.727015
 30
0.0
 11
1227.979136
 21
197.727015
 31
0.0
  0
LINE
  5
2CF3
100
AcDbEntity
  8
0
100
AcDbLine
 10
1246.979136
 20
250.927715
 30
0.0
 11
1208.979136
 21
250.927715
 31
0.0
  0
ARC
  5
2D04
100
AcDbEntity
  8
0
100
AcDbCircle
 10
1230.436693
 20
278.061368
 30
0.0
 40
90.0
100
AcDbArc
 50
62.57637
 51
79.408535
  0
LINE
  5
2D05
100
AcDbEntity
  8
0
100
AcDbLine
 10
1175.979136
 20
344.633281
 30
0.0
 11
1175.979136
 21
273.295495
 31
0.0
  0
ARC
  5
2D06
100
AcDbEntity
  8
0
100
AcDbCircle
 10
1190.979136
 20
273.295495
 30
0.0
 40
15.0
100
AcDbArc
 50
180.0
 51
241.362124
  0
ARC
  5
2D07
100
AcDbEntity
  8
0
100
AcDbCircle
 10
1225.521579
 20
278.061368
 30
0.0
 40
90.0
100
AcDbArc
 50
100.591465
 51
117.42363
  0
ARC
  5
2D08
100
AcDbEntity
  8
0
100
AcDbCircle
 10
1190.979136
 20
344.633281
 30
0.0
 40
15.0
100
AcDbArc
 50
117.42363
 51
180.0
  0
LINE
  5
2D0D
100
AcDbEntity
  8
0
100
AcDbLine
 10
1208.979136
 20
366.528015
 30
0.0
 11
1246.979136
 21
366.528015
 31
0.0
  0
LINE
  5
2D16
100
AcDbEntity
  8
0
100
AcDbLine
 10
1325.195843
 20
282.350471
 30
0.0
 11
1325.195843
 21
335.104559
 31
0.0
  0
LINE
  5
2D17
100
AcDbEntity
  8
0
100
AcDbLine
 10
1279.979136
 20
344.633281
 30
0.0
 11
1279.979136
 21
273.295495
 31
0.0
  0
ARC
  5
2D18
100
AcDbEntity
  8
0
100
AcDbCircle
 10
1264.979136
 20
273.295495
 30
0.0
 40
15.0
100
AcDbArc
 50
298.637876
 51
0.0
  0
LINE
  5
2D19
100
AcDbEntity
  8
0
100
AcDbLine
 10
1348.488075
 20
254.295783
 30
0.0
 11
1328.564319
 21
274.218539
 31
0.0
  0
ARC
  5
2D1A
100
AcDbEntity
  8
0
100
AcDbCircle
 10
1336.695843
 20
282.350471
 30
0.0
 40
11.5
100
AcDbArc
 50
180.0
 51
225.001438
  0
ARC
  5
2D1B
100
AcDbEntity
  8
0
100
AcDbCircle
 10
1264.979136
 20
344.633281
 30
0.0
 40
15.0
100
AcDbArc
 50
0.0
 51
62.57637
  0
ARC
  5
2D1C
100
AcDbEntity
  8
0
100
AcDbCircle
 10
1356.620299
 20
355.028015
 30
0.0
 40
11.5
100
AcDbArc
 50
90.0
 51
134.998562
  0
LINE
  5
2D1D
100
AcDbEntity
  8
0
100
AcDbLine
 10
1328.564319
 20
343.236491
 30
0.0
 11
1348.488775
 21
363.159947
 31
0.0
  0
ARC
  5
2D1E
100
AcDbEntity
  8
0
100
AcDbCircle
 10
1336.695843
 20
335.104559
 30
0.0
 40
11.5
100
AcDbArc
 50
134.998562
 51
180.0
  0
ARC
  5
2D1F
100
AcDbEntity
  8
0
100
AcDbCircle
 10
1532.723432
 20
264.927715
 30
0.0
 40
14.0
100
AcDbArc
 50
180.0
 51
270.0
  0
ARC
  5
2D20
100
AcDbEntity
  8
0
100
AcDbCircle
 10
1415.195843
 20
264.927715
 30
0.0
 40
14.0
100
AcDbArc
 50
270.0
 51
0.0
  0
TEXT
  5
2D21
100
AcDbEntity
  8
0
100
AcDbText
 10
1377.366813
 20
160.737513
 30
0.0
 40
20.0
  1
20A
 41
0.8
 11
1377.366813
 21
160.737513
 31
0.0
100
AcDbText
 73
     1
  0
LINE
  5
2D25
100
AcDbEntity
  8
0
100
AcDbLine
 10
1396.195843
 20
197.727015
 30
0.0
 11
1446.195843
 21
197.727015
 31
0.0
  0
LINE
  5
2D3C
100
AcDbEntity
  8
0
100
AcDbLine
 10
1429.195843
 20
352.528015
 30
0.0
 11
1429.195843
 21
264.927715
 31
0.0
  0
LINE
  5
2D3D
100
AcDbEntity
  8
0
100
AcDbLine
 10
1411.195843
 20
367.969101
 30
0.0
 11
1412.533407
 21
366.528015
 31
0.0
  0
LINE
  5
2D41
100
AcDbEntity
  8
0
100
AcDbLine
 10
1411.195843
 20
367.969101
 30
0.0
 11
1381.195843
 21
367.969101
 31
0.0
  0
LINE
  5
2D44
100
AcDbEntity
  8
0
100
AcDbLine
 10
1381.195843
 20
367.969101
 30
0.0
 11
1379.858279
 21
366.528015
 31
0.0
  0
ARC
  5
2D49
100
AcDbEntity
  8
0
100
AcDbCircle
 10
1415.195843
 20
352.528015
 30
0.0
 40
14.0
100
AcDbArc
 50
0.0
 51
90.0
  0
LINE
  5
2D4A
100
AcDbEntity
  8
0
100
AcDbLine
 10
1518.723432
 20
352.528015
 30
0.0
 11
1518.723432
 21
264.927715
 31
0.0
  0
ARC
  5
2D4B
100
AcDbEntity
  8
0
100
AcDbCircle
 10
1532.723432
 20
352.528015
 30
0.0
 40
14.0
100
AcDbArc
 50
90.0
 51
180.0
  0
LINE
  5
2D50
100
AcDbEntity
  8
0
100
AcDbLine
 10
717.004456
 20
401.069525
 30
0.0
 11
764.504456
 21
401.069525
 31
0.0
  0
LINE
  5
2D53
100
AcDbEntity
  8
0
100
AcDbLine
 10
1396.195843
 20
687.33895
 30
0.0
 11
1346.195843
 21
687.33895
 31
0.0
  0
ARC
  5
2D55
100
AcDbEntity
  8
0
100
AcDbCircle
 10
1377.195843
 20
582.075624
 30
0.0
 40
52.0
100
AcDbArc
 50
73.385483
 51
286.614517
  0
CIRCLE
  5
2D56
100
AcDbEntity
  8
0
100
AcDbCircle
 10
1396.195843
 20
582.075624
 30
0.0
 40
50.0
  0
LINE
  5
2D57
100
AcDbEntity
  8
0
100
AcDbLine
 10
1346.195843
 20
419.728015
 30
0.0
 11
1396.195843
 21
419.728015
 31
0.0
  0
LINE
  5
2D59
100
AcDbEntity
  8
0
100
AcDbLine
 10
1227.979136
 20
419.728015
 30
0.0
 11
1277.979136
 21
419.728015
 31
0.0
  0
LINE
  5
2D5D
100
AcDbEntity
  8
0
100
AcDbLine
 10
1177.979136
 20
419.728015
 30
0.0
 11
1227.979136
 21
419.728015
 31
0.0
  0
ELLIPSE
  5
2D62
100
AcDbEntity
  8
0
100
AcDbEllipse
 10
1338.522843
 20
582.075624
 30
0.0
 11
-0.0000000000000029
 21
-15.73525959711332
 31
0.0
210
0.0
220
0.0
230
-1.0
 40
0.759965
 41
5.454190189318985
 42
10.25377307863055
  0
CIRCLE
  5
2D64
100
AcDbEntity
  8
0
100
AcDbCircle
 10
1422.712347
 20
555.55912
 30
0.0
 40
6.0
  0
CIRCLE
  5
2D65
100
AcDbEntity
  8
0
100
AcDbCircle
 10
1369.679338
 20
555.55912
 30
0.0
 40
6.0
  0
LINE
  5
2D66
100
AcDbEntity
  8
0
100
AcDbLine
 10
1384.430363
 20
496.019553
 30
0.0
 11
1384.430363
 21
467.659428
 31
0.0
  0
LINE
  5
2D67
100
AcDbEntity
  8
0
100
AcDbLine
 10
1393.883738
 20
486.566178
 30
0.0
 11
1384.430363
 21
496.019553
 31
0.0
  0
LINE
  5
2D69
100
AcDbEntity
  8
0
100
AcDbLine
 10
1396.195843
 20
419.728015
 30
0.0
 11
1446.195843
 21
419.728015
 31
0.0
  0
LINE
  5
2D6B
100
AcDbEntity
  8
0
100
AcDbLine
 10
1393.883738
 20
439.297615
 30
0.0
 11
1393.883738
 21
486.566178
 31
0.0
  0
LINE
  5
2D6C
100
AcDbEntity
  8
0
100
AcDbLine
 10
1384.430363
 20
448.956865
 30
0.0
 11
1393.883738
 21
439.297615
 31
0.0
  0
LINE
  5
2D6D
100
AcDbEntity
  8
0
100
AcDbLine
 10
1384.430363
 20
467.659428
 30
0.0
 11
1389.157051
 21
462.931053
 31
0.0
  0
LINE
  5
2D6E
100
AcDbEntity
  8
0
100
AcDbLine
 10
1389.157051
 20
448.956865
 30
0.0
 11
1384.430363
 21
448.956865
 31
0.0
  0
LINE
  5
2D6F
100
AcDbEntity
  8
0
100
AcDbLine
 10
1389.157051
 20
462.931053
 30
0.0
 11
1389.157051
 21
448.956865
 31
0.0
  0
CIRCLE
  5
2D74
100
AcDbEntity
  8
0
100
AcDbCircle
 10
1369.679338
 20
608.592129
 30
0.0
 40
6.0
  0
CIRCLE
  5
2D75
100
AcDbEntity
  8
0
100
AcDbCircle
 10
1422.712347
 20
608.592129
 30
0.0
 40
6.0
  0
LINE
  5
2D78
100
AcDbEntity
  8
0
100
AcDbLine
 10
1446.195843
 20
687.33895
 30
0.0
 11
1396.195843
 21
687.33895
 31
0.0
  0
LINE
  5
2D81
100
AcDbEntity
  8
0
100
AcDbLine
 10
1396.195843
 20
909.33995
 30
0.0
 11
1346.195843
 21
909.33995
 31
0.0
  0
ARC
  5
2D86
100
AcDbEntity
  8
0
100
AcDbCircle
 10
1455.695843
 20
824.716494
 30
0.0
 40
11.5
100
AcDbArc
 50
360.0
 51
45.001438
  0
ARC
  5
2D87
100
AcDbEntity
  8
0
100
AcDbCircle
 10
1455.695843
 20
771.962406
 30
0.0
 40
11.5
100
AcDbArc
 50
314.998562
 51
360.0
  0
LINE
  5
2D88
100
AcDbEntity
  8
0
100
AcDbLine
 10
1363.195843
 20
842.13995
 30
0.0
 11
1363.195843
 21
754.53965
 31
0.0
  0
LINE
  5
2D8B
100
AcDbEntity
  8
0
100
AcDbLine
 10
1377.195843
 20
740.53965
 30
0.0
 11
1435.772087
 21
740.53965
 31
0.0
  0
ARC
  5
2D8E
100
AcDbEntity
  8
0
100
AcDbCircle
 10
1377.195843
 20
754.53965
 30
0.0
 40
14.0
100
AcDbArc
 50
180.0
 51
270.0
  0
LINE
  5
2D8F
100
AcDbEntity
  8
0
100
AcDbLine
 10
1443.903611
 20
743.907718
 30
0.0
 11
1463.827367
 21
763.830474
 31
0.0
  0
ARC
  5
2D90
100
AcDbEntity
  8
0
100
AcDbCircle
 10
1435.772087
 20
752.03965
 30
0.0
 40
11.5
100
AcDbArc
 50
270.0
 51
314.998562
  0
LINE
  5
2D94
100
AcDbEntity
  8
0
100
AcDbLine
 10
1435.771387
 20
856.13995
 30
0.0
 11
1377.195843
 21
856.13995
 31
0.0
  0
ARC
  5
2D96
100
AcDbEntity
  8
0
100
AcDbCircle
 10
1377.195843
 20
842.13995
 30
0.0
 40
14.0
100
AcDbArc
 50
90.0
 51
180.0
  0
ARC
  5
2D97
100
AcDbEntity
  8
0
100
AcDbCircle
 10
1435.771387
 20
844.63995
 30
0.0
 40
11.5
100
AcDbArc
 50
45.001438
 51
90.0
  0
LINE
  5
2D99
100
AcDbEntity
  8
0
100
AcDbLine
 10
1463.827367
 20
832.848426
 30
0.0
 11
1443.902911
 21
852.771882
 31
0.0
  0
LINE
  5
2D9A
100
AcDbEntity
  8
0
100
AcDbLine
 10
1467.195843
 20
771.962406
 30
0.0
 11
1467.195843
 21
824.716494
 31
0.0
  0
LINE
  5
2D9B
100
AcDbEntity
  8
0
100
AcDbLine
 10
1446.195843
 20
909.33995
 30
0.0
 11
1396.195843
 21
909.33995
 31
0.0
  0
ARC
  5
2DA9
100
AcDbEntity
  8
0
100
AcDbCircle
 10
645.979675
 20
1236.295132
 30
0.0
 40
14.0
100
AcDbArc
 50
90.0
 51
180.0
  0
ARC
  5
2DAA
100
AcDbEntity
  8
0
100
AcDbCircle
 10
645.979675
 20
1148.694832
 30
0.0
 40
14.0
100
AcDbArc
 50
180.0
 51
270.0
  0
LINE
  5
2DAC
100
AcDbEntity
  8
0
100
AcDbLine
 10
518.299458
 20
1637.607468
 30
0.0
 11
518.299458
 21
1550.007168
 31
0.0
  0
TEXT
  5
2DAD
100
AcDbEntity
  8
0
100
AcDbText
 10
241.095894
 20
1596.539614
 30
0.0
 40
25.0
  1
背面
100
AcDbText
  0
LINE
  5
2DAE
100
AcDbEntity
  8
0
100
AcDbLine
 10
553.380455
 20
1287.164683
 30
0.0
 11
553.380455
 21
1334.433245
 31
0.0
  0
LINE
  5
2DAF
100
AcDbEntity
  8
0
100
AcDbLine
 10
543.92708
 20
1296.823933
 30
0.0
 11
553.380455
 21
1287.164683
 31
0.0
  0
ARC
  5
2DB0
100
AcDbEntity
  8
0
100
AcDbCircle
 10
406.548396
 20
1157.062613
 30
0.0
 40
15.0
100
AcDbArc
 50
298.637876
 51
0.0
  0
ARC
  5
2DB1
100
AcDbEntity
  8
0
100
AcDbCircle
 10
332.548396
 20
1157.062613
 30
0.0
 40
15.0
100
AcDbArc
 50
180.0
 51
241.362124
  0
LINE
  5
2DB2
100
AcDbEntity
  8
0
100
AcDbLine
 10
388.548396
 20
1134.694832
 30
0.0
 11
350.548396
 21
1134.694832
 31
0.0
  0
LINE
  5
2DB3
100
AcDbEntity
  8
0
100
AcDbLine
 10
384.548396
 20
1129.494982
 30
0.0
 11
354.548396
 21
1129.494982
 31
0.0
  0
LINE
  5
2DB4
100
AcDbEntity
  8
0
100
AcDbLine
 10
384.548396
 20
1134.108435
 30
0.0
 11
354.548396
 21
1134.108435
 31
0.0
  0
ARC
  5
2DB5
100
AcDbEntity
  8
0
100
AcDbCircle
 10
377.548396
 20
1129.094342
 30
0.0
 40
13.299346
100
AcDbArc
 50
233.020205
 51
306.979795
  0
ARC
  5
2DB6
100
AcDbEntity
  8
0
100
AcDbCircle
 10
377.548396
 20
1115.395622
 30
0.0
 40
13.299346
100
AcDbArc
 50
53.020205
 51
126.979795
  0
LINE
  5
2DB7
100
AcDbEntity
  8
0
100
AcDbLine
 10
384.548396
 20
1114.994982
 30
0.0
 11
369.548396
 21
1114.994982
 31
0.0
  0
ARC
  5
2DB8
100
AcDbEntity
  8
0
100
AcDbCircle
 10
368.493807
 20
1222.887588
 30
0.0
 40
90.0
100
AcDbArc
 50
241.362124
 51
258.498507
  0
LINE
  5
2DB9
100
AcDbEntity
  8
0
100
AcDbLine
 10
369.548396
 20
1114.994982
 30
0.0
 11
354.548396
 21
1114.994982
 31
0.0
  0
LINE
  5
2DBA
100
AcDbEntity
  8
0
100
AcDbLine
 10
354.548396
 20
1114.994982
 30
0.0
 11
353.548396
 21
1118.470191
 31
0.0
  0
LINE
  5
2DBB
100
AcDbEntity
  8
0
100
AcDbLine
 10
354.548396
 20
1129.494982
 30
0.0
 11
353.548396
 21
1126.019773
 31
0.0
  0
POLYLINE
  5
2DBC
100
AcDbEntity
  8
0
100
AcDb2dPolyline
 66
     1
 10
0.0
 20
0.0
 30
0.0
  0
VERTEX
  5
35B0
100
AcDbEntity
  8
0
100
AcDbVertex
100
AcDb2dVertex
 10
354.087892
 20
1134.694832
 30
0.0
  0
VERTEX
  5
35B1
100
AcDbEntity
  8
0
100
AcDbVertex
100
AcDb2dVertex
 10
354.548396
 20
1134.108435
 30
0.0
  0
SEQEND
  5
35B2
100
AcDbEntity
  8
0
  0
LINE
  5
2DBD
100
AcDbEntity
  8
0
100
AcDbLine
 10
354.548396
 20
1129.494982
 30
0.0
 11
354.548396
 21
1134.108435
 31
0.0
  0
LINE
  5
2DBE
100
AcDbEntity
  8
0
100
AcDbLine
 10
353.548396
 20
1126.019773
 30
0.0
 11
353.548396
 21
1118.470191
 31
0.0
  0
LINE
  5
2DBF
100
AcDbEntity
  8
0
100
AcDbLine
 10
369.548396
 20
1126.019773
 30
0.0
 11
369.548396
 21
1118.470191
 31
0.0
  0
ARC
  5
2DC0
100
AcDbEntity
  8
0
100
AcDbCircle
 10
361.548396
 20
1129.094342
 30
0.0
 40
13.299346
100
AcDbArc
 50
233.020205
 51
306.979795
  0
ARC
  5
2DC1
100
AcDbEntity
  8
0
100
AcDbCircle
 10
361.548396
 20
1115.395622
 30
0.0
 40
13.299346
100
AcDbArc
 50
53.020205
 51
126.979795
  0
ARC
  5
2DC2
100
AcDbEntity
  8
0
100
AcDbCircle
 10
370.602984
 20
1222.887588
 30
0.0
 40
90.0
100
AcDbArc
 50
281.501493
 51
298.637876
  0
LINE
  5
2DC3
100
AcDbEntity
  8
0
100
AcDbLine
 10
384.548396
 20
1114.994982
 30
0.0
 11
385.548396
 21
1118.470191
 31
0.0
  0
LINE
  5
2DC4
100
AcDbEntity
  8
0
100
AcDbLine
 10
384.548396
 20
1129.494982
 30
0.0
 11
385.548396
 21
1126.019773
 31
0.0
  0
POLYLINE
  5
2DC5
100
AcDbEntity
  8
0
100
AcDb2dPolyline
 66
     1
 10
0.0
 20
0.0
 30
0.0
  0
VERTEX
  5
35B3
100
AcDbEntity
  8
0
100
AcDbVertex
100
AcDb2dVertex
 10
385.008899
 20
1134.694832
 30
0.0
  0
VERTEX
  5
35B4
100
AcDbEntity
  8
0
100
AcDbVertex
100
AcDb2dVertex
 10
384.548396
 20
1134.108435
 30
0.0
  0
SEQEND
  5
35B5
100
AcDbEntity
  8
0
  0
LINE
  5
2DC6
100
AcDbEntity
  8
0
100
AcDbLine
 10
384.548396
 20
1129.494982
 30
0.0
 11
384.548396
 21
1134.108435
 31
0.0
  0
LINE
  5
2DC7
100
AcDbEntity
  8
0
100
AcDbLine
 10
385.548396
 20
1126.019773
 30
0.0
 11
385.548396
 21
1118.470191
 31
0.0
  0
ARC
  5
2DC8
100
AcDbEntity
  8
0
100
AcDbCircle
 10
332.548396
 20
1228.400399
 30
0.0
 40
15.0
100
AcDbArc
 50
117.42363
 51
180.0
  0
LINE
  5
2DC9
100
AcDbEntity
  8
0
100
AcDbLine
 10
317.548396
 20
1228.400399
 30
0.0
 11
317.548396
 21
1157.062613
 31
0.0
  0
TEXT
  5
2DCA
100
AcDbEntity
  8
0
100
AcDbText
 10
241.095894
 20
1190.997792
 30
0.0
 40
25.0
  1
正面
100
AcDbText
  0
LINE
  5
2DCB
100
AcDbEntity
  8
0
100
AcDbLine
 10
421.548396
 20
1228.400399
 30
0.0
 11
421.548396
 21
1157.062613
 31
0.0
  0
LINE
  5
2DCC
100
AcDbEntity
  8
0
100
AcDbLine
 10
350.548396
 20
1250.295132
 30
0.0
 11
388.548396
 21
1250.295132
 31
0.0
  0
LINE
  5
2DCD
100
AcDbEntity
  8
0
100
AcDbLine
 10
384.548396
 20
1269.994982
 30
0.0
 11
369.548396
 21
1269.994982
 31
0.0
  0
ARC
  5
2DCE
100
AcDbEntity
  8
0
100
AcDbCircle
 10
377.548396
 20
1269.594342
 30
0.0
 40
13.299346
100
AcDbArc
 50
233.020205
 51
306.979795
  0
ARC
  5
2DCF
100
AcDbEntity
  8
0
100
AcDbCircle
 10
377.548396
 20
1255.895622
 30
0.0
 40
13.299346
100
AcDbArc
 50
53.020205
 51
126.979795
  0
LINE
  5
2DD0
100
AcDbEntity
  8
0
100
AcDbLine
 10
384.548396
 20
1250.881529
 30
0.0
 11
354.548396
 21
1250.881529
 31
0.0
  0
LINE
  5
2DD1
100
AcDbEntity
  8
0
100
AcDbLine
 10
384.548396
 20
1255.494982
 30
0.0
 11
354.548396
 21
1255.494982
 31
0.0
  0
LINE
  5
2DD2
100
AcDbEntity
  8
0
100
AcDbLine
 10
354.548396
 20
1255.494982
 30
0.0
 11
354.548396
 21
1250.881529
 31
0.0
  0
ARC
  5
2DD3
100
AcDbEntity
  8
0
100
AcDbCircle
 10
367.090839
 20
1161.828485
 30
0.0
 40
90.0
100
AcDbArc
 50
100.591465
 51
117.42363
  0
POLYLINE
  5
2DD4
100
AcDbEntity
  8
0
100
AcDb2dPolyline
 66
     1
 10
0.0
 20
0.0
 30
0.0
  0
VERTEX
  5
35B6
100
AcDbEntity
  8
0
100
AcDbVertex
100
AcDb2dVertex
 10
354.087892
 20
1250.295132
 30
0.0
  0
VERTEX
  5
35B7
100
AcDbEntity
  8
0
100
AcDbVertex
100
AcDb2dVertex
 10
354.548396
 20
1250.881529
 30
0.0
  0
SEQEND
  5
35B8
100
AcDbEntity
  8
0
  0
ARC
  5
2DD5
100
AcDbEntity
  8
0
100
AcDbCircle
 10
361.548396
 20
1269.594342
 30
0.0
 40
13.299346
100
AcDbArc
 50
233.020205
 51
306.979795
  0
ARC
  5
2DD6
100
AcDbEntity
  8
0
100
AcDbCircle
 10
361.548396
 20
1255.895622
 30
0.0
 40
13.299346
100
AcDbArc
 50
53.020205
 51
126.979795
  0
LINE
  5
2DD7
100
AcDbEntity
  8
0
100
AcDbLine
 10
369.548396
 20
1258.970191
 30
0.0
 11
369.548396
 21
1266.519773
 31
0.0
  0
LINE
  5
2DD8
100
AcDbEntity
  8
0
100
AcDbLine
 10
353.548396
 20
1258.970191
 30
0.0
 11
353.548396
 21
1266.519773
 31
0.0
  0
LINE
  5
2DD9
100
AcDbEntity
  8
0
100
AcDbLine
 10
354.548396
 20
1255.494982
 30
0.0
 11
353.548396
 21
1258.970191
 31
0.0
  0
LINE
  5
2DDA
100
AcDbEntity
  8
0
100
AcDbLine
 10
354.548396
 20
1269.994982
 30
0.0
 11
353.548396
 21
1266.519773
 31
0.0
  0
LINE
  5
2DDB
100
AcDbEntity
  8
0
100
AcDbLine
 10
369.548396
 20
1269.994982
 30
0.0
 11
354.548396
 21
1269.994982
 31
0.0
  0
LINE
  5
2DDC
100
AcDbEntity
  8
0
100
AcDbLine
 10
384.548396
 20
1255.494982
 30
0.0
 11
384.548396
 21
1250.881529
 31
0.0
  0
ARC
  5
2DDD
100
AcDbEntity
  8
0
100
AcDbCircle
 10
372.005953
 20
1161.828485
 30
0.0
 40
90.0
100
AcDbArc
 50
62.57637
 51
79.408535
  0
POLYLINE
  5
2DDE
100
AcDbEntity
  8
0
100
AcDb2dPolyline
 66
     1
 10
0.0
 20
0.0
 30
0.0
  0
VERTEX
  5
35B9
100
AcDbEntity
  8
0
100
AcDbVertex
100
AcDb2dVertex
 10
385.008899
 20
1250.295132
 30
0.0
  0
VERTEX
  5
35BA
100
AcDbEntity
  8
0
100
AcDbVertex
100
AcDb2dVertex
 10
384.548396
 20
1250.881529
 30
0.0
  0
SEQEND
  5
35BB
100
AcDbEntity
  8
0
  0
ARC
  5
2DDF
100
AcDbEntity
  8
0
100
AcDbCircle
 10
406.548396
 20
1228.400399
 30
0.0
 40
15.0
100
AcDbArc
 50
0.0
 51
62.57637
  0
LINE
  5
2DE0
100
AcDbEntity
  8
0
100
AcDbLine
 10
385.548396
 20
1258.970191
 30
0.0
 11
385.548396
 21
1266.519773
 31
0.0
  0
LINE
  5
2DE1
100
AcDbEntity
  8
0
100
AcDbLine
 10
384.548396
 20
1255.494982
 30
0.0
 11
385.548396
 21
1258.970191
 31
0.0
  0
LINE
  5
2DE2
100
AcDbEntity
  8
0
100
AcDbLine
 10
384.548396
 20
1269.994982
 30
0.0
 11
385.548396
 21
1266.519773
 31
0.0
  0
ARC
  5
2DE3
100
AcDbEntity
  8
0
100
AcDbCircle
 10
570.299458
 20
1148.694832
 30
0.0
 40
14.0
100
AcDbArc
 50
270.0
 51
0.0
  0
LINE
  5
2DE4
100
AcDbEntity
  8
0
100
AcDbLine
 10
503.59169
 20
1138.0629
 30
0.0
 11
483.667934
 21
1157.985656
 31
0.0
  0
LINE
  5
2DE5
100
AcDbEntity
  8
0
100
AcDbLine
 10
570.299458
 20
1134.694832
 30
0.0
 11
511.723214
 21
1134.694832
 31
0.0
  0
ARC
  5
2DE6
100
AcDbEntity
  8
0
100
AcDbCircle
 10
511.723214
 20
1146.194832
 30
0.0
 40
11.5
100
AcDbArc
 50
225.001438
 51
270.0
  0
TEXT
  5
2DE7
100
AcDbEntity
  8
0
100
AcDbText
 10
541.959306
 20
1071.291733
 30
0.0
 40
20.0
  1
15A
 41
0.8
 11
541.959306
 21
1071.291733
 31
0.0
100
AcDbText
 73
     1
  0
ARC
  5
2DE8
100
AcDbEntity
  8
0
100
AcDbCircle
 10
551.299458
 20
1133.081592
 30
0.0
 40
17.286595
100
AcDbArc
 50
237.698151
 51
302.301849
  0
LINE
  5
2DE9
100
AcDbEntity
  8
0
100
AcDbLine
 10
566.299458
 20
1114.994982
 30
0.0
 11
551.299458
 21
1114.994982
 31
0.0
  0
ARC
  5
2DEA
100
AcDbEntity
  8
0
100
AcDbCircle
 10
551.299458
 20
1111.408372
 30
0.0
 40
17.286595
100
AcDbArc
 50
57.698151
 51
122.301849
  0
LINE
  5
2DEB
100
AcDbEntity
  8
0
100
AcDbLine
 10
566.299458
 20
1129.494982
 30
0.0
 11
536.299458
 21
1129.494982
 31
0.0
  0
LINE
  5
2DEC
100
AcDbEntity
  8
0
100
AcDbLine
 10
566.299458
 20
1134.108435
 30
0.0
 11
536.299458
 21
1134.108435
 31
0.0
  0
LINE
  5
2DED
100
AcDbEntity
  8
0
100
AcDbLine
 10
532.824249
 20
1126.019773
 30
0.0
 11
532.824249
 21
1118.470191
 31
0.0
  0
LINE
  5
2DEE
100
AcDbEntity
  8
0
100
AcDbLine
 10
542.061853
 20
1126.019773
 30
0.0
 11
542.061853
 21
1118.470191
 31
0.0
  0
LINE
  5
2DEF
100
AcDbEntity
  8
0
100
AcDbLine
 10
551.299458
 20
1114.994982
 30
0.0
 11
536.299458
 21
1114.994982
 31
0.0
  0
LINE
  5
2DF0
100
AcDbEntity
  8
0
100
AcDbLine
 10
536.299458
 20
1114.994982
 30
0.0
 11
532.824249
 21
1118.470191
 31
0.0
  0
ARC
  5
2DF1
100
AcDbEntity
  8
0
100
AcDbCircle
 10
537.443051
 20
1121.119843
 30
0.0
 40
5.324847
100
AcDbArc
 50
240.158547
 51
330.158547
  0
LINE
  5
2DF2
100
AcDbEntity
  8
0
100
AcDbLine
 10
536.299458
 20
1129.494982
 30
0.0
 11
532.824249
 21
1126.019773
 31
0.0
  0
ARC
  5
2DF3
100
AcDbEntity
  8
0
100
AcDbCircle
 10
537.443051
 20
1123.370121
 30
0.0
 40
5.324847
100
AcDbArc
 50
29.841453
 51
119.841453
  0
POLYLINE
  5
2DF4
100
AcDbEntity
  8
0
100
AcDb2dPolyline
 66
     1
 10
0.0
 20
0.0
 30
0.0
  0
VERTEX
  5
35BC
100
AcDbEntity
  8
0
100
AcDbVertex
100
AcDb2dVertex
 10
535.838954
 20
1134.694832
 30
0.0
  0
VERTEX
  5
35BD
100
AcDbEntity
  8
0
100
AcDbVertex
100
AcDb2dVertex
 10
536.299458
 20
1134.108435
 30
0.0
  0
SEQEND
  5
35BE
100
AcDbEntity
  8
0
  0
LINE
  5
2DF5
100
AcDbEntity
  8
0
100
AcDbLine
 10
536.299458
 20
1129.494982
 30
0.0
 11
536.299458
 21
1134.108435
 31
0.0
  0
LINE
  5
2DF6
100
AcDbEntity
  8
0
100
AcDbLine
 10
560.537062
 20
1126.019773
 30
0.0
 11
560.537062
 21
1118.470191
 31
0.0
  0
LINE
  5
2DF7
100
AcDbEntity
  8
0
100
AcDbLine
 10
569.774666
 20
1126.019773
 30
0.0
 11
569.774666
 21
1118.470191
 31
0.0
  0
LINE
  5
2DF8
100
AcDbEntity
  8
0
100
AcDbLine
 10
566.299458
 20
1114.994982
 30
0.0
 11
569.774666
 21
1118.470191
 31
0.0
  0
ARC
  5
2DF9
100
AcDbEntity
  8
0
100
AcDbCircle
 10
565.155864
 20
1121.119843
 30
0.0
 40
5.324847
100
AcDbArc
 50
209.841453
 51
299.841453
  0
LINE
  5
2DFA
100
AcDbEntity
  8
0
100
AcDbLine
 10
566.299458
 20
1129.494982
 30
0.0
 11
569.774666
 21
1126.019773
 31
0.0
  0
ARC
  5
2DFB
100
AcDbEntity
  8
0
100
AcDbCircle
 10
565.155864
 20
1123.370121
 30
0.0
 40
5.324847
100
AcDbArc
 50
60.158547
 51
150.158547
  0
POLYLINE
  5
2DFC
100
AcDbEntity
  8
0
100
AcDb2dPolyline
 66
     1
 10
0.0
 20
0.0
 30
0.0
  0
VERTEX
  5
35BF
100
AcDbEntity
  8
0
100
AcDbVertex
100
AcDb2dVertex
 10
566.759962
 20
1134.694832
 30
0.0
  0
VERTEX
  5
35C0
100
AcDbEntity
  8
0
100
AcDbVertex
100
AcDb2dVertex
 10
566.299458
 20
1134.108435
 30
0.0
  0
SEQEND
  5
35C1
100
AcDbEntity
  8
0
  0
LINE
  5
2DFD
100
AcDbEntity
  8
0
100
AcDbLine
 10
566.299458
 20
1129.494982
 30
0.0
 11
566.299458
 21
1134.108435
 31
0.0
  0
LINE
  5
2DFE
100
AcDbEntity
  8
0
100
AcDbLine
 10
511.723914
 20
1250.295132
 30
0.0
 11
570.299458
 21
1250.295132
 31
0.0
  0
LINE
  5
2DFF
100
AcDbEntity
  8
0
100
AcDbLine
 10
480.299458
 20
1166.117588
 30
0.0
 11
480.299458
 21
1218.871676
 31
0.0
  0
ARC
  5
2E00
100
AcDbEntity
  8
0
100
AcDbCircle
 10
491.799458
 20
1166.117588
 30
0.0
 40
11.5
100
AcDbArc
 50
180.0
 51
225.001438
  0
LINE
  5
2E01
100
AcDbEntity
  8
0
100
AcDbLine
 10
483.667934
 20
1227.003608
 30
0.0
 11
503.59239
 21
1246.927064
 31
0.0
  0
ARC
  5
2E02
100
AcDbEntity
  8
0
100
AcDbCircle
 10
491.799458
 20
1218.871676
 30
0.0
 40
11.5
100
AcDbArc
 50
134.998562
 51
180.0
  0
LINE
  5
2E03
100
AcDbEntity
  8
0
100
AcDbLine
 10
503.591458
 20
1246.926132
 30
0.0
 11
503.591458
 21
1246.926132
 31
0.0
  0
ARC
  5
2E04
100
AcDbEntity
  8
0
100
AcDbCircle
 10
511.723914
 20
1238.795132
 30
0.0
 40
11.5
100
AcDbArc
 50
90.0
 51
134.998562
  0
LINE
  5
2E05
100
AcDbEntity
  8
0
100
AcDbLine
 10
584.299458
 20
1236.295132
 30
0.0
 11
584.299458
 21
1148.694832
 31
0.0
  0
LINE
  5
2E06
100
AcDbEntity
  8
0
100
AcDbLine
 10
631.979675
 20
1236.295132
 30
0.0
 11
631.979675
 21
1148.694832
 31
0.0
  0
ARC
  5
2E07
100
AcDbEntity
  8
0
100
AcDbCircle
 10
570.299458
 20
1236.295132
 30
0.0
 40
14.0
100
AcDbArc
 50
0.0
 51
90.0
  0
LINE
  5
2E08
100
AcDbEntity
  8
0
100
AcDbLine
 10
566.299458
 20
1255.494982
 30
0.0
 11
566.299458
 21
1250.881529
 31
0.0
  0
LINE
  5
2E09
100
AcDbEntity
  8
0
100
AcDbLine
 10
536.299458
 20
1255.494982
 30
0.0
 11
536.299458
 21
1250.881529
 31
0.0
  0
LINE
  5
2E0A
100
AcDbEntity
  8
0
100
AcDbLine
 10
566.299458
 20
1250.881529
 30
0.0
 11
536.299458
 21
1250.881529
 31
0.0
  0
POLYLINE
  5
2E0B
100
AcDbEntity
  8
0
100
AcDb2dPolyline
 66
     1
 10
0.0
 20
0.0
 30
0.0
  0
VERTEX
  5
35C2
100
AcDbEntity
  8
0
100
AcDbVertex
100
AcDb2dVertex
 10
535.838954
 20
1250.295132
 30
0.0
  0
VERTEX
  5
35C3
100
AcDbEntity
  8
0
100
AcDbVertex
100
AcDb2dVertex
 10
536.299458
 20
1250.881529
 30
0.0
  0
SEQEND
  5
35C4
100
AcDbEntity
  8
0
  0
POLYLINE
  5
2E0C
100
AcDbEntity
  8
0
100
AcDb2dPolyline
 66
     1
 10
0.0
 20
0.0
 30
0.0
  0
VERTEX
  5
35C5
100
AcDbEntity
  8
0
100
AcDbVertex
100
AcDb2dVertex
 10
566.759962
 20
1250.295132
 30
0.0
  0
VERTEX
  5
35C6
100
AcDbEntity
  8
0
100
AcDbVertex
100
AcDb2dVertex
 10
566.299458
 20
1250.881529
 30
0.0
  0
SEQEND
  5
35C7
100
AcDbEntity
  8
0
  0
LINE
  5
2E0D
100
AcDbEntity
  8
0
100
AcDbLine
 10
566.299458
 20
1255.494982
 30
0.0
 11
536.299458
 21
1255.494982
 31
0.0
  0
ARC
  5
2E0E
100
AcDbEntity
  8
0
100
AcDbCircle
 10
551.299458
 20
1273.581592
 30
0.0
 40
17.286595
100
AcDbArc
 50
237.698151
 51
302.301849
  0
LINE
  5
2E0F
100
AcDbEntity
  8
0
100
AcDbLine
 10
566.299458
 20
1269.994982
 30
0.0
 11
551.299458
 21
1269.994982
 31
0.0
  0
ARC
  5
2E10
100
AcDbEntity
  8
0
100
AcDbCircle
 10
551.299458
 20
1251.908372
 30
0.0
 40
17.286595
100
AcDbArc
 50
57.698151
 51
122.301849
  0
LINE
  5
2E11
100
AcDbEntity
  8
0
100
AcDbLine
 10
542.061853
 20
1258.970191
 30
0.0
 11
542.061853
 21
1266.519773
 31
0.0
  0
LINE
  5
2E12
100
AcDbEntity
  8
0
100
AcDbLine
 10
532.824249
 20
1258.970191
 30
0.0
 11
532.824249
 21
1266.519773
 31
0.0
  0
ARC
  5
2E13
100
AcDbEntity
  8
0
100
AcDbCircle
 10
537.443051
 20
1261.619843
 30
0.0
 40
5.324847
100
AcDbArc
 50
240.158547
 51
330.158547
  0
LINE
  5
2E14
100
AcDbEntity
  8
0
100
AcDbLine
 10
536.299458
 20
1255.494982
 30
0.0
 11
532.824249
 21
1258.970191
 31
0.0
  0
ARC
  5
2E15
100
AcDbEntity
  8
0
100
AcDbCircle
 10
537.443051
 20
1263.870121
 30
0.0
 40
5.324847
100
AcDbArc
 50
29.841453
 51
119.841453
  0
LINE
  5
2E16
100
AcDbEntity
  8
0
100
AcDbLine
 10
536.299458
 20
1269.994982
 30
0.0
 11
532.824249
 21
1266.519773
 31
0.0
  0
LINE
  5
2E17
100
AcDbEntity
  8
0
100
AcDbLine
 10
551.299458
 20
1269.994982
 30
0.0
 11
536.299458
 21
1269.994982
 31
0.0
  0
LINE
  5
2E18
100
AcDbEntity
  8
0
100
AcDbLine
 10
569.774666
 20
1258.970191
 30
0.0
 11
569.774666
 21
1266.519773
 31
0.0
  0
LINE
  5
2E19
100
AcDbEntity
  8
0
100
AcDbLine
 10
560.537062
 20
1258.970191
 30
0.0
 11
560.537062
 21
1266.519773
 31
0.0
  0
ARC
  5
2E1A
100
AcDbEntity
  8
0
100
AcDbCircle
 10
565.155864
 20
1261.619843
 30
0.0
 40
5.324847
100
AcDbArc
 50
209.841453
 51
299.841453
  0
LINE
  5
2E1B
100
AcDbEntity
  8
0
100
AcDbLine
 10
566.299458
 20
1255.494982
 30
0.0
 11
569.774666
 21
1258.970191
 31
0.0
  0
ARC
  5
2E1C
100
AcDbEntity
  8
0
100
AcDbCircle
 10
565.155864
 20
1263.870121
 30
0.0
 40
5.324847
100
AcDbArc
 50
60.158547
 51
150.158547
  0
LINE
  5
2E1D
100
AcDbEntity
  8
0
100
AcDbLine
 10
566.299458
 20
1269.994982
 30
0.0
 11
569.774666
 21
1266.519773
 31
0.0
  0
TEXT
  5
2E1E
100
AcDbEntity
  8
0
100
AcDbText
 10
241.095894
 20
1412.224585
 30
0.0
 40
25.0
  1
平面
100
AcDbText
  0
CIRCLE
  5
2E1F
100
AcDbEntity
  8
0
100
AcDbCircle
 10
532.299458
 20
1422.462346
 30
0.0
 40
52.0
  0
POLYLINE
  5
2E20
100
AcDbEntity
  8
0
100
AcDb2dPolyline
 66
     1
 10
0.0
 20
0.0
 30
0.0
 70
     1
  0
VERTEX
  5
35C8
100
AcDbEntity
  8
0
100
AcDbVertex
100
AcDb2dVertex
 10
560.537062
 20
1406.462346
 30
0.0
  0
VERTEX
  5
35C9
100
AcDbEntity
  8
0
100
AcDbVertex
100
AcDb2dVertex
 10
569.774666
 20
1422.462346
 30
0.0
  0
VERTEX
  5
35CA
100
AcDbEntity
  8
0
100
AcDbVertex
100
AcDb2dVertex
 10
560.537062
 20
1438.462346
 30
0.0
  0
VERTEX
  5
35CB
100
AcDbEntity
  8
0
100
AcDbVertex
100
AcDb2dVertex
 10
542.061853
 20
1438.462346
 30
0.0
  0
VERTEX
  5
35CC
100
AcDbEntity
  8
0
100
AcDbVertex
100
AcDb2dVertex
 10
532.824249
 20
1422.462346
 30
0.0
  0
VERTEX
  5
35CD
100
AcDbEntity
  8
0
100
AcDbVertex
100
AcDb2dVertex
 10
542.061853
 20
1406.462346
 30
0.0
  0
SEQEND
  5
35CE
100
AcDbEntity
  8
0
  0
CIRCLE
  5
2E21
100
AcDbEntity
  8
0
100
AcDbCircle
 10
551.299458
 20
1422.462346
 30
0.0
 40
16.0
  0
ELLIPSE
  5
2E22
100
AcDbEntity
  8
0
100
AcDbEllipse
 10
493.626458
 20
1422.462346
 30
0.0
 11
-0.0000000000000029
 21
-15.73525959711332
 31
0.0
210
0.0
220
0.0
230
-1.0
 40
0.759965
 41
0.0
 42
6.283185307179586
  0
LINE
  5
2E23
100
AcDbEntity
  8
0
100
AcDbLine
 10
543.92708
 20
1343.88662
 30
0.0
 11
543.92708
 21
1315.526495
 31
0.0
  0
LINE
  5
2E24
100
AcDbEntity
  8
0
100
AcDbLine
 10
553.380455
 20
1334.433245
 30
0.0
 11
543.92708
 21
1343.88662
 31
0.0
  0
LINE
  5
2E25
100
AcDbEntity
  8
0
100
AcDbLine
 10
543.92708
 20
1315.526495
 30
0.0
 11
548.653768
 21
1310.79812
 31
0.0
  0
LINE
  5
2E26
100
AcDbEntity
  8
0
100
AcDbLine
 10
548.653768
 20
1296.823933
 30
0.0
 11
543.92708
 21
1296.823933
 31
0.0
  0
LINE
  5
2E27
100
AcDbEntity
  8
0
100
AcDbLine
 10
548.653768
 20
1310.79812
 30
0.0
 11
548.653768
 21
1296.823933
 31
0.0
  0
LINE
  5
2E32
100
AcDbEntity
  8
0
100
AcDbLine
 10
532.299458
 20
1536.007168
 30
0.0
 11
590.875702
 21
1536.007168
 31
0.0
  0
ARC
  5
2E33
100
AcDbEntity
  8
0
100
AcDbCircle
 10
537.443051
 20
1524.682457
 30
0.0
 40
5.324847
100
AcDbArc
 50
29.841453
 51
119.841453
  0
ARC
  5
2E34
100
AcDbEntity
  8
0
100
AcDbCircle
 10
565.155864
 20
1524.682457
 30
0.0
 40
5.324847
100
AcDbArc
 50
60.158547
 51
150.158547
  0
LINE
  5
2E35
100
AcDbEntity
  8
0
100
AcDbLine
 10
566.299458
 20
1530.807318
 30
0.0
 11
569.774666
 21
1527.33211
 31
0.0
  0
ARC
  5
2E36
100
AcDbEntity
  8
0
100
AcDbCircle
 10
551.299458
 20
1512.720709
 30
0.0
 40
17.286595
100
AcDbArc
 50
57.698151
 51
122.301849
  0
LINE
  5
2E37
100
AcDbEntity
  8
0
100
AcDbLine
 10
536.299458
 20
1530.807318
 30
0.0
 11
532.824249
 21
1527.33211
 31
0.0
  0
LINE
  5
2E38
100
AcDbEntity
  8
0
100
AcDbLine
 10
551.299458
 20
1516.307318
 30
0.0
 11
566.299458
 21
1516.307318
 31
0.0
  0
ARC
  5
2E39
100
AcDbEntity
  8
0
100
AcDbCircle
 10
551.299458
 20
1534.393928
 30
0.0
 40
17.286595
100
AcDbArc
 50
237.698151
 51
302.301849
  0
LINE
  5
2E3A
100
AcDbEntity
  8
0
100
AcDbLine
 10
532.824249
 20
1527.33211
 30
0.0
 11
532.824249
 21
1519.782527
 31
0.0
  0
LINE
  5
2E3B
100
AcDbEntity
  8
0
100
AcDbLine
 10
542.061853
 20
1527.33211
 30
0.0
 11
542.061853
 21
1519.782527
 31
0.0
  0
LINE
  5
2E3C
100
AcDbEntity
  8
0
100
AcDbLine
 10
536.299458
 20
1516.307318
 30
0.0
 11
551.299458
 21
1516.307318
 31
0.0
  0
ARC
  5
2E3D
100
AcDbEntity
  8
0
100
AcDbCircle
 10
537.443051
 20
1522.43218
 30
0.0
 40
5.324847
100
AcDbArc
 50
240.158547
 51
330.158547
  0
LINE
  5
2E3E
100
AcDbEntity
  8
0
100
AcDbLine
 10
536.299458
 20
1516.307318
 30
0.0
 11
532.824249
 21
1519.782527
 31
0.0
  0
LINE
  5
2E3F
100
AcDbEntity
  8
0
100
AcDbLine
 10
560.537062
 20
1527.33211
 30
0.0
 11
560.537062
 21
1519.782527
 31
0.0
  0
LINE
  5
2E40
100
AcDbEntity
  8
0
100
AcDbLine
 10
569.774666
 20
1527.33211
 30
0.0
 11
569.774666
 21
1519.782527
 31
0.0
  0
ARC
  5
2E41
100
AcDbEntity
  8
0
100
AcDbCircle
 10
565.155864
 20
1522.43218
 30
0.0
 40
5.324847
100
AcDbArc
 50
209.841453
 51
299.841453
  0
LINE
  5
2E42
100
AcDbEntity
  8
0
100
AcDbLine
 10
566.299458
 20
1516.307318
 30
0.0
 11
569.774666
 21
1519.782527
 31
0.0
  0
LINE
  5
2E43
100
AcDbEntity
  8
0
100
AcDbLine
 10
536.299458
 20
1535.420772
 30
0.0
 11
566.299458
 21
1535.420772
 31
0.0
  0
LINE
  5
2E44
100
AcDbEntity
  8
0
100
AcDbLine
 10
536.299458
 20
1530.807318
 30
0.0
 11
566.299458
 21
1530.807318
 31
0.0
  0
LINE
  5
2E45
100
AcDbEntity
  8
0
100
AcDbLine
 10
536.299458
 20
1530.807318
 30
0.0
 11
536.299458
 21
1535.420772
 31
0.0
  0
POLYLINE
  5
2E46
100
AcDbEntity
  8
0
100
AcDb2dPolyline
 66
     1
 10
0.0
 20
0.0
 30
0.0
  0
VERTEX
  5
35CF
100
AcDbEntity
  8
0
100
AcDbVertex
100
AcDb2dVertex
 10
535.838954
 20
1536.007168
 30
0.0
  0
VERTEX
  5
35D0
100
AcDbEntity
  8
0
100
AcDbVertex
100
AcDb2dVertex
 10
536.299458
 20
1535.420772
 30
0.0
  0
SEQEND
  5
35D1
100
AcDbEntity
  8
0
  0
LINE
  5
2E48
100
AcDbEntity
  8
0
100
AcDbLine
 10
566.299458
 20
1530.807318
 30
0.0
 11
566.299458
 21
1535.420772
 31
0.0
  0
POLYLINE
  5
2E49
100
AcDbEntity
  8
0
100
AcDb2dPolyline
 66
     1
 10
0.0
 20
0.0
 30
0.0
  0
VERTEX
  5
35D2
100
AcDbEntity
  8
0
100
AcDbVertex
100
AcDb2dVertex
 10
566.759962
 20
1536.007168
 30
0.0
  0
VERTEX
  5
35D3
100
AcDbEntity
  8
0
100
AcDbVertex
100
AcDb2dVertex
 10
566.299458
 20
1535.420772
 30
0.0
  0
SEQEND
  5
35D4
100
AcDbEntity
  8
0
  0
LINE
  5
2E4A
100
AcDbEntity
  8
0
100
AcDbLine
 10
599.007226
 20
1539.375236
 30
0.0
 11
618.930982
 21
1559.297992
 31
0.0
  0
LINE
  5
2E64
100
AcDbEntity
  8
0
100
AcDbLine
 10
618.930982
 20
1628.315944
 30
0.0
 11
599.006526
 21
1648.2394
 31
0.0
  0
LINE
  5
2E65
100
AcDbEntity
  8
0
100
AcDbLine
 10
622.299458
 20
1567.429924
 30
0.0
 11
622.299458
 21
1620.184012
 31
0.0
  0
LINE
  5
2E72
100
AcDbEntity
  8
0
100
AcDbLine
 10
590.875002
 20
1651.607468
 30
0.0
 11
532.299458
 21
1651.607468
 31
0.0
  0
LINE
  5
2E73
100
AcDbEntity
  8
0
100
AcDbLine
 10
551.299458
 20
1671.307318
 30
0.0
 11
566.299458
 21
1671.307318
 31
0.0
  0
ARC
  5
2E74
100
AcDbEntity
  8
0
100
AcDbCircle
 10
551.299458
 20
1674.893928
 30
0.0
 40
17.286595
100
AcDbArc
 50
237.698151
 51
302.301849
  0
LINE
  5
2E75
100
AcDbEntity
  8
0
100
AcDbLine
 10
536.299458
 20
1656.807318
 30
0.0
 11
566.299458
 21
1656.807318
 31
0.0
  0
LINE
  5
2E76
100
AcDbEntity
  8
0
100
AcDbLine
 10
536.299458
 20
1652.193865
 30
0.0
 11
566.299458
 21
1652.193865
 31
0.0
  0
ARC
  5
2E77
100
AcDbEntity
  8
0
100
AcDbCircle
 10
551.299458
 20
1653.220709
 30
0.0
 40
17.286595
100
AcDbArc
 50
57.698151
 51
122.301849
  0
LINE
  5
2E78
100
AcDbEntity
  8
0
100
AcDbLine
 10
536.299458
 20
1671.307318
 30
0.0
 11
551.299458
 21
1671.307318
 31
0.0
  0
LINE
  5
2E79
100
AcDbEntity
  8
0
100
AcDbLine
 10
536.299458
 20
1656.807318
 30
0.0
 11
532.824249
 21
1660.282527
 31
0.0
  0
ARC
  5
2E7A
100
AcDbEntity
  8
0
100
AcDbCircle
 10
537.443051
 20
1662.93218
 30
0.0
 40
5.324847
100
AcDbArc
 50
240.158547
 51
330.158547
  0
POLYLINE
  5
2E7C
100
AcDbEntity
  8
0
100
AcDb2dPolyline
 66
     1
 10
0.0
 20
0.0
 30
0.0
  0
VERTEX
  5
35D5
100
AcDbEntity
  8
0
100
AcDbVertex
100
AcDb2dVertex
 10
535.838954
 20
1651.607468
 30
0.0
  0
VERTEX
  5
35D6
100
AcDbEntity
  8
0
100
AcDbVertex
100
AcDb2dVertex
 10
536.299458
 20
1652.193865
 30
0.0
  0
SEQEND
  5
35D7
100
AcDbEntity
  8
0
  0
LINE
  5
2E7E
100
AcDbEntity
  8
0
100
AcDbLine
 10
536.299458
 20
1656.807318
 30
0.0
 11
536.299458
 21
1652.193865
 31
0.0
  0
LINE
  5
2E7F
100
AcDbEntity
  8
0
100
AcDbLine
 10
542.061853
 20
1660.282527
 30
0.0
 11
542.061853
 21
1667.83211
 31
0.0
  0
LINE
  5
2E80
100
AcDbEntity
  8
0
100
AcDbLine
 10
532.824249
 20
1660.282527
 30
0.0
 11
532.824249
 21
1667.83211
 31
0.0
  0
ARC
  5
2E81
100
AcDbEntity
  8
0
100
AcDbCircle
 10
537.443051
 20
1665.182457
 30
0.0
 40
5.324847
100
AcDbArc
 50
29.841453
 51
119.841453
  0
LINE
  5
2E82
100
AcDbEntity
  8
0
100
AcDbLine
 10
536.299458
 20
1671.307318
 30
0.0
 11
532.824249
 21
1667.83211
 31
0.0
  0
LINE
  5
2E83
100
AcDbEntity
  8
0
100
AcDbLine
 10
566.299458
 20
1656.807318
 30
0.0
 11
569.774666
 21
1660.282527
 31
0.0
  0
ARC
  5
2E84
100
AcDbEntity
  8
0
100
AcDbCircle
 10
565.155864
 20
1662.93218
 30
0.0
 40
5.324847
100
AcDbArc
 50
209.841453
 51
299.841453
  0
POLYLINE
  5
2E85
100
AcDbEntity
  8
0
100
AcDb2dPolyline
 66
     1
 10
0.0
 20
0.0
 30
0.0
  0
VERTEX
  5
35D8
100
AcDbEntity
  8
0
100
AcDbVertex
100
AcDb2dVertex
 10
566.759962
 20
1651.607468
 30
0.0
  0
VERTEX
  5
35D9
100
AcDbEntity
  8
0
100
AcDbVertex
100
AcDb2dVertex
 10
566.299458
 20
1652.193865
 30
0.0
  0
SEQEND
  5
35DA
100
AcDbEntity
  8
0
  0
LINE
  5
2E86
100
AcDbEntity
  8
0
100
AcDbLine
 10
566.299458
 20
1656.807318
 30
0.0
 11
566.299458
 21
1652.193865
 31
0.0
  0
LINE
  5
2E87
100
AcDbEntity
  8
0
100
AcDbLine
 10
569.774666
 20
1660.282527
 30
0.0
 11
569.774666
 21
1667.83211
 31
0.0
  0
LINE
  5
2E88
100
AcDbEntity
  8
0
100
AcDbLine
 10
560.537062
 20
1660.282527
 30
0.0
 11
560.537062
 21
1667.83211
 31
0.0
  0
LINE
  5
2E89
100
AcDbEntity
  8
0
100
AcDbLine
 10
566.299458
 20
1671.307318
 30
0.0
 11
569.774666
 21
1667.83211
 31
0.0
  0
ARC
  5
2E8A
100
AcDbEntity
  8
0
100
AcDbCircle
 10
565.155864
 20
1665.182457
 30
0.0
 40
5.324847
100
AcDbArc
 50
60.158547
 51
150.158547
  0
LINE
  5
2E95
100
AcDbEntity
  8
0
100
AcDbLine
 10
1382.064683
 20
1633.55061
 30
0.0
 11
1382.064683
 21
1545.95031
 31
0.0
  0
ARC
  5
2E96
100
AcDbEntity
  8
0
100
AcDbCircle
 10
721.979675
 20
1148.694832
 30
0.0
 40
14.0
100
AcDbArc
 50
270.0
 51
0.0
  0
ARC
  5
2E97
100
AcDbEntity
  8
0
100
AcDbCircle
 10
691.979675
 20
1115.395622
 30
0.0
 40
13.299346
100
AcDbArc
 50
53.020205
 51
126.979795
  0
ARC
  5
2E98
100
AcDbEntity
  8
0
100
AcDbCircle
 10
691.979675
 20
1129.094342
 30
0.0
 40
13.299346
100
AcDbArc
 50
233.020205
 51
306.979795
  0
LINE
  5
2E99
100
AcDbEntity
  8
0
100
AcDbLine
 10
698.979675
 20
1114.994982
 30
0.0
 11
683.979675
 21
1114.994982
 31
0.0
  0
LINE
  5
2E9A
100
AcDbEntity
  8
0
100
AcDbLine
 10
698.979675
 20
1129.494982
 30
0.0
 11
668.979675
 21
1129.494982
 31
0.0
  0
LINE
  5
2E9B
100
AcDbEntity
  8
0
100
AcDbLine
 10
698.979675
 20
1134.108435
 30
0.0
 11
668.979675
 21
1134.108435
 31
0.0
  0
LINE
  5
2E9C
100
AcDbEntity
  8
0
100
AcDbLine
 10
721.979675
 20
1134.694832
 30
0.0
 11
645.979675
 21
1134.694832
 31
0.0
  0
ARC
  5
2E9D
100
AcDbEntity
  8
0
100
AcDbCircle
 10
675.979675
 20
1115.395622
 30
0.0
 40
13.299346
100
AcDbArc
 50
53.020205
 51
126.979795
  0
ARC
  5
2E9E
100
AcDbEntity
  8
0
100
AcDbCircle
 10
675.979675
 20
1129.094342
 30
0.0
 40
13.299346
100
AcDbArc
 50
233.020205
 51
306.979795
  0
LINE
  5
2E9F
100
AcDbEntity
  8
0
100
AcDbLine
 10
683.979675
 20
1126.019773
 30
0.0
 11
683.979675
 21
1118.470191
 31
0.0
  0
LINE
  5
2EA0
100
AcDbEntity
  8
0
100
AcDbLine
 10
668.979675
 20
1129.494982
 30
0.0
 11
667.979675
 21
1126.019773
 31
0.0
  0
LINE
  5
2EA1
100
AcDbEntity
  8
0
100
AcDbLine
 10
668.979675
 20
1114.994982
 30
0.0
 11
667.979675
 21
1118.470191
 31
0.0
  0
LINE
  5
2EA2
100
AcDbEntity
  8
0
100
AcDbLine
 10
667.979675
 20
1126.019773
 30
0.0
 11
667.979675
 21
1118.470191
 31
0.0
  0
LINE
  5
2EA3
100
AcDbEntity
  8
0
100
AcDbLine
 10
683.979675
 20
1114.994982
 30
0.0
 11
668.979675
 21
1114.994982
 31
0.0
  0
POLYLINE
  5
2EA4
100
AcDbEntity
  8
0
100
AcDb2dPolyline
 66
     1
 10
0.0
 20
0.0
 30
0.0
  0
VERTEX
  5
35DB
100
AcDbEntity
  8
0
100
AcDbVertex
100
AcDb2dVertex
 10
668.519172
 20
1134.694832
 30
0.0
  0
VERTEX
  5
35DC
100
AcDbEntity
  8
0
100
AcDbVertex
100
AcDb2dVertex
 10
668.979675
 20
1134.108435
 30
0.0
  0
SEQEND
  5
35DD
100
AcDbEntity
  8
0
  0
LINE
  5
2EA5
100
AcDbEntity
  8
0
100
AcDbLine
 10
668.979675
 20
1129.494982
 30
0.0
 11
668.979675
 21
1134.108435
 31
0.0
  0
LINE
  5
2EA6
100
AcDbEntity
  8
0
100
AcDbLine
 10
698.979675
 20
1114.994982
 30
0.0
 11
699.979675
 21
1118.470191
 31
0.0
  0
LINE
  5
2EA7
100
AcDbEntity
  8
0
100
AcDbLine
 10
698.979675
 20
1129.494982
 30
0.0
 11
699.979675
 21
1126.019773
 31
0.0
  0
LINE
  5
2EA8
100
AcDbEntity
  8
0
100
AcDbLine
 10
699.979675
 20
1126.019773
 30
0.0
 11
699.979675
 21
1118.470191
 31
0.0
  0
POLYLINE
  5
2EA9
100
AcDbEntity
  8
0
100
AcDb2dPolyline
 66
     1
 10
0.0
 20
0.0
 30
0.0
  0
VERTEX
  5
35DE
100
AcDbEntity
  8
0
100
AcDbVertex
100
AcDb2dVertex
 10
699.440179
 20
1134.694832
 30
0.0
  0
VERTEX
  5
35DF
100
AcDbEntity
  8
0
100
AcDbVertex
100
AcDb2dVertex
 10
698.979675
 20
1134.108435
 30
0.0
  0
SEQEND
  5
35E0
100
AcDbEntity
  8
0
  0
LINE
  5
2EAA
100
AcDbEntity
  8
0
100
AcDbLine
 10
698.979675
 20
1129.494982
 30
0.0
 11
698.979675
 21
1134.108435
 31
0.0
  0
ARC
  5
2EAB
100
AcDbEntity
  8
0
100
AcDbCircle
 10
721.979675
 20
1236.295132
 30
0.0
 40
14.0
100
AcDbArc
 50
0.0
 51
90.0
  0
LINE
  5
2EAC
100
AcDbEntity
  8
0
100
AcDbLine
 10
735.979675
 20
1236.295132
 30
0.0
 11
735.979675
 21
1148.694832
 31
0.0
  0
LINE
  5
2EAD
100
AcDbEntity
  8
0
100
AcDbLine
 10
698.979675
 20
1269.994982
 30
0.0
 11
683.979675
 21
1269.994982
 31
0.0
  0
LINE
  5
2EAE
100
AcDbEntity
  8
0
100
AcDbLine
 10
698.979675
 20
1255.494982
 30
0.0
 11
668.979675
 21
1255.494982
 31
0.0
  0
LINE
  5
2EAF
100
AcDbEntity
  8
0
100
AcDbLine
 10
698.979675
 20
1250.881529
 30
0.0
 11
668.979675
 21
1250.881529
 31
0.0
  0
ARC
  5
2EB0
100
AcDbEntity
  8
0
100
AcDbCircle
 10
691.979675
 20
1255.895622
 30
0.0
 40
13.299346
100
AcDbArc
 50
53.020205
 51
126.979795
  0
ARC
  5
2EB1
100
AcDbEntity
  8
0
100
AcDbCircle
 10
691.979675
 20
1269.594342
 30
0.0
 40
13.299346
100
AcDbArc
 50
233.020205
 51
306.979795
  0
LINE
  5
2EB2
100
AcDbEntity
  8
0
100
AcDbLine
 10
645.979675
 20
1250.295132
 30
0.0
 11
721.979675
 21
1250.295132
 31
0.0
  0
LINE
  5
2EB3
100
AcDbEntity
  8
0
100
AcDbLine
 10
668.979675
 20
1255.494982
 30
0.0
 11
668.979675
 21
1250.881529
 31
0.0
  0
POLYLINE
  5
2EB4
100
AcDbEntity
  8
0
100
AcDb2dPolyline
 66
     1
 10
0.0
 20
0.0
 30
0.0
  0
VERTEX
  5
35E1
100
AcDbEntity
  8
0
100
AcDbVertex
100
AcDb2dVertex
 10
668.519172
 20
1250.295132
 30
0.0
  0
VERTEX
  5
35E2
100
AcDbEntity
  8
0
100
AcDbVertex
100
AcDb2dVertex
 10
668.979675
 20
1250.881529
 30
0.0
  0
SEQEND
  5
35E3
100
AcDbEntity
  8
0
  0
LINE
  5
2EB5
100
AcDbEntity
  8
0
100
AcDbLine
 10
683.979675
 20
1269.994982
 30
0.0
 11
668.979675
 21
1269.994982
 31
0.0
  0
LINE
  5
2EB6
100
AcDbEntity
  8
0
100
AcDbLine
 10
668.979675
 20
1269.994982
 30
0.0
 11
667.979675
 21
1266.519773
 31
0.0
  0
LINE
  5
2EB7
100
AcDbEntity
  8
0
100
AcDbLine
 10
668.979675
 20
1255.494982
 30
0.0
 11
667.979675
 21
1258.970191
 31
0.0
  0
LINE
  5
2EB8
100
AcDbEntity
  8
0
100
AcDbLine
 10
667.979675
 20
1258.970191
 30
0.0
 11
667.979675
 21
1266.519773
 31
0.0
  0
LINE
  5
2EB9
100
AcDbEntity
  8
0
100
AcDbLine
 10
683.979675
 20
1258.970191
 30
0.0
 11
683.979675
 21
1266.519773
 31
0.0
  0
ARC
  5
2EBA
100
AcDbEntity
  8
0
100
AcDbCircle
 10
675.979675
 20
1255.895622
 30
0.0
 40
13.299346
100
AcDbArc
 50
53.020205
 51
126.979795
  0
ARC
  5
2EBB
100
AcDbEntity
  8
0
100
AcDbCircle
 10
675.979675
 20
1269.594342
 30
0.0
 40
13.299346
100
AcDbArc
 50
233.020205
 51
306.979795
  0
LINE
  5
2EBC
100
AcDbEntity
  8
0
100
AcDbLine
 10
698.979675
 20
1255.494982
 30
0.0
 11
698.979675
 21
1250.881529
 31
0.0
  0
POLYLINE
  5
2EBD
100
AcDbEntity
  8
0
100
AcDb2dPolyline
 66
     1
 10
0.0
 20
0.0
 30
0.0
  0
VERTEX
  5
35E4
100
AcDbEntity
  8
0
100
AcDbVertex
100
AcDb2dVertex
 10
699.440179
 20
1250.295132
 30
0.0
  0
VERTEX
  5
35E5
100
AcDbEntity
  8
0
100
AcDbVertex
100
AcDb2dVertex
 10
698.979675
 20
1250.881529
 30
0.0
  0
SEQEND
  5
35E6
100
AcDbEntity
  8
0
  0
LINE
  5
2EBE
100
AcDbEntity
  8
0
100
AcDbLine
 10
698.979675
 20
1269.994982
 30
0.0
 11
699.979675
 21
1266.519773
 31
0.0
  0
LINE
  5
2EBF
100
AcDbEntity
  8
0
100
AcDbLine
 10
698.979675
 20
1255.494982
 30
0.0
 11
699.979675
 21
1258.970191
 31
0.0
  0
LINE
  5
2EC0
100
AcDbEntity
  8
0
100
AcDbLine
 10
699.979675
 20
1258.970191
 30
0.0
 11
699.979675
 21
1266.519773
 31
0.0
  0
LINE
  5
2EC1
100
AcDbEntity
  8
0
100
AcDbLine
 10
1416.224812
 20
1287.164683
 30
0.0
 11
1416.224812
 21
1334.433245
 31
0.0
  0
LINE
  5
2EC2
100
AcDbEntity
  8
0
100
AcDbLine
 10
1406.771437
 20
1296.823933
 30
0.0
 11
1416.224812
 21
1287.164683
 31
0.0
  0
ARC
  5
2EC3
100
AcDbEntity
  8
0
100
AcDbCircle
 10
1240.018867
 20
1209.394211
 30
0.0
 40
90.0
100
AcDbArc
 50
241.362124
 51
258.498507
  0
ARC
  5
2EC4
100
AcDbEntity
  8
0
100
AcDbCircle
 10
1238.615899
 20
1148.335108
 30
0.0
 40
90.0
100
AcDbArc
 50
100.591465
 51
117.42363
  0
LINE
  5
2EC5
100
AcDbEntity
  8
0
100
AcDbLine
 10
1189.073456
 20
1214.907021
 30
0.0
 11
1189.073456
 21
1143.569235
 31
0.0
  0
ARC
  5
2EC6
100
AcDbEntity
  8
0
100
AcDbCircle
 10
1204.073456
 20
1143.569235
 30
0.0
 40
15.0
100
AcDbArc
 50
180.0
 51
241.362124
  0
ARC
  5
2EC7
100
AcDbEntity
  8
0
100
AcDbCircle
 10
1204.073456
 20
1214.907021
 30
0.0
 40
15.0
100
AcDbArc
 50
117.42363
 51
180.0
  0
LINE
  5
2EC8
100
AcDbEntity
  8
0
100
AcDbLine
 10
1367.356915
 20
1124.569523
 30
0.0
 11
1347.43316
 21
1144.492279
 31
0.0
  0
ARC
  5
2EC9
100
AcDbEntity
  8
0
100
AcDbCircle
 10
1355.564683
 20
1152.624211
 30
0.0
 40
11.5
100
AcDbArc
 50
180.0
 51
225.001438
  0
LINE
  5
2ECA
100
AcDbEntity
  8
0
100
AcDbLine
 10
1293.073456
 20
1214.907021
 30
0.0
 11
1293.073456
 21
1143.569235
 31
0.0
  0
ARC
  5
2ECB
100
AcDbEntity
  8
0
100
AcDbCircle
 10
1242.128044
 20
1209.394211
 30
0.0
 40
90.0
100
AcDbArc
 50
281.501493
 51
298.637876
  0
LINE
  5
2ECC
100
AcDbEntity
  8
0
100
AcDbLine
 10
1226.073456
 20
1116.008228
 30
0.0
 11
1223.073456
 21
1105.98899
 31
0.0
  0
ARC
  5
2ECD
100
AcDbEntity
  8
0
100
AcDbCircle
 10
1232.073456
 20
1087.184136
 30
0.0
 40
20.847602
100
AcDbArc
 50
64.424231
 51
115.575769
  0
LINE
  5
2ECE
100
AcDbEntity
  8
0
100
AcDbLine
 10
1256.073456
 20
1116.008228
 30
0.0
 11
1259.073456
 21
1105.98899
 31
0.0
  0
ARC
  5
2ECF
100
AcDbEntity
  8
0
100
AcDbCircle
 10
1250.073456
 20
1087.184136
 30
0.0
 40
20.847602
100
AcDbArc
 50
64.424231
 51
115.575769
  0
LINE
  5
2ED0
100
AcDbEntity
  8
0
100
AcDbLine
 10
1241.073456
 20
1088.008228
 30
0.0
 11
1258.573456
 21
1088.008228
 31
0.0
  0
ARC
  5
2ED1
100
AcDbEntity
  8
0
100
AcDbCircle
 10
1250.073456
 20
1110.097691
 30
0.0
 40
20.847602
100
AcDbArc
 50
244.424231
 51
295.575769
  0
LINE
  5
2ED2
100
AcDbEntity
  8
0
100
AcDbLine
 10
1223.573456
 20
1088.008228
 30
0.0
 11
1241.073456
 21
1088.008228
 31
0.0
  0
ARC
  5
2ED3
100
AcDbEntity
  8
0
100
AcDbCircle
 10
1232.073456
 20
1110.097691
 30
0.0
 40
20.847602
100
AcDbArc
 50
244.424231
 51
295.575769
  0
LINE
  5
2ED4
100
AcDbEntity
  8
0
100
AcDbLine
 10
1223.073456
 20
1091.292837
 30
0.0
 11
1223.573456
 21
1088.008228
 31
0.0
  0
LINE
  5
2ED5
100
AcDbEntity
  8
0
100
AcDbLine
 10
1223.073456
 20
1105.98899
 30
0.0
 11
1223.073456
 21
1091.292837
 31
0.0
  0
LINE
  5
2ED6
100
AcDbEntity
  8
0
100
AcDbLine
 10
1241.073456
 20
1105.98899
 30
0.0
 11
1241.073456
 21
1091.292837
 31
0.0
  0
LINE
  5
2ED7
100
AcDbEntity
  8
0
100
AcDbLine
 10
1259.073456
 20
1091.292837
 30
0.0
 11
1258.573456
 21
1088.008228
 31
0.0
  0
LINE
  5
2ED8
100
AcDbEntity
  8
0
100
AcDbLine
 10
1259.073456
 20
1105.98899
 30
0.0
 11
1259.073456
 21
1091.292837
 31
0.0
  0
LINE
  5
2ED9
100
AcDbEntity
  8
0
100
AcDbLine
 10
1256.073456
 20
1120.327263
 30
0.0
 11
1226.073456
 21
1120.327263
 31
0.0
  0
LINE
  5
2EDA
100
AcDbEntity
  8
0
100
AcDbLine
 10
1226.073456
 20
1116.008228
 30
0.0
 11
1256.073456
 21
1116.008228
 31
0.0
  0
LINE
  5
2EDB
100
AcDbEntity
  8
0
100
AcDbLine
 10
1260.073456
 20
1121.201455
 30
0.0
 11
1222.073456
 21
1121.201455
 31
0.0
  0
LINE
  5
2EDC
100
AcDbEntity
  8
0
100
AcDbLine
 10
1226.073456
 20
1120.327263
 30
0.0
 11
1226.073456
 21
1116.008228
 31
0.0
  0
LINE
  5
2EDD
100
AcDbEntity
  8
0
100
AcDbLine
 10
1225.180718
 20
1121.201455
 30
0.0
 11
1226.073456
 21
1120.327263
 31
0.0
  0
LINE
  5
2EDE
100
AcDbEntity
  8
0
100
AcDbLine
 10
1256.073456
 20
1120.327263
 30
0.0
 11
1256.073456
 21
1116.008228
 31
0.0
  0
LINE
  5
2EDF
100
AcDbEntity
  8
0
100
AcDbLine
 10
1256.966194
 20
1121.201455
 30
0.0
 11
1256.073456
 21
1120.327263
 31
0.0
  0
ARC
  5
2EE0
100
AcDbEntity
  8
0
100
AcDbCircle
 10
1278.073456
 20
1143.569235
 30
0.0
 40
15.0
100
AcDbArc
 50
298.637876
 51
0.0
  0
ARC
  5
2EE1
100
AcDbEntity
  8
0
100
AcDbCircle
 10
1375.488439
 20
1132.701455
 30
0.0
 40
11.5
100
AcDbArc
 50
225.001438
 51
270.0
  0
ARC
  5
2EE2
100
AcDbEntity
  8
0
100
AcDbCircle
 10
1415.064683
 20
1080.575393
 30
0.0
 40
27.456345
100
AcDbArc
 50
67.759024
 51
112.240976
  0
ARC
  5
2EE3
100
AcDbEntity
  8
0
100
AcDbCircle
 10
1399.476226
 20
1100.48638
 30
0.0
 40
7.56827
100
AcDbArc
 50
46.640741
 51
133.359259
  0
LINE
  5
2EE4
100
AcDbEntity
  8
0
100
AcDbLine
 10
1400.064683
 20
1116.008228
 30
0.0
 11
1394.280074
 21
1105.98899
 31
0.0
  0
LINE
  5
2EE5
100
AcDbEntity
  8
0
100
AcDbLine
 10
1397.564683
 20
1088.008228
 30
0.0
 11
1415.064683
 21
1088.008228
 31
0.0
  0
ARC
  5
2EE6
100
AcDbEntity
  8
0
100
AcDbCircle
 10
1399.476226
 20
1096.795447
 30
0.0
 40
7.56827
100
AcDbArc
 50
226.640741
 51
313.359259
  0
LINE
  5
2EE7
100
AcDbEntity
  8
0
100
AcDbLine
 10
1394.280074
 20
1091.292837
 30
0.0
 11
1397.564683
 21
1088.008228
 31
0.0
  0
LINE
  5
2EE8
100
AcDbEntity
  8
0
100
AcDbLine
 10
1394.280074
 20
1105.98899
 30
0.0
 11
1394.280074
 21
1091.292837
 31
0.0
  0
ARC
  5
2EE9
100
AcDbEntity
  8
0
100
AcDbCircle
 10
1415.064683
 20
1116.706434
 30
0.0
 40
27.456345
100
AcDbArc
 50
247.759024
 51
292.240976
  0
LINE
  5
2EEA
100
AcDbEntity
  8
0
100
AcDbLine
 10
1425.456988
 20
1105.98899
 30
0.0
 11
1425.456988
 21
1091.292837
 31
0.0
  0
LINE
  5
2EEB
100
AcDbEntity
  8
0
100
AcDbLine
 10
1404.672379
 20
1105.98899
 30
0.0
 11
1404.672379
 21
1091.292837
 31
0.0
  0
LINE
  5
2EEC
100
AcDbEntity
  8
0
100
AcDbLine
 10
1399.171946
 20
1121.201455
 30
0.0
 11
1400.064683
 21
1120.327263
 31
0.0
  0
LINE
  5
2EED
100
AcDbEntity
  8
0
100
AcDbLine
 10
1400.064683
 20
1120.327263
 30
0.0
 11
1400.064683
 21
1116.008228
 31
0.0
  0
ARC
  5
2EEE
100
AcDbEntity
  8
0
100
AcDbCircle
 10
1278.073456
 20
1214.907021
 30
0.0
 40
15.0
100
AcDbArc
 50
0.0
 51
62.57637
  0
ARC
  5
2EEF
100
AcDbEntity
  8
0
100
AcDbCircle
 10
1243.531013
 20
1148.335108
 30
0.0
 40
90.0
100
AcDbArc
 50
62.57637
 51
79.408535
  0
LINE
  5
2EF0
100
AcDbEntity
  8
0
100
AcDbLine
 10
1223.073456
 20
1252.01422
 30
0.0
 11
1223.073456
 21
1266.710372
 31
0.0
  0
LINE
  5
2EF1
100
AcDbEntity
  8
0
100
AcDbLine
 10
1241.073456
 20
1252.01422
 30
0.0
 11
1241.073456
 21
1266.710372
 31
0.0
  0
LINE
  5
2EF2
100
AcDbEntity
  8
0
100
AcDbLine
 10
1259.073456
 20
1252.01422
 30
0.0
 11
1259.073456
 21
1266.710372
 31
0.0
  0
ARC
  5
2EF3
100
AcDbEntity
  8
0
100
AcDbCircle
 10
1250.073456
 20
1270.819074
 30
0.0
 40
20.847602
100
AcDbArc
 50
244.424231
 51
295.575769
  0
LINE
  5
2EF4
100
AcDbEntity
  8
0
100
AcDbLine
 10
1226.073456
 20
1241.994982
 30
0.0
 11
1256.073456
 21
1241.994982
 31
0.0
  0
LINE
  5
2EF5
100
AcDbEntity
  8
0
100
AcDbLine
 10
1256.073456
 20
1237.675947
 30
0.0
 11
1226.073456
 21
1237.675947
 31
0.0
  0
LINE
  5
2EF6
100
AcDbEntity
  8
0
100
AcDbLine
 10
1222.073456
 20
1236.801755
 30
0.0
 11
1260.073456
 21
1236.801755
 31
0.0
  0
ARC
  5
2EF7
100
AcDbEntity
  8
0
100
AcDbCircle
 10
1232.073456
 20
1270.819074
 30
0.0
 40
20.847602
100
AcDbArc
 50
244.424231
 51
295.575769
  0
LINE
  5
2EF8
100
AcDbEntity
  8
0
100
AcDbLine
 10
1226.073456
 20
1241.994982
 30
0.0
 11
1223.073456
 21
1252.01422
 31
0.0
  0
LINE
  5
2EF9
100
AcDbEntity
  8
0
100
AcDbLine
 10
1225.180718
 20
1236.801755
 30
0.0
 11
1226.073456
 21
1237.675947
 31
0.0
  0
LINE
  5
2EFA
100
AcDbEntity
  8
0
100
AcDbLine
 10
1226.073456
 20
1237.675947
 30
0.0
 11
1226.073456
 21
1241.994982
 31
0.0
  0
LINE
  5
2EFB
100
AcDbEntity
  8
0
100
AcDbLine
 10
1256.073456
 20
1241.994982
 30
0.0
 11
1259.073456
 21
1252.01422
 31
0.0
  0
LINE
  5
2EFC
100
AcDbEntity
  8
0
100
AcDbLine
 10
1256.966194
 20
1236.801755
 30
0.0
 11
1256.073456
 21
1237.675947
 31
0.0
  0
LINE
  5
2EFD
100
AcDbEntity
  8
0
100
AcDbLine
 10
1256.073456
 20
1237.675947
 30
0.0
 11
1256.073456
 21
1241.994982
 31
0.0
  0
ARC
  5
2EFE
100
AcDbEntity
  8
0
100
AcDbCircle
 10
1250.073456
 20
1247.905519
 30
0.0
 40
20.847602
100
AcDbArc
 50
64.424231
 51
115.575769
  0
LINE
  5
2EFF
100
AcDbEntity
  8
0
100
AcDbLine
 10
1241.073456
 20
1269.994982
 30
0.0
 11
1258.573456
 21
1269.994982
 31
0.0
  0
ARC
  5
2F00
100
AcDbEntity
  8
0
100
AcDbCircle
 10
1232.073456
 20
1247.905519
 30
0.0
 40
20.847602
100
AcDbArc
 50
64.424231
 51
115.575769
  0
LINE
  5
2F01
100
AcDbEntity
  8
0
100
AcDbLine
 10
1223.573456
 20
1269.994982
 30
0.0
 11
1241.073456
 21
1269.994982
 31
0.0
  0
LINE
  5
2F02
100
AcDbEntity
  8
0
100
AcDbLine
 10
1223.073456
 20
1266.710372
 30
0.0
 11
1223.573456
 21
1269.994982
 31
0.0
  0
LINE
  5
2F03
100
AcDbEntity
  8
0
100
AcDbLine
 10
1259.073456
 20
1266.710372
 30
0.0
 11
1258.573456
 21
1269.994982
 31
0.0
  0
LINE
  5
2F04
100
AcDbEntity
  8
0
100
AcDbLine
 10
1347.43316
 20
1213.510231
 30
0.0
 11
1367.357616
 21
1233.433687
 31
0.0
  0
LINE
  5
2F05
100
AcDbEntity
  8
0
100
AcDbLine
 10
1344.064683
 20
1152.624211
 30
0.0
 11
1344.064683
 21
1205.378299
 31
0.0
  0
ARC
  5
2F06
100
AcDbEntity
  8
0
100
AcDbCircle
 10
1355.564683
 20
1205.378299
 30
0.0
 40
11.5
100
AcDbArc
 50
134.998562
 51
180.0
  0
ARC
  5
2F07
100
AcDbEntity
  8
0
100
AcDbCircle
 10
1375.489139
 20
1225.301755
 30
0.0
 40
11.5
100
AcDbArc
 50
90.0
 51
134.998562
  0
LINE
  5
2F08
100
AcDbEntity
  8
0
100
AcDbLine
 10
1404.672379
 20
1252.01422
 30
0.0
 11
1404.672379
 21
1266.710372
 31
0.0
  0
LINE
  5
2F09
100
AcDbEntity
  8
0
100
AcDbLine
 10
1425.456988
 20
1252.01422
 30
0.0
 11
1425.456988
 21
1266.710372
 31
0.0
  0
LINE
  5
2F0A
100
AcDbEntity
  8
0
100
AcDbLine
 10
1394.280074
 20
1252.01422
 30
0.0
 11
1394.280074
 21
1266.710372
 31
0.0
  0
ARC
  5
2F0B
100
AcDbEntity
  8
0
100
AcDbCircle
 10
1399.476226
 20
1257.516829
 30
0.0
 40
7.56827
100
AcDbArc
 50
226.640741
 51
313.359259
  0
LINE
  5
2F0C
100
AcDbEntity
  8
0
100
AcDbLine
 10
1400.064683
 20
1237.675947
 30
0.0
 11
1400.064683
 21
1241.994982
 31
0.0
  0
LINE
  5
2F0D
100
AcDbEntity
  8
0
100
AcDbLine
 10
1399.171946
 20
1236.801755
 30
0.0
 11
1400.064683
 21
1237.675947
 31
0.0
  0
LINE
  5
2F0E
100
AcDbEntity
  8
0
100
AcDbLine
 10
1400.064683
 20
1241.994982
 30
0.0
 11
1394.280074
 21
1252.01422
 31
0.0
  0
ARC
  5
2F0F
100
AcDbEntity
  8
0
100
AcDbCircle
 10
1415.064683
 20
1277.427816
 30
0.0
 40
27.456345
100
AcDbArc
 50
247.759024
 51
292.240976
  0
LINE
  5
2F10
100
AcDbEntity
  8
0
100
AcDbLine
 10
1397.564683
 20
1269.994982
 30
0.0
 11
1415.064683
 21
1269.994982
 31
0.0
  0
ARC
  5
2F11
100
AcDbEntity
  8
0
100
AcDbCircle
 10
1399.476226
 20
1261.207763
 30
0.0
 40
7.56827
100
AcDbArc
 50
46.640741
 51
133.359259
  0
LINE
  5
2F12
100
AcDbEntity
  8
0
100
AcDbLine
 10
1394.280074
 20
1266.710372
 30
0.0
 11
1397.564683
 21
1269.994982
 31
0.0
  0
ARC
  5
2F13
100
AcDbEntity
  8
0
100
AcDbCircle
 10
1415.064683
 20
1241.296776
 30
0.0
 40
27.456345
100
AcDbArc
 50
67.759024
 51
112.240976
  0
ELLIPSE
  5
2F14
100
AcDbEntity
  8
0
100
AcDbEllipse
 10
1357.391683
 20
1422.462346
 30
0.0
 11
-0.0000000000000029
 21
-15.73525959711332
 31
0.0
210
0.0
220
0.0
230
-1.0
 40
0.759965
 41
0.0
 42
6.283185307179586
  0
LINE
  5
2F15
100
AcDbEntity
  8
0
100
AcDbLine
 10
1406.771437
 20
1343.88662
 30
0.0
 11
1406.771437
 21
1315.526495
 31
0.0
  0
LINE
  5
2F16
100
AcDbEntity
  8
0
100
AcDbLine
 10
1416.224812
 20
1334.433245
 30
0.0
 11
1406.771437
 21
1343.88662
 31
0.0
  0
LINE
  5
2F17
100
AcDbEntity
  8
0
100
AcDbLine
 10
1406.771437
 20
1315.526495
 30
0.0
 11
1411.498124
 21
1310.79812
 31
0.0
  0
LINE
  5
2F18
100
AcDbEntity
  8
0
100
AcDbLine
 10
1411.498124
 20
1296.823933
 30
0.0
 11
1406.771437
 21
1296.823933
 31
0.0
  0
LINE
  5
2F19
100
AcDbEntity
  8
0
100
AcDbLine
 10
1411.498124
 20
1310.79812
 30
0.0
 11
1411.498124
 21
1296.823933
 31
0.0
  0
ARC
  5
2F1A
100
AcDbEntity
  8
0
100
AcDbCircle
 10
1415.064683
 20
1527.455289
 30
0.0
 40
27.456345
100
AcDbArc
 50
247.759024
 51
292.240976
  0
ARC
  5
2F1B
100
AcDbEntity
  8
0
100
AcDbCircle
 10
1399.476226
 20
1507.544302
 30
0.0
 40
7.56827
100
AcDbArc
 50
226.640741
 51
313.359259
  0
LINE
  5
2F1C
100
AcDbEntity
  8
0
100
AcDbLine
 10
1394.280074
 20
1502.041692
 30
0.0
 11
1397.564683
 21
1498.757083
 31
0.0
  0
LINE
  5
2F1D
100
AcDbEntity
  8
0
100
AcDbLine
 10
1415.064683
 20
1498.757083
 30
0.0
 11
1397.564683
 21
1498.757083
 31
0.0
  0
ARC
  5
2F1E
100
AcDbEntity
  8
0
100
AcDbCircle
 10
1396.064683
 20
1545.95031
 30
0.0
 40
14.0
100
AcDbArc
 50
180.0
 51
270.0
  0
ARC
  5
2F1F
100
AcDbEntity
  8
0
100
AcDbCircle
 10
1399.476226
 20
1511.235235
 30
0.0
 40
7.56827
100
AcDbArc
 50
46.640741
 51
133.359259
  0
LINE
  5
2F20
100
AcDbEntity
  8
0
100
AcDbLine
 10
1400.064683
 20
1531.076118
 30
0.0
 11
1400.064683
 21
1526.757083
 31
0.0
  0
LINE
  5
2F21
100
AcDbEntity
  8
0
100
AcDbLine
 10
1399.171946
 20
1531.95031
 30
0.0
 11
1400.064683
 21
1531.076118
 31
0.0
  0
LINE
  5
2F22
100
AcDbEntity
  8
0
100
AcDbLine
 10
1394.280074
 20
1516.737845
 30
0.0
 11
1394.280074
 21
1502.041692
 31
0.0
  0
LINE
  5
2F23
100
AcDbEntity
  8
0
100
AcDbLine
 10
1400.064683
 20
1526.757083
 30
0.0
 11
1394.280074
 21
1516.737845
 31
0.0
  0
LINE
  5
2F24
100
AcDbEntity
  8
0
100
AcDbLine
 10
1404.672379
 20
1516.737845
 30
0.0
 11
1404.672379
 21
1502.041692
 31
0.0
  0
ARC
  5
2F25
100
AcDbEntity
  8
0
100
AcDbCircle
 10
1415.064683
 20
1491.324248
 30
0.0
 40
27.456345
100
AcDbArc
 50
67.759024
 51
112.240976
  0
LINE
  5
2F26
100
AcDbEntity
  8
0
100
AcDbLine
 10
1425.456988
 20
1516.737845
 30
0.0
 11
1425.456988
 21
1502.041692
 31
0.0
  0
LINE
  5
2F27
100
AcDbEntity
  8
0
100
AcDbLine
 10
1400.064683
 20
1648.424801
 30
0.0
 11
1400.064683
 21
1652.743837
 31
0.0
  0
ARC
  5
2F28
100
AcDbEntity
  8
0
100
AcDbCircle
 10
1396.064683
 20
1633.55061
 30
0.0
 40
14.0
100
AcDbArc
 50
90.0
 51
180.0
  0
LINE
  5
2F29
100
AcDbEntity
  8
0
100
AcDbLine
 10
1399.171946
 20
1647.55061
 30
0.0
 11
1400.064683
 21
1648.424801
 31
0.0
  0
LINE
  5
2F2A
100
AcDbEntity
  8
0
100
AcDbLine
 10
1415.064683
 20
1680.743837
 30
0.0
 11
1397.564683
 21
1680.743837
 31
0.0
  0
ARC
  5
2F2B
100
AcDbEntity
  8
0
100
AcDbCircle
 10
1399.476226
 20
1671.956618
 30
0.0
 40
7.56827
100
AcDbArc
 50
46.640741
 51
133.359259
  0
ARC
  5
2F2C
100
AcDbEntity
  8
0
100
AcDbCircle
 10
1399.476226
 20
1668.265684
 30
0.0
 40
7.56827
100
AcDbArc
 50
226.640741
 51
313.359259
  0
LINE
  5
2F2D
100
AcDbEntity
  8
0
100
AcDbLine
 10
1394.280074
 20
1677.459227
 30
0.0
 11
1397.564683
 21
1680.743837
 31
0.0
  0
LINE
  5
2F2E
100
AcDbEntity
  8
0
100
AcDbLine
 10
1400.064683
 20
1652.743837
 30
0.0
 11
1394.280074
 21
1662.763075
 31
0.0
  0
LINE
  5
2F2F
100
AcDbEntity
  8
0
100
AcDbLine
 10
1394.280074
 20
1662.763075
 30
0.0
 11
1394.280074
 21
1677.459227
 31
0.0
  0
ARC
  5
2F30
100
AcDbEntity
  8
0
100
AcDbCircle
 10
1415.064683
 20
1652.045631
 30
0.0
 40
27.456345
100
AcDbArc
 50
67.759024
 51
112.240976
  0
ARC
  5
2F31
100
AcDbEntity
  8
0
100
AcDbCircle
 10
1415.064683
 20
1688.176671
 30
0.0
 40
27.456345
100
AcDbArc
 50
247.759024
 51
292.240976
  0
LINE
  5
2F32
100
AcDbEntity
  8
0
100
AcDbLine
 10
1404.672379
 20
1662.763075
 30
0.0
 11
1404.672379
 21
1677.459227
 31
0.0
  0
LINE
  5
2F33
100
AcDbEntity
  8
0
100
AcDbLine
 10
1425.456988
 20
1662.763075
 30
0.0
 11
1425.456988
 21
1677.459227
 31
0.0
  0
ARC
  5
2F34
100
AcDbEntity
  8
0
100
AcDbCircle
 10
2444.854279
 20
359.004628
 30
0.0
 40
8.4762
100
AcDbArc
 50
25.245402
 51
50.324874
  0
LINE
  5
2F37
100
AcDbEntity
  8
0
100
AcDbLine
 10
2433.265771
 20
425.82202
 30
0.0
 11
2495.765771
 21
425.82202
 31
0.0
  0
LINE
  5
2F38
100
AcDbEntity
  8
0
100
AcDbLine
 10
2395.265771
 20
362.62202
 30
0.0
 11
2471.265771
 21
362.62202
 31
0.0
  0
ARC
  5
2F39
100
AcDbEntity
  8
0
100
AcDbCircle
 10
2444.854279
 20
250.638412
 30
0.0
 40
8.4762
100
AcDbArc
 50
309.675126
 51
334.742453
  0
LINE
  5
2F3A
100
AcDbEntity
  8
0
100
AcDbLine
 10
2471.265771
 20
247.02172
 30
0.0
 11
2395.265771
 21
247.02172
 31
0.0
  0
LINE
  5
2F3C
100
AcDbEntity
  8
0
100
AcDbLine
 10
2433.265771
 20
183.82102
 30
0.0
 11
2495.765771
 21
183.82102
 31
0.0
  0
LINE
  5
2F45
100
AcDbEntity
  8
0
100
AcDbLine
 10
2063.667662
 20
365.528563
 30
0.0
 11
2029.667662
 21
365.528563
 31
0.0
  0
LINE
  5
2F47
100
AcDbEntity
  8
0
100
AcDbLine
 10
2063.667662
 20
244.114478
 30
0.0
 11
2029.667662
 21
244.114478
 31
0.0
  0
LINE
  5
2F48
100
AcDbEntity
  8
0
100
AcDbLine
 10
2065.667662
 20
247.02172
 30
0.0
 11
2027.667662
 21
247.02172
 31
0.0
  0
LINE
  5
2F49
100
AcDbEntity
  8
0
100
AcDbLine
 10
2027.667662
 20
362.62202
 30
0.0
 11
2065.667662
 21
362.62202
 31
0.0
  0
LINE
  5
2F4A
100
AcDbEntity
  8
0
100
AcDbLine
 10
1984.167662
 20
183.82102
 30
0.0
 11
2046.667662
 21
183.82102
 31
0.0
  0
LINE
  5
2F4B
100
AcDbEntity
  8
0
100
AcDbLine
 10
2046.667662
 20
183.82102
 30
0.0
 11
2109.167662
 21
183.82102
 31
0.0
  0
ARC
  5
2F4E
100
AcDbEntity
  8
0
100
AcDbCircle
 10
1608.723432
 20
264.927715
 30
0.0
 40
14.0
100
AcDbArc
 50
270.0
 51
0.0
  0
LINE
  5
2F4F
100
AcDbEntity
  8
0
100
AcDbLine
 10
1570.723432
 20
197.727015
 30
0.0
 11
1620.723432
 21
197.727015
 31
0.0
  0
LINE
  5
2F57
100
AcDbEntity
  8
0
100
AcDbLine
 10
1622.723432
 20
352.528015
 30
0.0
 11
1622.723432
 21
264.927715
 31
0.0
  0
ARC
  5
2F58
100
AcDbEntity
  8
0
100
AcDbCircle
 10
1608.723432
 20
352.528015
 30
0.0
 40
14.0
100
AcDbArc
 50
0.0
 51
90.0
  0
ARC
  5
2F5D
100
AcDbEntity
  8
0
100
AcDbCircle
 10
2009.667662
 20
269.389501
 30
0.0
 40
15.0
100
AcDbArc
 50
180.0
 51
241.362124
  0
ARC
  5
2F61
100
AcDbEntity
  8
0
100
AcDbCircle
 10
2045.613074
 20
335.214476
 30
0.0
 40
90.0
100
AcDbArc
 50
241.362124
 51
258.498507
  0
ARC
  5
2F62
100
AcDbEntity
  8
0
100
AcDbCircle
 10
2035.079154
 20
250.638412
 30
0.0
 40
8.4762
100
AcDbArc
 50
205.262779
 51
230.324874
  0
LINE
  5
2F63
100
AcDbEntity
  8
0
100
AcDbLine
 10
1994.667662
 20
340.727287
 30
0.0
 11
1994.667662
 21
269.389501
 31
0.0
  0
ARC
  5
2F65
100
AcDbEntity
  8
0
100
AcDbCircle
 10
2044.210105
 20
274.155374
 30
0.0
 40
90.0
100
AcDbArc
 50
100.591465
 51
117.42363
  0
ARC
  5
2F66
100
AcDbEntity
  8
0
100
AcDbCircle
 10
2009.667662
 20
340.727287
 30
0.0
 40
15.0
100
AcDbArc
 50
117.42363
 51
180.0
  0
ARC
  5
2F67
100
AcDbEntity
  8
0
100
AcDbCircle
 10
2035.079154
 20
359.004628
 30
0.0
 40
8.4762
100
AcDbArc
 50
129.675126
 51
154.737221
  0
LINE
  5
2F6A
100
AcDbEntity
  8
0
100
AcDbLine
 10
2190.650998
 20
362.62202
 30
0.0
 11
2249.226542
 21
362.62202
 31
0.0
  0
LINE
  5
2F6B
100
AcDbEntity
  8
0
100
AcDbLine
 10
2247.226542
 20
365.528563
 30
0.0
 11
2213.226542
 21
365.528563
 31
0.0
  0
LINE
  5
2F6D
100
AcDbEntity
  8
0
100
AcDbLine
 10
2249.226542
 20
247.02172
 30
0.0
 11
2190.650298
 21
247.02172
 31
0.0
  0
LINE
  5
2F6E
100
AcDbEntity
  8
0
100
AcDbLine
 10
2247.226542
 20
244.114478
 30
0.0
 11
2213.226542
 21
244.114478
 31
0.0
  0
TEXT
  5
2F70
100
AcDbEntity
  8
0
100
AcDbText
 10
2225.703475
 20
151.430492
 30
0.0
 40
20.0
  1
25A
 41
0.8
 11
2225.703475
 21
151.430492
 31
0.0
100
AcDbText
 73
     1
  0
LINE
  5
2F72
100
AcDbEntity
  8
0
100
AcDbLine
 10
2230.226542
 20
183.82102
 30
0.0
 11
2292.726542
 21
183.82102
 31
0.0
  0
ARC
  5
2F73
100
AcDbEntity
  8
0
100
AcDbCircle
 10
2083.667662
 20
269.389501
 30
0.0
 40
15.0
100
AcDbArc
 50
298.637876
 51
0.0
  0
LINE
  5
2F74
100
AcDbEntity
  8
0
100
AcDbLine
 10
2182.518774
 20
250.389788
 30
0.0
 11
2162.595018
 21
270.312544
 31
0.0
  0
ARC
  5
2F76
100
AcDbEntity
  8
0
100
AcDbCircle
 10
2047.722251
 20
335.214476
 30
0.0
 40
90.0
100
AcDbArc
 50
281.501493
 51
298.637876
  0
ARC
  5
2F79
100
AcDbEntity
  8
0
100
AcDbCircle
 10
2058.25617
 20
250.638412
 30
0.0
 40
8.4762
100
AcDbArc
 50
309.675126
 51
335.173058
  0
LINE
  5
2F7B
100
AcDbEntity
  8
0
100
AcDbLine
 10
2167.726542
 20
183.82102
 30
0.0
 11
2230.226542
 21
183.82102
 31
0.0
  0
ARC
  5
2F7C
100
AcDbEntity
  8
0
100
AcDbCircle
 10
2190.650298
 20
258.52172
 30
0.0
 40
11.5
100
AcDbArc
 50
225.001438
 51
270.0
  0
ARC
  5
2F7F
100
AcDbEntity
  8
0
100
AcDbCircle
 10
2218.638034
 20
250.638412
 30
0.0
 40
8.4762
100
AcDbArc
 50
205.262779
 51
230.324874
  0
LINE
  5
2F80
100
AcDbEntity
  8
0
100
AcDbLine
 10
2098.667662
 20
340.727287
 30
0.0
 11
2098.667662
 21
269.389501
 31
0.0
  0
ARC
  5
2F81
100
AcDbEntity
  8
0
100
AcDbCircle
 10
2049.125219
 20
274.155374
 30
0.0
 40
90.0
100
AcDbArc
 50
62.57637
 51
79.408535
  0
ARC
  5
2F83
100
AcDbEntity
  8
0
100
AcDbCircle
 10
2058.25617
 20
359.004628
 30
0.0
 40
8.4762
100
AcDbArc
 50
25.245402
 51
50.324874
  0
ARC
  5
2F85
100
AcDbEntity
  8
0
100
AcDbCircle
 10
2083.667662
 20
340.727287
 30
0.0
 40
15.0
100
AcDbArc
 50
0.0
 51
62.57637
  0
ARC
  5
2F86
100
AcDbEntity
  8
0
100
AcDbCircle
 10
2170.726542
 20
331.198564
 30
0.0
 40
11.5
100
AcDbArc
 50
134.998562
 51
180.0
  0
LINE
  5
2F87
100
AcDbEntity
  8
0
100
AcDbLine
 10
2159.226542
 20
278.444476
 30
0.0
 11
2159.226542
 21
331.198564
 31
0.0
  0
ARC
  5
2F88
100
AcDbEntity
  8
0
100
AcDbCircle
 10
2170.726542
 20
278.444476
 30
0.0
 40
11.5
100
AcDbArc
 50
180.0
 51
225.001438
  0
LINE
  5
2F89
100
AcDbEntity
  8
0
100
AcDbLine
 10
2162.595018
 20
339.330496
 30
0.0
 11
2182.519474
 21
359.253952
 31
0.0
  0
ARC
  5
2F8A
100
AcDbEntity
  8
0
100
AcDbCircle
 10
2190.650998
 20
351.12202
 30
0.0
 40
11.5
100
AcDbArc
 50
90.0
 51
134.998562
  0
ARC
  5
2F8C
100
AcDbEntity
  8
0
100
AcDbCircle
 10
2218.638034
 20
359.004628
 30
0.0
 40
8.4762
100
AcDbArc
 50
129.675126
 51
154.737221
  0
LINE
  5
2F8E
100
AcDbEntity
  8
0
100
AcDbLine
 10
2381.265771
 20
348.62202
 30
0.0
 11
2381.265771
 21
261.02172
 31
0.0
  0
LINE
  5
2F8F
100
AcDbEntity
  8
0
100
AcDbLine
 10
2263.226542
 20
348.62202
 30
0.0
 11
2263.226542
 21
261.02172
 31
0.0
  0
ARC
  5
2F93
100
AcDbEntity
  8
0
100
AcDbCircle
 10
2249.226542
 20
261.02172
 30
0.0
 40
14.0
100
AcDbArc
 50
270.0
 51
0.0
  0
ARC
  5
2F94
100
AcDbEntity
  8
0
100
AcDbCircle
 10
2241.81505
 20
250.638412
 30
0.0
 40
8.4762
100
AcDbArc
 50
309.675126
 51
337.997155
  0
LINE
  5
2F96
100
AcDbEntity
  8
0
100
AcDbLine
 10
2370.765771
 20
183.82102
 30
0.0
 11
2433.265771
 21
183.82102
 31
0.0
  0
ARC
  5
2F97
100
AcDbEntity
  8
0
100
AcDbCircle
 10
2395.265771
 20
261.02172
 30
0.0
 40
14.0
100
AcDbArc
 50
180.0
 51
270.0
  0
LINE
  5
2F9C
100
AcDbEntity
  8
0
100
AcDbLine
 10
2450.265771
 20
244.114478
 30
0.0
 11
2416.265771
 21
244.114478
 31
0.0
  0
ARC
  5
2F9D
100
AcDbEntity
  8
0
100
AcDbCircle
 10
2421.677263
 20
250.638412
 30
0.0
 40
8.4762
100
AcDbArc
 50
205.262779
 51
230.324874
  0
ARC
  5
2F9F
100
AcDbEntity
  8
0
100
AcDbCircle
 10
2241.81505
 20
359.004628
 30
0.0
 40
8.4762
100
AcDbArc
 50
25.245402
 51
50.324874
  0
ARC
  5
2FA0
100
AcDbEntity
  8
0
100
AcDbCircle
 10
2249.226542
 20
348.62202
 30
0.0
 40
14.0
100
AcDbArc
 50
0.0
 51
90.0
  0
ARC
  5
2FA2
100
AcDbEntity
  8
0
100
AcDbCircle
 10
2395.265771
 20
348.62202
 30
0.0
 40
14.0
100
AcDbArc
 50
90.0
 51
180.0
  0
LINE
  5
2FA5
100
AcDbEntity
  8
0
100
AcDbLine
 10
2450.265771
 20
365.528563
 30
0.0
 11
2416.265771
 21
365.528563
 31
0.0
  0
ARC
  5
2FA6
100
AcDbEntity
  8
0
100
AcDbCircle
 10
2421.677263
 20
359.004628
 30
0.0
 40
8.4762
100
AcDbArc
 50
129.675126
 51
154.737221
  0
LINE
  5
2FA9
100
AcDbEntity
  8
0
100
AcDbLine
 10
1984.167662
 20
425.82202
 30
0.0
 11
2046.667662
 21
425.82202
 31
0.0
  0
LINE
  5
2FAA
100
AcDbEntity
  8
0
100
AcDbLine
 10
2046.667662
 20
425.82202
 30
0.0
 11
2109.167662
 21
425.82202
 31
0.0
  0
LINE
  5
2FAB
100
AcDbEntity
  8
0
100
AcDbLine
 10
1570.723432
 20
419.728015
 30
0.0
 11
1620.723432
 21
419.728015
 31
0.0
  0
LINE
  5
2FAE
100
AcDbEntity
  8
0
100
AcDbLine
 10
2230.226542
 20
425.82202
 30
0.0
 11
2292.726542
 21
425.82202
 31
0.0
  0
CIRCLE
  5
2FAF
100
AcDbEntity
  8
0
100
AcDbCircle
 10
2230.226542
 20
582.075624
 30
0.0
 40
62.5
  0
ARC
  5
2FB0
100
AcDbEntity
  8
0
100
AcDbCircle
 10
2211.226542
 20
582.075624
 30
0.0
 40
52.0
100
AcDbArc
 50
115.19712
 51
244.80288
  0
LINE
  5
2FB1
100
AcDbEntity
  8
0
100
AcDbLine
 10
2167.726542
 20
425.82202
 30
0.0
 11
2230.226542
 21
425.82202
 31
0.0
  0
LINE
  5
2FB2
100
AcDbEntity
  8
0
100
AcDbLine
 10
2231.014494
 20
443.676171
 30
0.0
 11
2231.014494
 21
490.944734
 31
0.0
  0
LINE
  5
2FB3
100
AcDbEntity
  8
0
100
AcDbLine
 10
2221.561119
 20
453.335421
 30
0.0
 11
2231.014494
 21
443.676171
 31
0.0
  0
LINE
  5
2FB4
100
AcDbEntity
  8
0
100
AcDbLine
 10
2221.561119
 20
500.398109
 30
0.0
 11
2221.561119
 21
472.037984
 31
0.0
  0
LINE
  5
2FB5
100
AcDbEntity
  8
0
100
AcDbLine
 10
2231.014494
 20
490.944734
 30
0.0
 11
2221.561119
 21
500.398109
 31
0.0
  0
LINE
  5
2FB6
100
AcDbEntity
  8
0
100
AcDbLine
 10
2221.561119
 20
472.037984
 30
0.0
 11
2226.287806
 21
467.309609
 31
0.0
  0
LINE
  5
2FB7
100
AcDbEntity
  8
0
100
AcDbLine
 10
2226.287806
 20
453.335421
 30
0.0
 11
2221.561119
 21
453.335421
 31
0.0
  0
LINE
  5
2FB8
100
AcDbEntity
  8
0
100
AcDbLine
 10
2226.287806
 20
467.309609
 30
0.0
 11
2226.287806
 21
453.335421
 31
0.0
  0
CIRCLE
  5
2FB9
100
AcDbEntity
  8
0
100
AcDbCircle
 10
2198.406737
 20
613.89543
 30
0.0
 40
7.5
  0
CIRCLE
  5
2FBA
100
AcDbEntity
  8
0
100
AcDbCircle
 10
2198.406737
 20
550.255819
 30
0.0
 40
7.5
  0
ELLIPSE
  5
2FBB
100
AcDbEntity
  8
0
100
AcDbEllipse
 10
2172.553542
 20
582.075624
 30
0.0
 11
-0.0000000000000029
 21
-15.73525959711332
 31
0.0
210
0.0
220
0.0
230
-1.0
 40
0.759965
 41
6.531340225509425
 42
9.176623042439493
  0
LINE
  5
2FBC
100
AcDbEntity
  8
0
100
AcDbLine
 10
2370.765771
 20
425.82202
 30
0.0
 11
2433.265771
 21
425.82202
 31
0.0
  0
CIRCLE
  5
2FBD
100
AcDbEntity
  8
0
100
AcDbCircle
 10
2262.046347
 20
613.89543
 30
0.0
 40
7.5
  0
CIRCLE
  5
2FBE
100
AcDbEntity
  8
0
100
AcDbCircle
 10
2262.046347
 20
550.255819
 30
0.0
 40
7.5
  0
LINE
  5
2FBF
100
AcDbEntity
  8
0
100
AcDbLine
 10
2292.726542
 20
919.33995
 30
0.0
 11
2230.226542
 21
919.33995
 31
0.0
  0
LINE
  5
2FC0
100
AcDbEntity
  8
0
100
AcDbLine
 10
2230.226542
 20
919.33995
 30
0.0
 11
2167.726542
 21
919.33995
 31
0.0
  0
LINE
  5
2FC1
100
AcDbEntity
  8
0
100
AcDbLine
 10
2269.802086
 20
856.13995
 30
0.0
 11
2211.226542
 21
856.13995
 31
0.0
  0
LINE
  5
2FC2
100
AcDbEntity
  8
0
100
AcDbLine
 10
2213.226542
 20
859.046493
 30
0.0
 11
2247.226542
 21
859.046493
 31
0.0
  0
LINE
  5
2FC5
100
AcDbEntity
  8
0
100
AcDbLine
 10
2211.226542
 20
740.53965
 30
0.0
 11
2269.802786
 21
740.53965
 31
0.0
  0
LINE
  5
2FC6
100
AcDbEntity
  8
0
100
AcDbLine
 10
2213.226542
 20
737.632408
 30
0.0
 11
2247.226542
 21
737.632408
 31
0.0
  0
LINE
  5
2FC7
100
AcDbEntity
  8
0
100
AcDbLine
 10
2292.726542
 20
677.33895
 30
0.0
 11
2230.226542
 21
677.33895
 31
0.0
  0
LINE
  5
2FC9
100
AcDbEntity
  8
0
100
AcDbLine
 10
2230.226542
 20
677.33895
 30
0.0
 11
2167.726542
 21
677.33895
 31
0.0
  0
LINE
  5
2FCB
100
AcDbEntity
  8
0
100
AcDbLine
 10
2197.226542
 20
842.13995
 30
0.0
 11
2197.226542
 21
754.53965
 31
0.0
  0
ARC
  5
2FCC
100
AcDbEntity
  8
0
100
AcDbCircle
 10
2211.226542
 20
754.53965
 30
0.0
 40
14.0
100
AcDbArc
 50
180.0
 51
270.0
  0
ARC
  5
2FD0
100
AcDbEntity
  8
0
100
AcDbCircle
 10
2218.638034
 20
744.156342
 30
0.0
 40
8.4762
100
AcDbArc
 50
202.002845
 51
230.324874
  0
ARC
  5
2FD3
100
AcDbEntity
  8
0
100
AcDbCircle
 10
2218.638034
 20
852.522558
 30
0.0
 40
8.4762
100
AcDbArc
 50
129.675126
 51
154.754598
  0
ARC
  5
2FD4
100
AcDbEntity
  8
0
100
AcDbCircle
 10
2211.226542
 20
842.13995
 30
0.0
 40
14.0
100
AcDbArc
 50
90.0
 51
180.0
  0
ARC
  5
2FD6
100
AcDbEntity
  8
0
100
AcDbCircle
 10
2289.726542
 20
824.716494
 30
0.0
 40
11.5
100
AcDbArc
 50
360.0
 51
45.001438
  0
LINE
  5
2FD7
100
AcDbEntity
  8
0
100
AcDbLine
 10
2277.93431
 20
743.907718
 30
0.0
 11
2297.858066
 21
763.830474
 31
0.0
  0
ARC
  5
2FDB
100
AcDbEntity
  8
0
100
AcDbCircle
 10
2241.81505
 20
744.156342
 30
0.0
 40
8.4762
100
AcDbArc
 50
309.675126
 51
334.737221
  0
ARC
  5
2FDC
100
AcDbEntity
  8
0
100
AcDbCircle
 10
2269.802786
 20
752.03965
 30
0.0
 40
11.5
100
AcDbArc
 50
270.0
 51
314.998562
  0
LINE
  5
2FDD
100
AcDbEntity
  8
0
100
AcDbLine
 10
2301.226542
 20
771.962406
 30
0.0
 11
2301.226542
 21
824.716494
 31
0.0
  0
ARC
  5
2FDE
100
AcDbEntity
  8
0
100
AcDbCircle
 10
2289.726542
 20
771.962406
 30
0.0
 40
11.5
100
AcDbArc
 50
314.998562
 51
360.0
  0
LINE
  5
2FE0
100
AcDbEntity
  8
0
100
AcDbLine
 10
2297.858066
 20
832.848426
 30
0.0
 11
2277.93361
 21
852.771882
 31
0.0
  0
ARC
  5
2FE2
100
AcDbEntity
  8
0
100
AcDbCircle
 10
2241.81505
 20
852.522558
 30
0.0
 40
8.4762
100
AcDbArc
 50
25.262779
 51
50.324874
  0
ARC
  5
2FE3
100
AcDbEntity
  8
0
100
AcDbCircle
 10
2269.802086
 20
844.63995
 30
0.0
 40
11.5
100
AcDbArc
 50
45.001438
 51
90.0
  0
LINE
  5
2FE6
100
AcDbEntity
  8
0
100
AcDbLine
 10
2485.265771
 20
348.62202
 30
0.0
 11
2485.265771
 21
261.02172
 31
0.0
  0
ARC
  5
2FE8
100
AcDbEntity
  8
0
100
AcDbCircle
 10
2471.265771
 20
261.02172
 30
0.0
 40
14.0
100
AcDbArc
 50
270.0
 51
0.0
  0
ARC
  5
2FE9
100
AcDbEntity
  8
0
100
AcDbCircle
 10
2471.265771
 20
348.62202
 30
0.0
 40
14.0
100
AcDbArc
 50
0.0
 51
90.0
  0
LINE
  5
2FEA
100
AcDbEntity
  8
0
100
AcDbLine
 10
2297.764504
 20
1563.932523
 30
0.0
 11
2297.764504
 21
1616.686611
 31
0.0
  0
LINE
  5
2FEB
100
AcDbEntity
  8
0
100
AcDbLine
 10
1486.064683
 20
1563.373066
 30
0.0
 11
1486.064683
 21
1616.127154
 31
0.0
  0
LINE
  5
2FEC
100
AcDbEntity
  8
0
100
AcDbLine
 10
2193.764504
 20
1634.110067
 30
0.0
 11
2193.764504
 21
1546.509767
 31
0.0
  0
LINE
  5
2FED
100
AcDbEntity
  8
0
100
AcDbLine
 10
1625.386466
 20
1222.801755
 30
0.0
 11
1625.386466
 21
1135.201455
 31
0.0
  0
LINE
  5
2FEE
100
AcDbEntity
  8
0
100
AcDbLine
 10
1521.386466
 20
1222.801755
 30
0.0
 11
1521.386466
 21
1135.201455
 31
0.0
  0
LINE
  5
2FEF
100
AcDbEntity
  8
0
100
AcDbLine
 10
1448.064683
 20
1222.801755
 30
0.0
 11
1448.064683
 21
1135.201455
 31
0.0
  0
ARC
  5
2FF0
100
AcDbEntity
  8
0
100
AcDbCircle
 10
1535.386466
 20
1135.201455
 30
0.0
 40
14.0
100
AcDbArc
 50
180.0
 51
270.0
  0
LINE
  5
2FF1
100
AcDbEntity
  8
0
100
AcDbLine
 10
1430.064683
 20
1116.008228
 30
0.0
 11
1435.849293
 21
1105.98899
 31
0.0
  0
LINE
  5
2FF2
100
AcDbEntity
  8
0
100
AcDbLine
 10
1435.849293
 20
1091.292837
 30
0.0
 11
1432.564683
 21
1088.008228
 31
0.0
  0
LINE
  5
2FF3
100
AcDbEntity
  8
0
100
AcDbLine
 10
1435.849293
 20
1105.98899
 30
0.0
 11
1435.849293
 21
1091.292837
 31
0.0
  0
ARC
  5
2FF4
100
AcDbEntity
  8
0
100
AcDbCircle
 10
1434.064683
 20
1135.201455
 30
0.0
 40
14.0
100
AcDbArc
 50
270.0
 51
0.0
  0
LINE
  5
2FF5
100
AcDbEntity
  8
0
100
AcDbLine
 10
1430.957421
 20
1121.201455
 30
0.0
 11
1430.064683
 21
1120.327263
 31
0.0
  0
LINE
  5
2FF6
100
AcDbEntity
  8
0
100
AcDbLine
 10
1430.064683
 20
1120.327263
 30
0.0
 11
1430.064683
 21
1116.008228
 31
0.0
  0
LINE
  5
2FF7
100
AcDbEntity
  8
0
100
AcDbLine
 10
1611.386466
 20
1121.201455
 30
0.0
 11
1535.386466
 21
1121.201455
 31
0.0
  0
ARC
  5
2FF8
100
AcDbEntity
  8
0
100
AcDbCircle
 10
1582.386466
 20
1087.184136
 30
0.0
 40
20.847602
100
AcDbArc
 50
64.424231
 51
115.575769
  0
LINE
  5
2FF9
100
AcDbEntity
  8
0
100
AcDbLine
 10
1558.386466
 20
1116.008228
 30
0.0
 11
1588.386466
 21
1116.008228
 31
0.0
  0
LINE
  5
2FFA
100
AcDbEntity
  8
0
100
AcDbLine
 10
1588.386466
 20
1120.327263
 30
0.0
 11
1558.386466
 21
1120.327263
 31
0.0
  0
ARC
  5
2FFB
100
AcDbEntity
  8
0
100
AcDbCircle
 10
1582.386466
 20
1110.097691
 30
0.0
 40
20.847602
100
AcDbArc
 50
244.424231
 51
295.575769
  0
LINE
  5
2FFC
100
AcDbEntity
  8
0
100
AcDbLine
 10
1573.386466
 20
1088.008228
 30
0.0
 11
1590.886466
 21
1088.008228
 31
0.0
  0
ARC
  5
2FFD
100
AcDbEntity
  8
0
100
AcDbCircle
 10
1564.386466
 20
1087.184136
 30
0.0
 40
20.847602
100
AcDbArc
 50
64.424231
 51
115.575769
  0
LINE
  5
2FFE
100
AcDbEntity
  8
0
100
AcDbLine
 10
1558.386466
 20
1116.008228
 30
0.0
 11
1555.386466
 21
1105.98899
 31
0.0
  0
ARC
  5
2FFF
100
AcDbEntity
  8
0
100
AcDbCircle
 10
1564.386466
 20
1110.097691
 30
0.0
 40
20.847602
100
AcDbArc
 50
244.424231
 51
295.575769
  0
LINE
  5
3000
100
AcDbEntity
  8
0
100
AcDbLine
 10
1555.886466
 20
1088.008228
 30
0.0
 11
1573.386466
 21
1088.008228
 31
0.0
  0
LINE
  5
3001
100
AcDbEntity
  8
0
100
AcDbLine
 10
1555.386466
 20
1091.292837
 30
0.0
 11
1555.886466
 21
1088.008228
 31
0.0
  0
LINE
  5
3002
100
AcDbEntity
  8
0
100
AcDbLine
 10
1555.386466
 20
1105.98899
 30
0.0
 11
1555.386466
 21
1091.292837
 31
0.0
  0
LINE
  5
3003
100
AcDbEntity
  8
0
100
AcDbLine
 10
1573.386466
 20
1105.98899
 30
0.0
 11
1573.386466
 21
1091.292837
 31
0.0
  0
LINE
  5
3004
100
AcDbEntity
  8
0
100
AcDbLine
 10
1557.493728
 20
1121.201455
 30
0.0
 11
1558.386466
 21
1120.327263
 31
0.0
  0
LINE
  5
3005
100
AcDbEntity
  8
0
100
AcDbLine
 10
1558.386466
 20
1120.327263
 30
0.0
 11
1558.386466
 21
1116.008228
 31
0.0
  0
LINE
  5
3006
100
AcDbEntity
  8
0
100
AcDbLine
 10
1588.386466
 20
1116.008228
 30
0.0
 11
1591.386466
 21
1105.98899
 31
0.0
  0
LINE
  5
3007
100
AcDbEntity
  8
0
100
AcDbLine
 10
1591.386466
 20
1091.292837
 30
0.0
 11
1590.886466
 21
1088.008228
 31
0.0
  0
LINE
  5
3008
100
AcDbEntity
  8
0
100
AcDbLine
 10
1591.386466
 20
1105.98899
 30
0.0
 11
1591.386466
 21
1091.292837
 31
0.0
  0
LINE
  5
3009
100
AcDbEntity
  8
0
100
AcDbLine
 10
1589.279203
 20
1121.201455
 30
0.0
 11
1588.386466
 21
1120.327263
 31
0.0
  0
LINE
  5
300A
100
AcDbEntity
  8
0
100
AcDbLine
 10
1588.386466
 20
1120.327263
 30
0.0
 11
1588.386466
 21
1116.008228
 31
0.0
  0
ARC
  5
300B
100
AcDbEntity
  8
0
100
AcDbCircle
 10
1611.386466
 20
1135.201455
 30
0.0
 40
14.0
100
AcDbArc
 50
270.0
 51
0.0
  0
ARC
  5
300C
100
AcDbEntity
  8
0
100
AcDbCircle
 10
1535.386466
 20
1222.801755
 30
0.0
 40
14.0
100
AcDbArc
 50
90.0
 51
180.0
  0
LINE
  5
300D
100
AcDbEntity
  8
0
100
AcDbLine
 10
1435.849293
 20
1252.01422
 30
0.0
 11
1435.849293
 21
1266.710372
 31
0.0
  0
LINE
  5
300E
100
AcDbEntity
  8
0
100
AcDbLine
 10
1430.064683
 20
1237.675947
 30
0.0
 11
1430.064683
 21
1241.994982
 31
0.0
  0
LINE
  5
300F
100
AcDbEntity
  8
0
100
AcDbLine
 10
1430.957421
 20
1236.801755
 30
0.0
 11
1430.064683
 21
1237.675947
 31
0.0
  0
LINE
  5
3010
100
AcDbEntity
  8
0
100
AcDbLine
 10
1430.064683
 20
1241.994982
 30
0.0
 11
1435.849293
 21
1252.01422
 31
0.0
  0
ARC
  5
3011
100
AcDbEntity
  8
0
100
AcDbCircle
 10
1434.064683
 20
1222.801755
 30
0.0
 40
14.0
100
AcDbArc
 50
0.0
 51
90.0
  0
LINE
  5
3012
100
AcDbEntity
  8
0
100
AcDbLine
 10
1435.849293
 20
1266.710372
 30
0.0
 11
1432.564683
 21
1269.994982
 31
0.0
  0
LINE
  5
3013
100
AcDbEntity
  8
0
100
AcDbLine
 10
1588.386466
 20
1237.675947
 30
0.0
 11
1558.386466
 21
1237.675947
 31
0.0
  0
LINE
  5
3014
100
AcDbEntity
  8
0
100
AcDbLine
 10
1558.386466
 20
1241.994982
 30
0.0
 11
1588.386466
 21
1241.994982
 31
0.0
  0
LINE
  5
3015
100
AcDbEntity
  8
0
100
AcDbLine
 10
1573.386466
 20
1269.994982
 30
0.0
 11
1590.886466
 21
1269.994982
 31
0.0
  0
LINE
  5
3016
100
AcDbEntity
  8
0
100
AcDbLine
 10
1535.386466
 20
1236.801755
 30
0.0
 11
1611.386466
 21
1236.801755
 31
0.0
  0
ARC
  5
3017
100
AcDbEntity
  8
0
100
AcDbCircle
 10
1582.386466
 20
1247.905519
 30
0.0
 40
20.847602
100
AcDbArc
 50
64.424231
 51
115.575769
  0
ARC
  5
3018
100
AcDbEntity
  8
0
100
AcDbCircle
 10
1582.386466
 20
1270.819074
 30
0.0
 40
20.847602
100
AcDbArc
 50
244.424231
 51
295.575769
  0
LINE
  5
3019
100
AcDbEntity
  8
0
100
AcDbLine
 10
1573.386466
 20
1252.01422
 30
0.0
 11
1573.386466
 21
1266.710372
 31
0.0
  0
LINE
  5
301A
100
AcDbEntity
  8
0
100
AcDbLine
 10
1555.386466
 20
1252.01422
 30
0.0
 11
1555.386466
 21
1266.710372
 31
0.0
  0
ARC
  5
301B
100
AcDbEntity
  8
0
100
AcDbCircle
 10
1564.386466
 20
1270.819074
 30
0.0
 40
20.847602
100
AcDbArc
 50
244.424231
 51
295.575769
  0
LINE
  5
301C
100
AcDbEntity
  8
0
100
AcDbLine
 10
1558.386466
 20
1237.675947
 30
0.0
 11
1558.386466
 21
1241.994982
 31
0.0
  0
LINE
  5
301D
100
AcDbEntity
  8
0
100
AcDbLine
 10
1557.493728
 20
1236.801755
 30
0.0
 11
1558.386466
 21
1237.675947
 31
0.0
  0
LINE
  5
301E
100
AcDbEntity
  8
0
100
AcDbLine
 10
1558.386466
 20
1241.994982
 30
0.0
 11
1555.386466
 21
1252.01422
 31
0.0
  0
LINE
  5
301F
100
AcDbEntity
  8
0
100
AcDbLine
 10
1555.886466
 20
1269.994982
 30
0.0
 11
1573.386466
 21
1269.994982
 31
0.0
  0
ARC
  5
3020
100
AcDbEntity
  8
0
100
AcDbCircle
 10
1564.386466
 20
1247.905519
 30
0.0
 40
20.847602
100
AcDbArc
 50
64.424231
 51
115.575769
  0
LINE
  5
3021
100
AcDbEntity
  8
0
100
AcDbLine
 10
1555.386466
 20
1266.710372
 30
0.0
 11
1555.886466
 21
1269.994982
 31
0.0
  0
LINE
  5
3022
100
AcDbEntity
  8
0
100
AcDbLine
 10
1591.386466
 20
1252.01422
 30
0.0
 11
1591.386466
 21
1266.710372
 31
0.0
  0
LINE
  5
3023
100
AcDbEntity
  8
0
100
AcDbLine
 10
1588.386466
 20
1237.675947
 30
0.0
 11
1588.386466
 21
1241.994982
 31
0.0
  0
LINE
  5
3024
100
AcDbEntity
  8
0
100
AcDbLine
 10
1589.279203
 20
1236.801755
 30
0.0
 11
1588.386466
 21
1237.675947
 31
0.0
  0
LINE
  5
3025
100
AcDbEntity
  8
0
100
AcDbLine
 10
1588.386466
 20
1241.994982
 30
0.0
 11
1591.386466
 21
1252.01422
 31
0.0
  0
ARC
  5
3026
100
AcDbEntity
  8
0
100
AcDbCircle
 10
1611.386466
 20
1222.801755
 30
0.0
 40
14.0
100
AcDbArc
 50
0.0
 51
90.0
  0
LINE
  5
3027
100
AcDbEntity
  8
0
100
AcDbLine
 10
1591.386466
 20
1266.710372
 30
0.0
 11
1590.886466
 21
1269.994982
 31
0.0
  0
LINE
  5
3028
100
AcDbEntity
  8
0
100
AcDbLine
 10
1435.849293
 20
1502.041692
 30
0.0
 11
1432.564683
 21
1498.757083
 31
0.0
  0
LINE
  5
3029
100
AcDbEntity
  8
0
100
AcDbLine
 10
1462.772451
 20
1535.318378
 30
0.0
 11
1482.696207
 21
1555.241134
 31
0.0
  0
LINE
  5
302A
100
AcDbEntity
  8
0
100
AcDbLine
 10
1430.064683
 20
1531.076118
 30
0.0
 11
1430.064683
 21
1526.757083
 31
0.0
  0
LINE
  5
302B
100
AcDbEntity
  8
0
100
AcDbLine
 10
1430.957421
 20
1531.95031
 30
0.0
 11
1430.064683
 21
1531.076118
 31
0.0
  0
LINE
  5
302C
100
AcDbEntity
  8
0
100
AcDbLine
 10
1430.064683
 20
1526.757083
 30
0.0
 11
1435.849293
 21
1516.737845
 31
0.0
  0
LINE
  5
302D
100
AcDbEntity
  8
0
100
AcDbLine
 10
1435.849293
 20
1516.737845
 30
0.0
 11
1435.849293
 21
1502.041692
 31
0.0
  0
ARC
  5
302E
100
AcDbEntity
  8
0
100
AcDbCircle
 10
1454.640927
 20
1543.45031
 30
0.0
 40
11.5
100
AcDbArc
 50
270.0
 51
314.998562
  0
ARC
  5
302F
100
AcDbEntity
  8
0
100
AcDbCircle
 10
1474.564683
 20
1563.373066
 30
0.0
 40
11.5
100
AcDbArc
 50
314.998562
 51
360.0
  0
LINE
  5
3030
100
AcDbEntity
  8
0
100
AcDbLine
 10
2215.520231
 20
1299.279923
 30
0.0
 11
2224.973606
 21
1289.620673
 31
0.0
  0
LINE
  5
3031
100
AcDbEntity
  8
0
100
AcDbLine
 10
2224.973606
 20
1289.620673
 30
0.0
 11
2224.973606
 21
1336.889235
 31
0.0
  0
ARC
  5
3032
100
AcDbEntity
  8
0
100
AcDbCircle
 10
2063.338004
 20
1139.797544
 30
0.0
 40
90.0
100
AcDbArc
 50
62.57637
 51
79.408535
  0
ARC
  5
3033
100
AcDbEntity
  8
0
100
AcDbCircle
 10
2061.935035
 20
1200.856647
 30
0.0
 40
90.0
100
AcDbArc
 50
281.501493
 51
298.637876
  0
LINE
  5
3034
100
AcDbEntity
  8
0
100
AcDbLine
 10
2008.880447
 20
1206.369457
 30
0.0
 11
2008.880447
 21
1135.031671
 31
0.0
  0
LINE
  5
3035
100
AcDbEntity
  8
0
100
AcDbLine
 10
2040.380447
 20
1092.544753
 30
0.0
 11
2045.880447
 21
1107.563991
 31
0.0
  0
ARC
  5
3036
100
AcDbEntity
  8
0
100
AcDbCircle
 10
2050.630447
 20
1077.566173
 30
0.0
 40
18.149941
100
AcDbArc
 50
55.615753
 51
124.384247
  0
LINE
  5
3037
100
AcDbEntity
  8
0
100
AcDbLine
 10
2079.880447
 20
1112.663891
 30
0.0
 11
2041.880447
 21
1112.663891
 31
0.0
  0
ARC
  5
3038
100
AcDbEntity
  8
0
100
AcDbCircle
 10
2050.630447
 20
1092.713932
 30
0.0
 40
18.149941
100
AcDbArc
 50
235.615753
 51
304.384247
  0
LINE
  5
3039
100
AcDbEntity
  8
0
100
AcDbLine
 10
2060.880447
 20
1074.063991
 30
0.0
 11
2040.880447
 21
1074.063991
 31
0.0
  0
LINE
  5
303A
100
AcDbEntity
  8
0
100
AcDbLine
 10
2040.880447
 20
1074.063991
 30
0.0
 11
2040.380447
 21
1077.735352
 31
0.0
  0
LINE
  5
303B
100
AcDbEntity
  8
0
100
AcDbLine
 10
2040.380447
 20
1092.544753
 30
0.0
 11
2040.380447
 21
1077.735352
 31
0.0
  0
ARC
  5
303C
100
AcDbEntity
  8
0
100
AcDbCircle
 10
2023.880447
 20
1135.031671
 30
0.0
 40
15.0
100
AcDbArc
 50
180.0
 51
241.362124
  0
ARC
  5
303D
100
AcDbEntity
  8
0
100
AcDbCircle
 10
2059.825859
 20
1200.856647
 30
0.0
 40
90.0
100
AcDbArc
 50
241.362124
 51
258.498507
  0
LINE
  5
303E
100
AcDbEntity
  8
0
100
AcDbLine
 10
2075.880447
 20
1107.413891
 30
0.0
 11
2075.880447
 21
1110.846965
 31
0.0
  0
LINE
  5
303F
100
AcDbEntity
  8
0
100
AcDbLine
 10
2045.880447
 20
1107.413891
 30
0.0
 11
2045.880447
 21
1110.846965
 31
0.0
  0
ARC
  5
3040
100
AcDbEntity
  8
0
100
AcDbCircle
 10
2071.130447
 20
1077.566173
 30
0.0
 40
18.149941
100
AcDbArc
 50
55.615753
 51
124.384247
  0
LINE
  5
3041
100
AcDbEntity
  8
0
100
AcDbLine
 10
2075.880447
 20
1107.563991
 30
0.0
 11
2045.880447
 21
1107.563991
 31
0.0
  0
ARC
  5
3042
100
AcDbEntity
  8
0
100
AcDbCircle
 10
2071.130447
 20
1092.713932
 30
0.0
 40
18.149941
100
AcDbArc
 50
235.615753
 51
304.384247
  0
LINE
  5
3043
100
AcDbEntity
  8
0
100
AcDbLine
 10
2080.880447
 20
1074.063991
 30
0.0
 11
2060.880447
 21
1074.063991
 31
0.0
  0
LINE
  5
3044
100
AcDbEntity
  8
0
100
AcDbLine
 10
2060.880447
 20
1092.394653
 30
0.0
 11
2060.880447
 21
1077.585252
 31
0.0
  0
LINE
  5
3045
100
AcDbEntity
  8
0
100
AcDbLine
 10
2081.380447
 20
1092.544753
 30
0.0
 11
2075.880447
 21
1107.563991
 31
0.0
  0
LINE
  5
3046
100
AcDbEntity
  8
0
100
AcDbLine
 10
2081.380447
 20
1077.735352
 30
0.0
 11
2080.880447
 21
1074.063991
 31
0.0
  0
LINE
  5
3047
100
AcDbEntity
  8
0
100
AcDbLine
 10
2081.380447
 20
1092.544753
 30
0.0
 11
2081.380447
 21
1077.735352
 31
0.0
  0
LINE
  5
3048
100
AcDbEntity
  8
0
100
AcDbLine
 10
2075.880447
 20
1110.846965
 30
0.0
 11
2045.880447
 21
1110.846965
 31
0.0
  0
ARC
  5
3049
100
AcDbEntity
  8
0
100
AcDbCircle
 10
2047.810243
 20
1114.622177
 30
0.0
 40
4.239851
100
AcDbArc
 50
207.508231
 51
242.924993
  0
ARC
  5
304A
100
AcDbEntity
  8
0
100
AcDbCircle
 10
2073.950651
 20
1114.622177
 30
0.0
 40
4.239851
100
AcDbArc
 50
297.075007
 51
332.491769
  0
ARC
  5
304B
100
AcDbEntity
  8
0
100
AcDbCircle
 10
2023.880447
 20
1206.369457
 30
0.0
 40
15.0
100
AcDbArc
 50
117.42363
 51
180.0
  0
LINE
  5
304C
100
AcDbEntity
  8
0
100
AcDbLine
 10
2040.380447
 20
1248.483329
 30
0.0
 11
2045.880447
 21
1233.464091
 31
0.0
  0
ARC
  5
304D
100
AcDbEntity
  8
0
100
AcDbCircle
 10
2050.630447
 20
1263.461909
 30
0.0
 40
18.149941
100
AcDbArc
 50
235.615753
 51
304.384247
  0
LINE
  5
304E
100
AcDbEntity
  8
0
100
AcDbLine
 10
2060.880447
 20
1266.964091
 30
0.0
 11
2040.880447
 21
1266.964091
 31
0.0
  0
ARC
  5
304F
100
AcDbEntity
  8
0
100
AcDbCircle
 10
2050.630447
 20
1248.31415
 30
0.0
 40
18.149941
100
AcDbArc
 50
55.615753
 51
124.384247
  0
LINE
  5
3050
100
AcDbEntity
  8
0
100
AcDbLine
 10
2041.880447
 20
1228.264191
 30
0.0
 11
2079.880447
 21
1228.264191
 31
0.0
  0
LINE
  5
3051
100
AcDbEntity
  8
0
100
AcDbLine
 10
2040.380447
 20
1248.483329
 30
0.0
 11
2040.380447
 21
1263.29273
 31
0.0
  0
ARC
  5
3052
100
AcDbEntity
  8
0
100
AcDbCircle
 10
2058.42289
 20
1139.797544
 30
0.0
 40
90.0
100
AcDbArc
 50
100.591465
 51
117.42363
  0
LINE
  5
3053
100
AcDbEntity
  8
0
100
AcDbLine
 10
2040.880447
 20
1266.964091
 30
0.0
 11
2040.380447
 21
1263.29273
 31
0.0
  0
LINE
  5
3054
100
AcDbEntity
  8
0
100
AcDbLine
 10
2060.880447
 20
1248.483329
 30
0.0
 11
2060.880447
 21
1263.29273
 31
0.0
  0
LINE
  5
3055
100
AcDbEntity
  8
0
100
AcDbLine
 10
2081.380447
 20
1248.483329
 30
0.0
 11
2081.380447
 21
1263.29273
 31
0.0
  0
ARC
  5
3056
100
AcDbEntity
  8
0
100
AcDbCircle
 10
2071.130447
 20
1263.461909
 30
0.0
 40
18.149941
100
AcDbArc
 50
235.615753
 51
304.384247
  0
LINE
  5
3057
100
AcDbEntity
  8
0
100
AcDbLine
 10
2075.880447
 20
1233.464091
 30
0.0
 11
2045.880447
 21
1233.464091
 31
0.0
  0
LINE
  5
3058
100
AcDbEntity
  8
0
100
AcDbLine
 10
2075.880447
 20
1230.081117
 30
0.0
 11
2045.880447
 21
1230.081117
 31
0.0
  0
LINE
  5
3059
100
AcDbEntity
  8
0
100
AcDbLine
 10
2045.880447
 20
1233.464091
 30
0.0
 11
2045.880447
 21
1230.031017
 31
0.0
  0
ARC
  5
305A
100
AcDbEntity
  8
0
100
AcDbCircle
 10
2047.810243
 20
1226.305905
 30
0.0
 40
4.239851
100
AcDbArc
 50
117.075007
 51
152.491769
  0
LINE
  5
305B
100
AcDbEntity
  8
0
100
AcDbLine
 10
2075.880447
 20
1233.464091
 30
0.0
 11
2075.880447
 21
1230.031017
 31
0.0
  0
LINE
  5
305C
100
AcDbEntity
  8
0
100
AcDbLine
 10
2081.380447
 20
1248.483329
 30
0.0
 11
2075.880447
 21
1233.464091
 31
0.0
  0
ARC
  5
305D
100
AcDbEntity
  8
0
100
AcDbCircle
 10
2073.950651
 20
1226.305905
 30
0.0
 40
4.239851
100
AcDbArc
 50
27.508231
 51
62.924993
  0
LINE
  5
305E
100
AcDbEntity
  8
0
100
AcDbLine
 10
2080.880447
 20
1266.964091
 30
0.0
 11
2060.880447
 21
1266.964091
 31
0.0
  0
ARC
  5
305F
100
AcDbEntity
  8
0
100
AcDbCircle
 10
2071.130447
 20
1248.31415
 30
0.0
 40
18.149941
100
AcDbArc
 50
55.615753
 51
124.384247
  0
LINE
  5
3060
100
AcDbEntity
  8
0
100
AcDbLine
 10
2081.380447
 20
1263.29273
 30
0.0
 11
2080.880447
 21
1266.964091
 31
0.0
  0
LINE
  5
3061
100
AcDbEntity
  8
0
100
AcDbLine
 10
2259.764504
 20
1214.264191
 30
0.0
 11
2259.764504
 21
1126.663891
 31
0.0
  0
LINE
  5
3062
100
AcDbEntity
  8
0
100
AcDbLine
 10
2155.764504
 20
1144.086647
 30
0.0
 11
2155.764504
 21
1196.840735
 31
0.0
  0
LINE
  5
3063
100
AcDbEntity
  8
0
100
AcDbLine
 10
2112.880447
 20
1206.369457
 30
0.0
 11
2112.880447
 21
1135.031671
 31
0.0
  0
LINE
  5
3064
100
AcDbEntity
  8
0
100
AcDbLine
 10
2245.764504
 20
1112.663891
 30
0.0
 11
2187.188259
 21
1112.663891
 31
0.0
  0
ARC
  5
3065
100
AcDbEntity
  8
0
100
AcDbCircle
 10
2097.880447
 20
1135.031671
 30
0.0
 40
15.0
100
AcDbArc
 50
298.637876
 51
0.0
  0
LINE
  5
3066
100
AcDbEntity
  8
0
100
AcDbLine
 10
2179.056736
 20
1116.031959
 30
0.0
 11
2159.13298
 21
1135.954715
 31
0.0
  0
ARC
  5
3067
100
AcDbEntity
  8
0
100
AcDbCircle
 10
2167.264504
 20
1144.086647
 30
0.0
 40
11.5
100
AcDbArc
 50
180.0
 51
225.001438
  0
ARC
  5
3068
100
AcDbEntity
  8
0
100
AcDbCircle
 10
2187.188259
 20
1124.163891
 30
0.0
 40
11.5
100
AcDbArc
 50
225.001438
 51
270.0
  0
TEXT
  5
3069
100
AcDbEntity
  8
0
100
AcDbText
 10
2222.712231
 20
1037.325007
 30
0.0
 40
20.0
  1
25A
 41
0.8
 11
2222.712231
 21
1037.325007
 31
0.0
100
AcDbText
 73
     1
  0
ARC
  5
306A
100
AcDbEntity
  8
0
100
AcDbCircle
 10
2245.764504
 20
1126.663891
 30
0.0
 40
14.0
100
AcDbArc
 50
270.0
 51
0.0
  0
LINE
  5
306B
100
AcDbEntity
  8
0
100
AcDbLine
 10
2241.764504
 20
1107.513891
 30
0.0
 11
2241.764504
 21
1110.846965
 31
0.0
  0
LINE
  5
306C
100
AcDbEntity
  8
0
100
AcDbLine
 10
2211.764504
 20
1107.513891
 30
0.0
 11
2211.764504
 21
1110.846965
 31
0.0
  0
LINE
  5
306D
100
AcDbEntity
  8
0
100
AcDbLine
 10
2226.764504
 20
1074.063991
 30
0.0
 11
2206.764504
 21
1074.063991
 31
0.0
  0
ARC
  5
306E
100
AcDbEntity
  8
0
100
AcDbCircle
 10
2226.764504
 20
1072.044753
 30
0.0
 40
23.671361
100
AcDbArc
 50
60.0
 51
120.0
  0
ARC
  5
306F
100
AcDbEntity
  8
0
100
AcDbCircle
 10
2226.764504
 20
1098.235352
 30
0.0
 40
23.671361
100
AcDbArc
 50
240.0
 51
300.0
  0
LINE
  5
3070
100
AcDbEntity
  8
0
100
AcDbLine
 10
2241.764504
 20
1107.563991
 30
0.0
 11
2211.764504
 21
1107.563991
 31
0.0
  0
LINE
  5
3071
100
AcDbEntity
  8
0
100
AcDbLine
 10
2203.093142
 20
1092.544753
 30
0.0
 11
2211.764504
 21
1107.563991
 31
0.0
  0
ARC
  5
3072
100
AcDbEntity
  8
0
100
AcDbCircle
 10
2209.010983
 20
1088.609013
 30
0.0
 40
7.107101
100
AcDbArc
 50
33.626429
 51
146.373571
  0
ARC
  5
3073
100
AcDbEntity
  8
0
100
AcDbCircle
 10
2209.010983
 20
1081.671092
 30
0.0
 40
7.107101
100
AcDbArc
 50
213.626429
 51
326.373571
  0
LINE
  5
3074
100
AcDbEntity
  8
0
100
AcDbLine
 10
2206.764504
 20
1074.063991
 30
0.0
 11
2203.093142
 21
1077.735352
 31
0.0
  0
LINE
  5
3075
100
AcDbEntity
  8
0
100
AcDbLine
 10
2203.093142
 20
1092.544753
 30
0.0
 11
2203.093142
 21
1077.735352
 31
0.0
  0
LINE
  5
3076
100
AcDbEntity
  8
0
100
AcDbLine
 10
2214.928823
 20
1092.544753
 30
0.0
 11
2214.928823
 21
1077.735352
 31
0.0
  0
ARC
  5
3077
100
AcDbEntity
  8
0
100
AcDbCircle
 10
2244.518024
 20
1088.609013
 30
0.0
 40
7.107101
100
AcDbArc
 50
33.626429
 51
146.373571
  0
LINE
  5
3078
100
AcDbEntity
  8
0
100
AcDbLine
 10
2250.435865
 20
1092.544753
 30
0.0
 11
2241.764504
 21
1107.563991
 31
0.0
  0
ARC
  5
3079
100
AcDbEntity
  8
0
100
AcDbCircle
 10
2244.518024
 20
1081.671092
 30
0.0
 40
7.107101
100
AcDbArc
 50
213.626429
 51
326.373571
  0
LINE
  5
307A
100
AcDbEntity
  8
0
100
AcDbLine
 10
2250.435865
 20
1077.735352
 30
0.0
 11
2246.764504
 21
1074.063991
 31
0.0
  0
LINE
  5
307B
100
AcDbEntity
  8
0
100
AcDbLine
 10
2238.600184
 20
1092.544753
 30
0.0
 11
2238.600184
 21
1077.735352
 31
0.0
  0
LINE
  5
307C
100
AcDbEntity
  8
0
100
AcDbLine
 10
2250.435865
 20
1092.544753
 30
0.0
 11
2250.435865
 21
1077.735352
 31
0.0
  0
LINE
  5
307D
100
AcDbEntity
  8
0
100
AcDbLine
 10
2246.764504
 20
1074.063991
 30
0.0
 11
2226.764504
 21
1074.063991
 31
0.0
  0
LINE
  5
307E
100
AcDbEntity
  8
0
100
AcDbLine
 10
2241.764504
 20
1110.846965
 30
0.0
 11
2211.764504
 21
1110.846965
 31
0.0
  0
ARC
  5
307F
100
AcDbEntity
  8
0
100
AcDbCircle
 10
2213.694299
 20
1114.622177
 30
0.0
 40
4.239851
100
AcDbArc
 50
207.508231
 51
242.924993
  0
ARC
  5
3080
100
AcDbEntity
  8
0
100
AcDbCircle
 10
2239.834708
 20
1114.622177
 30
0.0
 40
4.239851
100
AcDbArc
 50
297.075007
 51
332.491769
  0
LINE
  5
3081
100
AcDbEntity
  8
0
100
AcDbLine
 10
2187.18896
 20
1228.264191
 30
0.0
 11
2245.764504
 21
1228.264191
 31
0.0
  0
LINE
  5
3082
100
AcDbEntity
  8
0
100
AcDbLine
 10
2159.13298
 20
1204.972667
 30
0.0
 11
2179.057436
 21
1224.896123
 31
0.0
  0
ARC
  5
3083
100
AcDbEntity
  8
0
100
AcDbCircle
 10
2097.880447
 20
1206.369457
 30
0.0
 40
15.0
100
AcDbArc
 50
0.0
 51
62.57637
  0
ARC
  5
3084
100
AcDbEntity
  8
0
100
AcDbCircle
 10
2167.264504
 20
1196.840735
 30
0.0
 40
11.5
100
AcDbArc
 50
134.998562
 51
180.0
  0
ARC
  5
3085
100
AcDbEntity
  8
0
100
AcDbCircle
 10
2187.18896
 20
1216.764191
 30
0.0
 40
11.5
100
AcDbArc
 50
90.0
 51
134.998562
  0
ARC
  5
3086
100
AcDbEntity
  8
0
100
AcDbCircle
 10
2245.764504
 20
1214.264191
 30
0.0
 40
14.0
100
AcDbArc
 50
0.0
 51
90.0
  0
LINE
  5
3087
100
AcDbEntity
  8
0
100
AcDbLine
 10
2250.435865
 20
1248.483329
 30
0.0
 11
2250.435865
 21
1263.29273
 31
0.0
  0
LINE
  5
3088
100
AcDbEntity
  8
0
100
AcDbLine
 10
2238.600184
 20
1248.483329
 30
0.0
 11
2238.600184
 21
1263.29273
 31
0.0
  0
LINE
  5
3089
100
AcDbEntity
  8
0
100
AcDbLine
 10
2203.093142
 20
1248.483329
 30
0.0
 11
2203.093142
 21
1263.29273
 31
0.0
  0
LINE
  5
308A
100
AcDbEntity
  8
0
100
AcDbLine
 10
2214.928823
 20
1248.483329
 30
0.0
 11
2214.928823
 21
1263.29273
 31
0.0
  0
LINE
  5
308B
100
AcDbEntity
  8
0
100
AcDbLine
 10
2241.764504
 20
1233.464091
 30
0.0
 11
2211.764504
 21
1233.464091
 31
0.0
  0
ARC
  5
308C
100
AcDbEntity
  8
0
100
AcDbCircle
 10
2226.764504
 20
1268.983329
 30
0.0
 40
23.671361
100
AcDbArc
 50
240.0
 51
300.0
  0
LINE
  5
308D
100
AcDbEntity
  8
0
100
AcDbLine
 10
2241.764504
 20
1230.081117
 30
0.0
 11
2211.764504
 21
1230.081117
 31
0.0
  0
ARC
  5
308E
100
AcDbEntity
  8
0
100
AcDbCircle
 10
2209.010983
 20
1252.419068
 30
0.0
 40
7.107101
100
AcDbArc
 50
213.626429
 51
326.373571
  0
LINE
  5
308F
100
AcDbEntity
  8
0
100
AcDbLine
 10
2203.093142
 20
1248.483329
 30
0.0
 11
2211.764504
 21
1233.464091
 31
0.0
  0
ARC
  5
3090
100
AcDbEntity
  8
0
100
AcDbCircle
 10
2213.694299
 20
1226.305905
 30
0.0
 40
4.239851
100
AcDbArc
 50
117.075007
 51
152.491769
  0
LINE
  5
3091
100
AcDbEntity
  8
0
100
AcDbLine
 10
2211.764504
 20
1233.464091
 30
0.0
 11
2211.764504
 21
1230.081117
 31
0.0
  0
LINE
  5
3092
100
AcDbEntity
  8
0
100
AcDbLine
 10
2250.435865
 20
1248.483329
 30
0.0
 11
2241.764504
 21
1233.464091
 31
0.0
  0
ARC
  5
3093
100
AcDbEntity
  8
0
100
AcDbCircle
 10
2244.518024
 20
1252.419068
 30
0.0
 40
7.107101
100
AcDbArc
 50
213.626429
 51
326.373571
  0
ARC
  5
3094
100
AcDbEntity
  8
0
100
AcDbCircle
 10
2239.834708
 20
1226.305905
 30
0.0
 40
4.239851
100
AcDbArc
 50
27.508231
 51
62.924993
  0
LINE
  5
3095
100
AcDbEntity
  8
0
100
AcDbLine
 10
2241.764504
 20
1233.464091
 30
0.0
 11
2241.764504
 21
1230.081117
 31
0.0
  0
LINE
  5
3096
100
AcDbEntity
  8
0
100
AcDbLine
 10
2226.764504
 20
1266.964091
 30
0.0
 11
2206.764504
 21
1266.964091
 31
0.0
  0
ARC
  5
3097
100
AcDbEntity
  8
0
100
AcDbCircle
 10
2226.764504
 20
1242.79273
 30
0.0
 40
23.671361
100
AcDbArc
 50
60.0
 51
120.0
  0
ARC
  5
3098
100
AcDbEntity
  8
0
100
AcDbCircle
 10
2209.010983
 20
1259.35699
 30
0.0
 40
7.107101
100
AcDbArc
 50
33.626429
 51
146.373571
  0
LINE
  5
3099
100
AcDbEntity
  8
0
100
AcDbLine
 10
2206.764504
 20
1266.964091
 30
0.0
 11
2203.093142
 21
1263.29273
 31
0.0
  0
LINE
  5
309A
100
AcDbEntity
  8
0
100
AcDbLine
 10
2250.435865
 20
1263.29273
 30
0.0
 11
2246.764504
 21
1266.964091
 31
0.0
  0
ARC
  5
309B
100
AcDbEntity
  8
0
100
AcDbCircle
 10
2244.518024
 20
1259.35699
 30
0.0
 40
7.107101
100
AcDbArc
 50
33.626429
 51
146.373571
  0
LINE
  5
309C
100
AcDbEntity
  8
0
100
AcDbLine
 10
2246.764504
 20
1266.964091
 30
0.0
 11
2226.764504
 21
1266.964091
 31
0.0
  0
CIRCLE
  5
309D
100
AcDbEntity
  8
0
100
AcDbCircle
 10
2207.764504
 20
1418.716808
 30
0.0
 40
52.0
  0
ELLIPSE
  5
309E
100
AcDbEntity
  8
0
100
AcDbEllipse
 10
2169.091504
 20
1418.716808
 30
0.0
 11
-0.0000000000000029
 21
-15.73525959711332
 31
0.0
210
0.0
220
0.0
230
-1.0
 40
0.759965
 41
0.0
 42
6.283185307179586
  0
LINE
  5
309F
100
AcDbEntity
  8
0
100
AcDbLine
 10
2224.973606
 20
1336.889235
 30
0.0
 11
2215.520231
 21
1346.34261
 31
0.0
  0
LINE
  5
30A0
100
AcDbEntity
  8
0
100
AcDbLine
 10
2220.246918
 20
1313.25411
 30
0.0
 11
2220.246918
 21
1299.279923
 31
0.0
  0
LINE
  5
30A1
100
AcDbEntity
  8
0
100
AcDbLine
 10
2220.246918
 20
1299.279923
 30
0.0
 11
2215.520231
 21
1299.279923
 31
0.0
  0
LINE
  5
30A2
100
AcDbEntity
  8
0
100
AcDbLine
 10
2215.520231
 20
1317.982485
 30
0.0
 11
2220.246918
 21
1313.25411
 31
0.0
  0
LINE
  5
30A3
100
AcDbEntity
  8
0
100
AcDbLine
 10
2215.520231
 20
1346.34261
 30
0.0
 11
2215.520231
 21
1317.982485
 31
0.0
  0
POLYLINE
  5
30A4
100
AcDbEntity
  8
0
100
AcDb2dPolyline
 66
     1
 10
0.0
 20
0.0
 30
0.0
 70
     1
  0
VERTEX
  5
35E7
100
AcDbEntity
  8
0
100
AcDbVertex
100
AcDb2dVertex
 10
2203.093142
 20
1418.716808
 30
0.0
  0
VERTEX
  5
35E8
100
AcDbEntity
  8
0
100
AcDbVertex
100
AcDb2dVertex
 10
2214.928823
 20
1398.216808
 30
0.0
  0
VERTEX
  5
35E9
100
AcDbEntity
  8
0
100
AcDbVertex
100
AcDb2dVertex
 10
2238.600184
 20
1398.216808
 30
0.0
  0
VERTEX
  5
35EA
100
AcDbEntity
  8
0
100
AcDbVertex
100
AcDb2dVertex
 10
2250.435865
 20
1418.716808
 30
0.0
  0
VERTEX
  5
35EB
100
AcDbEntity
  8
0
100
AcDbVertex
100
AcDb2dVertex
 10
2238.600184
 20
1439.216808
 30
0.0
  0
VERTEX
  5
35EC
100
AcDbEntity
  8
0
100
AcDbVertex
100
AcDb2dVertex
 10
2214.928823
 20
1439.216808
 30
0.0
  0
SEQEND
  5
35ED
100
AcDbEntity
  8
0
  0
CIRCLE
  5
30A5
100
AcDbEntity
  8
0
100
AcDbCircle
 10
2226.764504
 20
1418.716808
 30
0.0
 40
20.0
  0
ARC
  5
30A6
100
AcDbEntity
  8
0
100
AcDbCircle
 10
2207.764504
 20
1546.509767
 30
0.0
 40
14.0
100
AcDbArc
 50
180.0
 51
270.0
  0
ARC
  5
30A7
100
AcDbEntity
  8
0
100
AcDbCircle
 10
2244.518024
 20
1508.404789
 30
0.0
 40
7.107101
100
AcDbArc
 50
33.626429
 51
146.373571
  0
LINE
  5
30A8
100
AcDbEntity
  8
0
100
AcDbLine
 10
2250.435865
 20
1512.340529
 30
0.0
 11
2241.764504
 21
1527.359767
 31
0.0
  0
ARC
  5
30A9
100
AcDbEntity
  8
0
100
AcDbCircle
 10
2209.010983
 20
1508.404789
 30
0.0
 40
7.107101
100
AcDbArc
 50
33.626429
 51
146.373571
  0
LINE
  5
30AA
100
AcDbEntity
  8
0
100
AcDbLine
 10
2203.093142
 20
1512.340529
 30
0.0
 11
2211.764504
 21
1527.359767
 31
0.0
  0
ARC
  5
30AB
100
AcDbEntity
  8
0
100
AcDbCircle
 10
2226.764504
 20
1491.840529
 30
0.0
 40
23.671361
100
AcDbArc
 50
60.0
 51
120.0
  0
LINE
  5
30AC
100
AcDbEntity
  8
0
100
AcDbLine
 10
2206.764504
 20
1493.859767
 30
0.0
 11
2226.764504
 21
1493.859767
 31
0.0
  0
ARC
  5
30AD
100
AcDbEntity
  8
0
100
AcDbCircle
 10
2226.764504
 20
1518.031128
 30
0.0
 40
23.671361
100
AcDbArc
 50
240.0
 51
300.0
  0
ARC
  5
30AE
100
AcDbEntity
  8
0
100
AcDbCircle
 10
2209.010983
 20
1501.466868
 30
0.0
 40
7.107101
100
AcDbArc
 50
213.626429
 51
326.373571
  0
LINE
  5
30AF
100
AcDbEntity
  8
0
100
AcDbLine
 10
2203.093142
 20
1497.531128
 30
0.0
 11
2206.764504
 21
1493.859767
 31
0.0
  0
LINE
  5
30B0
100
AcDbEntity
  8
0
100
AcDbLine
 10
2214.928823
 20
1512.340529
 30
0.0
 11
2214.928823
 21
1497.531128
 31
0.0
  0
LINE
  5
30B1
100
AcDbEntity
  8
0
100
AcDbLine
 10
2203.093142
 20
1512.340529
 30
0.0
 11
2203.093142
 21
1497.531128
 31
0.0
  0
ARC
  5
30B2
100
AcDbEntity
  8
0
100
AcDbCircle
 10
2244.518024
 20
1501.466868
 30
0.0
 40
7.107101
100
AcDbArc
 50
213.626429
 51
326.373571
  0
LINE
  5
30B3
100
AcDbEntity
  8
0
100
AcDbLine
 10
2246.764504
 20
1493.859767
 30
0.0
 11
2250.435865
 21
1497.531128
 31
0.0
  0
LINE
  5
30B4
100
AcDbEntity
  8
0
100
AcDbLine
 10
2250.435865
 20
1512.340529
 30
0.0
 11
2250.435865
 21
1497.531128
 31
0.0
  0
LINE
  5
30B5
100
AcDbEntity
  8
0
100
AcDbLine
 10
2238.600184
 20
1512.340529
 30
0.0
 11
2238.600184
 21
1497.531128
 31
0.0
  0
LINE
  5
30B6
100
AcDbEntity
  8
0
100
AcDbLine
 10
2226.764504
 20
1493.859767
 30
0.0
 11
2246.764504
 21
1493.859767
 31
0.0
  0
LINE
  5
30B7
100
AcDbEntity
  8
0
100
AcDbLine
 10
2207.764504
 20
1532.509767
 30
0.0
 11
2266.340748
 21
1532.509767
 31
0.0
  0
LINE
  5
30B8
100
AcDbEntity
  8
0
100
AcDbLine
 10
2211.764504
 20
1527.359767
 30
0.0
 11
2241.764504
 21
1527.359767
 31
0.0
  0
LINE
  5
30B9
100
AcDbEntity
  8
0
100
AcDbLine
 10
2211.764504
 20
1530.692841
 30
0.0
 11
2241.764504
 21
1530.692841
 31
0.0
  0
LINE
  5
30BA
100
AcDbEntity
  8
0
100
AcDbLine
 10
2211.764504
 20
1527.359767
 30
0.0
 11
2211.764504
 21
1530.692841
 31
0.0
  0
ARC
  5
30BB
100
AcDbEntity
  8
0
100
AcDbCircle
 10
2213.694299
 20
1534.468053
 30
0.0
 40
4.239851
100
AcDbArc
 50
207.508231
 51
242.924993
  0
ARC
  5
30BC
100
AcDbEntity
  8
0
100
AcDbCircle
 10
2239.834708
 20
1534.468053
 30
0.0
 40
4.239851
100
AcDbArc
 50
297.075007
 51
332.491769
  0
LINE
  5
30BD
100
AcDbEntity
  8
0
100
AcDbLine
 10
2241.764504
 20
1527.359767
 30
0.0
 11
2241.764504
 21
1530.692841
 31
0.0
  0
LINE
  5
30BE
100
AcDbEntity
  8
0
100
AcDbLine
 10
2274.472271
 20
1535.877835
 30
0.0
 11
2294.396027
 21
1555.800591
 31
0.0
  0
ARC
  5
30BF
100
AcDbEntity
  8
0
100
AcDbCircle
 10
2266.340748
 20
1544.009767
 30
0.0
 40
11.5
100
AcDbArc
 50
270.0
 51
314.998562
  0
ARC
  5
30C0
100
AcDbEntity
  8
0
100
AcDbCircle
 10
2286.264504
 20
1563.932523
 30
0.0
 40
11.5
100
AcDbArc
 50
314.998562
 51
360.0
  0
LINE
  5
30C1
100
AcDbEntity
  8
0
100
AcDbLine
 10
1430.064683
 20
1648.424801
 30
0.0
 11
1430.064683
 21
1652.743837
 31
0.0
  0
LINE
  5
30C2
100
AcDbEntity
  8
0
100
AcDbLine
 10
1482.696207
 20
1624.259086
 30
0.0
 11
1462.771751
 21
1644.182542
 31
0.0
  0
LINE
  5
30C3
100
AcDbEntity
  8
0
100
AcDbLine
 10
1430.957421
 20
1647.55061
 30
0.0
 11
1430.064683
 21
1648.424801
 31
0.0
  0
ARC
  5
30C4
100
AcDbEntity
  8
0
100
AcDbCircle
 10
1454.640227
 20
1636.05061
 30
0.0
 40
11.5
100
AcDbArc
 50
45.001438
 51
90.0
  0
ARC
  5
30C5
100
AcDbEntity
  8
0
100
AcDbCircle
 10
1474.564683
 20
1616.127154
 30
0.0
 40
11.5
100
AcDbArc
 50
360.0
 51
45.001438
  0
LINE
  5
30C6
100
AcDbEntity
  8
0
100
AcDbLine
 10
1435.849293
 20
1677.459227
 30
0.0
 11
1432.564683
 21
1680.743837
 31
0.0
  0
LINE
  5
30C7
100
AcDbEntity
  8
0
100
AcDbLine
 10
1430.064683
 20
1652.743837
 30
0.0
 11
1435.849293
 21
1662.763075
 31
0.0
  0
LINE
  5
30C8
100
AcDbEntity
  8
0
100
AcDbLine
 10
1435.849293
 20
1662.763075
 30
0.0
 11
1435.849293
 21
1677.459227
 31
0.0
  0
ARC
  5
30C9
100
AcDbEntity
  8
0
100
AcDbCircle
 10
2207.764504
 20
1634.110067
 30
0.0
 40
14.0
100
AcDbArc
 50
90.0
 51
180.0
  0
LINE
  5
30CA
100
AcDbEntity
  8
0
100
AcDbLine
 10
2250.435865
 20
1668.379305
 30
0.0
 11
2241.764504
 21
1653.360067
 31
0.0
  0
LINE
  5
30CB
100
AcDbEntity
  8
0
100
AcDbLine
 10
2203.093142
 20
1668.379305
 30
0.0
 11
2211.764504
 21
1653.360067
 31
0.0
  0
LINE
  5
30CC
100
AcDbEntity
  8
0
100
AcDbLine
 10
2266.340048
 20
1648.110067
 30
0.0
 11
2207.764504
 21
1648.110067
 31
0.0
  0
LINE
  5
30CD
100
AcDbEntity
  8
0
100
AcDbLine
 10
2211.764504
 20
1649.926993
 30
0.0
 11
2241.764504
 21
1649.926993
 31
0.0
  0
LINE
  5
30CE
100
AcDbEntity
  8
0
100
AcDbLine
 10
2211.764504
 20
1653.360067
 30
0.0
 11
2241.764504
 21
1653.360067
 31
0.0
  0
LINE
  5
30CF
100
AcDbEntity
  8
0
100
AcDbLine
 10
2211.764504
 20
1653.360067
 30
0.0
 11
2211.764504
 21
1649.926993
 31
0.0
  0
ARC
  5
30D0
100
AcDbEntity
  8
0
100
AcDbCircle
 10
2213.694299
 20
1646.151781
 30
0.0
 40
4.239851
100
AcDbArc
 50
117.075007
 51
152.491769
  0
ARC
  5
30D1
100
AcDbEntity
  8
0
100
AcDbCircle
 10
2239.834708
 20
1646.151781
 30
0.0
 40
4.239851
100
AcDbArc
 50
27.508231
 51
62.924993
  0
LINE
  5
30D2
100
AcDbEntity
  8
0
100
AcDbLine
 10
2241.764504
 20
1653.360067
 30
0.0
 11
2241.764504
 21
1649.926993
 31
0.0
  0
ARC
  5
30D3
100
AcDbEntity
  8
0
100
AcDbCircle
 10
2286.264504
 20
1616.686611
 30
0.0
 40
11.5
100
AcDbArc
 50
360.0
 51
45.001438
  0
LINE
  5
30D4
100
AcDbEntity
  8
0
100
AcDbLine
 10
2294.396027
 20
1624.818543
 30
0.0
 11
2274.471571
 21
1644.741999
 31
0.0
  0
ARC
  5
30D5
100
AcDbEntity
  8
0
100
AcDbCircle
 10
2266.340048
 20
1636.610067
 30
0.0
 40
11.5
100
AcDbArc
 50
45.001438
 51
90.0
  0
LINE
  5
30D6
100
AcDbEntity
  8
0
100
AcDbLine
 10
2206.764504
 20
1686.860067
 30
0.0
 11
2226.764504
 21
1686.860067
 31
0.0
  0
ARC
  5
30D7
100
AcDbEntity
  8
0
100
AcDbCircle
 10
2226.764504
 20
1688.879305
 30
0.0
 40
23.671361
100
AcDbArc
 50
240.0
 51
300.0
  0
ARC
  5
30D8
100
AcDbEntity
  8
0
100
AcDbCircle
 10
2226.764504
 20
1662.688706
 30
0.0
 40
23.671361
100
AcDbArc
 50
60.0
 51
120.0
  0
LINE
  5
30D9
100
AcDbEntity
  8
0
100
AcDbLine
 10
2214.928823
 20
1668.379305
 30
0.0
 11
2214.928823
 21
1683.188706
 31
0.0
  0
LINE
  5
30DA
100
AcDbEntity
  8
0
100
AcDbLine
 10
2203.093142
 20
1668.379305
 30
0.0
 11
2203.093142
 21
1683.188706
 31
0.0
  0
ARC
  5
30DB
100
AcDbEntity
  8
0
100
AcDbCircle
 10
2209.010983
 20
1672.315044
 30
0.0
 40
7.107101
100
AcDbArc
 50
213.626429
 51
326.373571
  0
ARC
  5
30DC
100
AcDbEntity
  8
0
100
AcDbCircle
 10
2209.010983
 20
1679.252966
 30
0.0
 40
7.107101
100
AcDbArc
 50
33.626429
 51
146.373571
  0
LINE
  5
30DD
100
AcDbEntity
  8
0
100
AcDbLine
 10
2203.093142
 20
1683.188706
 30
0.0
 11
2206.764504
 21
1686.860067
 31
0.0
  0
ARC
  5
30DE
100
AcDbEntity
  8
0
100
AcDbCircle
 10
2244.518024
 20
1672.315044
 30
0.0
 40
7.107101
100
AcDbArc
 50
213.626429
 51
326.373571
  0
LINE
  5
30DF
100
AcDbEntity
  8
0
100
AcDbLine
 10
2250.435865
 20
1668.379305
 30
0.0
 11
2250.435865
 21
1683.188706
 31
0.0
  0
LINE
  5
30E0
100
AcDbEntity
  8
0
100
AcDbLine
 10
2238.600184
 20
1668.379305
 30
0.0
 11
2238.600184
 21
1683.188706
 31
0.0
  0
ARC
  5
30E1
100
AcDbEntity
  8
0
100
AcDbCircle
 10
2244.518024
 20
1679.252966
 30
0.0
 40
7.107101
100
AcDbArc
 50
33.626429
 51
146.373571
  0
LINE
  5
30E2
100
AcDbEntity
  8
0
100
AcDbLine
 10
2246.764504
 20
1686.860067
 30
0.0
 11
2250.435865
 21
1683.188706
 31
0.0
  0
LINE
  5
30E3
100
AcDbEntity
  8
0
100
AcDbLine
 10
2226.764504
 20
1686.860067
 30
0.0
 11
2246.764504
 21
1686.860067
 31
0.0
  0
LINE
  5
30E4
100
AcDbEntity
  8
0
100
AcDbLine
 10
2427.782615
 20
1214.264191
 30
0.0
 11
2427.782615
 21
1126.663891
 31
0.0
  0
LINE
  5
30E5
100
AcDbEntity
  8
0
100
AcDbLine
 10
2323.782615
 20
1214.264191
 30
0.0
 11
2323.782615
 21
1126.663891
 31
0.0
  0
LINE
  5
30E6
100
AcDbEntity
  8
0
100
AcDbLine
 10
2413.782615
 20
1112.663891
 30
0.0
 11
2337.782615
 21
1112.663891
 31
0.0
  0
ARC
  5
30E7
100
AcDbEntity
  8
0
100
AcDbCircle
 10
2337.782615
 20
1126.663891
 30
0.0
 40
14.0
100
AcDbArc
 50
180.0
 51
270.0
  0
LINE
  5
30E8
100
AcDbEntity
  8
0
100
AcDbLine
 10
2360.782615
 20
1107.413891
 30
0.0
 11
2360.782615
 21
1110.846965
 31
0.0
  0
LINE
  5
30E9
100
AcDbEntity
  8
0
100
AcDbLine
 10
2390.782615
 20
1107.413891
 30
0.0
 11
2390.782615
 21
1110.846965
 31
0.0
  0
ARC
  5
30EA
100
AcDbEntity
  8
0
100
AcDbCircle
 10
2386.032615
 20
1077.566173
 30
0.0
 40
18.149941
100
AcDbArc
 50
55.615753
 51
124.384247
  0
LINE
  5
30EB
100
AcDbEntity
  8
0
100
AcDbLine
 10
2390.782615
 20
1107.563991
 30
0.0
 11
2360.782615
 21
1107.563991
 31
0.0
  0
ARC
  5
30EC
100
AcDbEntity
  8
0
100
AcDbCircle
 10
2386.032615
 20
1092.713932
 30
0.0
 40
18.149941
100
AcDbArc
 50
235.615753
 51
304.384247
  0
LINE
  5
30ED
100
AcDbEntity
  8
0
100
AcDbLine
 10
2395.782615
 20
1074.063991
 30
0.0
 11
2375.782615
 21
1074.063991
 31
0.0
  0
LINE
  5
30EE
100
AcDbEntity
  8
0
100
AcDbLine
 10
2375.782615
 20
1092.394653
 30
0.0
 11
2375.782615
 21
1077.585252
 31
0.0
  0
LINE
  5
30EF
100
AcDbEntity
  8
0
100
AcDbLine
 10
2355.782615
 20
1074.063991
 30
0.0
 11
2355.282615
 21
1077.735352
 31
0.0
  0
LINE
  5
30F0
100
AcDbEntity
  8
0
100
AcDbLine
 10
2355.282615
 20
1092.544753
 30
0.0
 11
2355.282615
 21
1077.735352
 31
0.0
  0
ARC
  5
30F1
100
AcDbEntity
  8
0
100
AcDbCircle
 10
2365.532615
 20
1077.566173
 30
0.0
 40
18.149941
100
AcDbArc
 50
55.615753
 51
124.384247
  0
LINE
  5
30F2
100
AcDbEntity
  8
0
100
AcDbLine
 10
2355.282615
 20
1092.544753
 30
0.0
 11
2360.782615
 21
1107.563991
 31
0.0
  0
ARC
  5
30F3
100
AcDbEntity
  8
0
100
AcDbCircle
 10
2365.532615
 20
1092.713932
 30
0.0
 40
18.149941
100
AcDbArc
 50
235.615753
 51
304.384247
  0
LINE
  5
30F4
100
AcDbEntity
  8
0
100
AcDbLine
 10
2375.782615
 20
1074.063991
 30
0.0
 11
2355.782615
 21
1074.063991
 31
0.0
  0
LINE
  5
30F5
100
AcDbEntity
  8
0
100
AcDbLine
 10
2396.282615
 20
1092.544753
 30
0.0
 11
2390.782615
 21
1107.563991
 31
0.0
  0
LINE
  5
30F6
100
AcDbEntity
  8
0
100
AcDbLine
 10
2396.282615
 20
1077.735352
 30
0.0
 11
2395.782615
 21
1074.063991
 31
0.0
  0
LINE
  5
30F7
100
AcDbEntity
  8
0
100
AcDbLine
 10
2396.282615
 20
1092.544753
 30
0.0
 11
2396.282615
 21
1077.735352
 31
0.0
  0
LINE
  5
30F8
100
AcDbEntity
  8
0
100
AcDbLine
 10
2390.782615
 20
1110.846965
 30
0.0
 11
2360.782615
 21
1110.846965
 31
0.0
  0
ARC
  5
30F9
100
AcDbEntity
  8
0
100
AcDbCircle
 10
2362.712411
 20
1114.622177
 30
0.0
 40
4.239851
100
AcDbArc
 50
207.508231
 51
242.924993
  0
ARC
  5
30FA
100
AcDbEntity
  8
0
100
AcDbCircle
 10
2388.852819
 20
1114.622177
 30
0.0
 40
4.239851
100
AcDbArc
 50
297.075007
 51
332.491769
  0
ARC
  5
30FB
100
AcDbEntity
  8
0
100
AcDbCircle
 10
2413.782615
 20
1126.663891
 30
0.0
 40
14.0
100
AcDbArc
 50
270.0
 51
0.0
  0
LINE
  5
30FC
100
AcDbEntity
  8
0
100
AcDbLine
 10
2337.782615
 20
1228.264191
 30
0.0
 11
2413.782615
 21
1228.264191
 31
0.0
  0
ARC
  5
30FD
100
AcDbEntity
  8
0
100
AcDbCircle
 10
2337.782615
 20
1214.264191
 30
0.0
 40
14.0
100
AcDbArc
 50
90.0
 51
180.0
  0
LINE
  5
30FE
100
AcDbEntity
  8
0
100
AcDbLine
 10
2375.782615
 20
1248.483329
 30
0.0
 11
2375.782615
 21
1263.29273
 31
0.0
  0
LINE
  5
30FF
100
AcDbEntity
  8
0
100
AcDbLine
 10
2396.282615
 20
1248.483329
 30
0.0
 11
2396.282615
 21
1263.29273
 31
0.0
  0
LINE
  5
3100
100
AcDbEntity
  8
0
100
AcDbLine
 10
2355.282615
 20
1248.483329
 30
0.0
 11
2355.282615
 21
1263.29273
 31
0.0
  0
LINE
  5
3101
100
AcDbEntity
  8
0
100
AcDbLine
 10
2390.782615
 20
1230.081117
 30
0.0
 11
2360.782615
 21
1230.081117
 31
0.0
  0
LINE
  5
3102
100
AcDbEntity
  8
0
100
AcDbLine
 10
2390.782615
 20
1233.464091
 30
0.0
 11
2360.782615
 21
1233.464091
 31
0.0
  0
ARC
  5
3103
100
AcDbEntity
  8
0
100
AcDbCircle
 10
2386.032615
 20
1263.461909
 30
0.0
 40
18.149941
100
AcDbArc
 50
235.615753
 51
304.384247
  0
LINE
  5
3104
100
AcDbEntity
  8
0
100
AcDbLine
 10
2360.782615
 20
1233.464091
 30
0.0
 11
2360.782615
 21
1230.031017
 31
0.0
  0
ARC
  5
3105
100
AcDbEntity
  8
0
100
AcDbCircle
 10
2362.712411
 20
1226.305905
 30
0.0
 40
4.239851
100
AcDbArc
 50
117.075007
 51
152.491769
  0
LINE
  5
3106
100
AcDbEntity
  8
0
100
AcDbLine
 10
2355.282615
 20
1248.483329
 30
0.0
 11
2360.782615
 21
1233.464091
 31
0.0
  0
ARC
  5
3107
100
AcDbEntity
  8
0
100
AcDbCircle
 10
2365.532615
 20
1263.461909
 30
0.0
 40
18.149941
100
AcDbArc
 50
235.615753
 51
304.384247
  0
LINE
  5
3108
100
AcDbEntity
  8
0
100
AcDbLine
 10
2390.782615
 20
1233.464091
 30
0.0
 11
2390.782615
 21
1230.031017
 31
0.0
  0
ARC
  5
3109
100
AcDbEntity
  8
0
100
AcDbCircle
 10
2388.852819
 20
1226.305905
 30
0.0
 40
4.239851
100
AcDbArc
 50
27.508231
 51
62.924993
  0
LINE
  5
310A
100
AcDbEntity
  8
0
100
AcDbLine
 10
2396.282615
 20
1248.483329
 30
0.0
 11
2390.782615
 21
1233.464091
 31
0.0
  0
LINE
  5
310B
100
AcDbEntity
  8
0
100
AcDbLine
 10
2395.782615
 20
1266.964091
 30
0.0
 11
2375.782615
 21
1266.964091
 31
0.0
  0
ARC
  5
310C
100
AcDbEntity
  8
0
100
AcDbCircle
 10
2386.032615
 20
1248.31415
 30
0.0
 40
18.149941
100
AcDbArc
 50
55.615753
 51
124.384247
  0
LINE
  5
310D
100
AcDbEntity
  8
0
100
AcDbLine
 10
2355.782615
 20
1266.964091
 30
0.0
 11
2355.282615
 21
1263.29273
 31
0.0
  0
LINE
  5
310E
100
AcDbEntity
  8
0
100
AcDbLine
 10
2375.782615
 20
1266.964091
 30
0.0
 11
2355.782615
 21
1266.964091
 31
0.0
  0
ARC
  5
310F
100
AcDbEntity
  8
0
100
AcDbCircle
 10
2365.532615
 20
1248.31415
 30
0.0
 40
18.149941
100
AcDbArc
 50
55.615753
 51
124.384247
  0
LINE
  5
3110
100
AcDbEntity
  8
0
100
AcDbLine
 10
2396.282615
 20
1263.29273
 30
0.0
 11
2395.782615
 21
1266.964091
 31
0.0
  0
ARC
  5
3111
100
AcDbEntity
  8
0
100
AcDbCircle
 10
2413.782615
 20
1214.264191
 30
0.0
 40
14.0
100
AcDbArc
 50
0.0
 51
90.0
  0
TEXT
  5
3112
100
AcDbEntity
  8
0
100
AcDbText
 10
241.095894
 20
303.113036
 30
0.0
 40
25.0
  1
正面
100
AcDbText
  0
TEXT
  5
3113
100
AcDbEntity
  8
0
100
AcDbText
 10
241.095894
 20
574.949468
 30
0.0
 40
25.0
  1
平面
100
AcDbText
  0
TEXT
  5
3114
100
AcDbEntity
  8
0
100
AcDbText
 10
241.095894
 20
787.761671
 30
0.0
 40
25.0
  1
背面
100
AcDbText
  0
ARC
  5
31EA
100
AcDbEntity
  8
0
100
AcDbCircle
 10
532.299458
 20
1637.607468
 30
0.0
 40
14.0
100
AcDbArc
 50
90.0
 51
180.0
  0
ARC
  5
31EB
100
AcDbEntity
  8
0
100
AcDbCircle
 10
532.299458
 20
1550.007168
 30
0.0
 40
14.0
100
AcDbArc
 50
180.0
 51
270.0
  0
ARC
  5
31EC
100
AcDbEntity
  8
0
100
AcDbCircle
 10
590.875002
 20
1640.107468
 30
0.0
 40
11.5
100
AcDbArc
 50
45.001438
 51
90.0
  0
ARC
  5
31ED
100
AcDbEntity
  8
0
100
AcDbCircle
 10
610.799458
 20
1620.184012
 30
0.0
 40
11.5
100
AcDbArc
 50
360.0
 51
45.001438
  0
ARC
  5
31EE
100
AcDbEntity
  8
0
100
AcDbCircle
 10
610.799458
 20
1567.429924
 30
0.0
 40
11.5
100
AcDbArc
 50
314.998562
 51
360.0
  0
ARC
  5
31EF
100
AcDbEntity
  8
0
100
AcDbCircle
 10
590.875702
 20
1547.507168
 30
0.0
 40
11.5
100
AcDbArc
 50
270.0
 51
314.998562
  0
LINE
  5
323C
100
AcDbEntity
  8
0
100
AcDbLine
 10
669.504456
 20
387.069525
 30
0.0
 11
764.504456
 21
387.069525
 31
0.0
  0
LINE
  5
323D
100
AcDbEntity
  8
0
100
AcDbLine
 10
669.504456
 20
401.069525
 30
0.0
 11
669.504456
 21
387.069525
 31
0.0
  0
LINE
  5
323E
100
AcDbEntity
  8
0
100
AcDbLine
 10
706.154456
 20
371.219525
 30
0.0
 11
727.854456
 21
371.219525
 31
0.0
  0
LINE
  5
323F
100
AcDbEntity
  8
0
100
AcDbLine
 10
706.154456
 20
379.069525
 30
0.0
 11
727.854456
 21
379.069525
 31
0.0
  0
LINE
  5
3240
100
AcDbEntity
  8
0
100
AcDbLine
 10
702.004456
 20
367.069525
 30
0.0
 11
732.004456
 21
367.069525
 31
0.0
  0
LINE
  5
3241
100
AcDbEntity
  8
0
100
AcDbLine
 10
706.154456
 20
379.069525
 30
0.0
 11
706.154456
 21
371.219525
 31
0.0
  0
ARC
  5
3242
100
AcDbEntity
  8
0
100
AcDbCircle
 10
698.034099
 20
383.069525
 30
0.0
 40
4.0
100
AcDbArc
 50
37.551282
 51
90.0
  0
LINE
  5
3243
100
AcDbEntity
  8
0
100
AcDbLine
 10
702.004456
 20
367.069525
 30
0.0
 11
702.004456
 21
358.837229
 31
0.0
  0
LINE
  5
3244
100
AcDbEntity
  8
0
100
AcDbLine
 10
706.154456
 20
379.069525
 30
0.0
 11
701.205331
 21
385.50741
 31
0.0
  0
LINE
  5
3245
100
AcDbEntity
  8
0
100
AcDbLine
 10
702.004456
 20
367.069525
 30
0.0
 11
706.154456
 21
371.219525
 31
0.0
  0
LINE
  5
3246
100
AcDbEntity
  8
0
100
AcDbLine
 10
669.504456
 20
401.069525
 30
0.0
 11
717.004456
 21
401.069525
 31
0.0
  0
ARC
  5
3247
100
AcDbEntity
  8
0
100
AcDbCircle
 10
735.974812
 20
383.069525
 30
0.0
 40
4.0
100
AcDbArc
 50
90.0
 51
142.448718
  0
LINE
  5
3248
100
AcDbEntity
  8
0
100
AcDbLine
 10
727.854456
 20
379.069525
 30
0.0
 11
732.80358
 21
385.50741
 31
0.0
  0
LINE
  5
3249
100
AcDbEntity
  8
0
100
AcDbLine
 10
764.504456
 20
401.069525
 30
0.0
 11
764.504456
 21
387.069525
 31
0.0
  0
LINE
  5
324A
100
AcDbEntity
  8
0
100
AcDbLine
 10
732.004456
 20
367.069525
 30
0.0
 11
732.004456
 21
358.837229
 31
0.0
  0
LINE
  5
324B
100
AcDbEntity
  8
0
100
AcDbLine
 10
727.854456
 20
379.069525
 30
0.0
 11
727.854456
 21
371.219525
 31
0.0
  0
LINE
  5
324C
100
AcDbEntity
  8
0
100
AcDbLine
 10
732.004456
 20
367.069525
 30
0.0
 11
727.854456
 21
371.219525
 31
0.0
  0
LINE
  5
324D
100
AcDbEntity
  8
0
100
AcDbLine
 10
702.004456
 20
233.068525
 30
0.0
 11
732.004456
 21
233.068525
 31
0.0
  0
LINE
  5
324E
100
AcDbEntity
  8
0
100
AcDbLine
 10
706.154456
 20
221.068525
 30
0.0
 11
727.854456
 21
221.068525
 31
0.0
  0
LINE
  5
324F
100
AcDbEntity
  8
0
100
AcDbLine
 10
706.154456
 20
228.918525
 30
0.0
 11
727.854456
 21
228.918525
 31
0.0
  0
LINE
  5
3250
100
AcDbEntity
  8
0
100
AcDbLine
 10
669.504456
 20
213.068525
 30
0.0
 11
764.504456
 21
213.068525
 31
0.0
  0
LINE
  5
3251
100
AcDbEntity
  8
0
100
AcDbLine
 10
669.504456
 20
199.068525
 30
0.0
 11
669.504456
 21
213.068525
 31
0.0
  0
LINE
  5
3252
100
AcDbEntity
  8
0
100
AcDbLine
 10
702.004456
 20
233.068525
 30
0.0
 11
702.004456
 21
241.30082
 31
0.0
  0
LINE
  5
3253
100
AcDbEntity
  8
0
100
AcDbLine
 10
702.004456
 20
233.068525
 30
0.0
 11
706.154456
 21
228.918525
 31
0.0
  0
LINE
  5
3254
100
AcDbEntity
  8
0
100
AcDbLine
 10
706.154456
 20
221.068525
 30
0.0
 11
701.205331
 21
214.630639
 31
0.0
  0
ARC
  5
3255
100
AcDbEntity
  8
0
100
AcDbCircle
 10
698.034099
 20
217.068525
 30
0.0
 40
4.0
100
AcDbArc
 50
270.0
 51
322.448718
  0
LINE
  5
3256
100
AcDbEntity
  8
0
100
AcDbLine
 10
706.154456
 20
221.068525
 30
0.0
 11
706.154456
 21
228.918525
 31
0.0
  0
LINE
  5
3257
100
AcDbEntity
  8
0
100
AcDbLine
 10
732.004456
 20
233.068525
 30
0.0
 11
732.004456
 21
241.30082
 31
0.0
  0
LINE
  5
3258
100
AcDbEntity
  8
0
100
AcDbLine
 10
732.004456
 20
233.068525
 30
0.0
 11
727.854456
 21
228.918525
 31
0.0
  0
LINE
  5
3259
100
AcDbEntity
  8
0
100
AcDbLine
 10
727.854456
 20
221.068525
 30
0.0
 11
727.854456
 21
228.918525
 31
0.0
  0
LINE
  5
325A
100
AcDbEntity
  8
0
100
AcDbLine
 10
727.854456
 20
221.068525
 30
0.0
 11
732.80358
 21
214.630639
 31
0.0
  0
ARC
  5
325B
100
AcDbEntity
  8
0
100
AcDbCircle
 10
735.974812
 20
217.068525
 30
0.0
 40
4.0
100
AcDbArc
 50
217.551282
 51
270.0
  0
LINE
  5
325C
100
AcDbEntity
  8
0
100
AcDbLine
 10
764.504456
 20
199.068525
 30
0.0
 11
764.504456
 21
213.068525
 31
0.0
  0
LINE
  5
325D
100
AcDbEntity
  8
0
100
AcDbLine
 10
552.199038
 20
367.069525
 30
0.0
 11
582.199038
 21
367.069525
 31
0.0
  0
LINE
  5
325E
100
AcDbEntity
  8
0
100
AcDbLine
 10
556.349038
 20
379.069525
 30
0.0
 11
578.049038
 21
379.069525
 31
0.0
  0
LINE
  5
325F
100
AcDbEntity
  8
0
100
AcDbLine
 10
556.349038
 20
371.219525
 30
0.0
 11
578.049038
 21
371.219525
 31
0.0
  0
LINE
  5
3260
100
AcDbEntity
  8
0
100
AcDbLine
 10
519.699038
 20
387.069525
 30
0.0
 11
614.699038
 21
387.069525
 31
0.0
  0
LINE
  5
3261
100
AcDbEntity
  8
0
100
AcDbLine
 10
519.699038
 20
401.069525
 30
0.0
 11
519.699038
 21
387.069525
 31
0.0
  0
LINE
  5
3262
100
AcDbEntity
  8
0
100
AcDbLine
 10
552.199038
 20
367.069525
 30
0.0
 11
552.199038
 21
358.837229
 31
0.0
  0
LINE
  5
3263
100
AcDbEntity
  8
0
100
AcDbLine
 10
552.199038
 20
367.069525
 30
0.0
 11
556.349038
 21
371.219525
 31
0.0
  0
LINE
  5
3264
100
AcDbEntity
  8
0
100
AcDbLine
 10
556.349038
 20
379.069525
 30
0.0
 11
551.399914
 21
385.50741
 31
0.0
  0
ARC
  5
3265
100
AcDbEntity
  8
0
100
AcDbCircle
 10
548.228682
 20
383.069525
 30
0.0
 40
4.0
100
AcDbArc
 50
37.551282
 51
90.0
  0
LINE
  5
3266
100
AcDbEntity
  8
0
100
AcDbLine
 10
556.349038
 20
379.069525
 30
0.0
 11
556.349038
 21
371.219525
 31
0.0
  0
LINE
  5
3267
100
AcDbEntity
  8
0
100
AcDbLine
 10
582.199038
 20
367.069525
 30
0.0
 11
582.199038
 21
358.837229
 31
0.0
  0
LINE
  5
3268
100
AcDbEntity
  8
0
100
AcDbLine
 10
582.199038
 20
367.069525
 30
0.0
 11
578.049038
 21
371.219525
 31
0.0
  0
LINE
  5
3269
100
AcDbEntity
  8
0
100
AcDbLine
 10
578.049038
 20
379.069525
 30
0.0
 11
578.049038
 21
371.219525
 31
0.0
  0
LINE
  5
326A
100
AcDbEntity
  8
0
100
AcDbLine
 10
578.049038
 20
379.069525
 30
0.0
 11
582.998163
 21
385.50741
 31
0.0
  0
ARC
  5
326B
100
AcDbEntity
  8
0
100
AcDbCircle
 10
586.169395
 20
383.069525
 30
0.0
 40
4.0
100
AcDbArc
 50
90.0
 51
142.448718
  0
LINE
  5
326C
100
AcDbEntity
  8
0
100
AcDbLine
 10
614.699038
 20
401.069525
 30
0.0
 11
614.699038
 21
387.069525
 31
0.0
  0
LINE
  5
326D
100
AcDbEntity
  8
0
100
AcDbLine
 10
519.699038
 20
213.068525
 30
0.0
 11
614.699038
 21
213.068525
 31
0.0
  0
LINE
  5
326E
100
AcDbEntity
  8
0
100
AcDbLine
 10
556.349038
 20
228.918525
 30
0.0
 11
578.049038
 21
228.918525
 31
0.0
  0
LINE
  5
326F
100
AcDbEntity
  8
0
100
AcDbLine
 10
556.349038
 20
221.068525
 30
0.0
 11
578.049038
 21
221.068525
 31
0.0
  0
LINE
  5
3270
100
AcDbEntity
  8
0
100
AcDbLine
 10
552.199038
 20
233.068525
 30
0.0
 11
582.199038
 21
233.068525
 31
0.0
  0
LINE
  5
3271
100
AcDbEntity
  8
0
100
AcDbLine
 10
519.699038
 20
199.068525
 30
0.0
 11
519.699038
 21
213.068525
 31
0.0
  0
LINE
  5
3272
100
AcDbEntity
  8
0
100
AcDbLine
 10
556.349038
 20
221.068525
 30
0.0
 11
556.349038
 21
228.918525
 31
0.0
  0
ARC
  5
3273
100
AcDbEntity
  8
0
100
AcDbCircle
 10
548.228682
 20
217.068525
 30
0.0
 40
4.0
100
AcDbArc
 50
270.0
 51
322.448718
  0
LINE
  5
3274
100
AcDbEntity
  8
0
100
AcDbLine
 10
556.349038
 20
221.068525
 30
0.0
 11
551.399914
 21
214.630639
 31
0.0
  0
LINE
  5
3275
100
AcDbEntity
  8
0
100
AcDbLine
 10
552.199038
 20
233.068525
 30
0.0
 11
556.349038
 21
228.918525
 31
0.0
  0
LINE
  5
3276
100
AcDbEntity
  8
0
100
AcDbLine
 10
552.199038
 20
233.068525
 30
0.0
 11
552.199038
 21
241.30082
 31
0.0
  0
LINE
  5
3277
100
AcDbEntity
  8
0
100
AcDbLine
 10
614.699038
 20
199.068525
 30
0.0
 11
614.699038
 21
213.068525
 31
0.0
  0
ARC
  5
3278
100
AcDbEntity
  8
0
100
AcDbCircle
 10
586.169395
 20
217.068525
 30
0.0
 40
4.0
100
AcDbArc
 50
217.551282
 51
270.0
  0
LINE
  5
3279
100
AcDbEntity
  8
0
100
AcDbLine
 10
578.049038
 20
221.068525
 30
0.0
 11
582.998163
 21
214.630639
 31
0.0
  0
LINE
  5
327A
100
AcDbEntity
  8
0
100
AcDbLine
 10
578.049038
 20
221.068525
 30
0.0
 11
578.049038
 21
228.918525
 31
0.0
  0
LINE
  5
327B
100
AcDbEntity
  8
0
100
AcDbLine
 10
582.199038
 20
233.068525
 30
0.0
 11
578.049038
 21
228.918525
 31
0.0
  0
LINE
  5
327C
100
AcDbEntity
  8
0
100
AcDbLine
 10
582.199038
 20
233.068525
 30
0.0
 11
582.199038
 21
241.30082
 31
0.0
  0
LINE
  5
327D
100
AcDbEntity
  8
0
100
AcDbLine
 10
384.131962
 20
367.069525
 30
0.0
 11
414.131962
 21
367.069525
 31
0.0
  0
LINE
  5
327E
100
AcDbEntity
  8
0
100
AcDbLine
 10
388.281962
 20
379.069525
 30
0.0
 11
409.981962
 21
379.069525
 31
0.0
  0
LINE
  5
327F
100
AcDbEntity
  8
0
100
AcDbLine
 10
388.281962
 20
371.219525
 30
0.0
 11
409.981962
 21
371.219525
 31
0.0
  0
LINE
  5
3280
100
AcDbEntity
  8
0
100
AcDbLine
 10
351.631962
 20
387.069525
 30
0.0
 11
446.631962
 21
387.069525
 31
0.0
  0
LINE
  5
3281
100
AcDbEntity
  8
0
100
AcDbLine
 10
351.631962
 20
401.069525
 30
0.0
 11
351.631962
 21
387.069525
 31
0.0
  0
LINE
  5
3282
100
AcDbEntity
  8
0
100
AcDbLine
 10
384.131962
 20
367.069525
 30
0.0
 11
384.131962
 21
358.837229
 31
0.0
  0
LINE
  5
3283
100
AcDbEntity
  8
0
100
AcDbLine
 10
384.131962
 20
367.069525
 30
0.0
 11
388.281962
 21
371.219525
 31
0.0
  0
LINE
  5
3284
100
AcDbEntity
  8
0
100
AcDbLine
 10
388.281962
 20
379.069525
 30
0.0
 11
383.332838
 21
385.50741
 31
0.0
  0
ARC
  5
3285
100
AcDbEntity
  8
0
100
AcDbCircle
 10
380.161605
 20
383.069525
 30
0.0
 40
4.0
100
AcDbArc
 50
37.551282
 51
90.0
  0
LINE
  5
3286
100
AcDbEntity
  8
0
100
AcDbLine
 10
388.281962
 20
379.069525
 30
0.0
 11
388.281962
 21
371.219525
 31
0.0
  0
LINE
  5
3287
100
AcDbEntity
  8
0
100
AcDbLine
 10
414.131962
 20
367.069525
 30
0.0
 11
414.131962
 21
358.837229
 31
0.0
  0
LINE
  5
3288
100
AcDbEntity
  8
0
100
AcDbLine
 10
414.131962
 20
367.069525
 30
0.0
 11
409.981962
 21
371.219525
 31
0.0
  0
LINE
  5
3289
100
AcDbEntity
  8
0
100
AcDbLine
 10
409.981962
 20
379.069525
 30
0.0
 11
409.981962
 21
371.219525
 31
0.0
  0
LINE
  5
328A
100
AcDbEntity
  8
0
100
AcDbLine
 10
409.981962
 20
379.069525
 30
0.0
 11
414.931086
 21
385.50741
 31
0.0
  0
ARC
  5
328B
100
AcDbEntity
  8
0
100
AcDbCircle
 10
418.102319
 20
383.069525
 30
0.0
 40
4.0
100
AcDbArc
 50
90.0
 51
142.448718
  0
LINE
  5
328C
100
AcDbEntity
  8
0
100
AcDbLine
 10
446.631962
 20
401.069525
 30
0.0
 11
446.631962
 21
387.069525
 31
0.0
  0
LINE
  5
328D
100
AcDbEntity
  8
0
100
AcDbLine
 10
351.631962
 20
213.068525
 30
0.0
 11
446.631962
 21
213.068525
 31
0.0
  0
LINE
  5
328E
100
AcDbEntity
  8
0
100
AcDbLine
 10
388.281962
 20
228.918525
 30
0.0
 11
409.981962
 21
228.918525
 31
0.0
  0
LINE
  5
328F
100
AcDbEntity
  8
0
100
AcDbLine
 10
388.281962
 20
221.068525
 30
0.0
 11
409.981962
 21
221.068525
 31
0.0
  0
LINE
  5
3290
100
AcDbEntity
  8
0
100
AcDbLine
 10
384.131962
 20
233.068525
 30
0.0
 11
414.131962
 21
233.068525
 31
0.0
  0
LINE
  5
3291
100
AcDbEntity
  8
0
100
AcDbLine
 10
351.631962
 20
199.068525
 30
0.0
 11
351.631962
 21
213.068525
 31
0.0
  0
LINE
  5
3292
100
AcDbEntity
  8
0
100
AcDbLine
 10
388.281962
 20
221.068525
 30
0.0
 11
388.281962
 21
228.918525
 31
0.0
  0
ARC
  5
3293
100
AcDbEntity
  8
0
100
AcDbCircle
 10
380.161605
 20
217.068525
 30
0.0
 40
4.0
100
AcDbArc
 50
270.0
 51
322.448718
  0
LINE
  5
3294
100
AcDbEntity
  8
0
100
AcDbLine
 10
388.281962
 20
221.068525
 30
0.0
 11
383.332838
 21
214.630639
 31
0.0
  0
LINE
  5
3295
100
AcDbEntity
  8
0
100
AcDbLine
 10
384.131962
 20
233.068525
 30
0.0
 11
388.281962
 21
228.918525
 31
0.0
  0
LINE
  5
3296
100
AcDbEntity
  8
0
100
AcDbLine
 10
384.131962
 20
233.068525
 30
0.0
 11
384.131962
 21
241.30082
 31
0.0
  0
LINE
  5
3297
100
AcDbEntity
  8
0
100
AcDbLine
 10
446.631962
 20
199.068525
 30
0.0
 11
446.631962
 21
213.068525
 31
0.0
  0
ARC
  5
3298
100
AcDbEntity
  8
0
100
AcDbCircle
 10
418.102319
 20
217.068525
 30
0.0
 40
4.0
100
AcDbArc
 50
217.551282
 51
270.0
  0
LINE
  5
3299
100
AcDbEntity
  8
0
100
AcDbLine
 10
409.981962
 20
221.068525
 30
0.0
 11
414.931086
 21
214.630639
 31
0.0
  0
LINE
  5
329A
100
AcDbEntity
  8
0
100
AcDbLine
 10
409.981962
 20
221.068525
 30
0.0
 11
409.981962
 21
228.918525
 31
0.0
  0
LINE
  5
329B
100
AcDbEntity
  8
0
100
AcDbLine
 10
414.131962
 20
233.068525
 30
0.0
 11
409.981962
 21
228.918525
 31
0.0
  0
LINE
  5
329C
100
AcDbEntity
  8
0
100
AcDbLine
 10
414.131962
 20
233.068525
 30
0.0
 11
414.131962
 21
241.30082
 31
0.0
  0
LINE
  5
32EE
100
AcDbEntity
  8
0
100
AcDbLine
 10
519.699038
 20
878.618094
 30
0.0
 11
614.699038
 21
878.618094
 31
0.0
  0
LINE
  5
32EF
100
AcDbEntity
  8
0
100
AcDbLine
 10
567.199038
 20
892.618094
 30
0.0
 11
614.699038
 21
892.618094
 31
0.0
  0
LINE
  5
32F0
100
AcDbEntity
  8
0
100
AcDbLine
 10
552.199038
 20
858.618094
 30
0.0
 11
582.199038
 21
858.618094
 31
0.0
  0
LINE
  5
32F1
100
AcDbEntity
  8
0
100
AcDbLine
 10
578.049038
 20
870.618094
 30
0.0
 11
582.998163
 21
877.055979
 31
0.0
  0
LINE
  5
32F2
100
AcDbEntity
  8
0
100
AcDbLine
 10
582.199038
 20
858.618094
 30
0.0
 11
578.049038
 21
862.768094
 31
0.0
  0
LINE
  5
32F3
100
AcDbEntity
  8
0
100
AcDbLine
 10
578.049038
 20
870.618094
 30
0.0
 11
578.049038
 21
862.768094
 31
0.0
  0
LINE
  5
32F4
100
AcDbEntity
  8
0
100
AcDbLine
 10
556.349038
 20
862.768094
 30
0.0
 11
578.049038
 21
862.768094
 31
0.0
  0
LINE
  5
32F5
100
AcDbEntity
  8
0
100
AcDbLine
 10
556.349038
 20
870.618094
 30
0.0
 11
578.049038
 21
870.618094
 31
0.0
  0
ARC
  5
32F6
100
AcDbEntity
  8
0
100
AcDbCircle
 10
586.169395
 20
874.618094
 30
0.0
 40
4.0
100
AcDbArc
 50
90.0
 51
142.448718
  0
LINE
  5
32F7
100
AcDbEntity
  8
0
100
AcDbLine
 10
582.199038
 20
858.618094
 30
0.0
 11
582.199038
 21
850.385798
 31
0.0
  0
LINE
  5
32F8
100
AcDbEntity
  8
0
100
AcDbLine
 10
614.699038
 20
892.618094
 30
0.0
 11
614.699038
 21
878.618094
 31
0.0
  0
LINE
  5
32F9
100
AcDbEntity
  8
0
100
AcDbLine
 10
556.349038
 20
870.618094
 30
0.0
 11
551.399914
 21
877.055979
 31
0.0
  0
LINE
  5
32FA
100
AcDbEntity
  8
0
100
AcDbLine
 10
552.199038
 20
858.618094
 30
0.0
 11
556.349038
 21
862.768094
 31
0.0
  0
LINE
  5
32FB
100
AcDbEntity
  8
0
100
AcDbLine
 10
552.199038
 20
858.618094
 30
0.0
 11
552.199038
 21
850.385798
 31
0.0
  0
LINE
  5
32FC
100
AcDbEntity
  8
0
100
AcDbLine
 10
556.349038
 20
870.618094
 30
0.0
 11
556.349038
 21
862.768094
 31
0.0
  0
LINE
  5
32FD
100
AcDbEntity
  8
0
100
AcDbLine
 10
614.699038
 20
690.617094
 30
0.0
 11
614.699038
 21
704.617094
 31
0.0
  0
LINE
  5
32FE
100
AcDbEntity
  8
0
100
AcDbLine
 10
519.699038
 20
690.617094
 30
0.0
 11
519.699038
 21
704.617094
 31
0.0
  0
LINE
  5
32FF
100
AcDbEntity
  8
0
100
AcDbLine
 10
567.199038
 20
690.617094
 30
0.0
 11
614.699038
 21
690.617094
 31
0.0
  0
LINE
  5
3300
100
AcDbEntity
  8
0
100
AcDbLine
 10
519.699038
 20
690.617094
 30
0.0
 11
567.199038
 21
690.617094
 31
0.0
  0
LINE
  5
3301
100
AcDbEntity
  8
0
100
AcDbLine
 10
519.699038
 20
704.617094
 30
0.0
 11
614.699038
 21
704.617094
 31
0.0
  0
LINE
  5
3302
100
AcDbEntity
  8
0
100
AcDbLine
 10
552.199038
 20
724.617094
 30
0.0
 11
556.349038
 21
720.467094
 31
0.0
  0
LINE
  5
3303
100
AcDbEntity
  8
0
100
AcDbLine
 10
556.349038
 20
712.617094
 30
0.0
 11
551.399914
 21
706.179209
 31
0.0
  0
LINE
  5
3304
100
AcDbEntity
  8
0
100
AcDbLine
 10
552.199038
 20
724.617094
 30
0.0
 11
582.199038
 21
724.617094
 31
0.0
  0
LINE
  5
3305
100
AcDbEntity
  8
0
100
AcDbLine
 10
552.199038
 20
724.617094
 30
0.0
 11
552.199038
 21
732.849389
 31
0.0
  0
ARC
  5
3306
100
AcDbEntity
  8
0
100
AcDbCircle
 10
548.228682
 20
708.617094
 30
0.0
 40
4.0
100
AcDbArc
 50
270.0
 51
322.448718
  0
LINE
  5
3307
100
AcDbEntity
  8
0
100
AcDbLine
 10
582.199038
 20
724.617094
 30
0.0
 11
578.049038
 21
720.467094
 31
0.0
  0
LINE
  5
3308
100
AcDbEntity
  8
0
100
AcDbLine
 10
578.049038
 20
712.617094
 30
0.0
 11
582.998163
 21
706.179209
 31
0.0
  0
LINE
  5
3309
100
AcDbEntity
  8
0
100
AcDbLine
 10
578.049038
 20
712.617094
 30
0.0
 11
578.049038
 21
720.467094
 31
0.0
  0
LINE
  5
330A
100
AcDbEntity
  8
0
100
AcDbLine
 10
556.349038
 20
712.617094
 30
0.0
 11
556.349038
 21
720.467094
 31
0.0
  0
LINE
  5
330B
100
AcDbEntity
  8
0
100
AcDbLine
 10
556.349038
 20
712.617094
 30
0.0
 11
578.049038
 21
712.617094
 31
0.0
  0
LINE
  5
330C
100
AcDbEntity
  8
0
100
AcDbLine
 10
556.349038
 20
720.467094
 30
0.0
 11
578.049038
 21
720.467094
 31
0.0
  0
LINE
  5
330D
100
AcDbEntity
  8
0
100
AcDbLine
 10
582.199038
 20
724.617094
 30
0.0
 11
582.199038
 21
732.849389
 31
0.0
  0
ARC
  5
330E
100
AcDbEntity
  8
0
100
AcDbCircle
 10
586.169395
 20
708.617094
 30
0.0
 40
4.0
100
AcDbArc
 50
217.551282
 51
270.0
  0
LINE
  5
330F
100
AcDbEntity
  8
0
100
AcDbLine
 10
519.699038
 20
892.618094
 30
0.0
 11
519.699038
 21
878.618094
 31
0.0
  0
ARC
  5
3310
100
AcDbEntity
  8
0
100
AcDbCircle
 10
548.228682
 20
874.618094
 30
0.0
 40
4.0
100
AcDbArc
 50
37.551282
 51
90.0
  0
LINE
  5
3381
100
AcDbEntity
  8
0
100
AcDbLine
 10
1346.195843
 20
403.728015
 30
0.0
 11
1446.195843
 21
403.728015
 31
0.0
  0
LINE
  5
3382
100
AcDbEntity
  8
0
100
AcDbLine
 10
1381.195843
 20
377.728015
 30
0.0
 11
1411.195843
 21
377.728015
 31
0.0
  0
LINE
  5
3383
100
AcDbEntity
  8
0
100
AcDbLine
 10
1382.595843
 20
379.128015
 30
0.0
 11
1409.795843
 21
379.128015
 31
0.0
  0
LINE
  5
3384
100
AcDbEntity
  8
0
100
AcDbLine
 10
1382.595843
 20
393.728015
 30
0.0
 11
1409.795843
 21
393.728015
 31
0.0
  0
LINE
  5
3385
100
AcDbEntity
  8
0
100
AcDbLine
 10
1381.195843
 20
367.969101
 30
0.0
 11
1381.195843
 21
377.728015
 31
0.0
  0
LINE
  5
3386
100
AcDbEntity
  8
0
100
AcDbLine
 10
1346.195843
 20
403.728015
 30
0.0
 11
1346.195843
 21
419.728015
 31
0.0
  0
ARC
  5
3387
100
AcDbEntity
  8
0
100
AcDbCircle
 10
1374.00678
 20
399.728015
 30
0.0
 40
4.0
100
AcDbArc
 50
32.619243
 51
90.0
  0
LINE
  5
3388
100
AcDbEntity
  8
0
100
AcDbLine
 10
1382.595843
 20
379.128015
 30
0.0
 11
1382.595843
 21
393.728015
 31
0.0
  0
LINE
  5
3389
100
AcDbEntity
  8
0
100
AcDbLine
 10
1381.195843
 20
377.728015
 30
0.0
 11
1382.595843
 21
379.128015
 31
0.0
  0
LINE
  5
338A
100
AcDbEntity
  8
0
100
AcDbLine
 10
1377.375865
 20
401.884229
 30
0.0
 11
1382.595843
 21
393.728015
 31
0.0
  0
LINE
  5
338B
100
AcDbEntity
  8
0
100
AcDbLine
 10
1411.195843
 20
367.969101
 30
0.0
 11
1411.195843
 21
377.728015
 31
0.0
  0
ARC
  5
338C
100
AcDbEntity
  8
0
100
AcDbCircle
 10
1418.384906
 20
399.728015
 30
0.0
 40
4.0
100
AcDbArc
 50
90.0
 51
147.380757
  0
LINE
  5
338D
100
AcDbEntity
  8
0
100
AcDbLine
 10
1409.795843
 20
379.128015
 30
0.0
 11
1409.795843
 21
393.728015
 31
0.0
  0
LINE
  5
338E
100
AcDbEntity
  8
0
100
AcDbLine
 10
1411.195843
 20
377.728015
 30
0.0
 11
1409.795843
 21
379.128015
 31
0.0
  0
LINE
  5
338F
100
AcDbEntity
  8
0
100
AcDbLine
 10
1415.01582
 20
401.884229
 30
0.0
 11
1409.795843
 21
393.728015
 31
0.0
  0
LINE
  5
3390
100
AcDbEntity
  8
0
100
AcDbLine
 10
1446.195843
 20
403.728015
 30
0.0
 11
1446.195843
 21
419.728015
 31
0.0
  0
LINE
  5
3392
100
AcDbEntity
  8
0
100
AcDbLine
 10
1585.723432
 20
367.969101
 30
0.0
 11
1585.723432
 21
377.728015
 31
0.0
  0
LINE
  5
3393
100
AcDbEntity
  8
0
100
AcDbLine
 10
1555.723432
 20
367.969101
 30
0.0
 11
1555.723432
 21
377.728015
 31
0.0
  0
LINE
  5
3394
100
AcDbEntity
  8
0
100
AcDbLine
 10
1585.723432
 20
367.969101
 30
0.0
 11
1555.723432
 21
367.969101
 31
0.0
  0
LINE
  5
3395
100
AcDbEntity
  8
0
100
AcDbLine
 10
1555.723432
 20
367.969101
 30
0.0
 11
1554.385868
 21
366.528015
 31
0.0
  0
LINE
  5
3396
100
AcDbEntity
  8
0
100
AcDbLine
 10
1585.723432
 20
367.969101
 30
0.0
 11
1587.060996
 21
366.528015
 31
0.0
  0
LINE
  5
3397
100
AcDbEntity
  8
0
100
AcDbLine
 10
1557.123432
 20
393.728015
 30
0.0
 11
1584.323432
 21
393.728015
 31
0.0
  0
LINE
  5
3398
100
AcDbEntity
  8
0
100
AcDbLine
 10
1557.123432
 20
379.128015
 30
0.0
 11
1584.323432
 21
379.128015
 31
0.0
  0
LINE
  5
3399
100
AcDbEntity
  8
0
100
AcDbLine
 10
1555.723432
 20
377.728015
 30
0.0
 11
1585.723432
 21
377.728015
 31
0.0
  0
LINE
  5
339A
100
AcDbEntity
  8
0
100
AcDbLine
 10
1520.723432
 20
403.728015
 30
0.0
 11
1620.723432
 21
403.728015
 31
0.0
  0
LINE
  5
339B
100
AcDbEntity
  8
0
100
AcDbLine
 10
1520.723432
 20
403.728015
 30
0.0
 11
1520.723432
 21
419.728015
 31
0.0
  0
LINE
  5
339C
100
AcDbEntity
  8
0
100
AcDbLine
 10
1551.903454
 20
401.884229
 30
0.0
 11
1557.123432
 21
393.728015
 31
0.0
  0
LINE
  5
339D
100
AcDbEntity
  8
0
100
AcDbLine
 10
1555.723432
 20
377.728015
 30
0.0
 11
1557.123432
 21
379.128015
 31
0.0
  0
LINE
  5
339E
100
AcDbEntity
  8
0
100
AcDbLine
 10
1557.123432
 20
379.128015
 30
0.0
 11
1557.123432
 21
393.728015
 31
0.0
  0
ARC
  5
339F
100
AcDbEntity
  8
0
100
AcDbCircle
 10
1548.534369
 20
399.728015
 30
0.0
 40
4.0
100
AcDbArc
 50
32.619243
 51
90.0
  0
LINE
  5
33A0
100
AcDbEntity
  8
0
100
AcDbLine
 10
1589.543409
 20
401.884229
 30
0.0
 11
1584.323432
 21
393.728015
 31
0.0
  0
LINE
  5
33A1
100
AcDbEntity
  8
0
100
AcDbLine
 10
1585.723432
 20
377.728015
 30
0.0
 11
1584.323432
 21
379.128015
 31
0.0
  0
LINE
  5
33A2
100
AcDbEntity
  8
0
100
AcDbLine
 10
1584.323432
 20
379.128015
 30
0.0
 11
1584.323432
 21
393.728015
 31
0.0
  0
ARC
  5
33A3
100
AcDbEntity
  8
0
100
AcDbCircle
 10
1592.912495
 20
399.728015
 30
0.0
 40
4.0
100
AcDbArc
 50
90.0
 51
147.380757
  0
LINE
  5
33A4
100
AcDbEntity
  8
0
100
AcDbLine
 10
1620.723432
 20
403.728015
 30
0.0
 11
1620.723432
 21
419.728015
 31
0.0
  0
LINE
  5
33A5
100
AcDbEntity
  8
0
100
AcDbLine
 10
1555.723432
 20
249.485929
 30
0.0
 11
1555.723432
 21
239.727015
 31
0.0
  0
LINE
  5
33A6
100
AcDbEntity
  8
0
100
AcDbLine
 10
1585.723432
 20
249.485929
 30
0.0
 11
1585.723432
 21
239.727015
 31
0.0
  0
LINE
  5
33A7
100
AcDbEntity
  8
0
100
AcDbLine
 10
1585.723432
 20
249.485929
 30
0.0
 11
1555.723432
 21
249.485929
 31
0.0
  0
LINE
  5
33A8
100
AcDbEntity
  8
0
100
AcDbLine
 10
1555.723432
 20
249.485929
 30
0.0
 11
1554.385868
 21
250.927015
 31
0.0
  0
LINE
  5
33A9
100
AcDbEntity
  8
0
100
AcDbLine
 10
1585.723432
 20
249.485929
 30
0.0
 11
1587.060996
 21
250.927015
 31
0.0
  0
LINE
  5
33AA
100
AcDbEntity
  8
0
100
AcDbLine
 10
1520.723432
 20
213.727015
 30
0.0
 11
1620.723432
 21
213.727015
 31
0.0
  0
LINE
  5
33AB
100
AcDbEntity
  8
0
100
AcDbLine
 10
1555.723432
 20
239.727015
 30
0.0
 11
1585.723432
 21
239.727015
 31
0.0
  0
LINE
  5
33AC
100
AcDbEntity
  8
0
100
AcDbLine
 10
1557.123432
 20
238.327015
 30
0.0
 11
1584.323432
 21
238.327015
 31
0.0
  0
LINE
  5
33AD
100
AcDbEntity
  8
0
100
AcDbLine
 10
1557.123432
 20
223.727015
 30
0.0
 11
1584.323432
 21
223.727015
 31
0.0
  0
LINE
  5
33AE
100
AcDbEntity
  8
0
100
AcDbLine
 10
1520.723432
 20
213.727015
 30
0.0
 11
1520.723432
 21
197.727015
 31
0.0
  0
ARC
  5
33AF
100
AcDbEntity
  8
0
100
AcDbCircle
 10
1548.534369
 20
217.727015
 30
0.0
 40
4.0
100
AcDbArc
 50
270.0
 51
327.380757
  0
LINE
  5
33B0
100
AcDbEntity
  8
0
100
AcDbLine
 10
1557.123432
 20
238.327015
 30
0.0
 11
1557.123432
 21
223.727015
 31
0.0
  0
LINE
  5
33B1
100
AcDbEntity
  8
0
100
AcDbLine
 10
1555.723432
 20
239.727015
 30
0.0
 11
1557.123432
 21
238.327015
 31
0.0
  0
LINE
  5
33B2
100
AcDbEntity
  8
0
100
AcDbLine
 10
1551.903454
 20
215.5708
 30
0.0
 11
1557.123432
 21
223.727015
 31
0.0
  0
ARC
  5
33B3
100
AcDbEntity
  8
0
100
AcDbCircle
 10
1592.912495
 20
217.727015
 30
0.0
 40
4.0
100
AcDbArc
 50
212.619243
 51
270.0
  0
LINE
  5
33B4
100
AcDbEntity
  8
0
100
AcDbLine
 10
1584.323432
 20
238.327015
 30
0.0
 11
1584.323432
 21
223.727015
 31
0.0
  0
LINE
  5
33B5
100
AcDbEntity
  8
0
100
AcDbLine
 10
1585.723432
 20
239.727015
 30
0.0
 11
1584.323432
 21
238.327015
 31
0.0
  0
LINE
  5
33B6
100
AcDbEntity
  8
0
100
AcDbLine
 10
1589.543409
 20
215.5708
 30
0.0
 11
1584.323432
 21
223.727015
 31
0.0
  0
LINE
  5
33B7
100
AcDbEntity
  8
0
100
AcDbLine
 10
1620.723432
 20
213.727015
 30
0.0
 11
1620.723432
 21
197.727015
 31
0.0
  0
LINE
  5
33B8
100
AcDbEntity
  8
0
100
AcDbLine
 10
1382.595843
 20
223.727015
 30
0.0
 11
1409.795843
 21
223.727015
 31
0.0
  0
LINE
  5
33B9
100
AcDbEntity
  8
0
100
AcDbLine
 10
1382.595843
 20
238.327015
 30
0.0
 11
1409.795843
 21
238.327015
 31
0.0
  0
LINE
  5
33BA
100
AcDbEntity
  8
0
100
AcDbLine
 10
1381.195843
 20
239.727015
 30
0.0
 11
1411.195843
 21
239.727015
 31
0.0
  0
LINE
  5
33BB
100
AcDbEntity
  8
0
100
AcDbLine
 10
1346.195843
 20
213.727015
 30
0.0
 11
1446.195843
 21
213.727015
 31
0.0
  0
LINE
  5
33BC
100
AcDbEntity
  8
0
100
AcDbLine
 10
1411.195843
 20
249.485929
 30
0.0
 11
1381.195843
 21
249.485929
 31
0.0
  0
LINE
  5
33BD
100
AcDbEntity
  8
0
100
AcDbLine
 10
1381.195843
 20
249.485929
 30
0.0
 11
1381.195843
 21
239.727015
 31
0.0
  0
LINE
  5
33BE
100
AcDbEntity
  8
0
100
AcDbLine
 10
1346.195843
 20
213.727015
 30
0.0
 11
1346.195843
 21
197.727015
 31
0.0
  0
LINE
  5
33BF
100
AcDbEntity
  8
0
100
AcDbLine
 10
1377.375865
 20
215.5708
 30
0.0
 11
1382.595843
 21
223.727015
 31
0.0
  0
LINE
  5
33C0
100
AcDbEntity
  8
0
100
AcDbLine
 10
1381.195843
 20
239.727015
 30
0.0
 11
1382.595843
 21
238.327015
 31
0.0
  0
LINE
  5
33C1
100
AcDbEntity
  8
0
100
AcDbLine
 10
1382.595843
 20
238.327015
 30
0.0
 11
1382.595843
 21
223.727015
 31
0.0
  0
ARC
  5
33C2
100
AcDbEntity
  8
0
100
AcDbCircle
 10
1374.00678
 20
217.727015
 30
0.0
 40
4.0
100
AcDbArc
 50
270.0
 51
327.380757
  0
LINE
  5
33C3
100
AcDbEntity
  8
0
100
AcDbLine
 10
1381.195843
 20
249.485929
 30
0.0
 11
1379.858279
 21
250.927015
 31
0.0
  0
LINE
  5
33C4
100
AcDbEntity
  8
0
100
AcDbLine
 10
1411.195843
 20
249.485929
 30
0.0
 11
1411.195843
 21
239.727015
 31
0.0
  0
LINE
  5
33C5
100
AcDbEntity
  8
0
100
AcDbLine
 10
1415.01582
 20
215.5708
 30
0.0
 11
1409.795843
 21
223.727015
 31
0.0
  0
LINE
  5
33C6
100
AcDbEntity
  8
0
100
AcDbLine
 10
1411.195843
 20
239.727015
 30
0.0
 11
1409.795843
 21
238.327015
 31
0.0
  0
LINE
  5
33C7
100
AcDbEntity
  8
0
100
AcDbLine
 10
1409.795843
 20
238.327015
 30
0.0
 11
1409.795843
 21
223.727015
 31
0.0
  0
ARC
  5
33C8
100
AcDbEntity
  8
0
100
AcDbCircle
 10
1418.384906
 20
217.727015
 30
0.0
 40
4.0
100
AcDbArc
 50
212.619243
 51
270.0
  0
LINE
  5
33C9
100
AcDbEntity
  8
0
100
AcDbLine
 10
1446.195843
 20
213.727015
 30
0.0
 11
1446.195843
 21
197.727015
 31
0.0
  0
LINE
  5
33CA
100
AcDbEntity
  8
0
100
AcDbLine
 10
1411.195843
 20
249.485929
 30
0.0
 11
1412.533407
 21
250.927015
 31
0.0
  0
LINE
  5
33CB
100
AcDbEntity
  8
0
100
AcDbLine
 10
1242.979136
 20
367.969101
 30
0.0
 11
1242.979136
 21
377.728015
 31
0.0
  0
LINE
  5
33CC
100
AcDbEntity
  8
0
100
AcDbLine
 10
1212.979136
 20
367.969101
 30
0.0
 11
1212.979136
 21
377.728015
 31
0.0
  0
LINE
  5
33CD
100
AcDbEntity
  8
0
100
AcDbLine
 10
1242.979136
 20
367.969101
 30
0.0
 11
1212.979136
 21
367.969101
 31
0.0
  0
LINE
  5
33CE
100
AcDbEntity
  8
0
100
AcDbLine
 10
1212.979136
 20
367.969101
 30
0.0
 11
1211.641572
 21
366.528015
 31
0.0
  0
LINE
  5
33CF
100
AcDbEntity
  8
0
100
AcDbLine
 10
1242.979136
 20
367.969101
 30
0.0
 11
1244.316699
 21
366.528015
 31
0.0
  0
LINE
  5
33D0
100
AcDbEntity
  8
0
100
AcDbLine
 10
1214.379136
 20
393.728015
 30
0.0
 11
1241.579136
 21
393.728015
 31
0.0
  0
LINE
  5
33D1
100
AcDbEntity
  8
0
100
AcDbLine
 10
1214.379136
 20
379.128015
 30
0.0
 11
1241.579136
 21
379.128015
 31
0.0
  0
LINE
  5
33D2
100
AcDbEntity
  8
0
100
AcDbLine
 10
1212.979136
 20
377.728015
 30
0.0
 11
1242.979136
 21
377.728015
 31
0.0
  0
LINE
  5
33D3
100
AcDbEntity
  8
0
100
AcDbLine
 10
1177.979136
 20
403.728015
 30
0.0
 11
1277.979136
 21
403.728015
 31
0.0
  0
LINE
  5
33D4
100
AcDbEntity
  8
0
100
AcDbLine
 10
1177.979136
 20
403.728015
 30
0.0
 11
1177.979136
 21
419.728015
 31
0.0
  0
LINE
  5
33D5
100
AcDbEntity
  8
0
100
AcDbLine
 10
1209.159158
 20
401.884229
 30
0.0
 11
1214.379136
 21
393.728015
 31
0.0
  0
LINE
  5
33D6
100
AcDbEntity
  8
0
100
AcDbLine
 10
1212.979136
 20
377.728015
 30
0.0
 11
1214.379136
 21
379.128015
 31
0.0
  0
LINE
  5
33D7
100
AcDbEntity
  8
0
100
AcDbLine
 10
1214.379136
 20
379.128015
 30
0.0
 11
1214.379136
 21
393.728015
 31
0.0
  0
ARC
  5
33D8
100
AcDbEntity
  8
0
100
AcDbCircle
 10
1205.790072
 20
399.728015
 30
0.0
 40
4.0
100
AcDbArc
 50
32.619243
 51
90.0
  0
LINE
  5
33D9
100
AcDbEntity
  8
0
100
AcDbLine
 10
1246.799113
 20
401.884229
 30
0.0
 11
1241.579136
 21
393.728015
 31
0.0
  0
LINE
  5
33DA
100
AcDbEntity
  8
0
100
AcDbLine
 10
1242.979136
 20
377.728015
 30
0.0
 11
1241.579136
 21
379.128015
 31
0.0
  0
LINE
  5
33DB
100
AcDbEntity
  8
0
100
AcDbLine
 10
1241.579136
 20
379.128015
 30
0.0
 11
1241.579136
 21
393.728015
 31
0.0
  0
ARC
  5
33DC
100
AcDbEntity
  8
0
100
AcDbCircle
 10
1250.168199
 20
399.728015
 30
0.0
 40
4.0
100
AcDbArc
 50
90.0
 51
147.380757
  0
LINE
  5
33DD
100
AcDbEntity
  8
0
100
AcDbLine
 10
1277.979136
 20
403.728015
 30
0.0
 11
1277.979136
 21
419.728015
 31
0.0
  0
LINE
  5
33DE
100
AcDbEntity
  8
0
100
AcDbLine
 10
1242.979136
 20
249.485929
 30
0.0
 11
1212.979136
 21
249.485929
 31
0.0
  0
LINE
  5
33DF
100
AcDbEntity
  8
0
100
AcDbLine
 10
1177.979136
 20
213.727015
 30
0.0
 11
1277.979136
 21
213.727015
 31
0.0
  0
LINE
  5
33E0
100
AcDbEntity
  8
0
100
AcDbLine
 10
1212.979136
 20
239.727015
 30
0.0
 11
1242.979136
 21
239.727015
 31
0.0
  0
LINE
  5
33E1
100
AcDbEntity
  8
0
100
AcDbLine
 10
1214.379136
 20
238.327015
 30
0.0
 11
1241.579136
 21
238.327015
 31
0.0
  0
LINE
  5
33E2
100
AcDbEntity
  8
0
100
AcDbLine
 10
1214.379136
 20
223.727015
 30
0.0
 11
1241.579136
 21
223.727015
 31
0.0
  0
LINE
  5
33E3
100
AcDbEntity
  8
0
100
AcDbLine
 10
1212.979136
 20
249.485929
 30
0.0
 11
1212.979136
 21
239.727015
 31
0.0
  0
LINE
  5
33E4
100
AcDbEntity
  8
0
100
AcDbLine
 10
1177.979136
 20
213.727015
 30
0.0
 11
1177.979136
 21
197.727015
 31
0.0
  0
ARC
  5
33E5
100
AcDbEntity
  8
0
100
AcDbCircle
 10
1205.790072
 20
217.727015
 30
0.0
 40
4.0
100
AcDbArc
 50
270.0
 51
327.380757
  0
LINE
  5
33E6
100
AcDbEntity
  8
0
100
AcDbLine
 10
1214.379136
 20
238.327015
 30
0.0
 11
1214.379136
 21
223.727015
 31
0.0
  0
LINE
  5
33E7
100
AcDbEntity
  8
0
100
AcDbLine
 10
1212.979136
 20
239.727015
 30
0.0
 11
1214.379136
 21
238.327015
 31
0.0
  0
LINE
  5
33E8
100
AcDbEntity
  8
0
100
AcDbLine
 10
1209.159158
 20
215.5708
 30
0.0
 11
1214.379136
 21
223.727015
 31
0.0
  0
LINE
  5
33E9
100
AcDbEntity
  8
0
100
AcDbLine
 10
1212.979136
 20
249.485929
 30
0.0
 11
1211.641572
 21
250.927015
 31
0.0
  0
LINE
  5
33EA
100
AcDbEntity
  8
0
100
AcDbLine
 10
1242.979136
 20
249.485929
 30
0.0
 11
1242.979136
 21
239.727015
 31
0.0
  0
ARC
  5
33EB
100
AcDbEntity
  8
0
100
AcDbCircle
 10
1250.168199
 20
217.727015
 30
0.0
 40
4.0
100
AcDbArc
 50
212.619243
 51
270.0
  0
LINE
  5
33EC
100
AcDbEntity
  8
0
100
AcDbLine
 10
1241.579136
 20
238.327015
 30
0.0
 11
1241.579136
 21
223.727015
 31
0.0
  0
LINE
  5
33ED
100
AcDbEntity
  8
0
100
AcDbLine
 10
1242.979136
 20
239.727015
 30
0.0
 11
1241.579136
 21
238.327015
 31
0.0
  0
LINE
  5
33EE
100
AcDbEntity
  8
0
100
AcDbLine
 10
1246.799113
 20
215.5708
 30
0.0
 11
1241.579136
 21
223.727015
 31
0.0
  0
LINE
  5
33EF
100
AcDbEntity
  8
0
100
AcDbLine
 10
1277.979136
 20
213.727015
 30
0.0
 11
1277.979136
 21
197.727015
 31
0.0
  0
LINE
  5
33F0
100
AcDbEntity
  8
0
100
AcDbLine
 10
1242.979136
 20
249.485929
 30
0.0
 11
1244.316699
 21
250.927015
 31
0.0
  0
LINE
  5
33F1
100
AcDbEntity
  8
0
100
AcDbLine
 10
1411.195843
 20
857.581036
 30
0.0
 11
1411.195843
 21
867.33995
 31
0.0
  0
LINE
  5
33F2
100
AcDbEntity
  8
0
100
AcDbLine
 10
1381.195843
 20
857.581036
 30
0.0
 11
1381.195843
 21
867.33995
 31
0.0
  0
LINE
  5
33F3
100
AcDbEntity
  8
0
100
AcDbLine
 10
1411.195843
 20
857.581036
 30
0.0
 11
1381.195843
 21
857.581036
 31
0.0
  0
LINE
  5
33F4
100
AcDbEntity
  8
0
100
AcDbLine
 10
1381.195843
 20
857.581036
 30
0.0
 11
1379.858279
 21
856.13995
 31
0.0
  0
LINE
  5
33F5
100
AcDbEntity
  8
0
100
AcDbLine
 10
1411.195843
 20
857.581036
 30
0.0
 11
1412.533407
 21
856.13995
 31
0.0
  0
LINE
  5
33F6
100
AcDbEntity
  8
0
100
AcDbLine
 10
1382.595843
 20
883.33995
 30
0.0
 11
1409.795843
 21
883.33995
 31
0.0
  0
LINE
  5
33F7
100
AcDbEntity
  8
0
100
AcDbLine
 10
1382.595843
 20
868.73995
 30
0.0
 11
1409.795843
 21
868.73995
 31
0.0
  0
LINE
  5
33F8
100
AcDbEntity
  8
0
100
AcDbLine
 10
1381.195843
 20
867.33995
 30
0.0
 11
1411.195843
 21
867.33995
 31
0.0
  0
LINE
  5
33F9
100
AcDbEntity
  8
0
100
AcDbLine
 10
1346.195843
 20
893.33995
 30
0.0
 11
1446.195843
 21
893.33995
 31
0.0
  0
LINE
  5
33FA
100
AcDbEntity
  8
0
100
AcDbLine
 10
1346.195843
 20
893.33995
 30
0.0
 11
1346.195843
 21
909.33995
 31
0.0
  0
LINE
  5
33FB
100
AcDbEntity
  8
0
100
AcDbLine
 10
1377.375865
 20
891.496165
 30
0.0
 11
1382.595843
 21
883.33995
 31
0.0
  0
LINE
  5
33FC
100
AcDbEntity
  8
0
100
AcDbLine
 10
1381.195843
 20
867.33995
 30
0.0
 11
1382.595843
 21
868.73995
 31
0.0
  0
LINE
  5
33FD
100
AcDbEntity
  8
0
100
AcDbLine
 10
1382.595843
 20
868.73995
 30
0.0
 11
1382.595843
 21
883.33995
 31
0.0
  0
ARC
  5
33FE
100
AcDbEntity
  8
0
100
AcDbCircle
 10
1374.00678
 20
889.33995
 30
0.0
 40
4.0
100
AcDbArc
 50
32.619243
 51
90.0
  0
LINE
  5
33FF
100
AcDbEntity
  8
0
100
AcDbLine
 10
1415.01582
 20
891.496165
 30
0.0
 11
1409.795843
 21
883.33995
 31
0.0
  0
LINE
  5
3400
100
AcDbEntity
  8
0
100
AcDbLine
 10
1411.195843
 20
867.33995
 30
0.0
 11
1409.795843
 21
868.73995
 31
0.0
  0
LINE
  5
3401
100
AcDbEntity
  8
0
100
AcDbLine
 10
1409.795843
 20
868.73995
 30
0.0
 11
1409.795843
 21
883.33995
 31
0.0
  0
ARC
  5
3402
100
AcDbEntity
  8
0
100
AcDbCircle
 10
1418.384906
 20
889.33995
 30
0.0
 40
4.0
100
AcDbArc
 50
90.0
 51
147.380757
  0
LINE
  5
3403
100
AcDbEntity
  8
0
100
AcDbLine
 10
1446.195843
 20
893.33995
 30
0.0
 11
1446.195843
 21
909.33995
 31
0.0
  0
LINE
  5
3404
100
AcDbEntity
  8
0
100
AcDbLine
 10
1411.195843
 20
739.097864
 30
0.0
 11
1381.195843
 21
739.097864
 31
0.0
  0
LINE
  5
3405
100
AcDbEntity
  8
0
100
AcDbLine
 10
1346.195843
 20
703.33895
 30
0.0
 11
1446.195843
 21
703.33895
 31
0.0
  0
LINE
  5
3406
100
AcDbEntity
  8
0
100
AcDbLine
 10
1381.195843
 20
729.33895
 30
0.0
 11
1411.195843
 21
729.33895
 31
0.0
  0
LINE
  5
3407
100
AcDbEntity
  8
0
100
AcDbLine
 10
1382.595843
 20
727.93895
 30
0.0
 11
1409.795843
 21
727.93895
 31
0.0
  0
LINE
  5
3408
100
AcDbEntity
  8
0
100
AcDbLine
 10
1382.595843
 20
713.33895
 30
0.0
 11
1409.795843
 21
713.33895
 31
0.0
  0
LINE
  5
3409
100
AcDbEntity
  8
0
100
AcDbLine
 10
1381.195843
 20
739.097864
 30
0.0
 11
1381.195843
 21
729.33895
 31
0.0
  0
LINE
  5
340A
100
AcDbEntity
  8
0
100
AcDbLine
 10
1346.195843
 20
703.33895
 30
0.0
 11
1346.195843
 21
687.33895
 31
0.0
  0
ARC
  5
340B
100
AcDbEntity
  8
0
100
AcDbCircle
 10
1374.00678
 20
707.33895
 30
0.0
 40
4.0
100
AcDbArc
 50
270.0
 51
327.380757
  0
LINE
  5
340C
100
AcDbEntity
  8
0
100
AcDbLine
 10
1382.595843
 20
727.93895
 30
0.0
 11
1382.595843
 21
713.33895
 31
0.0
  0
LINE
  5
340D
100
AcDbEntity
  8
0
100
AcDbLine
 10
1381.195843
 20
729.33895
 30
0.0
 11
1382.595843
 21
727.93895
 31
0.0
  0
LINE
  5
340E
100
AcDbEntity
  8
0
100
AcDbLine
 10
1377.375865
 20
705.182735
 30
0.0
 11
1382.595843
 21
713.33895
 31
0.0
  0
LINE
  5
340F
100
AcDbEntity
  8
0
100
AcDbLine
 10
1381.195843
 20
739.097864
 30
0.0
 11
1379.858279
 21
740.53895
 31
0.0
  0
LINE
  5
3410
100
AcDbEntity
  8
0
100
AcDbLine
 10
1411.195843
 20
739.097864
 30
0.0
 11
1411.195843
 21
729.33895
 31
0.0
  0
ARC
  5
3411
100
AcDbEntity
  8
0
100
AcDbCircle
 10
1418.384906
 20
707.33895
 30
0.0
 40
4.0
100
AcDbArc
 50
212.619243
 51
270.0
  0
LINE
  5
3412
100
AcDbEntity
  8
0
100
AcDbLine
 10
1409.795843
 20
727.93895
 30
0.0
 11
1409.795843
 21
713.33895
 31
0.0
  0
LINE
  5
3413
100
AcDbEntity
  8
0
100
AcDbLine
 10
1411.195843
 20
729.33895
 30
0.0
 11
1409.795843
 21
727.93895
 31
0.0
  0
LINE
  5
3414
100
AcDbEntity
  8
0
100
AcDbLine
 10
1415.01582
 20
705.182735
 30
0.0
 11
1409.795843
 21
713.33895
 31
0.0
  0
LINE
  5
3415
100
AcDbEntity
  8
0
100
AcDbLine
 10
1446.195843
 20
703.33895
 30
0.0
 11
1446.195843
 21
687.33895
 31
0.0
  0
LINE
  5
3416
100
AcDbEntity
  8
0
100
AcDbLine
 10
1411.195843
 20
739.097864
 30
0.0
 11
1412.533407
 21
740.53895
 31
0.0
  0
LINE
  5
3417
100
AcDbEntity
  8
0
100
AcDbLine
 10
2370.765771
 20
409.82202
 30
0.0
 11
2495.765771
 21
409.82202
 31
0.0
  0
LINE
  5
3418
100
AcDbEntity
  8
0
100
AcDbLine
 10
2370.765771
 20
409.82202
 30
0.0
 11
2370.765771
 21
425.82202
 31
0.0
  0
LINE
  5
3419
100
AcDbEntity
  8
0
100
AcDbLine
 10
2450.265771
 20
365.528563
 30
0.0
 11
2450.265771
 21
399.82202
 31
0.0
  0
LINE
  5
341A
100
AcDbEntity
  8
0
100
AcDbLine
 10
2416.265771
 20
365.528563
 30
0.0
 11
2416.265771
 21
399.82202
 31
0.0
  0
LINE
  5
341B
100
AcDbEntity
  8
0
100
AcDbLine
 10
2416.265771
 20
374.32202
 30
0.0
 11
2450.265771
 21
374.32202
 31
0.0
  0
ARC
  5
341C
100
AcDbEntity
  8
0
100
AcDbCircle
 10
2460.668895
 20
404.82202
 30
0.0
 40
5.0
100
AcDbArc
 50
90.0
 51
141.340192
  0
LINE
  5
341D
100
AcDbEntity
  8
0
100
AcDbLine
 10
2416.265771
 20
399.82202
 30
0.0
 11
2450.265771
 21
399.82202
 31
0.0
  0
ARC
  5
341E
100
AcDbEntity
  8
0
100
AcDbCircle
 10
2405.862647
 20
404.82202
 30
0.0
 40
5.0
100
AcDbArc
 50
38.659808
 51
90.0
  0
LINE
  5
341F
100
AcDbEntity
  8
0
100
AcDbLine
 10
2416.265771
 20
399.82202
 30
0.0
 11
2409.766991
 21
407.945495
 31
0.0
  0
LINE
  5
3420
100
AcDbEntity
  8
0
100
AcDbLine
 10
2450.265771
 20
399.82202
 30
0.0
 11
2456.764551
 21
407.945495
 31
0.0
  0
LINE
  5
3421
100
AcDbEntity
  8
0
100
AcDbLine
 10
2495.765771
 20
409.82202
 30
0.0
 11
2495.765771
 21
425.82202
 31
0.0
  0
LINE
  5
3422
100
AcDbEntity
  8
0
100
AcDbLine
 10
2450.265771
 20
244.114478
 30
0.0
 11
2450.265771
 21
209.82102
 31
0.0
  0
LINE
  5
3423
100
AcDbEntity
  8
0
100
AcDbLine
 10
2416.265771
 20
244.114478
 30
0.0
 11
2416.265771
 21
209.82102
 31
0.0
  0
LINE
  5
3424
100
AcDbEntity
  8
0
100
AcDbLine
 10
2416.265771
 20
235.32102
 30
0.0
 11
2450.265771
 21
235.32102
 31
0.0
  0
ARC
  5
3425
100
AcDbEntity
  8
0
100
AcDbCircle
 10
2460.668895
 20
204.82102
 30
0.0
 40
5.0
100
AcDbArc
 50
218.659808
 51
270.0
  0
LINE
  5
3426
100
AcDbEntity
  8
0
100
AcDbLine
 10
2370.765771
 20
199.82102
 30
0.0
 11
2495.765771
 21
199.82102
 31
0.0
  0
LINE
  5
3427
100
AcDbEntity
  8
0
100
AcDbLine
 10
2370.765771
 20
199.82102
 30
0.0
 11
2370.765771
 21
183.82102
 31
0.0
  0
LINE
  5
3428
100
AcDbEntity
  8
0
100
AcDbLine
 10
2416.265771
 20
209.82102
 30
0.0
 11
2450.265771
 21
209.82102
 31
0.0
  0
LINE
  5
3429
100
AcDbEntity
  8
0
100
AcDbLine
 10
2416.265771
 20
209.82102
 30
0.0
 11
2409.766991
 21
201.697545
 31
0.0
  0
ARC
  5
342A
100
AcDbEntity
  8
0
100
AcDbCircle
 10
2405.862647
 20
204.82102
 30
0.0
 40
5.0
100
AcDbArc
 50
270.0
 51
321.340192
  0
LINE
  5
342B
100
AcDbEntity
  8
0
100
AcDbLine
 10
2450.265771
 20
209.82102
 30
0.0
 11
2456.764551
 21
201.697545
 31
0.0
  0
LINE
  5
342C
100
AcDbEntity
  8
0
100
AcDbLine
 10
2495.765771
 20
199.82102
 30
0.0
 11
2495.765771
 21
183.82102
 31
0.0
  0
LINE
  5
342D
100
AcDbEntity
  8
0
100
AcDbLine
 10
2247.226542
 20
365.528563
 30
0.0
 11
2247.226542
 21
399.82202
 31
0.0
  0
LINE
  5
342E
100
AcDbEntity
  8
0
100
AcDbLine
 10
2213.226542
 20
365.528563
 30
0.0
 11
2213.226542
 21
399.82202
 31
0.0
  0
LINE
  5
342F
100
AcDbEntity
  8
0
100
AcDbLine
 10
2213.226542
 20
374.32202
 30
0.0
 11
2247.226542
 21
374.32202
 31
0.0
  0
ARC
  5
3430
100
AcDbEntity
  8
0
100
AcDbCircle
 10
2257.629666
 20
404.82202
 30
0.0
 40
5.0
100
AcDbArc
 50
90.0
 51
141.340192
  0
LINE
  5
3431
100
AcDbEntity
  8
0
100
AcDbLine
 10
2167.726542
 20
409.82202
 30
0.0
 11
2292.726542
 21
409.82202
 31
0.0
  0
LINE
  5
3432
100
AcDbEntity
  8
0
100
AcDbLine
 10
2167.726542
 20
409.82202
 30
0.0
 11
2167.726542
 21
425.82202
 31
0.0
  0
LINE
  5
3433
100
AcDbEntity
  8
0
100
AcDbLine
 10
2213.226542
 20
399.82202
 30
0.0
 11
2247.226542
 21
399.82202
 31
0.0
  0
LINE
  5
3434
100
AcDbEntity
  8
0
100
AcDbLine
 10
2213.226542
 20
399.82202
 30
0.0
 11
2206.727761
 21
407.945495
 31
0.0
  0
ARC
  5
3435
100
AcDbEntity
  8
0
100
AcDbCircle
 10
2202.823417
 20
404.82202
 30
0.0
 40
5.0
100
AcDbArc
 50
38.659808
 51
90.0
  0
LINE
  5
3436
100
AcDbEntity
  8
0
100
AcDbLine
 10
2247.226542
 20
399.82202
 30
0.0
 11
2253.725322
 21
407.945495
 31
0.0
  0
LINE
  5
3437
100
AcDbEntity
  8
0
100
AcDbLine
 10
2292.726542
 20
409.82202
 30
0.0
 11
2292.726542
 21
425.82202
 31
0.0
  0
LINE
  5
3438
100
AcDbEntity
  8
0
100
AcDbLine
 10
2292.726542
 20
199.82102
 30
0.0
 11
2292.726542
 21
183.82102
 31
0.0
  0
LINE
  5
3439
100
AcDbEntity
  8
0
100
AcDbLine
 10
2167.726542
 20
199.82102
 30
0.0
 11
2167.726542
 21
183.82102
 31
0.0
  0
LINE
  5
343A
100
AcDbEntity
  8
0
100
AcDbLine
 10
2167.726542
 20
199.82102
 30
0.0
 11
2292.726542
 21
199.82102
 31
0.0
  0
ARC
  5
343B
100
AcDbEntity
  8
0
100
AcDbCircle
 10
2257.629666
 20
204.82102
 30
0.0
 40
5.0
100
AcDbArc
 50
218.659808
 51
270.0
  0
LINE
  5
343C
100
AcDbEntity
  8
0
100
AcDbLine
 10
2213.226542
 20
244.114478
 30
0.0
 11
2213.226542
 21
209.82102
 31
0.0
  0
LINE
  5
343D
100
AcDbEntity
  8
0
100
AcDbLine
 10
2247.226542
 20
244.114478
 30
0.0
 11
2247.226542
 21
209.82102
 31
0.0
  0
LINE
  5
343E
100
AcDbEntity
  8
0
100
AcDbLine
 10
2213.226542
 20
209.82102
 30
0.0
 11
2247.226542
 21
209.82102
 31
0.0
  0
LINE
  5
343F
100
AcDbEntity
  8
0
100
AcDbLine
 10
2213.226542
 20
235.32102
 30
0.0
 11
2247.226542
 21
235.32102
 31
0.0
  0
ARC
  5
3440
100
AcDbEntity
  8
0
100
AcDbCircle
 10
2202.823417
 20
204.82102
 30
0.0
 40
5.0
100
AcDbArc
 50
270.0
 51
321.340192
  0
LINE
  5
3441
100
AcDbEntity
  8
0
100
AcDbLine
 10
2213.226542
 20
209.82102
 30
0.0
 11
2206.727761
 21
201.697545
 31
0.0
  0
LINE
  5
3442
100
AcDbEntity
  8
0
100
AcDbLine
 10
2247.226542
 20
209.82102
 30
0.0
 11
2253.725322
 21
201.697545
 31
0.0
  0
LINE
  5
3443
100
AcDbEntity
  8
0
100
AcDbLine
 10
2063.667662
 20
365.528563
 30
0.0
 11
2063.667662
 21
399.82202
 31
0.0
  0
LINE
  5
3444
100
AcDbEntity
  8
0
100
AcDbLine
 10
2029.667662
 20
365.528563
 30
0.0
 11
2029.667662
 21
399.82202
 31
0.0
  0
LINE
  5
3445
100
AcDbEntity
  8
0
100
AcDbLine
 10
2029.667662
 20
374.32202
 30
0.0
 11
2063.667662
 21
374.32202
 31
0.0
  0
ARC
  5
3446
100
AcDbEntity
  8
0
100
AcDbCircle
 10
2074.070787
 20
404.82202
 30
0.0
 40
5.0
100
AcDbArc
 50
90.0
 51
141.340192
  0
LINE
  5
3447
100
AcDbEntity
  8
0
100
AcDbLine
 10
1984.167662
 20
409.82202
 30
0.0
 11
2109.167662
 21
409.82202
 31
0.0
  0
LINE
  5
3448
100
AcDbEntity
  8
0
100
AcDbLine
 10
1984.167662
 20
409.82202
 30
0.0
 11
1984.167662
 21
425.82202
 31
0.0
  0
LINE
  5
3449
100
AcDbEntity
  8
0
100
AcDbLine
 10
2029.667662
 20
399.82202
 30
0.0
 11
2063.667662
 21
399.82202
 31
0.0
  0
LINE
  5
344A
100
AcDbEntity
  8
0
100
AcDbLine
 10
2029.667662
 20
399.82202
 30
0.0
 11
2023.168882
 21
407.945495
 31
0.0
  0
ARC
  5
344B
100
AcDbEntity
  8
0
100
AcDbCircle
 10
2019.264538
 20
404.82202
 30
0.0
 40
5.0
100
AcDbArc
 50
38.659808
 51
90.0
  0
LINE
  5
344C
100
AcDbEntity
  8
0
100
AcDbLine
 10
2063.667662
 20
399.82202
 30
0.0
 11
2070.166443
 21
407.945495
 31
0.0
  0
LINE
  5
344D
100
AcDbEntity
  8
0
100
AcDbLine
 10
2109.167662
 20
409.82202
 30
0.0
 11
2109.167662
 21
425.82202
 31
0.0
  0
LINE
  5
344E
100
AcDbEntity
  8
0
100
AcDbLine
 10
2109.167662
 20
199.82102
 30
0.0
 11
2109.167662
 21
183.82102
 31
0.0
  0
LINE
  5
344F
100
AcDbEntity
  8
0
100
AcDbLine
 10
1984.167662
 20
199.82102
 30
0.0
 11
1984.167662
 21
183.82102
 31
0.0
  0
LINE
  5
3450
100
AcDbEntity
  8
0
100
AcDbLine
 10
1984.167662
 20
199.82102
 30
0.0
 11
2109.167662
 21
199.82102
 31
0.0
  0
ARC
  5
3451
100
AcDbEntity
  8
0
100
AcDbCircle
 10
2074.070787
 20
204.82102
 30
0.0
 40
5.0
100
AcDbArc
 50
218.659808
 51
270.0
  0
LINE
  5
3452
100
AcDbEntity
  8
0
100
AcDbLine
 10
2029.667662
 20
244.114478
 30
0.0
 11
2029.667662
 21
209.82102
 31
0.0
  0
LINE
  5
3453
100
AcDbEntity
  8
0
100
AcDbLine
 10
2063.667662
 20
244.114478
 30
0.0
 11
2063.667662
 21
209.82102
 31
0.0
  0
LINE
  5
3454
100
AcDbEntity
  8
0
100
AcDbLine
 10
2029.667662
 20
209.82102
 30
0.0
 11
2063.667662
 21
209.82102
 31
0.0
  0
LINE
  5
3455
100
AcDbEntity
  8
0
100
AcDbLine
 10
2029.667662
 20
235.32102
 30
0.0
 11
2063.667662
 21
235.32102
 31
0.0
  0
ARC
  5
3456
100
AcDbEntity
  8
0
100
AcDbCircle
 10
2019.264538
 20
204.82102
 30
0.0
 40
5.0
100
AcDbArc
 50
270.0
 51
321.340192
  0
LINE
  5
3457
100
AcDbEntity
  8
0
100
AcDbLine
 10
2029.667662
 20
209.82102
 30
0.0
 11
2023.168882
 21
201.697545
 31
0.0
  0
LINE
  5
3458
100
AcDbEntity
  8
0
100
AcDbLine
 10
2063.667662
 20
209.82102
 30
0.0
 11
2070.166443
 21
201.697545
 31
0.0
  0
LINE
  5
3459
100
AcDbEntity
  8
0
100
AcDbLine
 10
2213.226542
 20
859.046493
 30
0.0
 11
2213.226542
 21
893.33995
 31
0.0
  0
LINE
  5
345A
100
AcDbEntity
  8
0
100
AcDbLine
 10
2247.226542
 20
859.046493
 30
0.0
 11
2247.226542
 21
893.33995
 31
0.0
  0
LINE
  5
345B
100
AcDbEntity
  8
0
100
AcDbLine
 10
2213.226542
 20
867.83995
 30
0.0
 11
2247.226542
 21
867.83995
 31
0.0
  0
LINE
  5
345C
100
AcDbEntity
  8
0
100
AcDbLine
 10
2213.226542
 20
893.33995
 30
0.0
 11
2247.226542
 21
893.33995
 31
0.0
  0
LINE
  5
345D
100
AcDbEntity
  8
0
100
AcDbLine
 10
2167.726542
 20
903.33995
 30
0.0
 11
2292.726542
 21
903.33995
 31
0.0
  0
LINE
  5
345E
100
AcDbEntity
  8
0
100
AcDbLine
 10
2167.726542
 20
903.33995
 30
0.0
 11
2167.726542
 21
919.33995
 31
0.0
  0
ARC
  5
345F
100
AcDbEntity
  8
0
100
AcDbCircle
 10
2202.823417
 20
898.33995
 30
0.0
 40
5.0
100
AcDbArc
 50
38.659808
 51
90.0
  0
LINE
  5
3460
100
AcDbEntity
  8
0
100
AcDbLine
 10
2213.226542
 20
893.33995
 30
0.0
 11
2206.727761
 21
901.463425
 31
0.0
  0
LINE
  5
3461
100
AcDbEntity
  8
0
100
AcDbLine
 10
2247.226542
 20
893.33995
 30
0.0
 11
2253.725322
 21
901.463425
 31
0.0
  0
ARC
  5
3462
100
AcDbEntity
  8
0
100
AcDbCircle
 10
2257.629666
 20
898.33995
 30
0.0
 40
5.0
100
AcDbArc
 50
90.0
 51
141.340192
  0
LINE
  5
3463
100
AcDbEntity
  8
0
100
AcDbLine
 10
2292.726542
 20
903.33995
 30
0.0
 11
2292.726542
 21
919.33995
 31
0.0
  0
LINE
  5
3464
100
AcDbEntity
  8
0
100
AcDbLine
 10
2167.726542
 20
693.33895
 30
0.0
 11
2167.726542
 21
677.33895
 31
0.0
  0
LINE
  5
3465
100
AcDbEntity
  8
0
100
AcDbLine
 10
2292.726542
 20
693.33895
 30
0.0
 11
2292.726542
 21
677.33895
 31
0.0
  0
LINE
  5
3466
100
AcDbEntity
  8
0
100
AcDbLine
 10
2213.226542
 20
728.83895
 30
0.0
 11
2247.226542
 21
728.83895
 31
0.0
  0
LINE
  5
3467
100
AcDbEntity
  8
0
100
AcDbLine
 10
2213.226542
 20
703.33895
 30
0.0
 11
2247.226542
 21
703.33895
 31
0.0
  0
LINE
  5
3468
100
AcDbEntity
  8
0
100
AcDbLine
 10
2167.726542
 20
693.33895
 30
0.0
 11
2292.726542
 21
693.33895
 31
0.0
  0
LINE
  5
3469
100
AcDbEntity
  8
0
100
AcDbLine
 10
2213.226542
 20
737.632408
 30
0.0
 11
2213.226542
 21
703.33895
 31
0.0
  0
LINE
  5
346A
100
AcDbEntity
  8
0
100
AcDbLine
 10
2213.226542
 20
703.33895
 30
0.0
 11
2206.727761
 21
695.215475
 31
0.0
  0
ARC
  5
346B
100
AcDbEntity
  8
0
100
AcDbCircle
 10
2202.823417
 20
698.33895
 30
0.0
 40
5.0
100
AcDbArc
 50
270.0
 51
321.340192
  0
LINE
  5
346C
100
AcDbEntity
  8
0
100
AcDbLine
 10
2247.226542
 20
737.632408
 30
0.0
 11
2247.226542
 21
703.33895
 31
0.0
  0
LINE
  5
346D
100
AcDbEntity
  8
0
100
AcDbLine
 10
2247.226542
 20
703.33895
 30
0.0
 11
2253.725322
 21
695.215475
 31
0.0
  0
ARC
  5
346E
100
AcDbEntity
  8
0
100
AcDbCircle
 10
2257.629666
 20
698.33895
 30
0.0
 40
5.0
100
AcDbArc
 50
218.659808
 51
270.0
  0
VIEWPORT
  5
41
100
AcDbEntity
 67
     1
  8
0
100
AcDbViewport
 10
117.358407
 20
73.5
 30
0.0
 40
234.716814
 41
147.0
 68
    -1
 69
     1
1001
ACAD
1000
MVIEW
1002
{
1070
    16
1010
0.0
1020
0.0
1030
0.0
1010
0.0
1020
0.0
1030
1.0
1040
0.0
1040
147.0
1040
117.358407
1040
73.5
1040
50.0
1040
0.0
1040
0.0
1070
     0
1070
   100
1070
     1
1070
     1
1070
     0
1070
     0
1070
     0
1070
     0
1040
0.0
1040
0.0
1040
0.0
1040
1.0
1040
1.0
1040
0.0
1040
0.0
1070
     0
1002
{
1002
}
1002
}
  0
ENDSEC
  0
SECTION
  2
OBJECTS
  0
DICTIONARY
  5
C
100
AcDbDictionary
  3
ACAD_GROUP
350
D
  3
ACAD_MLINESTYLE
350
E
  0
DICTIONARY
  5
D
102
{ACAD_REACTORS
330
C
102
}
100
AcDbDictionary
  0
DICTIONARY
  5
E
102
{ACAD_REACTORS
330
C
102
}
100
AcDbDictionary
  3
STANDARD
350
1B
  0
MLINESTYLE
  5
1B
102
{ACAD_REACTORS
330
E
102
}
100
AcDbMlineStyle
  2
STANDARD
 70
     0
  3

 62
     0
 51
90.0
 52
90.0
 71
     2
 49
0.5
 62
   256
  6
BYLAYER
 49
-0.5
 62
   256
  6
BYLAYER
  0
ENDSEC
  0
EOF
