  0
SECTION
  2
HEADER
  9
$ACADVER
  1
AC1012
  9
$DWGCODEPAGE
  3
dos932
  9
$INSBASE
 10
0.0
 20
0.0
 30
0.0
  9
$EXTMIN
 10
88.00000000000002
 20
40.00000000000001
 30
0.0
  9
$EXTMAX
 10
2288.000000000001
 20
1528.0
 30
0.0
  9
$LIMMIN
 10
0.0
 20
0.0
  9
$LIMMAX
 10
2376.0
 20
1680.0
  9
$ORTHOMODE
 70
     1
  9
$REGENMODE
 70
     1
  9
$FILLMODE
 70
     1
  9
$QTEXTMODE
 70
     0
  9
$MIRRTEXT
 70
     1
  9
$DRAGMODE
 70
     2
  9
$LTSCALE
 40
32.0
  9
$OSMODE
 70
     0
  9
$ATTMODE
 70
     1
  9
$TEXTSIZE
 40
32.0
  9
$TRACEWID
 40
0.05
  9
$TEXTSTYLE
  7
STANDARD
  9
$CLAYER
  8
0
  9
$CELTYPE
  6
BYLAYER
  9
$CECOLOR
 62
   256
  9
$CELTSCALE
 40
1.0
  9
$DELOBJ
 70
     1
  9
$DISPSILH
 70
     0
  9
$DIMSCALE
 40
8.0
  9
$DIMASZ
 40
2.799999999999999
  9
$DIMEXO
 40
1.0
  9
$DIMDLI
 40
5.0
  9
$DIMRND
 40
0.1
  9
$DIMDLE
 40
0.0
  9
$DIMEXE
 40
1.0
  9
$DIMTP
 40
0.0
  9
$DIMTM
 40
0.0
  9
$DIMTXT
 40
2.5
  9
$DIMCEN
 40
0.0
  9
$DIMTSZ
 40
0.0
  9
$DIMTOL
 70
     0
  9
$DIMLIM
 70
     0
  9
$DIMTIH
 70
     0
  9
$DIMTOH
 70
     0
  9
$DIMSE1
 70
     0
  9
$DIMSE2
 70
     0
  9
$DIMTAD
 70
     3
  9
$DIMZIN
 70
     8
  9
$DIMBLK
  1

  9
$DIMASO
 70
     1
  9
$DIMSHO
 70
     1
  9
$DIMPOST
  1

  9
$DIMAPOST
  1

  9
$DIMALT
 70
     0
  9
$DIMALTD
 70
     2
  9
$DIMALTF
 40
1.0
  9
$DIMLFAC
 40
1.0
  9
$DIMTOFL
 70
     1
  9
$DIMTVP
 40
0.0
  9
$DIMTIX
 70
     0
  9
$DIMSOXD
 70
     0
  9
$DIMSAH
 70
     1
  9
$DIMBLK1
  1
OPEN
  9
$DIMBLK2
  1
OPEN
  9
$DIMSTYLE
  2
DIM1
  9
$DIMCLRD
 70
     2
  9
$DIMCLRE
 70
     2
  9
$DIMCLRT
 70
     2
  9
$DIMTFAC
 40
0.7
  9
$DIMGAP
 40
0.85
  9
$DIMJUST
 70
     0
  9
$DIMSD1
 70
     0
  9
$DIMSD2
 70
     0
  9
$DIMTOLJ
 70
     1
  9
$DIMTZIN
 70
     8
  9
$DIMALTZ
 70
     8
  9
$DIMALTTZ
 70
     8
  9
$DIMFIT
 70
     3
  9
$DIMUPT
 70
     0
  9
$DIMUNIT
 70
     2
  9
$DIMDEC
 70
     2
  9
$DIMTDEC
 70
     3
  9
$DIMALTU
 70
     2
  9
$DIMALTTD
 70
     3
  9
$DIMTXSTY
  7
DIM
  9
$DIMAUNIT
 70
     0
  9
$LUNITS
 70
     2
  9
$LUPREC
 70
     4
  9
$SKETCHINC
 40
0.1
  9
$FILLETRAD
 40
0.0
  9
$AUNITS
 70
     0
  9
$AUPREC
 70
     0
  9
$MENU
  1
C:\ACADR13\WIN\SUPPORT\ACAD.mnc
  9
$ELEVATION
 40
0.0
  9
$PELEVATION
 40
0.0
  9
$THICKNESS
 40
0.0
  9
$LIMCHECK
 70
     0
  9
$BLIPMODE
 70
     0
  9
$CHAMFERA
 40
0.0
  9
$CHAMFERB
 40
0.0
  9
$CHAMFERC
 40
0.0
  9
$CHAMFERD
 40
0.0
  9
$SKPOLY
 70
     0
  9
$TDCREATE
 40
2451564.713849490
  9
$TDUPDATE
 40
2452128.544356909
  9
$TDINDWG
 40
0.0065003241
  9
$TDUSRTIMER
 40
0.0065003241
  9
$USRTIMER
 70
     1
  9
$ANGBASE
 50
0.0
  9
$ANGDIR
 70
     0
  9
$PDMODE
 70
     0
  9
$PDSIZE
 40
0.0
  9
$PLINEWID
 40
0.0
  9
$COORDS
 70
     2
  9
$SPLFRAME
 70
     0
  9
$SPLINETYPE
 70
     6
  9
$SPLINESEGS
 70
     8
  9
$ATTDIA
 70
     0
  9
$ATTREQ
 70
     1
  9
$HANDLING
 70
-16383
  9
$HANDSEED
  5
3C58
  9
$SURFTAB1
 70
     6
  9
$SURFTAB2
 70
     6
  9
$SURFTYPE
 70
     6
  9
$SURFU
 70
     6
  9
$SURFV
 70
     6
  9
$UCSNAME
  2

  9
$UCSORG
 10
0.0
 20
0.0
 30
0.0
  9
$UCSXDIR
 10
1.0
 20
0.0
 30
0.0
  9
$UCSYDIR
 10
0.0
 20
1.0
 30
0.0
  9
$PUCSNAME
  2

  9
$PUCSORG
 10
0.0
 20
0.0
 30
0.0
  9
$PUCSXDIR
 10
1.0
 20
0.0
 30
0.0
  9
$PUCSYDIR
 10
0.0
 20
1.0
 30
0.0
  9
$USERI1
 70
     0
  9
$USERI2
 70
     0
  9
$USERI3
 70
     0
  9
$USERI4
 70
     0
  9
$USERI5
 70
     0
  9
$USERR1
 40
0.0
  9
$USERR2
 40
0.0
  9
$USERR3
 40
0.0
  9
$USERR4
 40
0.0
  9
$USERR5
 40
0.0
  9
$WORLDVIEW
 70
     1
  9
$SHADEDGE
 70
     3
  9
$SHADEDIF
 70
    70
  9
$TILEMODE
 70
     1
  9
$MAXACTVP
 70
    16
  9
$PINSBASE
 10
0.0
 20
0.0
 30
0.0
  9
$PLIMCHECK
 70
     0
  9
$PEXTMIN
 10
1.000000000000000E+20
 20
1.000000000000000E+20
 30
1.000000000000000E+20
  9
$PEXTMAX
 10
-1.000000000000000E+20
 20
-1.000000000000000E+20
 30
-1.000000000000000E+20
  9
$PLIMMIN
 10
0.0
 20
0.0
  9
$PLIMMAX
 10
20.0
 20
147.0
  9
$UNITMODE
 70
     0
  9
$VISRETAIN
 70
     0
  9
$PLINEGEN
 70
     0
  9
$PSLTSCALE
 70
     1
  9
$TREEDEPTH
 70
  3020
  9
$PICKSTYLE
 70
     1
  9
$CMLSTYLE
  2
STANDARD
  9
$CMLJUST
 70
     0
  9
$CMLSCALE
 40
1.0
  9
$SAVEIMAGES
 70
     1
  0
ENDSEC
  0
SECTION
  2
CLASSES
  0
CLASS
  1
LWPOLYLINE
  2
AcDbPolyline
  3
AutoCAD 2000
 90
    32768
280
     0
281
     1
  0
CLASS
  1
ACDBDICTIONARYWDFLT
  2
AcDbDictionaryWithDefault
  3
AutoCAD 2000
 90
    32768
280
     0
281
     0
  0
CLASS
  1
ACDBPLACEHOLDER
  2
AcDbPlaceHolder
  3
AutoCAD 2000
 90
    32768
280
     0
281
     0
  0
CLASS
  1
LAYOUT
  2
AcDbLayout
  3
AutoCAD 2000
 90
    32768
280
     0
281
     0
  0
CLASS
  1
LONG_TRANSACTION
  2
AcDbLongTransaction
  3
AutoCAD 2000
 90
    32768
280
     0
281
     0
  0
CLASS
  1
LWPOLYLINE
  2
AcDbPolyline
  3
AutoCAD 2000
 90
    32768
280
     0
281
     1
  0
CLASS
  1
HATCH
  2
AcDbHatch
  3
AutoCAD 2000
 90
    32768
280
     0
281
     1
  0
CLASS
  1
XRECORD
  2
AcDbXrecord
  3
AutoCAD 2000
 90
    32768
280
     0
281
     0
  0
ENDSEC
  0
SECTION
  2
TABLES
  0
TABLE
  2
VPORT
  5
8
330
0
100
AcDbSymbolTable
 70
     3
  0
VPORT
  5
3C18
330
8
100
AcDbSymbolTableRecord
100
AcDbViewportTableRecord
  2
*ACTIVE
 70
     0
 10
0.0
 20
0.0
 11
1.0
 21
1.0
 12
1534.798061389337
 22
963.4013805257744
 13
0.0
 23
0.0
 14
1.0
 24
1.0
 15
0.0
 25
0.0
 16
0.0
 26
0.0
 36
1.0
 17
0.0
 27
0.0
 37
0.0
 40
1926.802761051549
 41
1.593103448275862
 42
50.0
 43
0.0
 44
0.0
 50
0.0
 51
0.0
 71
     0
 72
   100
 73
     1
 74
     1
 75
     0
 76
     0
 77
     0
 78
     0
  0
ENDTAB
  0
TABLE
  2
LTYPE
  5
5
330
0
100
AcDbSymbolTable
 70
     1
  0
LTYPE
  5
12
330
5
100
AcDbSymbolTableRecord
100
AcDbLinetypeTableRecord
  2
BYBLOCK
 70
     0
  3

 72
    65
 73
     0
 40
0.0
  0
LTYPE
  5
13
330
5
100
AcDbSymbolTableRecord
100
AcDbLinetypeTableRecord
  2
BYLAYER
 70
     0
  3

 72
    65
 73
     0
 40
0.0
  0
LTYPE
  5
14
330
5
100
AcDbSymbolTableRecord
100
AcDbLinetypeTableRecord
  2
CONTINUOUS
 70
     0
  3
Solid line
 72
    65
 73
     0
 40
0.0
  0
ENDTAB
  0
TABLE
  2
LAYER
  5
2
330
0
100
AcDbSymbolTable
 70
     1
  0
LAYER
  5
F
330
2
100
AcDbSymbolTableRecord
100
AcDbLayerTableRecord
  2
0
 70
     0
 62
     7
  6
CONTINUOUS
  0
ENDTAB
  0
TABLE
  2
STYLE
  5
3
330
0
100
AcDbSymbolTable
 70
     3
  0
STYLE
  5
10
330
3
100
AcDbSymbolTableRecord
100
AcDbTextStyleTableRecord
  2
STANDARD
 70
     0
 40
0.0
 41
0.8
 50
0.0
 71
     0
 42
32.0
  3
simplex
  4
extfont
  0
STYLE
  5
237C
330
3
100
AcDbSymbolTableRecord
100
AcDbTextStyleTableRecord
  2
PTSH
 70
     0
 40
0.0
 41
0.9
 50
0.0
 71
     0
 42
4.0
  3
SIMPLEX
  4
EXTFONT
  0
STYLE
  5
2592
330
3
100
AcDbSymbolTableRecord
100
AcDbTextStyleTableRecord
  2
DIM
 70
     0
 40
0.0
 41
0.8
 50
0.0
 71
     0
 42
4.0
  3
simplex
  4
extfont
  0
ENDTAB
  0
TABLE
  2
VIEW
  5
6
330
0
100
AcDbSymbolTable
 70
     0
  0
ENDTAB
  0
TABLE
  2
UCS
  5
7
330
0
100
AcDbSymbolTable
 70
     0
  0
ENDTAB
  0
TABLE
  2
APPID
  5
9
330
0
100
AcDbSymbolTable
 70
     1
  0
APPID
  5
11
330
9
100
AcDbSymbolTableRecord
100
AcDbRegAppTableRecord
  2
ACAD
 70
     0
  0
ENDTAB
  0
TABLE
  2
DIMSTYLE
  5
A
330
0
100
AcDbSymbolTable
 70
     1
  0
DIMSTYLE
105
2237
330
A
100
AcDbSymbolTableRecord
100
AcDbDimStyleTableRecord
  2
DIM1
 70
     0
  3

  4

  5

  6
OPEN
  7
OPEN
 40
8.0
 41
2.799999999999999
 42
1.0
 43
5.0
 44
1.0
 45
0.1
 46
0.0
 47
0.0
 48
0.0
140
2.5
141
0.0
142
0.0
143
1.0
144
1.0
145
0.0
146
0.7
147
0.85
 71
     0
 72
     0
 73
     0
 74
     0
 75
     0
 76
     0
 77
     3
 78
     8
170
     0
171
     2
172
     1
173
     1
174
     0
175
     0
176
     2
177
     2
178
     2
270
     2
271
     2
272
     3
273
     2
274
     3
340
2592
275
     0
280
     0
281
     0
282
     0
283
     1
284
     8
285
     8
286
     8
287
     3
288
     0
  0
ENDTAB
  0
TABLE
  2
BLOCK_RECORD
  5
1
330
0
100
AcDbSymbolTable
 70
     1
  0
BLOCK_RECORD
  5
18
102
{ACAD_XDICTIONARY
360
3C1B
102
}
330
1
100
AcDbSymbolTableRecord
100
AcDbBlockTableRecord
  2
*MODEL_SPACE
  0
BLOCK_RECORD
  5
15
102
{ACAD_XDICTIONARY
360
3C19
102
}
330
1
100
AcDbSymbolTableRecord
100
AcDbBlockTableRecord
  2
*PAPER_SPACE
  0
BLOCK_RECORD
  5
2448
330
1
100
AcDbSymbolTableRecord
100
AcDbBlockTableRecord
  2
_OPEN
  0
ENDTAB
  0
ENDSEC
  0
SECTION
  2
BLOCKS
  0
BLOCK
  5
3C
330
18
100
AcDbEntity
  8
0
100
AcDbBlockBegin
  2
*MODEL_SPACE
 70
     0
 10
0.0
 20
0.0
 30
0.0
  3
*MODEL_SPACE
  1

  0
ENDBLK
  5
3D
330
18
100
AcDbEntity
  8
0
100
AcDbBlockEnd
  0
BLOCK
  5
3A
330
15
100
AcDbEntity
 67
     1
  8
0
100
AcDbBlockBegin
  2
*PAPER_SPACE
 70
     0
 10
0.0
 20
0.0
 30
0.0
  3
*PAPER_SPACE
  1

  0
ENDBLK
  5
3B
330
15
100
AcDbEntity
 67
     1
  8
0
100
AcDbBlockEnd
  0
BLOCK
  5
2449
330
2448
100
AcDbEntity
  8
0
 48
4.0
100
AcDbBlockBegin
  2
_OPEN
 70
     0
 10
0.0
 20
0.0
 30
0.0
  3
_OPEN
  1
H1111.DWG
  0
LINE
  5
244A
330
2448
100
AcDbEntity
  8
0
  6
BYBLOCK
 62
     0
 48
4.0
100
AcDbLine
 10
-1.0
 20
0.1666666666666666
 30
0.0
 11
0.0
 21
0.0
 31
0.0
  0
LINE
  5
244B
330
2448
100
AcDbEntity
  8
0
  6
BYBLOCK
 62
     0
 48
4.0
100
AcDbLine
 10
0.0
 20
0.0
 30
0.0
 11
-1.0
 21
-0.1666666666666666
 31
0.0
  0
LINE
  5
244C
330
2448
100
AcDbEntity
  8
0
  6
BYBLOCK
 62
     0
 48
4.0
100
AcDbLine
 10
0.0
 20
0.0
 30
0.0
 11
-1.0
 21
0.0
 31
0.0
  0
ENDBLK
  5
244D
330
2448
100
AcDbEntity
  8
0
 48
4.0
100
AcDbBlockEnd
  0
ENDSEC
  0
SECTION
  2
ENTITIES
  0
MTEXT
  5
ADA
330
18
100
AcDbEntity
  8
0
100
AcDbMText
 10
3041.114238173663
 20
398.7704890897822
 30
0.0
 40
1.6
 41
377.8117187899698
 71
     1
 72
     1
  1

1001
ACAD
1000
MTEXTBEGIN
1070
    73
1070
     1
1070
    44
1040
1.0
1070
    74
1070
     0
1000
MTEXTEND
  0
MTEXT
  5
ADB
330
18
100
AcDbEntity
  8
0
100
AcDbMText
 10
3112.399465335318
 20
462.8063498631929
 30
0.0
 40
1.6
 41
363.5546733576376
 71
     1
 72
     1
  1

1001
ACAD
1000
MTEXTBEGIN
1070
    73
1070
     1
1070
    44
1040
1.0
1070
    74
1070
     0
1000
MTEXTEND
  0
MTEXT
  5
ADC
330
18
100
AcDbEntity
  8
0
100
AcDbMText
 10
3069.628329038325
 20
-383.8899712439416
 30
0.0
 40
1.6
 41
413.4543323707986
 71
     1
 72
     1
  1

1001
ACAD
1000
MTEXTBEGIN
1070
    73
1070
     1
1070
    44
1040
1.0
1070
    74
1070
     0
1000
MTEXTEND
  0
TEXT
  5
2529
330
18
100
AcDbEntity
  8
0
  6
CONTINUOUS
100
AcDbText
 10
2127.078695632011
 20
58.30644848365913
 30
0.0
 40
15.0
  1
T8N_T10N-F
 41
0.9
  7
PTSH
 72
     1
 11
2191.042981346297
 21
65.80644848365913
 31
0.0
100
AcDbText
 73
     2
  0
POLYLINE
  5
2563
330
18
100
AcDbEntity
  8
0
100
AcDb2dPolyline
 66
     1
 10
0.0
 20
0.0
 30
0.0
 70
     1
  0
VERTEX
  5
3C1D
330
2563
100
AcDbEntity
  8
0
100
AcDbVertex
100
AcDb2dVertex
 10
88.00000000000002
 20
40.00000000000001
 30
0.0
  0
VERTEX
  5
3C1E
330
2563
100
AcDbEntity
  8
0
100
AcDbVertex
100
AcDb2dVertex
 10
2288.000000000001
 20
40.00000000000001
 30
0.0
  0
VERTEX
  5
3C1F
330
2563
100
AcDbEntity
  8
0
100
AcDbVertex
100
AcDb2dVertex
 10
2288.000000000001
 20
1528.0
 30
0.0
  0
VERTEX
  5
3C20
330
2563
100
AcDbEntity
  8
0
100
AcDbVertex
100
AcDb2dVertex
 10
88.00000000000002
 20
1528.0
 30
0.0
  0
SEQEND
  5
3C21
330
2563
100
AcDbEntity
  8
0
  0
ARC
  5
36DE
330
18
100
AcDbEntity
  8
0
100
AcDbCircle
 10
1162.194613416318
 20
1383.804317543314
 30
0.0
 40
33.66035125776125
100
AcDbArc
 50
70.05798215649917
 51
109.9420178435008
  0
LINE
  5
36DF
330
18
100
AcDbEntity
  8
0
100
AcDbLine
 10
1179.714110445365
 20
1417.464668801075
 30
0.0
 11
1121.714110445365
 21
1417.464668801075
 31
0.0
  0
LINE
  5
36E0
330
18
100
AcDbEntity
  8
0
100
AcDbLine
 10
1118.214110445365
 20
1406.464668801075
 30
0.0
 11
1183.214110445365
 21
1406.464668801075
 31
0.0
  0
LINE
  5
36E1
330
18
100
AcDbEntity
  8
0
100
AcDbLine
 10
1119.214110445365
 20
1389.464668801075
 30
0.0
 11
1182.214110445365
 21
1389.464668801075
 31
0.0
  0
ARC
  5
36E2
330
18
100
AcDbEntity
  8
0
100
AcDbCircle
 10
1150.714110445365
 20
1446.589668801076
 30
0.0
 40
78.12500000000067
100
AcDbArc
 50
253.4360127544532
 51
286.5639872455467
  0
CIRCLE
  5
36E3
330
18
100
AcDbEntity
  8
0
100
AcDbCircle
 10
1156.008720426706
 20
1184.043564227914
 30
0.0
 40
32.5
  0
POLYLINE
  5
36E4
330
18
100
AcDbEntity
  8
0
100
AcDb2dPolyline
 66
     1
 10
0.0
 20
0.0
 30
0.0
 70
     1
  0
VERTEX
  5
3C22
330
36E4
100
AcDbEntity
  8
0
100
AcDbVertex
100
AcDb2dVertex
 10
1133.047714484801
 20
1207.004570169819
 30
0.0
  0
VERTEX
  5
3C23
330
36E4
100
AcDbEntity
  8
0
100
AcDbVertex
100
AcDb2dVertex
 10
1123.536954417934
 20
1184.043564227914
 30
0.0
  0
VERTEX
  5
3C24
330
36E4
100
AcDbEntity
  8
0
100
AcDbVertex
100
AcDb2dVertex
 10
1133.047714484801
 20
1161.082558286009
 30
0.0
  0
VERTEX
  5
3C25
330
36E4
100
AcDbEntity
  8
0
100
AcDbVertex
100
AcDb2dVertex
 10
1156.008720426706
 20
1151.571798219142
 30
0.0
  0
VERTEX
  5
3C26
330
36E4
100
AcDbEntity
  8
0
100
AcDbVertex
100
AcDb2dVertex
 10
1178.969726368612
 20
1161.082558286009
 30
0.0
  0
VERTEX
  5
3C27
330
36E4
100
AcDbEntity
  8
0
100
AcDbVertex
100
AcDb2dVertex
 10
1188.480486435478
 20
1184.043564227914
 30
0.0
  0
VERTEX
  5
3C28
330
36E4
100
AcDbEntity
  8
0
100
AcDbVertex
100
AcDb2dVertex
 10
1178.969726368612
 20
1207.004570169819
 30
0.0
  0
VERTEX
  5
3C29
330
36E4
100
AcDbEntity
  8
0
100
AcDbVertex
100
AcDb2dVertex
 10
1156.008720426706
 20
1216.515330236686
 30
0.0
  0
SEQEND
  5
3C2A
330
36E4
100
AcDbEntity
  8
0
  0
CIRCLE
  5
36E5
330
18
100
AcDbEntity
  8
0
100
AcDbCircle
 10
1156.008720426706
 20
1184.043564227914
 30
0.0
 40
29.0
  0
CIRCLE
  5
36E6
330
18
100
AcDbEntity
  8
0
100
AcDbCircle
 10
1156.008720426706
 20
1184.043564227914
 30
0.0
 40
18.5
  0
CIRCLE
  5
36E7
330
18
100
AcDbEntity
  8
0
100
AcDbCircle
 10
1156.008720426706
 20
1184.043564227914
 30
0.0
 40
21.0001
  0
ARC
  5
36E8
330
18
100
AcDbEntity
  8
0
100
AcDbCircle
 10
1167.48922339766
 20
1032.90984662407
 30
0.0
 40
33.66035125776125
100
AcDbArc
 50
70.05798215649917
 51
109.9420178435008
  0
LINE
  5
36E9
330
18
100
AcDbEntity
  8
0
100
AcDbLine
 10
1188.508720426707
 20
1055.570197881831
 30
0.0
 11
1123.508720426707
 21
1055.570197881831
 31
0.0
  0
LINE
  5
36EA
330
18
100
AcDbEntity
  8
0
100
AcDbLine
 10
1187.508720426707
 20
1038.570197881831
 30
0.0
 11
1124.508720426707
 21
1038.570197881831
 31
0.0
  0
LINE
  5
36EB
330
18
100
AcDbEntity
  8
0
100
AcDbLine
 10
1140.008720426707
 20
1016.570197881831
 30
0.0
 11
1172.008720426707
 21
1016.570197881831
 31
0.0
  0
ARC
  5
36EC
330
18
100
AcDbEntity
  8
0
100
AcDbCircle
 10
1156.008720426707
 20
1095.695197881832
 30
0.0
 40
78.12500000000067
100
AcDbArc
 50
253.4360127544532
 51
286.5639872455467
  0
LINE
  5
36ED
330
18
100
AcDbEntity
  8
0
100
AcDbLine
 10
1127.008720426707
 20
1066.570197881831
 30
0.0
 11
1185.008720426707
 21
1066.570197881831
 31
0.0
  0
ARC
  5
36EE
330
18
100
AcDbEntity
  8
0
100
AcDbCircle
 10
1166.008720426707
 20
976.1126012385206
 30
0.0
 40
15.0
100
AcDbArc
 50
67.00660568570221
 51
112.9933943142978
  0
LINE
  5
36EF
330
18
100
AcDbEntity
  8
0
100
AcDbLine
 10
1140.008720426707
 20
994.5701978818314
 30
0.0
 11
1172.008720426707
 21
994.5701978818314
 31
0.0
  0
TEXT
  5
36F0
330
18
100
AcDbEntity
  8
0
100
AcDbText
 10
1129.589019143064
 20
932.2667106966106
 30
0.0
 40
15.0
  1
20A
 41
0.8
 11
1129.589019143064
 21
932.2667106966106
 31
0.0
100
AcDbText
 73
     1
  0
LINE
  5
36F1
330
18
100
AcDbEntity
  8
0
100
AcDbLine
 10
1202.714110445366
 20
1339.464668801075
 30
0.0
 11
1153.214110445365
 21
1339.464668801075
 31
0.0
  0
LINE
  5
36F2
330
18
100
AcDbEntity
  8
0
100
AcDbLine
 10
1129.205672855201
 20
727.8944655900963
 30
0.0
 11
1095.705672855201
 21
727.8944655900963
 31
0.0
  0
LINE
  5
36F3
330
18
100
AcDbEntity
  8
0
100
AcDbLine
 10
1123.205672855201
 20
671.8944655900964
 30
0.0
 11
1095.705672855201
 21
671.8944655900964
 31
0.0
  0
LINE
  5
36F4
330
18
100
AcDbEntity
  8
0
100
AcDbLine
 10
1139.205672855196
 20
536.9555798051737
 30
0.0
 11
1095.705672855202
 21
536.9555798051737
 31
0.0
  0
LINE
  5
36F5
330
18
100
AcDbEntity
  8
0
100
AcDbLine
 10
1139.205672855196
 20
480.9555798051738
 30
0.0
 11
1095.705672855203
 21
480.9555798051738
 31
0.0
  0
LINE
  5
36F6
330
18
100
AcDbEntity
  8
0
100
AcDbLine
 10
1095.705672855201
 20
332.0283213757034
 30
0.0
 11
1129.205672855201
 21
332.0283213757034
 31
0.0
  0
LINE
  5
36F7
330
18
100
AcDbEntity
  8
0
100
AcDbLine
 10
1095.705672855201
 20
276.0283213757034
 30
0.0
 11
1135.205672855201
 21
276.0283213757034
 31
0.0
  0
TEXT
  5
36F8
330
18
100
AcDbEntity
  8
0
100
AcDbText
 10
881.2811988156363
 20
106.7144958267516
 30
0.0
 40
35.0
  1
TLV  TF8N･TF10N (JIS10K)
100
AcDbText
  0
LINE
  5
36F9
330
18
100
AcDbEntity
  8
0
100
AcDbLine
 10
407.3928898058948
 20
725.3944655900964
 30
0.0
 11
439.8928898058947
 21
725.3944655900964
 31
0.0
  0
LINE
  5
36FA
330
18
100
AcDbEntity
  8
0
100
AcDbLine
 10
407.3928898058938
 20
674.3944655900963
 30
0.0
 11
457.898973954937
 21
674.3944655900963
 31
0.0
  0
LINE
  5
36FB
330
18
100
AcDbEntity
  8
0
100
AcDbLine
 10
407.3928898058957
 20
534.4555798051738
 30
0.0
 11
447.2434481262853
 21
534.4555798051738
 31
0.0
  0
LINE
  5
36FC
330
18
100
AcDbEntity
  8
0
100
AcDbLine
 10
447.2434481262853
 20
483.4555798051737
 30
0.0
 11
407.3928898058948
 21
483.4555798051737
 31
0.0
  0
LINE
  5
36FD
330
18
100
AcDbEntity
  8
0
100
AcDbLine
 10
407.3928898058938
 20
278.5283213757034
 30
0.0
 11
457.898973954937
 21
278.5283213757034
 31
0.0
  0
LINE
  5
36FE
330
18
100
AcDbEntity
  8
0
100
AcDbLine
 10
407.3928898058948
 20
329.5283213757034
 30
0.0
 11
439.8928898058947
 21
329.5283213757034
 31
0.0
  0
CIRCLE
  5
36FF
330
18
100
AcDbEntity
  8
0
100
AcDbCircle
 10
232.4223365564157
 20
304.0283213757033
 30
0.0
 40
67.5
  0
LINE
  5
3700
330
18
100
AcDbEntity
  8
0
100
AcDbLine
 10
387.3928898058948
 20
371.5283213757034
 30
0.0
 11
387.3928898058948
 21
236.5283213757034
 31
0.0
  0
LINE
  5
3701
330
18
100
AcDbEntity
  8
0
100
AcDbLine
 10
367.3928898058948
 20
304.0283213757033
 30
0.0
 11
367.3928898058948
 21
371.5283213757034
 31
0.0
  0
CIRCLE
  5
3702
330
18
100
AcDbEntity
  8
0
100
AcDbCircle
 10
197.0669974970887
 20
268.6729823163759
 30
0.0
 40
7.5
  0
LINE
  5
3703
330
18
100
AcDbEntity
  8
0
100
AcDbLine
 10
360.5894241497835
 20
301.631004302952
 30
0.0
 11
313.3208616497832
 21
301.631004302952
 31
0.0
  0
LINE
  5
3704
330
18
100
AcDbEntity
  8
0
100
AcDbLine
 10
303.8674866497836
 20
311.0843793029516
 30
0.0
 11
332.2276116497837
 21
311.0843793029516
 31
0.0
  0
CIRCLE
  5
3705
330
18
100
AcDbEntity
  8
0
100
AcDbCircle
 10
267.7776756157427
 20
268.6729823163759
 30
0.0
 40
7.5
  0
LINE
  5
3706
330
18
100
AcDbEntity
  8
0
100
AcDbLine
 10
313.3208616497832
 20
301.631004302952
 30
0.0
 11
303.8674866497836
 21
311.0843793029516
 31
0.0
  0
LINE
  5
3707
330
18
100
AcDbEntity
  8
0
100
AcDbLine
 10
367.3928898058948
 20
236.5283213757034
 30
0.0
 11
367.3928898058948
 21
304.0283213757033
 31
0.0
  0
LINE
  5
3708
330
18
100
AcDbEntity
  8
0
100
AcDbLine
 10
387.3928898058948
 20
236.5283213757034
 30
0.0
 11
367.3928898058948
 21
236.5283213757034
 31
0.0
  0
LINE
  5
3709
330
18
100
AcDbEntity
  8
0
100
AcDbLine
 10
336.9559866497839
 20
306.3576918029518
 30
0.0
 11
350.9301741497843
 21
306.3576918029518
 31
0.0
  0
LINE
  5
370A
330
18
100
AcDbEntity
  8
0
100
AcDbLine
 10
332.2276116497837
 20
311.0843793029516
 30
0.0
 11
336.9559866497839
 21
306.3576918029518
 31
0.0
  0
LINE
  5
370B
330
18
100
AcDbEntity
  8
0
100
AcDbLine
 10
350.9301741497843
 20
311.0843793029516
 30
0.0
 11
360.5894241497835
 21
301.631004302952
 31
0.0
  0
LINE
  5
370C
330
18
100
AcDbEntity
  8
0
100
AcDbLine
 10
350.9301741497843
 20
306.3576918029518
 30
0.0
 11
350.9301741497843
 21
311.0843793029516
 31
0.0
  0
ARC
  5
370D
330
18
100
AcDbEntity
  8
0
100
AcDbCircle
 10
391.3928898058939
 20
271.2491057648291
 30
0.0
 40
4.0
100
AcDbArc
 50
101.3099324740209
 51
180.0000000000001
  0
LINE
  5
370E
330
18
100
AcDbEntity
  8
0
100
AcDbLine
 10
390.6084252653408
 20
275.1714284675928
 30
0.0
 11
407.3928898058938
 21
278.5283213757034
 31
0.0
  0
LINE
  5
370F
330
18
100
AcDbEntity
  8
0
100
AcDbLine
 10
367.3928898058948
 20
508.9555798051738
 30
0.0
 11
367.3928898058948
 21
576.4555798051738
 31
0.0
  0
LINE
  5
3710
330
18
100
AcDbEntity
  8
0
100
AcDbLine
 10
387.3928898058948
 20
576.4555798051738
 30
0.0
 11
387.3928898058948
 21
441.4555798051737
 31
0.0
  0
ARC
  5
3711
330
18
100
AcDbEntity
  8
0
100
AcDbCircle
 10
243.902839527369
 20
339.3679701179421
 30
0.0
 40
33.66035125776125
100
AcDbArc
 50
70.05798215649917
 51
107.2639135830567
  0
LINE
  5
3712
330
18
100
AcDbEntity
  8
0
100
AcDbLine
 10
261.4223365564157
 20
373.0283213757033
 30
0.0
 11
203.4223365564157
 21
373.0283213757033
 31
0.0
  0
TEXT
  5
3713
330
18
100
AcDbEntity
  8
0
100
AcDbText
 10
111.8004117301161
 20
331.5257350355027
 30
0.0
 40
20.0
  1
正面
100
AcDbText
  0
ARC
  5
3714
330
18
100
AcDbEntity
  8
0
100
AcDbCircle
 10
204.6918335854625
 20
366.3838361407808
 30
0.0
 40
6.644500231519874
100
AcDbArc
 50
44.12593225479907
 51
104.0671635547661
  0
CIRCLE
  5
3715
330
18
100
AcDbEntity
  8
0
100
AcDbCircle
 10
197.0669974970887
 20
339.3836604350308
 30
0.0
 40
7.5
  0
LINE
  5
3716
330
18
100
AcDbEntity
  8
0
100
AcDbLine
 10
199.9223365564157
 20
363.1891192066993
 30
0.0
 11
199.9223365564157
 21
371.0099880423699
 31
0.0
  0
LINE
  5
3717
330
18
100
AcDbEntity
  8
0
100
AcDbLine
 10
199.9223365564157
 20
371.0099880423699
 30
0.0
 11
203.4223365564157
 21
373.0283213757033
 31
0.0
  0
ARC
  5
3718
330
18
100
AcDbEntity
  8
0
100
AcDbCircle
 10
220.9418335854625
 20
339.3679701179421
 30
0.0
 40
33.66035125776125
100
AcDbArc
 50
72.73608641694322
 51
109.9420178435008
  0
LINE
  5
3719
330
18
100
AcDbEntity
  8
0
100
AcDbLine
 10
209.4613306145101
 20
371.0099880423699
 30
0.0
 11
209.461330614511
 21
367.503058130855
 31
0.0
  0
TEXT
  5
371A
330
18
100
AcDbEntity
  8
0
100
AcDbText
 10
111.8004117301161
 20
497.0797297062654
 30
0.0
 40
20.0
  1
平面
100
AcDbText
  0
CIRCLE
  5
371B
330
18
100
AcDbEntity
  8
0
100
AcDbCircle
 10
267.7776756157427
 20
339.3836604350308
 30
0.0
 40
7.5
  0
LINE
  5
371C
330
18
100
AcDbEntity
  8
0
100
AcDbLine
 10
264.9223365564148
 20
363.1891192066999
 30
0.0
 11
264.9223365564157
 21
371.0099880423699
 31
0.0
  0
LINE
  5
371D
330
18
100
AcDbEntity
  8
0
100
AcDbLine
 10
255.3833424983213
 20
371.0099880423699
 30
0.0
 11
255.3833424983213
 21
367.5030581308547
 31
0.0
  0
LINE
  5
371E
330
18
100
AcDbEntity
  8
0
100
AcDbLine
 10
261.4223365564157
 20
373.0283213757033
 30
0.0
 11
264.9223365564157
 21
371.0099880423699
 31
0.0
  0
ARC
  5
371F
330
18
100
AcDbEntity
  8
0
100
AcDbCircle
 10
260.1528395273689
 20
366.3838361407808
 30
0.0
 40
6.644500231519874
100
AcDbArc
 50
75.93283644523406
 51
135.8740677452009
  0
LINE
  5
3720
330
18
100
AcDbEntity
  8
0
100
AcDbLine
 10
367.3928898058948
 20
371.5283213757034
 30
0.0
 11
387.3928898058948
 21
371.5283213757034
 31
0.0
  0
ARC
  5
3721
330
18
100
AcDbEntity
  8
0
100
AcDbCircle
 10
391.3928898058948
 20
336.8075369865775
 30
0.0
 40
4.0
100
AcDbArc
 50
179.9999999999998
 51
258.6900675259789
  0
LINE
  5
3722
330
18
100
AcDbEntity
  8
0
100
AcDbLine
 10
390.6084252653418
 20
332.8852142838139
 30
0.0
 11
407.3928898058948
 21
329.5283213757034
 31
0.0
  0
LINE
  5
3723
330
18
100
AcDbEntity
  8
0
100
AcDbLine
 10
325.109512445792
 20
514.9876059308308
 30
0.0
 11
329.8378874457921
 21
510.260918430831
 31
0.0
  0
LINE
  5
3724
330
18
100
AcDbEntity
  8
0
100
AcDbLine
 10
353.4713249457918
 20
505.5342309308311
 30
0.0
 11
306.2027624457914
 21
505.5342309308311
 31
0.0
  0
LINE
  5
3725
330
18
100
AcDbEntity
  8
0
100
AcDbLine
 10
296.7493874457918
 20
514.9876059308308
 30
0.0
 11
325.109512445792
 21
514.9876059308308
 31
0.0
  0
LINE
  5
3726
330
18
100
AcDbEntity
  8
0
100
AcDbLine
 10
306.2027624457914
 20
505.5342309308311
 30
0.0
 11
296.7493874457918
 21
514.9876059308308
 31
0.0
  0
LINE
  5
3727
330
18
100
AcDbEntity
  8
0
100
AcDbLine
 10
367.3928898058948
 20
441.4555798051737
 30
0.0
 11
367.3928898058948
 21
508.9555798051738
 31
0.0
  0
LINE
  5
3728
330
18
100
AcDbEntity
  8
0
100
AcDbLine
 10
387.3928898058948
 20
441.4555798051737
 30
0.0
 11
367.3928898058948
 21
441.4555798051737
 31
0.0
  0
ARC
  5
3729
330
18
100
AcDbEntity
  8
0
100
AcDbCircle
 10
391.3928898058948
 20
476.1763641942995
 30
0.0
 40
4.0
100
AcDbArc
 50
101.3099324740209
 51
180.0000000000001
  0
LINE
  5
372A
330
18
100
AcDbEntity
  8
0
100
AcDbLine
 10
390.6084252653418
 20
480.0986868970632
 30
0.0
 11
407.3928898058948
 21
483.4555798051737
 31
0.0
  0
LINE
  5
372B
330
18
100
AcDbEntity
  8
0
100
AcDbLine
 10
343.8120749457926
 20
514.9876059308308
 30
0.0
 11
353.4713249457918
 21
505.5342309308311
 31
0.0
  0
LINE
  5
372C
330
18
100
AcDbEntity
  8
0
100
AcDbLine
 10
343.8120749457926
 20
510.260918430831
 30
0.0
 11
343.8120749457926
 21
514.9876059308308
 31
0.0
  0
LINE
  5
372D
330
18
100
AcDbEntity
  8
0
100
AcDbLine
 10
329.8378874457921
 20
510.260918430831
 30
0.0
 11
343.8120749457926
 21
510.260918430831
 31
0.0
  0
ARC
  5
372E
330
18
100
AcDbEntity
  8
0
100
AcDbCircle
 10
391.3928898058948
 20
541.7347954160479
 30
0.0
 40
4.0
100
AcDbArc
 50
179.9999999999998
 51
258.6900675259789
  0
LINE
  5
372F
330
18
100
AcDbEntity
  8
0
100
AcDbLine
 10
390.6084252653418
 20
537.8124727132843
 30
0.0
 11
407.3928898058948
 21
534.4555798051738
 31
0.0
  0
TEXT
  5
3730
330
18
100
AcDbEntity
  8
0
100
AcDbText
 10
106.5058017487745
 20
690.0598644752335
 30
0.0
 40
20.0
  1
背面
100
AcDbText
  0
LINE
  5
3731
330
18
100
AcDbEntity
  8
0
100
AcDbLine
 10
367.3928898058948
 20
632.3944655900963
 30
0.0
 11
367.3928898058948
 21
699.8944655900963
 31
0.0
  0
LINE
  5
3732
330
18
100
AcDbEntity
  8
0
100
AcDbLine
 10
387.3928898058948
 20
767.3944655900964
 30
0.0
 11
387.3928898058948
 21
632.3944655900963
 31
0.0
  0
LINE
  5
3733
330
18
100
AcDbEntity
  8
0
100
AcDbLine
 10
367.3928898058948
 20
576.4555798051738
 30
0.0
 11
387.3928898058948
 21
576.4555798051738
 31
0.0
  0
LINE
  5
3734
330
18
100
AcDbEntity
  8
0
100
AcDbLine
 10
387.3928898058948
 20
632.3944655900963
 30
0.0
 11
367.3928898058948
 21
632.3944655900963
 31
0.0
  0
LINE
  5
3735
330
18
100
AcDbEntity
  8
0
100
AcDbLine
 10
367.3928898058948
 20
699.8944655900963
 30
0.0
 11
367.3928898058948
 21
767.3944655900964
 31
0.0
  0
ARC
  5
3736
330
18
100
AcDbEntity
  8
0
100
AcDbCircle
 10
391.3928898058939
 20
667.115249979222
 30
0.0
 40
4.0
100
AcDbArc
 50
101.3099324740209
 51
180.0000000000001
  0
LINE
  5
3737
330
18
100
AcDbEntity
  8
0
100
AcDbLine
 10
390.6084252653408
 20
671.0375726819856
 30
0.0
 11
407.3928898058938
 21
674.3944655900963
 31
0.0
  0
LINE
  5
3738
330
18
100
AcDbEntity
  8
0
100
AcDbLine
 10
367.3928898058948
 20
767.3944655900964
 30
0.0
 11
387.3928898058948
 21
767.3944655900964
 31
0.0
  0
ARC
  5
3739
330
18
100
AcDbEntity
  8
0
100
AcDbCircle
 10
391.3928898058948
 20
732.6736812009706
 30
0.0
 40
4.0
100
AcDbArc
 50
179.9999999999998
 51
258.6900675259789
  0
LINE
  5
373A
330
18
100
AcDbEntity
  8
0
100
AcDbLine
 10
390.6084252653418
 20
728.7513584982071
 30
0.0
 11
407.3928898058948
 21
725.3944655900964
 31
0.0
  0
LINE
  5
373B
330
18
100
AcDbEntity
  8
0
100
AcDbLine
 10
1055.705672855201
 20
304.0283213757033
 30
0.0
 11
1055.705672855201
 21
374.0283213757034
 31
0.0
  0
LINE
  5
373C
330
18
100
AcDbEntity
  8
0
100
AcDbLine
 10
1075.705672855201
 20
374.0283213757034
 30
0.0
 11
1075.705672855201
 21
234.0283213757034
 31
0.0
  0
CIRCLE
  5
373D
330
18
100
AcDbEntity
  8
0
100
AcDbCircle
 10
906.5456816067644
 20
304.0283213757033
 30
0.0
 40
70.0
  0
CIRCLE
  5
373E
330
18
100
AcDbEntity
  8
0
100
AcDbCircle
 10
659.6548415778288
 20
304.0283213757033
 30
0.0
 40
67.5
  0
LINE
  5
373F
330
18
100
AcDbEntity
  8
0
100
AcDbLine
 10
547.3928898058948
 20
371.5283213757034
 30
0.0
 11
547.3928898058948
 21
236.5283213757034
 31
0.0
  0
LINE
  5
3740
330
18
100
AcDbEntity
  8
0
100
AcDbLine
 10
567.3928898058948
 20
304.0283213757033
 30
0.0
 11
567.3928898058948
 21
371.5283213757034
 31
0.0
  0
ARC
  5
3741
330
18
100
AcDbEntity
  8
0
100
AcDbCircle
 10
496.8868056568517
 20
304.0283213757033
 30
0.0
 40
25.5
100
AcDbArc
 50
244.6315458506379
 51
269.9999999999979
  0
TEXT
  5
3742
330
18
100
AcDbEntity
  8
0
100
AcDbText
 10
445.597600807474
 20
230.6913465640445
 30
0.0
 40
15.0
  1
32A
 41
0.8
 11
445.597600807474
 21
230.6913465640445
 31
0.0
100
AcDbText
 73
     1
  0
LINE
  5
3743
330
18
100
AcDbEntity
  8
0
100
AcDbLine
 10
451.3928898058948
 20
315.0283213757034
 30
0.0
 11
483.3928898058948
 21
315.0283213757034
 31
0.0
  0
LINE
  5
3744
330
18
100
AcDbEntity
  8
0
100
AcDbLine
 10
451.3928898058948
 20
293.0283213757034
 30
0.0
 11
483.3928898058948
 21
293.0283213757034
 31
0.0
  0
ARC
  5
3745
330
18
100
AcDbEntity
  8
0
100
AcDbCircle
 10
451.3928898058948
 20
314.0283213757034
 30
0.0
 40
1.0
100
AcDbArc
 50
90.0
 51
180.0
  0
ARC
  5
3746
330
18
100
AcDbEntity
  8
0
100
AcDbCircle
 10
451.3928898058948
 20
294.0283213757033
 30
0.0
 40
1.0
100
AcDbArc
 50
180.0
 51
270.0
  0
LINE
  5
3747
330
18
100
AcDbEntity
  8
0
100
AcDbLine
 10
450.3928898058948
 20
314.0283213757034
 30
0.0
 11
450.3928898058948
 21
294.0283213757033
 31
0.0
  0
ARC
  5
3748
330
18
100
AcDbEntity
  8
0
100
AcDbCircle
 10
477.3928898058947
 20
262.9158263797073
 30
0.0
 40
20.0
100
AcDbArc
 50
64.631545850636
 51
115.3684541493639
  0
ARC
  5
3749
330
18
100
AcDbEntity
  8
0
100
AcDbCircle
 10
457.8989739549379
 20
304.0283213757033
 30
0.0
 40
25.5
100
AcDbArc
 50
269.9999999999979
 51
295.3684541493619
  0
ARC
  5
374A
330
18
100
AcDbEntity
  8
0
100
AcDbCircle
 10
483.3928898058948
 20
314.0283213757034
 30
0.0
 40
1.0
100
AcDbArc
 50
0.0
 51
90.0
  0
ARC
  5
374B
330
18
100
AcDbEntity
  8
0
100
AcDbCircle
 10
483.3928898058948
 20
294.0283213757033
 30
0.0
 40
1.0
100
AcDbArc
 50
270.0
 51
0.0
  0
LINE
  5
374C
330
18
100
AcDbEntity
  8
0
100
AcDbLine
 10
484.3928898058948
 20
314.0283213757034
 30
0.0
 11
484.3928898058948
 21
294.0283213757033
 31
0.0
  0
LINE
  5
374D
330
18
100
AcDbEntity
  8
0
100
AcDbLine
 10
567.3928898058948
 20
236.5283213757034
 30
0.0
 11
567.3928898058948
 21
304.0283213757033
 31
0.0
  0
LINE
  5
374E
330
18
100
AcDbEntity
  8
0
100
AcDbLine
 10
547.3928898058948
 20
236.5283213757034
 30
0.0
 11
567.3928898058948
 21
236.5283213757034
 31
0.0
  0
LINE
  5
374F
330
18
100
AcDbEntity
  8
0
100
AcDbLine
 10
544.1773543464478
 20
275.1714284675928
 30
0.0
 11
527.3928898058947
 21
278.5283213757034
 31
0.0
  0
LINE
  5
3750
330
18
100
AcDbEntity
  8
0
100
AcDbLine
 10
496.8868056568508
 20
278.5283213757034
 30
0.0
 11
527.3928898058938
 21
278.5283213757034
 31
0.0
  0
ARC
  5
3751
330
18
100
AcDbEntity
  8
0
100
AcDbCircle
 10
543.3928898058947
 20
271.2491057648292
 30
0.0
 40
4.0
100
AcDbArc
 50
359.9999999999998
 51
78.69006752597904
  0
CIRCLE
  5
3752
330
18
100
AcDbEntity
  8
0
100
AcDbCircle
 10
624.2995025185019
 20
268.6729823163759
 30
0.0
 40
7.5
  0
CIRCLE
  5
3753
330
18
100
AcDbEntity
  8
0
100
AcDbCircle
 10
695.0101806371558
 20
268.6729823163759
 30
0.0
 40
7.5
  0
CIRCLE
  5
3754
330
18
100
AcDbEntity
  8
0
100
AcDbCircle
 10
869.4225755944708
 20
266.9052153634093
 30
0.0
 40
7.5
  0
CIRCLE
  5
3755
330
18
100
AcDbEntity
  8
0
100
AcDbCircle
 10
943.668787619058
 20
266.9052153634093
 30
0.0
 40
7.5
  0
LINE
  5
3756
330
18
100
AcDbEntity
  8
0
100
AcDbLine
 10
1025.377998132736
 20
303.9867228973287
 30
0.0
 11
1039.352185632736
 21
303.9867228973287
 31
0.0
  0
LINE
  5
3757
330
18
100
AcDbEntity
  8
0
100
AcDbLine
 10
1049.011435632736
 20
299.2600353973289
 30
0.0
 11
1001.742873132735
 21
299.2600353973289
 31
0.0
  0
LINE
  5
3758
330
18
100
AcDbEntity
  8
0
100
AcDbLine
 10
1001.742873132735
 20
299.2600353973289
 30
0.0
 11
992.2894981327358
 21
308.7134103973285
 31
0.0
  0
LINE
  5
3759
330
18
100
AcDbEntity
  8
0
100
AcDbLine
 10
992.2894981327358
 20
308.7134103973285
 30
0.0
 11
1020.649623132735
 21
308.7134103973285
 31
0.0
  0
LINE
  5
375A
330
18
100
AcDbEntity
  8
0
100
AcDbLine
 10
1020.649623132735
 20
308.7134103973285
 30
0.0
 11
1025.377998132736
 21
303.9867228973287
 31
0.0
  0
LINE
  5
375B
330
18
100
AcDbEntity
  8
0
100
AcDbLine
 10
1055.705672855201
 20
234.0283213757034
 30
0.0
 11
1055.705672855201
 21
304.0283213757033
 31
0.0
  0
LINE
  5
375C
330
18
100
AcDbEntity
  8
0
100
AcDbLine
 10
1075.705672855201
 20
234.0283213757034
 30
0.0
 11
1055.705672855201
 21
234.0283213757034
 31
0.0
  0
ARC
  5
375D
330
18
100
AcDbEntity
  8
0
100
AcDbCircle
 10
1080.705672855201
 20
267.9293018621105
 30
0.0
 40
5.0
100
AcDbArc
 50
101.3099324740189
 51
180.0
  0
LINE
  5
375E
330
18
100
AcDbEntity
  8
0
100
AcDbLine
 10
1039.352185632736
 20
303.9867228973287
 30
0.0
 11
1039.352185632736
 21
308.7134103973285
 31
0.0
  0
LINE
  5
375F
330
18
100
AcDbEntity
  8
0
100
AcDbLine
 10
1039.352185632736
 20
308.7134103973285
 30
0.0
 11
1049.011435632736
 21
299.2600353973289
 31
0.0
  0
LINE
  5
3760
330
18
100
AcDbEntity
  8
0
100
AcDbLine
 10
1079.725092179511
 20
272.8322052405651
 30
0.0
 11
1095.705672855201
 21
276.0283213757034
 31
0.0
  0
LINE
  5
3761
330
18
100
AcDbEntity
  8
0
100
AcDbLine
 10
567.3928898058948
 20
508.9555798051738
 30
0.0
 11
567.3928898058948
 21
576.4555798051738
 31
0.0
  0
LINE
  5
3762
330
18
100
AcDbEntity
  8
0
100
AcDbLine
 10
547.3928898058948
 20
576.4555798051738
 30
0.0
 11
547.3928898058948
 21
441.4555798051737
 31
0.0
  0
ARC
  5
3763
330
18
100
AcDbEntity
  8
0
100
AcDbCircle
 10
495.123392776848
 20
366.3838361407808
 30
0.0
 40
6.644500231519874
100
AcDbArc
 50
75.93283644523386
 51
135.8740677452009
  0
ARC
  5
3764
330
18
100
AcDbEntity
  8
0
100
AcDbCircle
 10
494.8928898058948
 20
333.5283213757033
 30
0.0
 40
4.0
100
AcDbArc
 50
180.0
 51
270.0
  0
LINE
  5
3765
330
18
100
AcDbEntity
  8
0
100
AcDbLine
 10
438.3928898058948
 20
373.0283213757033
 30
0.0
 11
496.3928898058948
 21
373.0283213757033
 31
0.0
  0
LINE
  5
3766
330
18
100
AcDbEntity
  8
0
100
AcDbLine
 10
498.8928898058948
 20
345.0283213757032
 30
0.0
 11
435.8928898058947
 21
345.0283213757034
 31
0.0
  0
LINE
  5
3767
330
18
100
AcDbEntity
  8
0
100
AcDbLine
 10
499.8928898058948
 20
362.0283213757033
 30
0.0
 11
434.8928898058948
 21
362.0283213757033
 31
0.0
  0
ARC
  5
3768
330
18
100
AcDbEntity
  8
0
100
AcDbCircle
 10
455.9123868349415
 20
339.3679701179421
 30
0.0
 40
33.66035125776125
100
AcDbArc
 50
70.05798215649917
 51
109.9420178435008
  0
ARC
  5
3769
330
18
100
AcDbEntity
  8
0
100
AcDbCircle
 10
467.3928898058948
 20
405.1586647516371
 30
0.0
 40
78.12500000000067
100
AcDbArc
 50
253.4360127544532
 51
286.5639872455467
  0
LINE
  5
376A
330
18
100
AcDbEntity
  8
0
100
AcDbLine
 10
435.8928898058947
 20
345.0283213757034
 30
0.0
 11
434.8928898058948
 21
346.0283213757033
 31
0.0
  0
ARC
  5
376B
330
18
100
AcDbEntity
  8
0
100
AcDbCircle
 10
439.8928898058947
 20
333.5283213757033
 30
0.0
 40
4.0
100
AcDbArc
 50
270.0
 51
0.0
  0
LINE
  5
376C
330
18
100
AcDbEntity
  8
0
100
AcDbLine
 10
443.8928898058947
 20
345.0283213757034
 30
0.0
 11
443.8928898058947
 21
333.5283213757033
 31
0.0
  0
LINE
  5
376D
330
18
100
AcDbEntity
  8
0
100
AcDbLine
 10
438.3928898058948
 20
373.0283213757033
 30
0.0
 11
434.8928898058948
 21
371.0099880423699
 31
0.0
  0
ARC
  5
376E
330
18
100
AcDbEntity
  8
0
100
AcDbCircle
 10
439.6623868349415
 20
366.3838361407808
 30
0.0
 40
6.644500231519874
100
AcDbArc
 50
44.12593225479906
 51
104.0671635547659
  0
LINE
  5
376F
330
18
100
AcDbEntity
  8
0
100
AcDbLine
 10
444.4318838639892
 20
371.0099880423699
 30
0.0
 11
444.4318838639892
 21
362.0283213757033
 31
0.0
  0
LINE
  5
3770
330
18
100
AcDbEntity
  8
0
100
AcDbLine
 10
434.8928898058948
 20
346.0283213757033
 30
0.0
 11
434.8928898058948
 21
371.0099880423699
 31
0.0
  0
LINE
  5
3771
330
18
100
AcDbEntity
  8
0
100
AcDbLine
 10
490.8928898058948
 20
345.0283213757032
 30
0.0
 11
490.8928898058948
 21
333.5283213757033
 31
0.0
  0
ARC
  5
3772
330
18
100
AcDbEntity
  8
0
100
AcDbCircle
 10
478.873392776848
 20
339.3679701179421
 30
0.0
 40
33.66035125776125
100
AcDbArc
 50
70.05798215649917
 51
109.9420178435008
  0
LINE
  5
3773
330
18
100
AcDbEntity
  8
0
100
AcDbLine
 10
467.3928898058948
 20
362.0283213757033
 30
0.0
 11
467.3928898058948
 21
371.0099880423699
 31
0.0
  0
LINE
  5
3774
330
18
100
AcDbEntity
  8
0
100
AcDbLine
 10
490.3538957478003
 20
371.0099880423699
 30
0.0
 11
490.3538957478003
 21
362.0283213757033
 31
0.0
  0
LINE
  5
3775
330
18
100
AcDbEntity
  8
0
100
AcDbLine
 10
544.1773543464478
 20
332.8852142838139
 30
0.0
 11
527.3928898058947
 21
329.5283213757034
 31
0.0
  0
LINE
  5
3776
330
18
100
AcDbEntity
  8
0
100
AcDbLine
 10
498.8928898058948
 20
345.0283213757034
 30
0.0
 11
499.8928898058948
 21
346.0283213757033
 31
0.0
  0
LINE
  5
3777
330
18
100
AcDbEntity
  8
0
100
AcDbLine
 10
527.3928898058938
 20
329.5283213757034
 30
0.0
 11
494.8928898058948
 21
329.5283213757034
 31
0.0
  0
LINE
  5
3778
330
18
100
AcDbEntity
  8
0
100
AcDbLine
 10
499.8928898058948
 20
371.0099880423699
 30
0.0
 11
496.3928898058948
 21
373.0283213757033
 31
0.0
  0
LINE
  5
3779
330
18
100
AcDbEntity
  8
0
100
AcDbLine
 10
499.8928898058948
 20
346.0283213757033
 30
0.0
 11
499.8928898058948
 21
371.0099880423699
 31
0.0
  0
ARC
  5
377A
330
18
100
AcDbEntity
  8
0
100
AcDbCircle
 10
543.3928898058947
 20
336.8075369865775
 30
0.0
 40
4.0
100
AcDbArc
 50
281.309932474021
 51
0.0000000000002036
  0
LINE
  5
377B
330
18
100
AcDbEntity
  8
0
100
AcDbLine
 10
567.3928898058948
 20
371.5283213757034
 30
0.0
 11
547.3928898058948
 21
371.5283213757034
 31
0.0
  0
CIRCLE
  5
377C
330
18
100
AcDbEntity
  8
0
100
AcDbCircle
 10
467.3928898058948
 20
508.9555798051738
 30
0.0
 40
29.0
  0
CIRCLE
  5
377D
330
18
100
AcDbEntity
  8
0
100
AcDbCircle
 10
467.3928898058948
 20
508.9555798051738
 30
0.0
 40
32.5
  0
POLYLINE
  5
377E
330
18
100
AcDbEntity
  8
0
100
AcDb2dPolyline
 66
     1
 10
0.0
 20
0.0
 30
0.0
 70
     1
  0
VERTEX
  5
3C2B
330
377E
100
AcDbEntity
  8
0
100
AcDbVertex
100
AcDb2dVertex
 10
444.4318838639892
 20
531.9165857470791
 30
0.0
  0
VERTEX
  5
3C2C
330
377E
100
AcDbEntity
  8
0
100
AcDbVertex
100
AcDb2dVertex
 10
434.921123797123
 20
508.9555798051738
 30
0.0
  0
VERTEX
  5
3C2D
330
377E
100
AcDbEntity
  8
0
100
AcDbVertex
100
AcDb2dVertex
 10
444.4318838639892
 20
485.9945738632684
 30
0.0
  0
VERTEX
  5
3C2E
330
377E
100
AcDbEntity
  8
0
100
AcDbVertex
100
AcDb2dVertex
 10
467.3928898058948
 20
476.483813796402
 30
0.0
  0
VERTEX
  5
3C2F
330
377E
100
AcDbEntity
  8
0
100
AcDbVertex
100
AcDb2dVertex
 10
490.3538957478003
 20
485.9945738632684
 30
0.0
  0
VERTEX
  5
3C30
330
377E
100
AcDbEntity
  8
0
100
AcDbVertex
100
AcDb2dVertex
 10
499.8646558146665
 20
508.9555798051738
 30
0.0
  0
VERTEX
  5
3C31
330
377E
100
AcDbEntity
  8
0
100
AcDbVertex
100
AcDb2dVertex
 10
490.3538957478003
 20
531.9165857470791
 30
0.0
  0
VERTEX
  5
3C32
330
377E
100
AcDbEntity
  8
0
100
AcDbVertex
100
AcDb2dVertex
 10
467.3928898058948
 20
541.4273458139456
 30
0.0
  0
SEQEND
  5
3C33
330
377E
100
AcDbEntity
  8
0
  0
LINE
  5
377F
330
18
100
AcDbEntity
  8
0
100
AcDbLine
 10
527.3928898058957
 20
483.4555798051737
 30
0.0
 11
487.5423314855042
 21
483.4555798051737
 31
0.0
  0
LINE
  5
3780
330
18
100
AcDbEntity
  8
0
100
AcDbLine
 10
527.3928898058957
 20
534.4555798051738
 30
0.0
 11
487.5423314855042
 21
534.4555798051738
 31
0.0
  0
CIRCLE
  5
3781
330
18
100
AcDbEntity
  8
0
100
AcDbCircle
 10
467.3928898058948
 20
508.9555798051738
 30
0.0
 40
21.0001
  0
CIRCLE
  5
3782
330
18
100
AcDbEntity
  8
0
100
AcDbCircle
 10
467.3928898058948
 20
508.9555798051738
 30
0.0
 40
18.5
  0
LINE
  5
3783
330
18
100
AcDbEntity
  8
0
100
AcDbLine
 10
567.3928898058948
 20
441.4555798051737
 30
0.0
 11
567.3928898058948
 21
508.9555798051738
 31
0.0
  0
LINE
  5
3784
330
18
100
AcDbEntity
  8
0
100
AcDbLine
 10
544.1773543464478
 20
480.0986868970632
 30
0.0
 11
527.3928898058947
 21
483.4555798051737
 31
0.0
  0
LINE
  5
3785
330
18
100
AcDbEntity
  8
0
100
AcDbLine
 10
547.3928898058948
 20
441.4555798051737
 30
0.0
 11
567.3928898058948
 21
441.4555798051737
 31
0.0
  0
ARC
  5
3786
330
18
100
AcDbEntity
  8
0
100
AcDbCircle
 10
543.3928898058947
 20
476.1763641942995
 30
0.0
 40
4.0
100
AcDbArc
 50
359.9999999999998
 51
78.69006752597904
  0
LINE
  5
3787
330
18
100
AcDbEntity
  8
0
100
AcDbLine
 10
544.1773543464478
 20
537.8124727132843
 30
0.0
 11
527.3928898058947
 21
534.4555798051738
 31
0.0
  0
ARC
  5
3788
330
18
100
AcDbEntity
  8
0
100
AcDbCircle
 10
543.3928898058947
 20
541.7347954160479
 30
0.0
 40
4.0
100
AcDbArc
 50
281.309932474021
 51
0.0000000000002036
  0
LINE
  5
3789
330
18
100
AcDbEntity
  8
0
100
AcDbLine
 10
630.6548415778288
 20
373.0283213757033
 30
0.0
 11
688.6548415778288
 21
373.0283213757033
 31
0.0
  0
ARC
  5
378A
330
18
100
AcDbEntity
  8
0
100
AcDbCircle
 10
648.1743386068756
 20
339.3679701179421
 30
0.0
 40
33.66035125776125
100
AcDbArc
 50
72.73608641694323
 51
109.9420178435008
  0
CIRCLE
  5
378B
330
18
100
AcDbEntity
  8
0
100
AcDbCircle
 10
624.2995025185019
 20
339.3836604350308
 30
0.0
 40
7.5
  0
ARC
  5
378C
330
18
100
AcDbEntity
  8
0
100
AcDbCircle
 10
631.9243386068755
 20
366.3838361407808
 30
0.0
 40
6.644500231519874
100
AcDbArc
 50
44.12593225479906
 51
104.0671635547659
  0
LINE
  5
378D
330
18
100
AcDbEntity
  8
0
100
AcDbLine
 10
630.6548415778288
 20
373.0283213757033
 30
0.0
 11
627.1548415778288
 21
371.0099880423699
 31
0.0
  0
LINE
  5
378E
330
18
100
AcDbEntity
  8
0
100
AcDbLine
 10
627.1548415778298
 20
363.1891192066999
 30
0.0
 11
627.1548415778288
 21
371.0099880423699
 31
0.0
  0
LINE
  5
378F
330
18
100
AcDbEntity
  8
0
100
AcDbLine
 10
636.6938356359232
 20
371.0099880423699
 30
0.0
 11
636.6938356359232
 21
367.5030581308547
 31
0.0
  0
CIRCLE
  5
3790
330
18
100
AcDbEntity
  8
0
100
AcDbCircle
 10
695.0101806371558
 20
339.3836604350308
 30
0.0
 40
7.5
  0
ARC
  5
3791
330
18
100
AcDbEntity
  8
0
100
AcDbCircle
 10
671.135344548782
 20
339.3679701179421
 30
0.0
 40
33.66035125776125
100
AcDbArc
 50
70.05798215649917
 51
107.2639135830567
  0
ARC
  5
3792
330
18
100
AcDbEntity
  8
0
100
AcDbCircle
 10
687.3853445487821
 20
366.3838361407808
 30
0.0
 40
6.644500231519874
100
AcDbArc
 50
75.93283644523386
 51
135.8740677452009
  0
LINE
  5
3793
330
18
100
AcDbEntity
  8
0
100
AcDbLine
 10
692.1548415778288
 20
371.0099880423699
 30
0.0
 11
688.6548415778288
 21
373.0283213757033
 31
0.0
  0
LINE
  5
3794
330
18
100
AcDbEntity
  8
0
100
AcDbLine
 10
682.6158475197344
 20
371.0099880423699
 30
0.0
 11
682.6158475197335
 21
367.503058130855
 31
0.0
  0
LINE
  5
3795
330
18
100
AcDbEntity
  8
0
100
AcDbLine
 10
692.1548415778288
 20
363.1891192066993
 30
0.0
 11
692.1548415778288
 21
371.0099880423699
 31
0.0
  0
LINE
  5
3796
330
18
100
AcDbEntity
  8
0
100
AcDbLine
 10
567.3928898058948
 20
632.3944655900963
 30
0.0
 11
567.3928898058948
 21
699.8944655900963
 31
0.0
  0
LINE
  5
3797
330
18
100
AcDbEntity
  8
0
100
AcDbLine
 10
547.3928898058948
 20
767.3944655900964
 30
0.0
 11
547.3928898058948
 21
632.3944655900963
 31
0.0
  0
LINE
  5
3798
330
18
100
AcDbEntity
  8
0
100
AcDbLine
 10
567.3928898058948
 20
576.4555798051738
 30
0.0
 11
547.3928898058948
 21
576.4555798051738
 31
0.0
  0
LINE
  5
3799
330
18
100
AcDbEntity
  8
0
100
AcDbLine
 10
547.3928898058948
 20
632.3944655900963
 30
0.0
 11
567.3928898058948
 21
632.3944655900963
 31
0.0
  0
ARC
  5
379A
330
18
100
AcDbEntity
  8
0
100
AcDbCircle
 10
495.123392776848
 20
762.2499803551739
 30
0.0
 40
6.644500231519874
100
AcDbArc
 50
75.93283644523386
 51
135.8740677452009
  0
ARC
  5
379B
330
18
100
AcDbEntity
  8
0
100
AcDbCircle
 10
494.8928898058948
 20
729.3944655900964
 30
0.0
 40
4.0
100
AcDbArc
 50
180.0
 51
270.0
  0
LINE
  5
379C
330
18
100
AcDbEntity
  8
0
100
AcDbLine
 10
498.8928898058948
 20
740.8944655900963
 30
0.0
 11
435.8928898058947
 21
740.8944655900963
 31
0.0
  0
LINE
  5
379D
330
18
100
AcDbEntity
  8
0
100
AcDbLine
 10
499.8928898058948
 20
757.8944655900963
 30
0.0
 11
434.8928898058948
 21
757.8944655900963
 31
0.0
  0
LINE
  5
379E
330
18
100
AcDbEntity
  8
0
100
AcDbLine
 10
438.3928898058948
 20
768.8944655900963
 30
0.0
 11
496.3928898058948
 21
768.8944655900963
 31
0.0
  0
ARC
  5
379F
330
18
100
AcDbEntity
  8
0
100
AcDbCircle
 10
496.8868056568517
 20
699.8944655900963
 30
0.0
 40
25.5
100
AcDbArc
 50
244.6315458506379
 51
269.9999999999979
  0
ARC
  5
37A0
330
18
100
AcDbEntity
  8
0
100
AcDbCircle
 10
477.3928898058947
 20
658.7819705941003
 30
0.0
 40
20.0
100
AcDbArc
 50
64.631545850636
 51
115.3684541493639
  0
ARC
  5
37A1
330
18
100
AcDbEntity
  8
0
100
AcDbCircle
 10
457.8989739549379
 20
699.8944655900963
 30
0.0
 40
25.5
100
AcDbArc
 50
269.9999999999979
 51
295.3684541493619
  0
ARC
  5
37A2
330
18
100
AcDbEntity
  8
0
100
AcDbCircle
 10
455.9123868349415
 20
735.2341143323351
 30
0.0
 40
33.66035125776125
100
AcDbArc
 50
70.05798215649917
 51
109.9420178435008
  0
ARC
  5
37A3
330
18
100
AcDbEntity
  8
0
100
AcDbCircle
 10
467.3928898058948
 20
801.0248089660301
 30
0.0
 40
78.12500000000067
100
AcDbArc
 50
253.4360127544532
 51
286.5639872455467
  0
LINE
  5
37A4
330
18
100
AcDbEntity
  8
0
100
AcDbLine
 10
434.8928898058948
 20
741.8944655900964
 30
0.0
 11
434.8928898058948
 21
766.8761322567629
 31
0.0
  0
LINE
  5
37A5
330
18
100
AcDbEntity
  8
0
100
AcDbLine
 10
435.8928898058947
 20
740.8944655900963
 30
0.0
 11
434.8928898058948
 21
741.8944655900964
 31
0.0
  0
ARC
  5
37A6
330
18
100
AcDbEntity
  8
0
100
AcDbCircle
 10
439.8928898058947
 20
729.3944655900964
 30
0.0
 40
4.0
100
AcDbArc
 50
270.0
 51
0.0
  0
LINE
  5
37A7
330
18
100
AcDbEntity
  8
0
100
AcDbLine
 10
443.8928898058947
 20
740.8944655900963
 30
0.0
 11
443.8928898058947
 21
729.3944655900964
 31
0.0
  0
LINE
  5
37A8
330
18
100
AcDbEntity
  8
0
100
AcDbLine
 10
444.4318838639892
 20
766.8761322567629
 30
0.0
 11
444.4318838639892
 21
757.8944655900963
 31
0.0
  0
ARC
  5
37A9
330
18
100
AcDbEntity
  8
0
100
AcDbCircle
 10
439.6623868349415
 20
762.2499803551739
 30
0.0
 40
6.644500231519874
100
AcDbArc
 50
44.12593225479906
 51
104.0671635547659
  0
LINE
  5
37AA
330
18
100
AcDbEntity
  8
0
100
AcDbLine
 10
438.3928898058948
 20
768.8944655900963
 30
0.0
 11
434.8928898058948
 21
766.8761322567629
 31
0.0
  0
LINE
  5
37AB
330
18
100
AcDbEntity
  8
0
100
AcDbLine
 10
490.8928898058948
 20
740.8944655900963
 30
0.0
 11
490.8928898058948
 21
729.3944655900964
 31
0.0
  0
ARC
  5
37AC
330
18
100
AcDbEntity
  8
0
100
AcDbCircle
 10
478.873392776848
 20
735.2341143323351
 30
0.0
 40
33.66035125776125
100
AcDbArc
 50
70.05798215649917
 51
109.9420178435008
  0
LINE
  5
37AD
330
18
100
AcDbEntity
  8
0
100
AcDbLine
 10
467.3928898058948
 20
757.8944655900963
 30
0.0
 11
467.3928898058948
 21
766.8761322567629
 31
0.0
  0
LINE
  5
37AE
330
18
100
AcDbEntity
  8
0
100
AcDbLine
 10
490.3538957478003
 20
766.8761322567629
 30
0.0
 11
490.3538957478003
 21
757.8944655900963
 31
0.0
  0
LINE
  5
37AF
330
18
100
AcDbEntity
  8
0
100
AcDbLine
 10
567.3928898058948
 20
699.8944655900963
 30
0.0
 11
567.3928898058948
 21
767.3944655900964
 31
0.0
  0
LINE
  5
37B0
330
18
100
AcDbEntity
  8
0
100
AcDbLine
 10
544.1773543464478
 20
671.0375726819856
 30
0.0
 11
527.3928898058947
 21
674.3944655900963
 31
0.0
  0
LINE
  5
37B1
330
18
100
AcDbEntity
  8
0
100
AcDbLine
 10
496.8868056568508
 20
674.3944655900963
 30
0.0
 11
527.3928898058938
 21
674.3944655900963
 31
0.0
  0
ARC
  5
37B2
330
18
100
AcDbEntity
  8
0
100
AcDbCircle
 10
543.3928898058947
 20
667.1152499792222
 30
0.0
 40
4.0
100
AcDbArc
 50
359.9999999999998
 51
78.69006752597904
  0
LINE
  5
37B3
330
18
100
AcDbEntity
  8
0
100
AcDbLine
 10
544.1773543464478
 20
728.7513584982071
 30
0.0
 11
527.3928898058947
 21
725.3944655900964
 31
0.0
  0
LINE
  5
37B4
330
18
100
AcDbEntity
  8
0
100
AcDbLine
 10
499.8928898058948
 20
741.8944655900964
 30
0.0
 11
499.8928898058948
 21
766.8761322567629
 31
0.0
  0
LINE
  5
37B5
330
18
100
AcDbEntity
  8
0
100
AcDbLine
 10
527.3928898058938
 20
725.3944655900964
 30
0.0
 11
494.8928898058948
 21
725.3944655900964
 31
0.0
  0
LINE
  5
37B6
330
18
100
AcDbEntity
  8
0
100
AcDbLine
 10
498.8928898058948
 20
740.8944655900963
 30
0.0
 11
499.8928898058948
 21
741.8944655900964
 31
0.0
  0
LINE
  5
37B7
330
18
100
AcDbEntity
  8
0
100
AcDbLine
 10
499.8928898058948
 20
766.8761322567629
 30
0.0
 11
496.3928898058948
 21
768.8944655900963
 31
0.0
  0
ARC
  5
37B8
330
18
100
AcDbEntity
  8
0
100
AcDbCircle
 10
543.3928898058947
 20
732.6736812009706
 30
0.0
 40
4.0
100
AcDbArc
 50
281.309932474021
 51
0.0000000000002036
  0
LINE
  5
37B9
330
18
100
AcDbEntity
  8
0
100
AcDbLine
 10
567.3928898058948
 20
767.3944655900964
 30
0.0
 11
547.3928898058948
 21
767.3944655900964
 31
0.0
  0
LINE
  5
37BA
330
18
100
AcDbEntity
  8
0
100
AcDbLine
 10
584.9730237053145
 20
696.9965080316756
 30
0.0
 11
632.2415862053149
 21
696.9965080316756
 31
0.0
  0
LINE
  5
37BB
330
18
100
AcDbEntity
  8
0
100
AcDbLine
 10
641.6949612053144
 20
706.4498830316751
 30
0.0
 11
613.3348362053143
 21
706.4498830316751
 31
0.0
  0
LINE
  5
37BC
330
18
100
AcDbEntity
  8
0
100
AcDbLine
 10
594.6322737053137
 20
706.4498830316751
 30
0.0
 11
584.9730237053145
 21
696.9965080316756
 31
0.0
  0
LINE
  5
37BD
330
18
100
AcDbEntity
  8
0
100
AcDbLine
 10
613.3348362053143
 20
706.4498830316751
 30
0.0
 11
608.6064612053141
 21
701.7231955316754
 31
0.0
  0
LINE
  5
37BE
330
18
100
AcDbEntity
  8
0
100
AcDbLine
 10
594.6322737053137
 20
701.7231955316754
 30
0.0
 11
594.6322737053137
 21
706.4498830316751
 31
0.0
  0
LINE
  5
37BF
330
18
100
AcDbEntity
  8
0
100
AcDbLine
 10
608.6064612053141
 20
701.7231955316754
 30
0.0
 11
594.6322737053137
 21
701.7231955316754
 31
0.0
  0
LINE
  5
37C0
330
18
100
AcDbEntity
  8
0
100
AcDbLine
 10
632.2415862053149
 20
696.9965080316756
 30
0.0
 11
641.6949612053144
 21
706.4498830316751
 31
0.0
  0
LINE
  5
37C1
330
18
100
AcDbEntity
  8
0
100
AcDbLine
 10
1055.705672855201
 20
508.9555798051738
 30
0.0
 11
1055.705672855201
 21
578.9555798051737
 31
0.0
  0
LINE
  5
37C2
330
18
100
AcDbEntity
  8
0
100
AcDbLine
 10
1075.705672855201
 20
578.9555798051737
 30
0.0
 11
1075.705672855201
 21
438.9555798051738
 31
0.0
  0
CIRCLE
  5
37C3
330
18
100
AcDbEntity
  8
0
100
AcDbCircle
 10
869.4225755944708
 20
341.151427387997
 30
0.0
 40
7.5
  0
LINE
  5
37C4
330
18
100
AcDbEntity
  8
0
100
AcDbLine
 10
877.5456816067643
 20
375.0283213757033
 30
0.0
 11
874.0456816067645
 21
373.0099880423699
 31
0.0
  0
LINE
  5
37C5
330
18
100
AcDbEntity
  8
0
100
AcDbLine
 10
874.0456816067645
 20
366.0263052138893
 30
0.0
 11
874.0456816067645
 21
373.0099880423699
 31
0.0
  0
ARC
  5
37C6
330
18
100
AcDbEntity
  8
0
100
AcDbCircle
 10
918.0261845777177
 20
341.3679701179421
 30
0.0
 40
33.66035125776125
100
AcDbArc
 50
70.05798215649917
 51
104.467590730559
  0
ARC
  5
37C7
330
18
100
AcDbEntity
  8
0
100
AcDbCircle
 10
934.2761845777177
 20
368.3838361407808
 30
0.0
 40
6.644500231519874
100
AcDbArc
 50
75.93283644523387
 51
135.8740677452009
  0
LINE
  5
37C8
330
18
100
AcDbEntity
  8
0
100
AcDbLine
 10
939.0456816067644
 20
373.0099880423699
 30
0.0
 11
935.5456816067643
 21
375.0283213757033
 31
0.0
  0
ARC
  5
37C9
330
18
100
AcDbEntity
  8
0
100
AcDbCircle
 10
878.8151786358112
 20
368.3838361407808
 30
0.0
 40
6.644500231519874
100
AcDbArc
 50
44.12593225479907
 51
104.0671635547659
  0
ARC
  5
37CA
330
18
100
AcDbEntity
  8
0
100
AcDbCircle
 10
895.0651786358111
 20
341.3679701179421
 30
0.0
 40
33.66035125776125
100
AcDbArc
 50
75.53240926944093
 51
109.9420178435008
  0
LINE
  5
37CB
330
18
100
AcDbEntity
  8
0
100
AcDbLine
 10
883.5846756648589
 20
373.0099880423699
 30
0.0
 11
883.5846756648589
 21
370.1554126933756
 31
0.0
  0
CIRCLE
  5
37CC
330
18
100
AcDbEntity
  8
0
100
AcDbCircle
 10
943.668787619058
 20
341.151427387997
 30
0.0
 40
7.5
  0
LINE
  5
37CD
330
18
100
AcDbEntity
  8
0
100
AcDbLine
 10
929.50668754867
 20
373.0099880423699
 30
0.0
 11
929.50668754867
 21
370.1554126933756
 31
0.0
  0
LINE
  5
37CE
330
18
100
AcDbEntity
  8
0
100
AcDbLine
 10
939.0456816067635
 20
366.02630521389
 30
0.0
 11
939.0456816067644
 21
373.0099880423699
 31
0.0
  0
LINE
  5
37CF
330
18
100
AcDbEntity
  8
0
100
AcDbLine
 10
877.5456816067643
 20
375.0283213757033
 30
0.0
 11
935.5456816067643
 21
375.0283213757033
 31
0.0
  0
ARC
  5
37D0
330
18
100
AcDbEntity
  8
0
100
AcDbCircle
 10
1080.705672855201
 20
340.1273408892961
 30
0.0
 40
5.0
100
AcDbArc
 50
180.0
 51
258.690067525981
  0
LINE
  5
37D1
330
18
100
AcDbEntity
  8
0
100
AcDbLine
 10
1055.705672855201
 20
374.0283213757034
 30
0.0
 11
1075.705672855201
 21
374.0283213757034
 31
0.0
  0
LINE
  5
37D2
330
18
100
AcDbEntity
  8
0
100
AcDbLine
 10
1079.725092179511
 20
335.2244375108416
 30
0.0
 11
1095.705672855201
 21
332.0283213757034
 31
0.0
  0
LINE
  5
37D3
330
18
100
AcDbEntity
  8
0
100
AcDbLine
 10
1034.606779909817
 20
507.8747026365717
 30
0.0
 11
1044.266029909816
 21
498.4213276365721
 31
0.0
  0
LINE
  5
37D4
330
18
100
AcDbEntity
  8
0
100
AcDbLine
 10
1044.266029909816
 20
498.4213276365721
 30
0.0
 11
996.9974674098166
 21
498.4213276365721
 31
0.0
  0
LINE
  5
37D5
330
18
100
AcDbEntity
  8
0
100
AcDbLine
 10
987.5440924098169
 20
507.8747026365717
 30
0.0
 11
1015.904217409817
 21
507.8747026365717
 31
0.0
  0
LINE
  5
37D6
330
18
100
AcDbEntity
  8
0
100
AcDbLine
 10
996.9974674098166
 20
498.4213276365721
 30
0.0
 11
987.5440924098169
 21
507.8747026365717
 31
0.0
  0
LINE
  5
37D7
330
18
100
AcDbEntity
  8
0
100
AcDbLine
 10
1015.904217409817
 20
507.8747026365717
 30
0.0
 11
1020.632592409817
 21
503.148015136572
 31
0.0
  0
LINE
  5
37D8
330
18
100
AcDbEntity
  8
0
100
AcDbLine
 10
1034.606779909817
 20
503.148015136572
 30
0.0
 11
1034.606779909817
 21
507.8747026365717
 31
0.0
  0
LINE
  5
37D9
330
18
100
AcDbEntity
  8
0
100
AcDbLine
 10
1020.632592409817
 20
503.148015136572
 30
0.0
 11
1034.606779909817
 21
503.148015136572
 31
0.0
  0
LINE
  5
37DA
330
18
100
AcDbEntity
  8
0
100
AcDbLine
 10
1055.705672855201
 20
438.9555798051738
 30
0.0
 11
1055.705672855201
 21
508.9555798051738
 31
0.0
  0
ARC
  5
37DB
330
18
100
AcDbEntity
  8
0
100
AcDbCircle
 10
1080.705672855202
 20
472.856560291581
 30
0.0
 40
5.0
100
AcDbArc
 50
101.3099324740189
 51
180.0
  0
LINE
  5
37DC
330
18
100
AcDbEntity
  8
0
100
AcDbLine
 10
1075.705672855201
 20
438.9555798051738
 30
0.0
 11
1055.705672855201
 21
438.9555798051738
 31
0.0
  0
LINE
  5
37DD
330
18
100
AcDbEntity
  8
0
100
AcDbLine
 10
1079.725092179511
 20
477.7594636700355
 30
0.0
 11
1095.705672855202
 21
480.9555798051738
 31
0.0
  0
ARC
  5
37DE
330
18
100
AcDbEntity
  8
0
100
AcDbCircle
 10
1080.705672855202
 20
545.0545993187666
 30
0.0
 40
5.0
100
AcDbArc
 50
180.0
 51
258.690067525981
  0
LINE
  5
37DF
330
18
100
AcDbEntity
  8
0
100
AcDbLine
 10
1079.725092179511
 20
540.151695940312
 30
0.0
 11
1095.705672855202
 21
536.9555798051737
 31
0.0
  0
LINE
  5
37E0
330
18
100
AcDbEntity
  8
0
100
AcDbLine
 10
1055.705672855201
 20
629.8944655900964
 30
0.0
 11
1055.705672855201
 21
699.8944655900963
 31
0.0
  0
LINE
  5
37E1
330
18
100
AcDbEntity
  8
0
100
AcDbLine
 10
1075.705672855201
 20
769.8944655900963
 30
0.0
 11
1075.705672855201
 21
629.8944655900964
 31
0.0
  0
LINE
  5
37E2
330
18
100
AcDbEntity
  8
0
100
AcDbLine
 10
1055.705672855201
 20
578.9555798051737
 30
0.0
 11
1075.705672855201
 21
578.9555798051737
 31
0.0
  0
LINE
  5
37E3
330
18
100
AcDbEntity
  8
0
100
AcDbLine
 10
1075.705672855201
 20
629.8944655900964
 30
0.0
 11
1055.705672855201
 21
629.8944655900964
 31
0.0
  0
LINE
  5
37E4
330
18
100
AcDbEntity
  8
0
100
AcDbLine
 10
1055.705672855201
 20
699.8944655900963
 30
0.0
 11
1055.705672855201
 21
769.8944655900963
 31
0.0
  0
ARC
  5
37E5
330
18
100
AcDbEntity
  8
0
100
AcDbCircle
 10
1080.705672855201
 20
663.7954460765036
 30
0.0
 40
5.0
100
AcDbArc
 50
101.3099324740189
 51
180.0
  0
LINE
  5
37E6
330
18
100
AcDbEntity
  8
0
100
AcDbLine
 10
1079.725092179511
 20
668.6983494549581
 30
0.0
 11
1095.705672855201
 21
671.8944655900964
 31
0.0
  0
ARC
  5
37E7
330
18
100
AcDbEntity
  8
0
100
AcDbCircle
 10
1080.705672855201
 20
735.9934851036891
 30
0.0
 40
5.0
100
AcDbArc
 50
180.0
 51
258.690067525981
  0
LINE
  5
37E8
330
18
100
AcDbEntity
  8
0
100
AcDbLine
 10
1055.705672855201
 20
769.8944655900963
 30
0.0
 11
1075.705672855201
 21
769.8944655900963
 31
0.0
  0
LINE
  5
37E9
330
18
100
AcDbEntity
  8
0
100
AcDbLine
 10
1079.725092179511
 20
731.0905817252346
 30
0.0
 11
1095.705672855201
 21
727.8944655900963
 31
0.0
  0
ARC
  5
37EA
330
18
100
AcDbEntity
  8
0
100
AcDbCircle
 10
428.1470556882013
 20
1463.506335467712
 30
0.0
 40
93.54166666663681
100
AcDbArc
 50
257.5288347128761
 51
282.4711652871238
  0
ARC
  5
37EB
330
18
100
AcDbEntity
  8
0
100
AcDbCircle
 10
416.666552717249
 20
1391.804317543314
 30
0.0
 40
33.66035125776125
100
AcDbArc
 50
70.05798215649917
 51
109.9420178435008
  0
LINE
  5
37EC
330
18
100
AcDbEntity
  8
0
100
AcDbLine
 10
399.1470556882013
 20
1425.464668801075
 30
0.0
 11
457.1470556882013
 21
1425.464668801075
 31
0.0
  0
LINE
  5
37ED
330
18
100
AcDbEntity
  8
0
100
AcDbLine
 10
460.6470556882014
 20
1414.464668801075
 30
0.0
 11
395.6470556882013
 21
1414.464668801075
 31
0.0
  0
LINE
  5
37EE
330
18
100
AcDbEntity
  8
0
100
AcDbLine
 10
459.6470556882013
 20
1397.464668801075
 30
0.0
 11
396.6470556882013
 21
1397.464668801075
 31
0.0
  0
ARC
  5
37EF
330
18
100
AcDbEntity
  8
0
100
AcDbCircle
 10
407.648956738708
 20
1356.964823812173
 30
0.0
 40
14.00015514016805
100
AcDbArc
 50
269.9922199311426
 51
295.9355191722019
  0
POLYLINE
  5
37F0
330
18
100
AcDbEntity
  8
0
100
AcDb2dPolyline
 66
     1
 10
0.0
 20
0.0
 30
0.0
 70
     1
  0
VERTEX
  5
3C34
330
37F0
100
AcDbEntity
  8
0
100
AcDbVertex
100
AcDb2dVertex
 10
410.4806597276374
 20
1207.00457016982
 30
0.0
  0
VERTEX
  5
3C35
330
37F0
100
AcDbEntity
  8
0
100
AcDbVertex
100
AcDb2dVertex
 10
400.9698996607713
 20
1184.043564227914
 30
0.0
  0
VERTEX
  5
3C36
330
37F0
100
AcDbEntity
  8
0
100
AcDbVertex
100
AcDb2dVertex
 10
410.4806597276374
 20
1161.082558286009
 30
0.0
  0
VERTEX
  5
3C37
330
37F0
100
AcDbEntity
  8
0
100
AcDbVertex
100
AcDb2dVertex
 10
433.441665669543
 20
1151.571798219142
 30
0.0
  0
VERTEX
  5
3C38
330
37F0
100
AcDbEntity
  8
0
100
AcDbVertex
100
AcDb2dVertex
 10
456.4026716114486
 20
1161.082558286009
 30
0.0
  0
VERTEX
  5
3C39
330
37F0
100
AcDbEntity
  8
0
100
AcDbVertex
100
AcDb2dVertex
 10
465.9134316783147
 20
1184.043564227914
 30
0.0
  0
VERTEX
  5
3C3A
330
37F0
100
AcDbEntity
  8
0
100
AcDbVertex
100
AcDb2dVertex
 10
456.4026716114486
 20
1207.00457016982
 30
0.0
  0
VERTEX
  5
3C3B
330
37F0
100
AcDbEntity
  8
0
100
AcDbVertex
100
AcDb2dVertex
 10
433.441665669543
 20
1216.515330236686
 30
0.0
  0
SEQEND
  5
3C3C
330
37F0
100
AcDbEntity
  8
0
  0
CIRCLE
  5
37F1
330
18
100
AcDbEntity
  8
0
100
AcDbCircle
 10
433.441665669543
 20
1184.043564227914
 30
0.0
 40
32.5
  0
CIRCLE
  5
37F2
330
18
100
AcDbEntity
  8
0
100
AcDbCircle
 10
433.441665669543
 20
1184.043564227914
 30
0.0
 40
29.0
  0
ARC
  5
37F3
330
18
100
AcDbEntity
  8
0
100
AcDbCircle
 10
421.9611626985907
 20
1035.90984662407
 30
0.0
 40
33.66035125776125
100
AcDbArc
 50
70.05798215649914
 51
109.9420178435008
  0
LINE
  5
37F4
330
18
100
AcDbEntity
  8
0
100
AcDbLine
 10
401.941665669543
 20
1041.570197881831
 30
0.0
 11
464.941665669543
 21
1041.570197881831
 31
0.0
  0
LINE
  5
37F5
330
18
100
AcDbEntity
  8
0
100
AcDbLine
 10
462.4416656695429
 20
1069.570197881831
 30
0.0
 11
404.441665669543
 21
1069.570197881831
 31
0.0
  0
LINE
  5
37F6
330
18
100
AcDbEntity
  8
0
100
AcDbLine
 10
400.941665669543
 20
1058.570197881831
 30
0.0
 11
465.9416656695429
 21
1058.570197881831
 31
0.0
  0
LINE
  5
37F7
330
18
100
AcDbEntity
  8
0
100
AcDbLine
 10
381.9416656695429
 20
992.0701978818314
 30
0.0
 11
432.9416656695429
 21
992.0701978818314
 31
0.0
  0
ARC
  5
37F8
330
18
100
AcDbEntity
  8
0
100
AcDbCircle
 10
197.5340377717557
 20
1062.925712646909
 30
0.0
 40
6.644500231519874
100
AcDbArc
 50
44.12593225479907
 51
104.0671635547659
  0
LINE
  5
37F9
330
18
100
AcDbEntity
  8
0
100
AcDbLine
 10
196.264540742708
 20
1069.570197881831
 30
0.0
 11
192.764540742708
 21
1067.551864548498
 31
0.0
  0
ARC
  5
37FA
330
18
100
AcDbEntity
  8
0
100
AcDbCircle
 10
236.7450437136603
 20
1035.90984662407
 30
0.0
 40
33.66035125776125
100
AcDbArc
 50
70.05798215649914
 51
109.9420178435008
  0
ARC
  5
37FB
330
18
100
AcDbEntity
  8
0
100
AcDbCircle
 10
213.7840377717557
 20
1035.90984662407
 30
0.0
 40
33.66035125776125
100
AcDbArc
 50
70.05798215649917
 51
109.9420178435008
  0
LINE
  5
37FC
330
18
100
AcDbEntity
  8
0
100
AcDbLine
 10
257.764540742708
 20
1067.551864548498
 30
0.0
 11
254.264540742708
 21
1069.570197881831
 31
0.0
  0
ARC
  5
37FD
330
18
100
AcDbEntity
  8
0
100
AcDbCircle
 10
252.9950437136603
 20
1062.925712646909
 30
0.0
 40
6.644500231519874
100
AcDbArc
 50
75.93283644523387
 51
135.8740677452009
  0
LINE
  5
37FE
330
18
100
AcDbEntity
  8
0
100
AcDbLine
 10
400.941665669543
 20
1067.551864548498
 30
0.0
 11
404.441665669543
 21
1069.570197881831
 31
0.0
  0
ARC
  5
37FF
330
18
100
AcDbEntity
  8
0
100
AcDbCircle
 10
405.7111626985906
 20
1062.925712646909
 30
0.0
 40
6.644500231519874
100
AcDbArc
 50
44.12593225479906
 51
104.0671635547661
  0
CIRCLE
  5
3800
330
18
100
AcDbEntity
  8
0
100
AcDbCircle
 10
250.0132780842377
 20
1030.31893522336
 30
0.0
 40
6.0
  0
CIRCLE
  5
3801
330
18
100
AcDbEntity
  8
0
100
AcDbCircle
 10
250.0132780842377
 20
980.8214605403023
 30
0.0
 40
6.0
  0
CIRCLE
  5
3802
330
18
100
AcDbEntity
  8
0
100
AcDbCircle
 10
225.264540742708
 20
1005.570197881831
 30
0.0
 40
47.5
  0
LINE
  5
3803
330
18
100
AcDbEntity
  8
0
100
AcDbLine
 10
257.764540742708
 20
1058.570197881831
 30
0.0
 11
192.764540742708
 21
1058.570197881831
 31
0.0
  0
TEXT
  5
3804
330
18
100
AcDbEntity
  8
0
100
AcDbText
 10
109.4277057418612
 20
1004.934102758229
 30
0.0
 40
20.0
  1
正面
100
AcDbText
  0
CIRCLE
  5
3805
330
18
100
AcDbEntity
  8
0
100
AcDbCircle
 10
200.5158034011792
 20
980.8214605403023
 30
0.0
 40
6.0
  0
CIRCLE
  5
3806
330
18
100
AcDbEntity
  8
0
100
AcDbCircle
 10
200.5158034011792
 20
1030.31893522336
 30
0.0
 40
6.0
  0
LINE
  5
3807
330
18
100
AcDbEntity
  8
0
100
AcDbLine
 10
192.764540742708
 20
1042.570197881831
 30
0.0
 11
192.764540742708
 21
1067.551864548498
 31
0.0
  0
LINE
  5
3808
330
18
100
AcDbEntity
  8
0
100
AcDbLine
 10
193.764540742708
 20
1041.570197881831
 30
0.0
 11
192.764540742708
 21
1042.570197881831
 31
0.0
  0
LINE
  5
3809
330
18
100
AcDbEntity
  8
0
100
AcDbLine
 10
194.2766398780158
 20
1041.570197881831
 30
0.0
 11
193.764540742708
 21
1041.570197881831
 31
0.0
  0
LINE
  5
380A
330
18
100
AcDbEntity
  8
0
100
AcDbLine
 10
202.3035348008024
 20
1067.551864548498
 30
0.0
 11
202.3035348008024
 21
1058.570197881831
 31
0.0
  0
LINE
  5
380B
330
18
100
AcDbEntity
  8
0
100
AcDbLine
 10
225.264540742708
 20
1058.570197881831
 30
0.0
 11
225.264540742708
 21
1067.551864548498
 31
0.0
  0
LINE
  5
380C
330
18
100
AcDbEntity
  8
0
100
AcDbLine
 10
248.2255466846136
 20
1067.551864548498
 30
0.0
 11
248.2255466846136
 21
1058.570197881831
 31
0.0
  0
LINE
  5
380D
330
18
100
AcDbEntity
  8
0
100
AcDbLine
 10
329.5758702842172
 20
1006.455346565724
 30
0.0
 11
339.2351202842164
 21
997.0019715657244
 31
0.0
  0
LINE
  5
380E
330
18
100
AcDbEntity
  8
0
100
AcDbLine
 10
339.2351202842164
 20
997.0019715657244
 30
0.0
 11
291.966557784216
 21
997.0019715657244
 31
0.0
  0
LINE
  5
380F
330
18
100
AcDbEntity
  8
0
100
AcDbLine
 10
291.966557784216
 20
997.0019715657244
 30
0.0
 11
282.5131827842164
 21
1006.455346565724
 31
0.0
  0
LINE
  5
3810
330
18
100
AcDbEntity
  8
0
100
AcDbLine
 10
282.5131827842164
 20
1006.455346565724
 30
0.0
 11
310.8733077842166
 21
1006.455346565724
 31
0.0
  0
LINE
  5
3811
330
18
100
AcDbEntity
  8
0
100
AcDbLine
 10
329.5758702842172
 20
1001.728659065724
 30
0.0
 11
329.5758702842172
 21
1006.455346565724
 31
0.0
  0
LINE
  5
3812
330
18
100
AcDbEntity
  8
0
100
AcDbLine
 10
310.8733077842166
 20
1006.455346565724
 30
0.0
 11
315.6016827842167
 21
1001.728659065724
 31
0.0
  0
LINE
  5
3813
330
18
100
AcDbEntity
  8
0
100
AcDbLine
 10
315.6016827842167
 20
1001.728659065724
 30
0.0
 11
329.5758702842172
 21
1001.728659065724
 31
0.0
  0
LINE
  5
3814
330
18
100
AcDbEntity
  8
0
100
AcDbLine
 10
257.764540742708
 20
1042.570197881831
 30
0.0
 11
257.764540742708
 21
1067.551864548498
 31
0.0
  0
LINE
  5
3815
330
18
100
AcDbEntity
  8
0
100
AcDbLine
 10
256.764540742708
 20
1041.570197881831
 30
0.0
 11
257.764540742708
 21
1042.570197881831
 31
0.0
  0
LINE
  5
3816
330
18
100
AcDbEntity
  8
0
100
AcDbLine
 10
256.764540742708
 20
1041.570197881831
 30
0.0
 11
256.2524416074002
 21
1041.570197881831
 31
0.0
  0
LINE
  5
3817
330
18
100
AcDbEntity
  8
0
100
AcDbLine
 10
345.941665669543
 20
1053.070197881831
 30
0.0
 11
345.941665669543
 21
1005.570197881831
 31
0.0
  0
LINE
  5
3818
330
18
100
AcDbEntity
  8
0
100
AcDbLine
 10
361.941665669543
 20
1053.070197881831
 30
0.0
 11
361.941665669543
 21
958.0701978818314
 31
0.0
  0
LINE
  5
3819
330
18
100
AcDbEntity
  8
0
100
AcDbLine
 10
361.941665669543
 20
988.0663847264452
 30
0.0
 11
381.9416656695429
 21
992.0701978818314
 31
0.0
  0
LINE
  5
381A
330
18
100
AcDbEntity
  8
0
100
AcDbLine
 10
345.941665669543
 20
1005.570197881831
 30
0.0
 11
345.941665669543
 21
958.0701978818314
 31
0.0
  0
LINE
  5
381B
330
18
100
AcDbEntity
  8
0
100
AcDbLine
 10
345.941665669543
 20
958.0701978818314
 30
0.0
 11
361.941665669543
 21
958.0701978818314
 31
0.0
  0
LINE
  5
381C
330
18
100
AcDbEntity
  8
0
100
AcDbLine
 10
381.9416656695429
 20
1019.070197881831
 30
0.0
 11
361.941665669543
 21
1023.074011037217
 31
0.0
  0
LINE
  5
381D
330
18
100
AcDbEntity
  8
0
100
AcDbLine
 10
361.941665669543
 20
1053.070197881831
 30
0.0
 11
345.941665669543
 21
1053.070197881831
 31
0.0
  0
LINE
  5
381E
330
18
100
AcDbEntity
  8
0
100
AcDbLine
 10
409.941665669543
 20
1041.570197881831
 30
0.0
 11
409.941665669543
 21
1022.070197881831
 31
0.0
  0
LINE
  5
381F
330
18
100
AcDbEntity
  8
0
100
AcDbLine
 10
406.9416656695429
 20
1019.070197881831
 30
0.0
 11
381.9416656695429
 21
1019.070197881831
 31
0.0
  0
ARC
  5
3820
330
18
100
AcDbEntity
  8
0
100
AcDbCircle
 10
406.9405722717347
 20
1022.071291279643
 30
0.0
 40
3.001093596992227
100
AcDbArc
 50
270.0208747508463
 51
359.9791252490798
  0
LINE
  5
3821
330
18
100
AcDbEntity
  8
0
100
AcDbLine
 10
410.4806597276374
 20
1067.551864548498
 30
0.0
 11
410.4806597276374
 21
1058.570197881831
 31
0.0
  0
LINE
  5
3822
330
18
100
AcDbEntity
  8
0
100
AcDbLine
 10
401.941665669543
 20
1041.570197881831
 30
0.0
 11
400.941665669543
 21
1042.570197881831
 31
0.0
  0
LINE
  5
3823
330
18
100
AcDbEntity
  8
0
100
AcDbLine
 10
400.941665669543
 20
1042.570197881831
 30
0.0
 11
400.941665669543
 21
1067.551864548498
 31
0.0
  0
LINE
  5
3824
330
18
100
AcDbEntity
  8
0
100
AcDbLine
 10
196.264540742708
 20
1069.570197881831
 30
0.0
 11
254.264540742708
 21
1069.570197881831
 31
0.0
  0
TEXT
  5
3825
330
18
100
AcDbEntity
  8
0
100
AcDbText
 10
109.4277057418612
 20
1170.488097428992
 30
0.0
 40
20.0
  1
平面
100
AcDbText
  0
LINE
  5
3826
330
18
100
AcDbEntity
  8
0
100
AcDbLine
 10
324.8304708148884
 20
1189.019863310827
 30
0.0
 11
334.4897208148877
 21
1179.566488310827
 31
0.0
  0
LINE
  5
3827
330
18
100
AcDbEntity
  8
0
100
AcDbLine
 10
287.2211583148873
 20
1179.566488310827
 30
0.0
 11
277.7677833148877
 21
1189.019863310827
 31
0.0
  0
LINE
  5
3828
330
18
100
AcDbEntity
  8
0
100
AcDbLine
 10
345.941665669543
 20
1184.043564227914
 30
0.0
 11
345.941665669543
 21
1136.543564227914
 31
0.0
  0
LINE
  5
3829
330
18
100
AcDbEntity
  8
0
100
AcDbLine
 10
361.9426656695432
 20
1231.543564227914
 30
0.0
 11
361.9426656695432
 21
1136.543564227914
 31
0.0
  0
LINE
  5
382A
330
18
100
AcDbEntity
  8
0
100
AcDbLine
 10
334.4897208148877
 20
1179.566488310827
 30
0.0
 11
287.2211583148873
 21
1179.566488310827
 31
0.0
  0
LINE
  5
382B
330
18
100
AcDbEntity
  8
0
100
AcDbLine
 10
381.9426656695432
 20
1170.543564227914
 30
0.0
 11
361.9426656695432
 21
1166.539989607718
 31
0.0
  0
LINE
  5
382C
330
18
100
AcDbEntity
  8
0
100
AcDbLine
 10
361.9426656695432
 20
1136.543564227914
 30
0.0
 11
345.941665669543
 21
1136.543564227914
 31
0.0
  0
LINE
  5
382D
330
18
100
AcDbEntity
  8
0
100
AcDbLine
 10
403.8781746713539
 20
1170.543564227914
 30
0.0
 11
381.9426656695432
 21
1170.543564227914
 31
0.0
  0
LINE
  5
382E
330
18
100
AcDbEntity
  8
0
100
AcDbLine
 10
277.7677833148877
 20
1189.019863310827
 30
0.0
 11
306.1279083148879
 21
1189.019863310827
 31
0.0
  0
LINE
  5
382F
330
18
100
AcDbEntity
  8
0
100
AcDbLine
 10
306.1279083148879
 20
1189.019863310827
 30
0.0
 11
310.856283314888
 21
1184.293175810827
 31
0.0
  0
LINE
  5
3830
330
18
100
AcDbEntity
  8
0
100
AcDbLine
 10
324.8304708148884
 20
1184.293175810827
 30
0.0
 11
324.8304708148884
 21
1189.019863310827
 31
0.0
  0
LINE
  5
3831
330
18
100
AcDbEntity
  8
0
100
AcDbLine
 10
310.856283314888
 20
1184.293175810827
 30
0.0
 11
324.8304708148884
 21
1184.293175810827
 31
0.0
  0
LINE
  5
3832
330
18
100
AcDbEntity
  8
0
100
AcDbLine
 10
361.9426656695432
 20
1201.535223447455
 30
0.0
 11
381.9426656695432
 21
1197.543564227914
 31
0.0
  0
LINE
  5
3833
330
18
100
AcDbEntity
  8
0
100
AcDbLine
 10
345.941665669543
 20
1231.543564227914
 30
0.0
 11
345.941665669543
 21
1184.043564227914
 31
0.0
  0
LINE
  5
3834
330
18
100
AcDbEntity
  8
0
100
AcDbLine
 10
345.941665669543
 20
1231.543564227914
 30
0.0
 11
361.9426656695432
 21
1231.543564227914
 31
0.0
  0
LINE
  5
3835
330
18
100
AcDbEntity
  8
0
100
AcDbLine
 10
381.9426656695432
 20
1197.543564227914
 30
0.0
 11
403.8781746713539
 21
1197.543564227914
 31
0.0
  0
TEXT
  5
3836
330
18
100
AcDbEntity
  8
0
100
AcDbText
 10
104.1330957605196
 20
1363.46823219796
 30
0.0
 40
20.0
  1
背面
100
AcDbText
  0
LINE
  5
3837
330
18
100
AcDbEntity
  8
0
100
AcDbLine
 10
395.6470556882013
 20
1398.464668801075
 30
0.0
 11
395.6470556882013
 21
1423.446335467741
 31
0.0
  0
LINE
  5
3838
330
18
100
AcDbEntity
  8
0
100
AcDbLine
 10
356.6470556882013
 20
1308.964668801075
 30
0.0
 11
356.6470556882013
 21
1403.964668801075
 31
0.0
  0
LINE
  5
3839
330
18
100
AcDbEntity
  8
0
100
AcDbLine
 10
340.6470556882013
 20
1308.964668801075
 30
0.0
 11
340.6470556882013
 21
1356.464668801075
 31
0.0
  0
LINE
  5
383A
330
18
100
AcDbEntity
  8
0
100
AcDbLine
 10
376.6470556882013
 20
1342.964668801075
 30
0.0
 11
356.6470556882013
 21
1338.960855645689
 31
0.0
  0
LINE
  5
383B
330
18
100
AcDbEntity
  8
0
100
AcDbLine
 10
356.6470556882013
 20
1308.964668801075
 30
0.0
 11
340.6470556882013
 21
1308.964668801075
 31
0.0
  0
LINE
  5
383C
330
18
100
AcDbEntity
  8
0
100
AcDbLine
 10
407.6470556882013
 20
1342.964668801075
 30
0.0
 11
376.6470556882013
 21
1342.964668801075
 31
0.0
  0
LINE
  5
383D
330
18
100
AcDbEntity
  8
0
100
AcDbLine
 10
356.6470556882013
 20
1373.968481956461
 30
0.0
 11
376.6470556882013
 21
1369.964668801075
 31
0.0
  0
LINE
  5
383E
330
18
100
AcDbEntity
  8
0
100
AcDbLine
 10
340.6470556882013
 20
1356.464668801075
 30
0.0
 11
340.6470556882013
 21
1403.964668801075
 31
0.0
  0
LINE
  5
383F
330
18
100
AcDbEntity
  8
0
100
AcDbLine
 10
340.6470556882013
 20
1403.964668801075
 30
0.0
 11
356.6470556882013
 21
1403.964668801075
 31
0.0
  0
LINE
  5
3840
330
18
100
AcDbEntity
  8
0
100
AcDbLine
 10
404.6470556882013
 20
1372.964668801075
 30
0.0
 11
404.6470556882013
 21
1397.464668801075
 31
0.0
  0
LINE
  5
3841
330
18
100
AcDbEntity
  8
0
100
AcDbLine
 10
376.6470556882013
 20
1369.964668801075
 30
0.0
 11
401.6470556882013
 21
1369.964668801075
 31
0.0
  0
ARC
  5
3842
330
18
100
AcDbEntity
  8
0
100
AcDbCircle
 10
401.645962290393
 20
1372.965762198887
 30
0.0
 40
3.001093596992227
100
AcDbArc
 50
270.0208747508463
 51
359.9791252490798
  0
LINE
  5
3843
330
18
100
AcDbEntity
  8
0
100
AcDbLine
 10
396.6470556882013
 20
1397.464668801075
 30
0.0
 11
395.6470556882013
 21
1398.464668801075
 31
0.0
  0
ARC
  5
3844
330
18
100
AcDbEntity
  8
0
100
AcDbCircle
 10
400.416552717249
 20
1418.820183566153
 30
0.0
 40
6.644500231519874
100
AcDbArc
 50
44.12593225479906
 51
104.0671635547659
  0
LINE
  5
3845
330
18
100
AcDbEntity
  8
0
100
AcDbLine
 10
399.1470556882013
 20
1425.464668801075
 30
0.0
 11
395.6470556882013
 21
1423.446335467741
 31
0.0
  0
LINE
  5
3846
330
18
100
AcDbEntity
  8
0
100
AcDbLine
 10
405.1860497462958
 20
1423.446335467741
 30
0.0
 11
405.1860497462958
 21
1414.464668801075
 31
0.0
  0
ARC
  5
3847
330
18
100
AcDbEntity
  8
0
100
AcDbCircle
 10
624.2679861015304
 20
1062.925712646909
 30
0.0
 40
6.644500231519874
100
AcDbArc
 50
75.93283644523404
 51
135.8740677452009
  0
LINE
  5
3848
330
18
100
AcDbEntity
  8
0
100
AcDbLine
 10
625.537483130578
 20
1069.570197881831
 30
0.0
 11
629.037483130578
 21
1067.551864548498
 31
0.0
  0
ARC
  5
3849
330
18
100
AcDbEntity
  8
0
100
AcDbCircle
 10
585.0569801596257
 20
1035.90984662407
 30
0.0
 40
33.66035125776125
100
AcDbArc
 50
70.05798215649914
 51
109.9420178435008
  0
ARC
  5
384A
330
18
100
AcDbEntity
  8
0
100
AcDbCircle
 10
608.0179861015303
 20
1035.90984662407
 30
0.0
 40
33.66035125776125
100
AcDbArc
 50
70.05798215649917
 51
109.9420178435008
  0
LINE
  5
384B
330
18
100
AcDbEntity
  8
0
100
AcDbLine
 10
564.037483130578
 20
1067.551864548498
 30
0.0
 11
567.537483130578
 21
1069.570197881831
 31
0.0
  0
ARC
  5
384C
330
18
100
AcDbEntity
  8
0
100
AcDbCircle
 10
568.8069801596257
 20
1062.925712646909
 30
0.0
 40
6.644500231519874
100
AcDbArc
 50
44.12593225479906
 51
104.0671635547661
  0
LINE
  5
384D
330
18
100
AcDbEntity
  8
0
100
AcDbLine
 10
462.4416656695429
 20
1069.570197881831
 30
0.0
 11
465.9416656695429
 21
1067.551864548498
 31
0.0
  0
ARC
  5
384E
330
18
100
AcDbEntity
  8
0
100
AcDbCircle
 10
461.1721686404953
 20
1062.925712646909
 30
0.0
 40
6.644500231519874
100
AcDbArc
 50
75.93283644523404
 51
135.8740677452009
  0
ARC
  5
384F
330
18
100
AcDbEntity
  8
0
100
AcDbCircle
 10
444.9221686404952
 20
1035.90984662407
 30
0.0
 40
33.66035125776125
100
AcDbArc
 50
70.05798215649917
 51
109.9420178435008
  0
CIRCLE
  5
3850
330
18
100
AcDbEntity
  8
0
100
AcDbCircle
 10
571.7887457890483
 20
1030.31893522336
 30
0.0
 40
6.0
  0
LINE
  5
3851
330
18
100
AcDbEntity
  8
0
100
AcDbLine
 10
564.037483130578
 20
1058.570197881831
 30
0.0
 11
629.037483130578
 21
1058.570197881831
 31
0.0
  0
CIRCLE
  5
3852
330
18
100
AcDbEntity
  8
0
100
AcDbCircle
 10
571.7887457890483
 20
980.8214605403023
 30
0.0
 40
6.0
  0
CIRCLE
  5
3853
330
18
100
AcDbEntity
  8
0
100
AcDbCircle
 10
596.537483130578
 20
1005.570197881831
 30
0.0
 40
47.5
  0
TEXT
  5
3854
330
18
100
AcDbEntity
  8
0
100
AcDbText
 10
414.9731167962545
 20
951.0931432601596
 30
0.0
 40
15.0
  1
15A
 41
0.8
 11
414.9731167962545
 21
951.0931432601596
 31
0.0
100
AcDbText
 73
     1
  0
LINE
  5
3855
330
18
100
AcDbEntity
  8
0
100
AcDbLine
 10
484.941665669543
 20
992.0701978818314
 30
0.0
 11
504.941665669543
 21
988.0663847264454
 31
0.0
  0
LINE
  5
3856
330
18
100
AcDbEntity
  8
0
100
AcDbLine
 10
504.941665669543
 20
1023.074011037217
 30
0.0
 11
484.941665669543
 21
1019.070197881831
 31
0.0
  0
LINE
  5
3857
330
18
100
AcDbEntity
  8
0
100
AcDbLine
 10
416.4416656695429
 20
1016.570197881831
 30
0.0
 11
416.4416656695429
 21
994.5701978818314
 31
0.0
  0
LINE
  5
3858
330
18
100
AcDbEntity
  8
0
100
AcDbLine
 10
450.441665669543
 20
994.5701978818314
 30
0.0
 11
450.441665669543
 21
1016.570197881831
 31
0.0
  0
ARC
  5
3859
330
18
100
AcDbEntity
  8
0
100
AcDbCircle
 10
453.9397646190364
 20
1006.07035289293
 30
0.0
 40
14.00015514016805
100
AcDbArc
 50
244.0644808277979
 51
270.0077800688573
  0
LINE
  5
385A
330
18
100
AcDbEntity
  8
0
100
AcDbLine
 10
416.4416656695429
 20
994.5701978818314
 30
0.0
 11
450.441665669543
 21
994.5701978818314
 31
0.0
  0
ARC
  5
385B
330
18
100
AcDbEntity
  8
0
100
AcDbCircle
 10
432.943704847793
 20
1006.069752869929
 30
0.0
 40
13.99955513661157
100
AcDbArc
 50
269.9916542842473
 51
295.9360848190971
  0
ARC
  5
385C
330
18
100
AcDbEntity
  8
0
100
AcDbCircle
 10
443.441665669543
 20
984.4881041307463
 30
0.0
 40
9.999918751085134
100
AcDbArc
 50
64.05529373346642
 51
115.9447062665335
  0
LINE
  5
385D
330
18
100
AcDbEntity
  8
0
100
AcDbLine
 10
453.9416656695429
 20
992.0701978818314
 30
0.0
 11
484.941665669543
 21
992.0701978818314
 31
0.0
  0
ARC
  5
385E
330
18
100
AcDbEntity
  8
0
100
AcDbCircle
 10
433.441665669543
 20
1112.611864548468
 30
0.0
 40
93.54166666663681
100
AcDbArc
 50
257.5288347128761
 51
282.4711652871238
  0
LINE
  5
385F
330
18
100
AcDbEntity
  8
0
100
AcDbLine
 10
450.441665669543
 20
1016.570197881831
 30
0.0
 11
416.4416656695429
 21
1016.570197881831
 31
0.0
  0
LINE
  5
3860
330
18
100
AcDbEntity
  8
0
100
AcDbLine
 10
433.441665669543
 20
1058.570197881831
 30
0.0
 11
433.441665669543
 21
1067.551864548498
 31
0.0
  0
LINE
  5
3861
330
18
100
AcDbEntity
  8
0
100
AcDbLine
 10
456.9416656695429
 20
1022.070197881831
 30
0.0
 11
456.9416656695429
 21
1041.570197881831
 31
0.0
  0
LINE
  5
3862
330
18
100
AcDbEntity
  8
0
100
AcDbLine
 10
484.941665669543
 20
1019.070197881831
 30
0.0
 11
459.941665669543
 21
1019.070197881831
 31
0.0
  0
ARC
  5
3863
330
18
100
AcDbEntity
  8
0
100
AcDbCircle
 10
459.9427590673513
 20
1022.071291279643
 30
0.0
 40
3.001093596992227
100
AcDbArc
 50
180.0208747509201
 51
269.9791252491536
  0
LINE
  5
3864
330
18
100
AcDbEntity
  8
0
100
AcDbLine
 10
464.941665669543
 20
1041.570197881831
 30
0.0
 11
465.9416656695429
 21
1042.570197881831
 31
0.0
  0
LINE
  5
3865
330
18
100
AcDbEntity
  8
0
100
AcDbLine
 10
465.9416656695429
 20
1042.570197881831
 30
0.0
 11
465.9416656695429
 21
1067.551864548498
 31
0.0
  0
LINE
  5
3866
330
18
100
AcDbEntity
  8
0
100
AcDbLine
 10
456.4026716114486
 20
1067.551864548498
 30
0.0
 11
456.4026716114486
 21
1058.570197881831
 31
0.0
  0
LINE
  5
3867
330
18
100
AcDbEntity
  8
0
100
AcDbLine
 10
520.941665669543
 20
1005.570197881831
 30
0.0
 11
520.941665669543
 21
1053.070197881831
 31
0.0
  0
LINE
  5
3868
330
18
100
AcDbEntity
  8
0
100
AcDbLine
 10
504.941665669543
 20
958.0701978818314
 30
0.0
 11
504.941665669543
 21
1053.070197881831
 31
0.0
  0
LINE
  5
3869
330
18
100
AcDbEntity
  8
0
100
AcDbLine
 10
520.941665669543
 20
958.0701978818314
 30
0.0
 11
520.941665669543
 21
1005.570197881831
 31
0.0
  0
LINE
  5
386A
330
18
100
AcDbEntity
  8
0
100
AcDbLine
 10
504.941665669543
 20
958.0701978818314
 30
0.0
 11
520.941665669543
 21
958.0701978818314
 31
0.0
  0
LINE
  5
386B
330
18
100
AcDbEntity
  8
0
100
AcDbLine
 10
520.941665669543
 20
1053.070197881831
 30
0.0
 11
504.941665669543
 21
1053.070197881831
 31
0.0
  0
LINE
  5
386C
330
18
100
AcDbEntity
  8
0
100
AcDbLine
 10
565.037483130578
 20
1041.570197881831
 30
0.0
 11
564.037483130578
 21
1042.570197881831
 31
0.0
  0
LINE
  5
386D
330
18
100
AcDbEntity
  8
0
100
AcDbLine
 10
565.037483130578
 20
1041.570197881831
 30
0.0
 11
565.5495822658858
 21
1041.570197881831
 31
0.0
  0
LINE
  5
386E
330
18
100
AcDbEntity
  8
0
100
AcDbLine
 10
564.037483130578
 20
1042.570197881831
 30
0.0
 11
564.037483130578
 21
1067.551864548498
 31
0.0
  0
CIRCLE
  5
386F
330
18
100
AcDbEntity
  8
0
100
AcDbCircle
 10
621.2862204721068
 20
980.8214605403023
 30
0.0
 40
6.0
  0
LINE
  5
3870
330
18
100
AcDbEntity
  8
0
100
AcDbLine
 10
573.5764771886724
 20
1067.551864548498
 30
0.0
 11
573.5764771886724
 21
1058.570197881831
 31
0.0
  0
LINE
  5
3871
330
18
100
AcDbEntity
  8
0
100
AcDbLine
 10
596.537483130578
 20
1058.570197881831
 30
0.0
 11
596.537483130578
 21
1067.551864548498
 31
0.0
  0
CIRCLE
  5
3872
330
18
100
AcDbEntity
  8
0
100
AcDbCircle
 10
621.2862204721068
 20
1030.31893522336
 30
0.0
 40
6.0
  0
LINE
  5
3873
330
18
100
AcDbEntity
  8
0
100
AcDbLine
 10
627.5253839952702
 20
1041.570197881831
 30
0.0
 11
628.037483130578
 21
1041.570197881831
 31
0.0
  0
LINE
  5
3874
330
18
100
AcDbEntity
  8
0
100
AcDbLine
 10
628.037483130578
 20
1041.570197881831
 30
0.0
 11
629.037483130578
 21
1042.570197881831
 31
0.0
  0
LINE
  5
3875
330
18
100
AcDbEntity
  8
0
100
AcDbLine
 10
629.037483130578
 20
1042.570197881831
 30
0.0
 11
629.037483130578
 21
1067.551864548498
 31
0.0
  0
LINE
  5
3876
330
18
100
AcDbEntity
  8
0
100
AcDbLine
 10
619.4984890724835
 20
1067.551864548498
 30
0.0
 11
619.4984890724835
 21
1058.570197881831
 31
0.0
  0
LINE
  5
3877
330
18
100
AcDbEntity
  8
0
100
AcDbLine
 10
625.537483130578
 20
1069.570197881831
 30
0.0
 11
567.537483130578
 21
1069.570197881831
 31
0.0
  0
LINE
  5
3878
330
18
100
AcDbEntity
  8
0
100
AcDbLine
 10
520.941665669543
 20
1136.543564227914
 30
0.0
 11
520.941665669543
 21
1184.043564227914
 31
0.0
  0
LINE
  5
3879
330
18
100
AcDbEntity
  8
0
100
AcDbLine
 10
504.941665669543
 20
1231.543564227914
 30
0.0
 11
504.941665669543
 21
1136.543564227914
 31
0.0
  0
CIRCLE
  5
387A
330
18
100
AcDbEntity
  8
0
100
AcDbCircle
 10
433.441665669543
 20
1184.043564227914
 30
0.0
 40
21.0001
  0
CIRCLE
  5
387B
330
18
100
AcDbEntity
  8
0
100
AcDbCircle
 10
433.441665669543
 20
1184.043564227914
 30
0.0
 40
18.5
  0
LINE
  5
387C
330
18
100
AcDbEntity
  8
0
100
AcDbLine
 10
504.941665669543
 20
1166.539989607718
 30
0.0
 11
484.941665669543
 21
1170.543564227914
 31
0.0
  0
LINE
  5
387D
330
18
100
AcDbEntity
  8
0
100
AcDbLine
 10
484.941665669543
 20
1170.543564227914
 30
0.0
 11
463.005156667732
 21
1170.543564227914
 31
0.0
  0
LINE
  5
387E
330
18
100
AcDbEntity
  8
0
100
AcDbLine
 10
520.941665669543
 20
1136.543564227914
 30
0.0
 11
504.941665669543
 21
1136.543564227914
 31
0.0
  0
LINE
  5
387F
330
18
100
AcDbEntity
  8
0
100
AcDbLine
 10
484.941665669543
 20
1197.543564227914
 30
0.0
 11
504.941665669543
 21
1201.535223447455
 31
0.0
  0
LINE
  5
3880
330
18
100
AcDbEntity
  8
0
100
AcDbLine
 10
463.005156667732
 20
1197.543564227914
 30
0.0
 11
484.941665669543
 21
1197.543564227914
 31
0.0
  0
LINE
  5
3881
330
18
100
AcDbEntity
  8
0
100
AcDbLine
 10
520.941665669543
 20
1184.043564227914
 30
0.0
 11
520.941665669543
 21
1231.543564227915
 31
0.0
  0
LINE
  5
3882
330
18
100
AcDbEntity
  8
0
100
AcDbLine
 10
504.941665669543
 20
1231.543564227914
 30
0.0
 11
520.941665669543
 21
1231.543564227914
 31
0.0
  0
LINE
  5
3883
330
18
100
AcDbEntity
  8
0
100
AcDbLine
 10
1009.538886546633
 20
1001.74390937697
 30
0.0
 11
1000.085511546633
 21
1011.19728437697
 31
0.0
  0
LINE
  5
3884
330
18
100
AcDbEntity
  8
0
100
AcDbLine
 10
1000.085511546633
 20
1011.19728437697
 30
0.0
 11
1028.445636546633
 21
1011.19728437697
 31
0.0
  0
ARC
  5
3885
330
18
100
AcDbEntity
  8
0
100
AcDbCircle
 10
926.3626829403683
 20
1032.90984662407
 30
0.0
 40
33.66035125776125
100
AcDbArc
 50
70.05798215649917
 51
109.9420178435008
  0
CIRCLE
  5
3886
330
18
100
AcDbEntity
  8
0
100
AcDbCircle
 10
937.8431859113216
 20
1005.570197881831
 30
0.0
 40
50.0
  0
LINE
  5
3887
330
18
100
AcDbEntity
  8
0
100
AcDbLine
 10
966.8431859113216
 20
1066.570197881831
 30
0.0
 11
908.8431859113216
 21
1066.570197881831
 31
0.0
  0
LINE
  5
3888
330
18
100
AcDbEntity
  8
0
100
AcDbLine
 10
905.3431859113215
 20
1055.570197881831
 30
0.0
 11
970.3431859113216
 21
1055.570197881831
 31
0.0
  0
CIRCLE
  5
3889
330
18
100
AcDbEntity
  8
0
100
AcDbCircle
 10
911.3266816168261
 20
979.053693587336
 30
0.0
 40
6.0
  0
CIRCLE
  5
388A
330
18
100
AcDbEntity
  8
0
100
AcDbCircle
 10
911.3266816168261
 20
1032.086702176327
 30
0.0
 40
6.0
  0
ARC
  5
388B
330
18
100
AcDbEntity
  8
0
100
AcDbCircle
 10
910.1126829403684
 20
1059.925712646909
 30
0.0
 40
6.644500231519874
100
AcDbArc
 50
44.12593225479907
 51
104.0671635547661
  0
LINE
  5
388C
330
18
100
AcDbEntity
  8
0
100
AcDbLine
 10
914.8821799694159
 20
1064.551864548498
 30
0.0
 11
914.8821799694159
 21
1055.570197881831
 31
0.0
  0
LINE
  5
388D
330
18
100
AcDbEntity
  8
0
100
AcDbLine
 10
905.3431859113224
 20
1043.566908265758
 30
0.0
 11
905.3431859113215
 21
1064.551864548498
 31
0.0
  0
LINE
  5
388E
330
18
100
AcDbEntity
  8
0
100
AcDbLine
 10
905.3431859113215
 20
1064.551864548498
 30
0.0
 11
908.8431859113216
 21
1066.570197881831
 31
0.0
  0
CIRCLE
  5
388F
330
18
100
AcDbEntity
  8
0
100
AcDbCircle
 10
964.359690205817
 20
979.053693587336
 30
0.0
 40
6.0
  0
ARC
  5
3890
330
18
100
AcDbEntity
  8
0
100
AcDbCircle
 10
965.5736888822747
 20
1059.925712646909
 30
0.0
 40
6.644500231519874
100
AcDbArc
 50
75.93283644523406
 51
135.8740677452009
  0
CIRCLE
  5
3891
330
18
100
AcDbEntity
  8
0
100
AcDbCircle
 10
964.359690205817
 20
1032.086702176327
 30
0.0
 40
6.0
  0
ARC
  5
3892
330
18
100
AcDbEntity
  8
0
100
AcDbCircle
 10
949.3236888822748
 20
1032.90984662407
 30
0.0
 40
33.66035125776125
100
AcDbArc
 50
70.05798215649917
 51
109.9420178435008
  0
LINE
  5
3893
330
18
100
AcDbEntity
  8
0
100
AcDbLine
 10
937.8431859113216
 20
1055.570197881831
 30
0.0
 11
937.8431859113216
 21
1064.551864548498
 31
0.0
  0
LINE
  5
3894
330
18
100
AcDbEntity
  8
0
100
AcDbLine
 10
970.3431859113216
 20
1043.566908265757
 30
0.0
 11
970.3431859113216
 21
1064.551864548498
 31
0.0
  0
LINE
  5
3895
330
18
100
AcDbEntity
  8
0
100
AcDbLine
 10
966.8431859113216
 20
1066.570197881831
 30
0.0
 11
970.3431859113216
 21
1064.551864548498
 31
0.0
  0
LINE
  5
3896
330
18
100
AcDbEntity
  8
0
100
AcDbLine
 10
960.8041918532272
 20
1064.551864548498
 30
0.0
 11
960.8041918532272
 21
1055.570197881831
 31
0.0
  0
LINE
  5
3897
330
18
100
AcDbEntity
  8
0
100
AcDbLine
 10
1066.008720426707
 20
1055.570197881831
 30
0.0
 11
1084.008720426707
 21
1055.570197881831
 31
0.0
  0
LINE
  5
3898
330
18
100
AcDbEntity
  8
0
100
AcDbLine
 10
1084.008720426707
 20
955.5701978818316
 30
0.0
 11
1066.008720426707
 21
955.5701978818316
 31
0.0
  0
LINE
  5
3899
330
18
100
AcDbEntity
  8
0
100
AcDbLine
 10
1066.008720426707
 20
1005.570197881831
 30
0.0
 11
1066.008720426707
 21
1055.570197881831
 31
0.0
  0
LINE
  5
389A
330
18
100
AcDbEntity
  8
0
100
AcDbLine
 10
1028.445636546633
 20
1011.19728437697
 30
0.0
 11
1033.174011546633
 21
1006.47059687697
 31
0.0
  0
LINE
  5
389B
330
18
100
AcDbEntity
  8
0
100
AcDbLine
 10
1047.148199046634
 20
1006.47059687697
 30
0.0
 11
1047.148199046634
 21
1011.19728437697
 31
0.0
  0
LINE
  5
389C
330
18
100
AcDbEntity
  8
0
100
AcDbLine
 10
1047.148199046634
 20
1011.19728437697
 30
0.0
 11
1056.807449046633
 21
1001.74390937697
 31
0.0
  0
LINE
  5
389D
330
18
100
AcDbEntity
  8
0
100
AcDbLine
 10
1033.174011546633
 20
1006.47059687697
 30
0.0
 11
1047.148199046634
 21
1006.47059687697
 31
0.0
  0
LINE
  5
389E
330
18
100
AcDbEntity
  8
0
100
AcDbLine
 10
1056.807449046633
 20
1001.74390937697
 30
0.0
 11
1009.538886546633
 21
1001.74390937697
 31
0.0
  0
LINE
  5
389F
330
18
100
AcDbEntity
  8
0
100
AcDbLine
 10
1066.008720426707
 20
955.5701978818316
 30
0.0
 11
1066.008720426707
 21
1005.570197881831
 31
0.0
  0
LINE
  5
38A0
330
18
100
AcDbEntity
  8
0
100
AcDbLine
 10
1139.008720426707
 20
1015.570197881831
 30
0.0
 11
1139.008720426707
 21
995.5701978818314
 31
0.0
  0
LINE
  5
38A1
330
18
100
AcDbEntity
  8
0
100
AcDbLine
 10
1084.008720426707
 20
1055.570197881831
 30
0.0
 11
1084.008720426707
 21
955.5701978818316
 31
0.0
  0
LINE
  5
38A2
330
18
100
AcDbEntity
  8
0
100
AcDbLine
 10
1104.008720426707
 20
988.5701978818316
 30
0.0
 11
1153.508720426707
 21
988.5701978818316
 31
0.0
  0
ARC
  5
38A3
330
18
100
AcDbEntity
  8
0
100
AcDbCircle
 10
1088.008720426707
 20
981.2909822709572
 30
0.0
 40
4.0
100
AcDbArc
 50
101.3099324740209
 51
180.0000000000001
  0
LINE
  5
38A4
330
18
100
AcDbEntity
  8
0
100
AcDbLine
 10
1087.224255886154
 20
985.213304973721
 30
0.0
 11
1104.008720426707
 21
988.5701978818316
 31
0.0
  0
ARC
  5
38A5
330
18
100
AcDbEntity
  8
0
100
AcDbCircle
 10
1140.008720426707
 20
995.5701978818314
 30
0.0
 40
1.0
100
AcDbArc
 50
180.0
 51
270.0
  0
ARC
  5
38A6
330
18
100
AcDbEntity
  8
0
100
AcDbCircle
 10
1153.508720426707
 20
1005.570197881831
 30
0.0
 40
17.0
100
AcDbArc
 50
270.0
 51
292.9933943142978
  0
LINE
  5
38A7
330
18
100
AcDbEntity
  8
0
100
AcDbLine
 10
1104.008720426707
 20
1022.570197881831
 30
0.0
 11
1128.508720426707
 21
1022.570197881831
 31
0.0
  0
LINE
  5
38A8
330
18
100
AcDbEntity
  8
0
100
AcDbLine
 10
1087.224255886154
 20
1025.927090789942
 30
0.0
 11
1104.008720426707
 21
1022.570197881831
 31
0.0
  0
ARC
  5
38A9
330
18
100
AcDbEntity
  8
0
100
AcDbCircle
 10
1088.008720426707
 20
1029.849413492705
 30
0.0
 40
4.0
100
AcDbArc
 50
179.9999999999998
 51
258.6900675259789
  0
LINE
  5
38AA
330
18
100
AcDbEntity
  8
0
100
AcDbLine
 10
1124.508720426707
 20
1038.570197881831
 30
0.0
 11
1123.508720426707
 21
1039.570197881831
 31
0.0
  0
LINE
  5
38AB
330
18
100
AcDbEntity
  8
0
100
AcDbLine
 10
1132.508720426707
 20
1038.570197881831
 30
0.0
 11
1132.508720426707
 21
1026.570197881831
 31
0.0
  0
ARC
  5
38AC
330
18
100
AcDbEntity
  8
0
100
AcDbCircle
 10
1140.008720426707
 20
1015.570197881831
 30
0.0
 40
1.0
100
AcDbArc
 50
90.0
 51
180.0
  0
ARC
  5
38AD
330
18
100
AcDbEntity
  8
0
100
AcDbCircle
 10
1128.508720426707
 20
1026.570197881831
 30
0.0
 40
4.0
100
AcDbArc
 50
270.0
 51
0.0
  0
ARC
  5
38AE
330
18
100
AcDbEntity
  8
0
100
AcDbCircle
 10
1144.528217455754
 20
1032.90984662407
 30
0.0
 40
33.66035125776125
100
AcDbArc
 50
70.05798215649917
 51
109.9420178435008
  0
LINE
  5
38AF
330
18
100
AcDbEntity
  8
0
100
AcDbLine
 10
1133.047714484801
 20
1064.551864548498
 30
0.0
 11
1133.047714484801
 21
1055.570197881831
 31
0.0
  0
LINE
  5
38B0
330
18
100
AcDbEntity
  8
0
100
AcDbLine
 10
1123.508720426707
 20
1039.570197881831
 30
0.0
 11
1123.508720426707
 21
1064.551864548498
 31
0.0
  0
LINE
  5
38B1
330
18
100
AcDbEntity
  8
0
100
AcDbLine
 10
1127.008720426707
 20
1066.570197881831
 30
0.0
 11
1123.508720426707
 21
1064.551864548498
 31
0.0
  0
ARC
  5
38B2
330
18
100
AcDbEntity
  8
0
100
AcDbCircle
 10
1128.278217455754
 20
1059.925712646909
 30
0.0
 40
6.644500231519874
100
AcDbArc
 50
44.12593225479906
 51
104.0671635547659
  0
LINE
  5
38B3
330
18
100
AcDbEntity
  8
0
100
AcDbLine
 10
1156.008720426707
 20
1055.570197881831
 30
0.0
 11
1156.008720426707
 21
1064.551864548498
 31
0.0
  0
LINE
  5
38B4
330
18
100
AcDbEntity
  8
0
100
AcDbLine
 10
1009.538886546633
 20
1179.566488310827
 30
0.0
 11
1000.085511546633
 21
1189.019863310827
 31
0.0
  0
LINE
  5
38B5
330
18
100
AcDbEntity
  8
0
100
AcDbLine
 10
1000.085511546633
 20
1189.019863310827
 30
0.0
 11
1028.445636546633
 21
1189.019863310827
 31
0.0
  0
LINE
  5
38B6
330
18
100
AcDbEntity
  8
0
100
AcDbLine
 10
1084.008720426707
 20
1234.043564227914
 30
0.0
 11
1084.008720426707
 21
1134.043564227914
 31
0.0
  0
LINE
  5
38B7
330
18
100
AcDbEntity
  8
0
100
AcDbLine
 10
1066.008720426707
 20
1134.043564227914
 30
0.0
 11
1066.008720426707
 21
1184.043564227914
 31
0.0
  0
LINE
  5
38B8
330
18
100
AcDbEntity
  8
0
100
AcDbLine
 10
1047.148199046634
 20
1189.019863310827
 30
0.0
 11
1056.807449046633
 21
1179.566488310827
 31
0.0
  0
LINE
  5
38B9
330
18
100
AcDbEntity
  8
0
100
AcDbLine
 10
1084.008720426707
 20
1134.043564227914
 30
0.0
 11
1066.008720426707
 21
1134.043564227914
 31
0.0
  0
LINE
  5
38BA
330
18
100
AcDbEntity
  8
0
100
AcDbLine
 10
1056.807449046633
 20
1179.566488310827
 30
0.0
 11
1009.538886546633
 21
1179.566488310827
 31
0.0
  0
LINE
  5
38BB
330
18
100
AcDbEntity
  8
0
100
AcDbLine
 10
1128.309442457777
 20
1167.043564227914
 30
0.0
 11
1104.008720426707
 21
1167.043564227914
 31
0.0
  0
LINE
  5
38BC
330
18
100
AcDbEntity
  8
0
100
AcDbLine
 10
1087.224255886154
 20
1163.686671319803
 30
0.0
 11
1104.008720426707
 21
1167.043564227914
 31
0.0
  0
ARC
  5
38BD
330
18
100
AcDbEntity
  8
0
100
AcDbCircle
 10
1088.008720426707
 20
1159.76434861704
 30
0.0
 40
4.0
100
AcDbArc
 50
101.3099324740209
 51
180.0000000000001
  0
LINE
  5
38BE
330
18
100
AcDbEntity
  8
0
100
AcDbLine
 10
1066.008720426707
 20
1234.043564227914
 30
0.0
 11
1084.008720426707
 21
1234.043564227914
 31
0.0
  0
LINE
  5
38BF
330
18
100
AcDbEntity
  8
0
100
AcDbLine
 10
1033.174011546633
 20
1184.293175810827
 30
0.0
 11
1047.148199046634
 21
1184.293175810827
 31
0.0
  0
LINE
  5
38C0
330
18
100
AcDbEntity
  8
0
100
AcDbLine
 10
1028.445636546633
 20
1189.019863310827
 30
0.0
 11
1033.174011546633
 21
1184.293175810827
 31
0.0
  0
LINE
  5
38C1
330
18
100
AcDbEntity
  8
0
100
AcDbLine
 10
1066.008720426707
 20
1184.043564227914
 30
0.0
 11
1066.008720426707
 21
1234.043564227914
 31
0.0
  0
LINE
  5
38C2
330
18
100
AcDbEntity
  8
0
100
AcDbLine
 10
1047.148199046634
 20
1184.293175810827
 30
0.0
 11
1047.148199046634
 21
1189.019863310827
 31
0.0
  0
LINE
  5
38C3
330
18
100
AcDbEntity
  8
0
100
AcDbLine
 10
1104.008720426707
 20
1201.043564227914
 30
0.0
 11
1128.508720426707
 21
1201.043564227914
 31
0.0
  0
LINE
  5
38C4
330
18
100
AcDbEntity
  8
0
100
AcDbLine
 10
1087.224255886154
 20
1204.400457136025
 30
0.0
 11
1104.008720426707
 21
1201.043564227914
 31
0.0
  0
ARC
  5
38C5
330
18
100
AcDbEntity
  8
0
100
AcDbCircle
 10
1088.008720426707
 20
1208.322779838788
 30
0.0
 40
4.0
100
AcDbArc
 50
179.9999999999998
 51
258.6900675259789
  0
LINE
  5
38C6
330
18
100
AcDbEntity
  8
0
100
AcDbLine
 10
530.400917300858
 20
1349.690058951505
 30
0.0
 11
577.6694798008584
 21
1349.690058951505
 31
0.0
  0
LINE
  5
38C7
330
18
100
AcDbEntity
  8
0
100
AcDbLine
 10
587.122854800858
 20
1359.143433951505
 30
0.0
 11
558.7627298008579
 21
1359.143433951505
 31
0.0
  0
LINE
  5
38C8
330
18
100
AcDbEntity
  8
0
100
AcDbLine
 10
460.6470556882014
 20
1398.464668801075
 30
0.0
 11
460.6470556882014
 21
1423.446335467741
 31
0.0
  0
LINE
  5
38C9
330
18
100
AcDbEntity
  8
0
100
AcDbLine
 10
499.6470556882013
 20
1338.960855645689
 30
0.0
 11
479.6470556882013
 21
1342.964668801075
 31
0.0
  0
LINE
  5
38CA
330
18
100
AcDbEntity
  8
0
100
AcDbLine
 10
479.6470556882013
 20
1369.964668801075
 30
0.0
 11
499.6470556882013
 21
1373.968481956461
 31
0.0
  0
LINE
  5
38CB
330
18
100
AcDbEntity
  8
0
100
AcDbLine
 10
479.6470556882013
 20
1342.964668801075
 30
0.0
 11
428.6470556882013
 21
1342.964668801075
 31
0.0
  0
ARC
  5
38CC
330
18
100
AcDbEntity
  8
0
100
AcDbCircle
 10
418.1470556882013
 20
1335.38257504999
 30
0.0
 40
9.999918751085134
100
AcDbArc
 50
64.05529373346642
 51
115.9447062665335
  0
ARC
  5
38CD
330
18
100
AcDbEntity
  8
0
100
AcDbCircle
 10
428.6450165099513
 20
1356.964223789173
 30
0.0
 40
13.99955513661157
100
AcDbArc
 50
244.0639151809028
 51
270.0083457157526
  0
ARC
  5
38CE
330
18
100
AcDbEntity
  8
0
100
AcDbCircle
 10
454.6481490860096
 20
1372.965762198887
 30
0.0
 40
3.001093596992227
100
AcDbArc
 50
180.0208747509201
 51
269.9791252491536
  0
LINE
  5
38CF
330
18
100
AcDbEntity
  8
0
100
AcDbLine
 10
451.6470556882013
 20
1397.464668801075
 30
0.0
 11
451.6470556882013
 21
1372.964668801075
 31
0.0
  0
LINE
  5
38D0
330
18
100
AcDbEntity
  8
0
100
AcDbLine
 10
454.6470556882013
 20
1369.964668801075
 30
0.0
 11
479.6470556882013
 21
1369.964668801075
 31
0.0
  0
LINE
  5
38D1
330
18
100
AcDbEntity
  8
0
100
AcDbLine
 10
459.6470556882013
 20
1397.464668801075
 30
0.0
 11
460.6470556882014
 21
1398.464668801075
 31
0.0
  0
LINE
  5
38D2
330
18
100
AcDbEntity
  8
0
100
AcDbLine
 10
558.7627298008579
 20
1359.143433951505
 30
0.0
 11
554.0343548008577
 21
1354.416746451505
 31
0.0
  0
LINE
  5
38D3
330
18
100
AcDbEntity
  8
0
100
AcDbLine
 10
540.0601673008573
 20
1354.416746451505
 30
0.0
 11
540.0601673008573
 21
1359.143433951505
 31
0.0
  0
LINE
  5
38D4
330
18
100
AcDbEntity
  8
0
100
AcDbLine
 10
540.0601673008573
 20
1359.143433951505
 30
0.0
 11
530.400917300858
 21
1349.690058951505
 31
0.0
  0
LINE
  5
38D5
330
18
100
AcDbEntity
  8
0
100
AcDbLine
 10
499.6470556882013
 20
1403.964668801075
 30
0.0
 11
499.6470556882013
 21
1308.964668801075
 31
0.0
  0
LINE
  5
38D6
330
18
100
AcDbEntity
  8
0
100
AcDbLine
 10
515.6470556882013
 20
1356.464668801075
 30
0.0
 11
515.6470556882013
 21
1308.964668801075
 31
0.0
  0
LINE
  5
38D7
330
18
100
AcDbEntity
  8
0
100
AcDbLine
 10
515.6470556882013
 20
1308.964668801075
 30
0.0
 11
499.6470556882013
 21
1308.964668801075
 31
0.0
  0
LINE
  5
38D8
330
18
100
AcDbEntity
  8
0
100
AcDbLine
 10
554.0343548008577
 20
1354.416746451505
 30
0.0
 11
540.0601673008573
 21
1354.416746451505
 31
0.0
  0
LINE
  5
38D9
330
18
100
AcDbEntity
  8
0
100
AcDbLine
 10
515.6470556882013
 20
1403.964668801075
 30
0.0
 11
515.6470556882013
 21
1356.464668801075
 31
0.0
  0
LINE
  5
38DA
330
18
100
AcDbEntity
  8
0
100
AcDbLine
 10
499.6470556882013
 20
1403.964668801075
 30
0.0
 11
515.6470556882013
 21
1403.964668801075
 31
0.0
  0
ARC
  5
38DB
330
18
100
AcDbEntity
  8
0
100
AcDbCircle
 10
455.8775586591536
 20
1418.820183566153
 30
0.0
 40
6.644500231519874
100
AcDbArc
 50
75.93283644523386
 51
135.8740677452009
  0
ARC
  5
38DC
330
18
100
AcDbEntity
  8
0
100
AcDbCircle
 10
439.6275586591537
 20
1391.804317543314
 30
0.0
 40
33.66035125776125
100
AcDbArc
 50
70.05798215649917
 51
109.9420178435008
  0
LINE
  5
38DD
330
18
100
AcDbEntity
  8
0
100
AcDbLine
 10
428.1470556882013
 20
1414.464668801075
 30
0.0
 11
428.1470556882013
 21
1423.446335467741
 31
0.0
  0
LINE
  5
38DE
330
18
100
AcDbEntity
  8
0
100
AcDbLine
 10
451.1080616301069
 20
1423.446335467741
 30
0.0
 11
451.1080616301069
 21
1414.464668801075
 31
0.0
  0
LINE
  5
38DF
330
18
100
AcDbEntity
  8
0
100
AcDbLine
 10
460.6470556882014
 20
1423.446335467741
 30
0.0
 11
457.1470556882013
 21
1425.464668801075
 31
0.0
  0
LINE
  5
38E0
330
18
100
AcDbEntity
  8
0
100
AcDbLine
 10
577.6694798008584
 20
1349.690058951505
 30
0.0
 11
587.122854800858
 21
1359.143433951505
 31
0.0
  0
LINE
  5
38E1
330
18
100
AcDbEntity
  8
0
100
AcDbLine
 10
1150.714110445365
 20
1406.464668801075
 30
0.0
 11
1150.714110445365
 21
1415.446335467741
 31
0.0
  0
LINE
  5
38E2
330
18
100
AcDbEntity
  8
0
100
AcDbLine
 10
1118.214110445365
 20
1390.464668801075
 30
0.0
 11
1118.214110445365
 21
1415.446335467741
 31
0.0
  0
LINE
  5
38E3
330
18
100
AcDbEntity
  8
0
100
AcDbLine
 10
1127.75310450346
 20
1415.446335467741
 30
0.0
 11
1127.75310450346
 21
1406.464668801075
 31
0.0
  0
LINE
  5
38E4
330
18
100
AcDbEntity
  8
0
100
AcDbLine
 10
1081.929645904812
 20
1376.821561709186
 30
0.0
 11
1098.714110445365
 21
1373.464668801075
 31
0.0
  0
LINE
  5
38E5
330
18
100
AcDbEntity
  8
0
100
AcDbLine
 10
1081.929645904812
 20
1336.107775892964
 30
0.0
 11
1098.714110445365
 21
1339.464668801075
 31
0.0
  0
LINE
  5
38E6
330
18
100
AcDbEntity
  8
0
100
AcDbLine
 10
1060.714110445365
 20
1306.464668801075
 30
0.0
 11
1060.714110445365
 21
1356.464668801075
 31
0.0
  0
LINE
  5
38E7
330
18
100
AcDbEntity
  8
0
100
AcDbLine
 10
1078.714110445365
 20
1406.464668801075
 30
0.0
 11
1078.714110445365
 21
1306.464668801075
 31
0.0
  0
LINE
  5
38E8
330
18
100
AcDbEntity
  8
0
100
AcDbLine
 10
1078.714110445365
 20
1306.464668801075
 30
0.0
 11
1060.714110445365
 21
1306.464668801075
 31
0.0
  0
ARC
  5
38E9
330
18
100
AcDbEntity
  8
0
100
AcDbCircle
 10
1082.714110445365
 20
1332.185453190201
 30
0.0
 40
4.0
100
AcDbArc
 50
101.3099324740209
 51
180.0000000000001
  0
LINE
  5
38EA
330
18
100
AcDbEntity
  8
0
100
AcDbLine
 10
1060.714110445365
 20
1356.464668801075
 30
0.0
 11
1060.714110445365
 21
1406.464668801075
 31
0.0
  0
ARC
  5
38EB
330
18
100
AcDbEntity
  8
0
100
AcDbCircle
 10
1082.714110445365
 20
1380.743884411949
 30
0.0
 40
4.0
100
AcDbArc
 50
179.9999999999998
 51
258.6900675259789
  0
LINE
  5
38EC
330
18
100
AcDbEntity
  8
0
100
AcDbLine
 10
1060.714110445365
 20
1406.464668801075
 30
0.0
 11
1078.714110445365
 21
1406.464668801075
 31
0.0
  0
LINE
  5
38ED
330
18
100
AcDbEntity
  8
0
100
AcDbLine
 10
1128.214110445365
 20
1339.464668801075
 30
0.0
 11
1098.714110445365
 21
1339.464668801075
 31
0.0
  0
ARC
  5
38EE
330
18
100
AcDbEntity
  8
0
100
AcDbCircle
 10
1140.714110445365
 20
1327.007072157764
 30
0.0
 40
15.0
100
AcDbArc
 50
67.00660568570222
 51
112.9933943142977
  0
ARC
  5
38EF
330
18
100
AcDbEntity
  8
0
100
AcDbCircle
 10
1128.214110445365
 20
1356.464668801075
 30
0.0
 40
17.0
100
AcDbArc
 50
270.0
 51
292.9933943142978
  0
ARC
  5
38F0
330
18
100
AcDbEntity
  8
0
100
AcDbCircle
 10
1153.214110445365
 20
1356.464668801075
 30
0.0
 40
17.0
100
AcDbArc
 50
247.0066056857021
 51
270.0
  0
LINE
  5
38F1
330
18
100
AcDbEntity
  8
0
100
AcDbLine
 10
1098.714110445365
 20
1373.464668801075
 30
0.0
 11
1123.214110445365
 21
1373.464668801075
 31
0.0
  0
LINE
  5
38F2
330
18
100
AcDbEntity
  8
0
100
AcDbLine
 10
1119.214110445365
 20
1389.464668801075
 30
0.0
 11
1118.214110445365
 21
1390.464668801075
 31
0.0
  0
LINE
  5
38F3
330
18
100
AcDbEntity
  8
0
100
AcDbLine
 10
1127.214110445365
 20
1389.464668801075
 30
0.0
 11
1127.214110445365
 21
1377.464668801075
 31
0.0
  0
ARC
  5
38F4
330
18
100
AcDbEntity
  8
0
100
AcDbCircle
 10
1123.214110445365
 20
1377.464668801075
 30
0.0
 40
4.0
100
AcDbArc
 50
270.0
 51
0.0
  0
ARC
  5
38F5
330
18
100
AcDbEntity
  8
0
100
AcDbCircle
 10
1122.983607474412
 20
1410.820183566152
 30
0.0
 40
6.644500231519874
100
AcDbArc
 50
44.12593225479906
 51
104.0671635547661
  0
LINE
  5
38F6
330
18
100
AcDbEntity
  8
0
100
AcDbLine
 10
1118.214110445365
 20
1415.446335467741
 30
0.0
 11
1121.714110445365
 21
1417.464668801075
 31
0.0
  0
ARC
  5
38F7
330
18
100
AcDbEntity
  8
0
100
AcDbCircle
 10
1139.233607474412
 20
1383.804317543314
 30
0.0
 40
33.66035125776125
100
AcDbArc
 50
70.05798215649917
 51
109.9420178435008
  0
LINE
  5
38F8
330
18
100
AcDbEntity
  8
0
100
AcDbLine
 10
1796.797731855664
 20
699.8944655900963
 30
0.0
 11
1796.797731855664
 21
777.3944655900963
 31
0.0
  0
LINE
  5
38F9
330
18
100
AcDbEntity
  8
0
100
AcDbLine
 10
1816.797731855664
 20
777.3944655900963
 30
0.0
 11
1816.797731855664
 21
622.3944655900964
 31
0.0
  0
ARC
  5
38FA
330
18
100
AcDbEntity
  8
0
100
AcDbCircle
 10
1869.067228884711
 20
769.2499803551738
 30
0.0
 40
6.644500231519874
100
AcDbArc
 50
44.12593225479906
 51
104.0671635547659
  0
ARC
  5
38FB
330
18
100
AcDbEntity
  8
0
100
AcDbCircle
 10
1924.528234826618
 20
769.2499803551738
 30
0.0
 40
6.644500231519874
100
AcDbArc
 50
75.93283644523386
 51
135.8740677452009
  0
LINE
  5
38FC
330
18
100
AcDbEntity
  8
0
100
AcDbLine
 10
1976.797731855664
 20
777.3944655900963
 30
0.0
 11
1976.797731855664
 21
622.3944655900964
 31
0.0
  0
LINE
  5
38FD
330
18
100
AcDbEntity
  8
0
100
AcDbLine
 10
1996.797731855664
 20
699.8944655900963
 30
0.0
 11
1996.797731855664
 21
777.3944655900963
 31
0.0
  0
ARC
  5
38FE
330
18
100
AcDbEntity
  8
0
100
AcDbCircle
 10
1885.317228884711
 20
742.2341143323351
 30
0.0
 40
33.66035125776125
100
AcDbArc
 50
70.05798215649917
 51
109.9420178435008
  0
ARC
  5
38FF
330
18
100
AcDbEntity
  8
0
100
AcDbCircle
 10
1885.317228884711
 20
346.3679701179421
 30
0.0
 40
33.66035125776125
100
AcDbArc
 50
70.05798215649917
 51
109.9420178435008
  0
ARC
  5
3900
330
18
100
AcDbEntity
  8
0
100
AcDbCircle
 10
1871.297731855665
 20
304.0283213757033
 30
0.0
 40
33.0
100
AcDbArc
 50
270.0
 51
302.8951549680857
  0
LINE
  5
3901
330
18
100
AcDbEntity
  8
0
100
AcDbLine
 10
1865.297731855665
 20
352.0283213757031
 30
0.0
 11
1928.297731855665
 21
352.0283213757033
 31
0.0
  0
ARC
  5
3902
330
18
100
AcDbEntity
  8
0
100
AcDbCircle
 10
1896.797731855665
 20
404.7533213757024
 30
0.0
 40
72.72499999999912
100
AcDbArc
 50
253.4314901240993
 51
286.5685098758977
  0
LINE
  5
3903
330
18
100
AcDbEntity
  8
0
100
AcDbLine
 10
1872.797731855665
 20
321.0283213757033
 30
0.0
 11
1920.797731855665
 21
321.0283213757033
 31
0.0
  0
LINE
  5
3904
330
18
100
AcDbEntity
  8
0
100
AcDbLine
 10
1872.797731855665
 20
287.0283213757033
 30
0.0
 11
1920.797731855665
 21
287.0283213757033
 31
0.0
  0
POLYLINE
  5
3905
330
18
100
AcDbEntity
  8
0
100
AcDb2dPolyline
 66
     1
 10
0.0
 20
0.0
 30
0.0
 70
     1
  0
VERTEX
  5
3C3D
330
3905
100
AcDbEntity
  8
0
100
AcDbVertex
100
AcDb2dVertex
 10
1873.836725913758
 20
531.9165857470791
 30
0.0
  0
VERTEX
  5
3C3E
330
3905
100
AcDbEntity
  8
0
100
AcDbVertex
100
AcDb2dVertex
 10
1864.325965846892
 20
508.9555798051738
 30
0.0
  0
VERTEX
  5
3C3F
330
3905
100
AcDbEntity
  8
0
100
AcDbVertex
100
AcDb2dVertex
 10
1873.836725913758
 20
485.9945738632684
 30
0.0
  0
VERTEX
  5
3C40
330
3905
100
AcDbEntity
  8
0
100
AcDbVertex
100
AcDb2dVertex
 10
1896.797731855664
 20
476.483813796402
 30
0.0
  0
VERTEX
  5
3C41
330
3905
100
AcDbEntity
  8
0
100
AcDbVertex
100
AcDb2dVertex
 10
1919.758737797569
 20
485.9945738632684
 30
0.0
  0
VERTEX
  5
3C42
330
3905
100
AcDbEntity
  8
0
100
AcDbVertex
100
AcDb2dVertex
 10
1929.269497864435
 20
508.9555798051738
 30
0.0
  0
VERTEX
  5
3C43
330
3905
100
AcDbEntity
  8
0
100
AcDbVertex
100
AcDb2dVertex
 10
1919.758737797569
 20
531.9165857470791
 30
0.0
  0
VERTEX
  5
3C44
330
3905
100
AcDbEntity
  8
0
100
AcDbVertex
100
AcDb2dVertex
 10
1896.797731855664
 20
541.4273458139456
 30
0.0
  0
SEQEND
  5
3C45
330
3905
100
AcDbEntity
  8
0
  0
CIRCLE
  5
3906
330
18
100
AcDbEntity
  8
0
100
AcDbCircle
 10
1896.797731855664
 20
508.9555798051738
 30
0.0
 40
32.5
  0
CIRCLE
  5
3907
330
18
100
AcDbEntity
  8
0
100
AcDbCircle
 10
1896.797731855664
 20
508.9555798051738
 30
0.0
 40
29.0
  0
LINE
  5
3908
330
18
100
AcDbEntity
  8
0
100
AcDbLine
 10
1925.797731855665
 20
380.0283213757034
 30
0.0
 11
1867.797731855665
 21
380.0283213757034
 31
0.0
  0
LINE
  5
3909
330
18
100
AcDbEntity
  8
0
100
AcDbLine
 10
1864.297731855664
 20
369.0283213757034
 30
0.0
 11
1929.297731855665
 21
369.0283213757034
 31
0.0
  0
LINE
  5
390A
330
18
100
AcDbEntity
  8
0
100
AcDbLine
 10
1956.797731855668
 20
475.9555798051738
 30
0.0
 11
1836.797731855664
 21
475.9555798051738
 31
0.0
  0
LINE
  5
390B
330
18
100
AcDbEntity
  8
0
100
AcDbLine
 10
1956.797731855661
 20
541.9555798051738
 30
0.0
 11
1836.797731855665
 21
541.9555798051738
 31
0.0
  0
CIRCLE
  5
390C
330
18
100
AcDbEntity
  8
0
100
AcDbCircle
 10
1896.797731855664
 20
508.9555798051738
 30
0.0
 40
21.0001
  0
CIRCLE
  5
390D
330
18
100
AcDbEntity
  8
0
100
AcDbCircle
 10
1896.797731855664
 20
508.9555798051738
 30
0.0
 40
18.5
  0
ARC
  5
390E
330
18
100
AcDbEntity
  8
0
100
AcDbCircle
 10
1890.797731855665
 20
651.1938495775653
 30
0.0
 40
25.0
100
AcDbArc
 50
57.1048450319136
 51
122.8951549680864
  0
LINE
  5
390F
330
18
100
AcDbEntity
  8
0
100
AcDbLine
 10
1867.797731855665
 20
775.8944655900964
 30
0.0
 11
1925.797731855665
 21
775.8944655900964
 31
0.0
  0
LINE
  5
3910
330
18
100
AcDbEntity
  8
0
100
AcDbLine
 10
1929.297731855665
 20
764.8944655900963
 30
0.0
 11
1864.297731855664
 21
764.8944655900963
 31
0.0
  0
ARC
  5
3911
330
18
100
AcDbEntity
  8
0
100
AcDbCircle
 10
1896.797731855665
 20
800.6194655900953
 30
0.0
 40
72.72499999999912
100
AcDbArc
 50
253.4314901241022
 51
286.5685098759007
  0
LINE
  5
3912
330
18
100
AcDbEntity
  8
0
100
AcDbLine
 10
1928.297731855665
 20
747.8944655900961
 30
0.0
 11
1865.297731855665
 21
747.8944655900964
 31
0.0
  0
LINE
  5
3913
330
18
100
AcDbEntity
  8
0
100
AcDbLine
 10
1181.705672855201
 20
289.0283213757033
 30
0.0
 11
1181.705672855201
 21
319.0283213757034
 31
0.0
  0
LINE
  5
3914
330
18
100
AcDbEntity
  8
0
100
AcDbLine
 10
1255.705672855201
 20
304.0283213757033
 30
0.0
 11
1255.705672855201
 21
374.0283213757034
 31
0.0
  0
LINE
  5
3915
330
18
100
AcDbEntity
  8
0
100
AcDbLine
 10
1235.705672855201
 20
374.0283213757034
 30
0.0
 11
1235.705672855201
 21
234.0283213757034
 31
0.0
  0
CIRCLE
  5
3916
330
18
100
AcDbEntity
  8
0
100
AcDbCircle
 10
1343.17545849519
 20
304.0283213757033
 30
0.0
 40
70.0
  0
LINE
  5
3917
330
18
100
AcDbEntity
  8
0
100
AcDbLine
 10
1129.705672855201
 20
289.0283213757033
 30
0.0
 11
1129.705672855201
 21
319.0283213757034
 31
0.0
  0
LINE
  5
3918
330
18
100
AcDbEntity
  8
0
100
AcDbLine
 10
1796.797731855664
 20
304.0283213757033
 30
0.0
 11
1796.797731855664
 21
381.5283213757034
 31
0.0
  0
LINE
  5
3919
330
18
100
AcDbEntity
  8
0
100
AcDbLine
 10
1816.797731855665
 20
381.5283213757034
 30
0.0
 11
1816.797731855665
 21
226.5283213757034
 31
0.0
  0
LINE
  5
391A
330
18
100
AcDbEntity
  8
0
100
AcDbLine
 10
1870.797731855665
 20
319.0283213757034
 30
0.0
 11
1870.797731855665
 21
289.0283213757033
 31
0.0
  0
CIRCLE
  5
391B
330
18
100
AcDbEntity
  8
0
100
AcDbCircle
 10
1647.837116734111
 20
304.0283213757033
 30
0.0
 40
77.5
  0
LINE
  5
391C
330
18
100
AcDbEntity
  8
0
100
AcDbLine
 10
1188.205672855201
 20
276.0283213757034
 30
0.0
 11
1215.705672855201
 21
276.0283213757034
 31
0.0
  0
TEXT
  5
391D
330
18
100
AcDbEntity
  8
0
100
AcDbText
 10
1143.593261018273
 20
206.1046071138616
 30
0.0
 40
15.0
  1
40A
 41
0.8
 11
1143.593261018273
 21
206.1046071138616
 31
0.0
100
AcDbText
 73
     1
  0
ARC
  5
391E
330
18
100
AcDbEntity
  8
0
100
AcDbCircle
 10
1161.705672855201
 20
258.1289749751281
 30
0.0
 40
25.0
100
AcDbArc
 50
60.00000000000002
 51
119.9999999999999
  0
LINE
  5
391F
330
18
100
AcDbEntity
  8
0
100
AcDbLine
 10
1131.705672855201
 20
287.0283213757033
 30
0.0
 11
1179.705672855201
 21
287.0283213757033
 31
0.0
  0
ARC
  5
3920
330
18
100
AcDbEntity
  8
0
100
AcDbCircle
 10
1131.705672855201
 20
289.0283213757033
 30
0.0
 40
2.0
100
AcDbArc
 50
180.0
 51
270.0
  0
ARC
  5
3921
330
18
100
AcDbEntity
  8
0
100
AcDbCircle
 10
1135.205672855201
 20
304.0283213757033
 30
0.0
 40
28.0
100
AcDbArc
 50
270.0
 51
300.0
  0
ARC
  5
3922
330
18
100
AcDbEntity
  8
0
100
AcDbCircle
 10
1179.705672855201
 20
289.0283213757033
 30
0.0
 40
2.0
100
AcDbArc
 50
270.0
 51
0.0
  0
ARC
  5
3923
330
18
100
AcDbEntity
  8
0
100
AcDbCircle
 10
1188.205672855201
 20
304.0283213757033
 30
0.0
 40
28.0
100
AcDbArc
 50
239.9999999999999
 51
270.0
  0
LINE
  5
3924
330
18
100
AcDbEntity
  8
0
100
AcDbLine
 10
1255.705672855201
 20
234.0283213757034
 30
0.0
 11
1255.705672855201
 21
304.0283213757033
 31
0.0
  0
LINE
  5
3925
330
18
100
AcDbEntity
  8
0
100
AcDbLine
 10
1235.705672855201
 20
234.0283213757034
 30
0.0
 11
1255.705672855201
 21
234.0283213757034
 31
0.0
  0
LINE
  5
3926
330
18
100
AcDbEntity
  8
0
100
AcDbLine
 10
1231.686253530892
 20
272.8322052405651
 30
0.0
 11
1215.705672855201
 21
276.0283213757034
 31
0.0
  0
ARC
  5
3927
330
18
100
AcDbEntity
  8
0
100
AcDbCircle
 10
1230.705672855201
 20
267.9293018621105
 30
0.0
 40
5.0
100
AcDbArc
 50
0.0
 51
78.69006752598102
  0
CIRCLE
  5
3928
330
18
100
AcDbEntity
  8
0
100
AcDbCircle
 10
1306.052352482896
 20
266.9052153634093
 30
0.0
 40
7.5
  0
CIRCLE
  5
3929
330
18
100
AcDbEntity
  8
0
100
AcDbCircle
 10
1380.298564507484
 20
266.9052153634093
 30
0.0
 40
7.5
  0
CIRCLE
  5
392A
330
18
100
AcDbEntity
  8
0
100
AcDbCircle
 10
1605.410709862918
 20
261.6019145045106
 30
0.0
 40
7.5
  0
CIRCLE
  5
392B
330
18
100
AcDbEntity
  8
0
100
AcDbCircle
 10
1690.263523605303
 20
261.6019145045106
 30
0.0
 40
7.5
  0
LINE
  5
392C
330
18
100
AcDbEntity
  8
0
100
AcDbLine
 10
1816.797731855665
 20
226.5283213757034
 30
0.0
 11
1796.797731855664
 21
226.5283213757034
 31
0.0
  0
LINE
  5
392D
330
18
100
AcDbEntity
  8
0
100
AcDbLine
 10
1796.797731855664
 20
226.5283213757034
 30
0.0
 11
1796.797731855664
 21
304.0283213757033
 31
0.0
  0
LINE
  5
392E
330
18
100
AcDbEntity
  8
0
100
AcDbLine
 10
1788.615988724212
 20
294.5181010086935
 30
0.0
 11
1741.347426224212
 21
294.5181010086935
 31
0.0
  0
LINE
  5
392F
330
18
100
AcDbEntity
  8
0
100
AcDbLine
 10
1731.894051224212
 20
303.9714760086931
 30
0.0
 11
1760.254176224213
 21
303.9714760086931
 31
0.0
  0
LINE
  5
3930
330
18
100
AcDbEntity
  8
0
100
AcDbLine
 10
1741.347426224212
 20
294.5181010086935
 30
0.0
 11
1731.894051224212
 21
303.9714760086931
 31
0.0
  0
LINE
  5
3931
330
18
100
AcDbEntity
  8
0
100
AcDbLine
 10
1764.982551224213
 20
299.2447885086933
 30
0.0
 11
1778.956738724213
 21
299.2447885086933
 31
0.0
  0
LINE
  5
3932
330
18
100
AcDbEntity
  8
0
100
AcDbLine
 10
1760.254176224213
 20
303.9714760086931
 30
0.0
 11
1764.982551224213
 21
299.2447885086933
 31
0.0
  0
LINE
  5
3933
330
18
100
AcDbEntity
  8
0
100
AcDbLine
 10
1778.956738724213
 20
299.2447885086933
 30
0.0
 11
1778.956738724213
 21
303.9714760086931
 31
0.0
  0
LINE
  5
3934
330
18
100
AcDbEntity
  8
0
100
AcDbLine
 10
1778.956738724213
 20
303.9714760086931
 30
0.0
 11
1788.615988724212
 21
294.5181010086935
 31
0.0
  0
LINE
  5
3935
330
18
100
AcDbEntity
  8
0
100
AcDbLine
 10
1836.797731855702
 20
271.0283213757033
 30
0.0
 11
1871.297731855665
 21
271.0283213757033
 31
0.0
  0
ARC
  5
3936
330
18
100
AcDbEntity
  8
0
100
AcDbCircle
 10
1821.797731855665
 20
262.9293018621011
 30
0.0
 40
5.0
100
AcDbArc
 50
101.3099324740264
 51
180.0000000000074
  0
LINE
  5
3937
330
18
100
AcDbEntity
  8
0
100
AcDbLine
 10
1836.797731855664
 20
271.0283213756958
 30
0.0
 11
1820.817151179973
 21
267.8322052405555
 31
0.0
  0
ARC
  5
3938
330
18
100
AcDbEntity
  8
0
100
AcDbCircle
 10
1872.797731855665
 20
289.0283213757033
 30
0.0
 40
2.0
100
AcDbArc
 50
179.9999999999998
 51
270.0
  0
LINE
  5
3939
330
18
100
AcDbEntity
  8
0
100
AcDbLine
 10
1235.705672855201
 20
578.9555798051737
 30
0.0
 11
1235.705672855201
 21
438.9555798051738
 31
0.0
  0
LINE
  5
393A
330
18
100
AcDbEntity
  8
0
100
AcDbLine
 10
1255.705672855201
 20
508.9555798051738
 30
0.0
 11
1255.705672855201
 21
578.9555798051737
 31
0.0
  0
LINE
  5
393B
330
18
100
AcDbEntity
  8
0
100
AcDbLine
 10
1182.205672855201
 20
332.0283213757034
 30
0.0
 11
1215.705672855201
 21
332.0283213757034
 31
0.0
  0
ARC
  5
393C
330
18
100
AcDbEntity
  8
0
100
AcDbCircle
 10
1183.436175826154
 20
368.3838361407808
 30
0.0
 40
6.644500231519874
100
AcDbArc
 50
75.93283644523404
 51
135.8740677452009
  0
ARC
  5
393D
330
18
100
AcDbEntity
  8
0
100
AcDbCircle
 10
1167.186175826154
 20
341.3679701179421
 30
0.0
 40
33.66035125776125
100
AcDbArc
 50
70.05798215649917
 51
109.9420178435008
  0
LINE
  5
393E
330
18
100
AcDbEntity
  8
0
100
AcDbLine
 10
1184.705672855201
 20
375.0283213757033
 30
0.0
 11
1188.205672855201
 21
373.0099880423699
 31
0.0
  0
ARC
  5
393F
330
18
100
AcDbEntity
  8
0
100
AcDbCircle
 10
1127.975169884248
 20
368.3838361407808
 30
0.0
 40
6.644500231519874
100
AcDbArc
 50
44.12593225479906
 51
104.0671635547661
  0
LINE
  5
3940
330
18
100
AcDbEntity
  8
0
100
AcDbLine
 10
1123.205672855201
 20
373.0099880423699
 30
0.0
 11
1126.705672855201
 21
375.0283213757033
 31
0.0
  0
ARC
  5
3941
330
18
100
AcDbEntity
  8
0
100
AcDbCircle
 10
1144.225169884248
 20
341.3679701179421
 30
0.0
 40
33.66035125776125
100
AcDbArc
 50
70.05798215649917
 51
109.9420178435008
  0
ARC
  5
3942
330
18
100
AcDbEntity
  8
0
100
AcDbCircle
 10
1155.705672855201
 20
371.9189463757016
 30
0.0
 40
47.89062499999835
100
AcDbArc
 50
242.1333409264079
 51
297.866659073592
  0
LINE
  5
3943
330
18
100
AcDbEntity
  8
0
100
AcDbLine
 10
1131.705672855201
 20
321.0283213757033
 30
0.0
 11
1179.705672855201
 21
321.0283213757033
 31
0.0
  0
LINE
  5
3944
330
18
100
AcDbEntity
  8
0
100
AcDbLine
 10
1124.205672855201
 20
347.0283213757032
 30
0.0
 11
1187.205672855201
 21
347.0283213757034
 31
0.0
  0
LINE
  5
3945
330
18
100
AcDbEntity
  8
0
100
AcDbLine
 10
1123.205672855201
 20
364.0283213757034
 30
0.0
 11
1188.205672855201
 21
364.0283213757034
 31
0.0
  0
LINE
  5
3946
330
18
100
AcDbEntity
  8
0
100
AcDbLine
 10
1132.205672855201
 20
335.0283213757035
 30
0.0
 11
1132.205672855201
 21
347.0283213757032
 31
0.0
  0
ARC
  5
3947
330
18
100
AcDbEntity
  8
0
100
AcDbCircle
 10
1129.205672855201
 20
335.0283213757033
 30
0.0
 40
3.0
100
AcDbArc
 50
270.0
 51
0.0000000000016284
  0
ARC
  5
3948
330
18
100
AcDbEntity
  8
0
100
AcDbCircle
 10
1131.705672855201
 20
319.0283213757034
 30
0.0
 40
2.0
100
AcDbArc
 50
90.0
 51
180.0
  0
LINE
  5
3949
330
18
100
AcDbEntity
  8
0
100
AcDbLine
 10
1132.744666913296
 20
373.0099880423699
 30
0.0
 11
1132.744666913296
 21
364.0283213757034
 31
0.0
  0
LINE
  5
394A
330
18
100
AcDbEntity
  8
0
100
AcDbLine
 10
1123.205672855201
 20
348.0283213757033
 30
0.0
 11
1123.205672855201
 21
373.0099880423699
 31
0.0
  0
LINE
  5
394B
330
18
100
AcDbEntity
  8
0
100
AcDbLine
 10
1124.205672855201
 20
347.0283213757034
 30
0.0
 11
1123.205672855201
 21
348.0283213757033
 31
0.0
  0
LINE
  5
394C
330
18
100
AcDbEntity
  8
0
100
AcDbLine
 10
1155.705672855201
 20
364.0283213757034
 30
0.0
 11
1155.705672855201
 21
373.0099880423699
 31
0.0
  0
LINE
  5
394D
330
18
100
AcDbEntity
  8
0
100
AcDbLine
 10
1179.205672855201
 20
335.0283213757033
 30
0.0
 11
1179.205672855201
 21
347.0283213757034
 31
0.0
  0
ARC
  5
394E
330
18
100
AcDbEntity
  8
0
100
AcDbCircle
 10
1182.205672855201
 20
335.0283213757033
 30
0.0
 40
3.0
100
AcDbArc
 50
179.9999999999983
 51
270.0
  0
ARC
  5
394F
330
18
100
AcDbEntity
  8
0
100
AcDbCircle
 10
1179.705672855201
 20
319.0283213757034
 30
0.0
 40
2.0
100
AcDbArc
 50
0.0
 51
90.0
  0
LINE
  5
3950
330
18
100
AcDbEntity
  8
0
100
AcDbLine
 10
1178.666678797107
 20
373.0099880423699
 30
0.0
 11
1178.666678797107
 21
364.0283213757034
 31
0.0
  0
LINE
  5
3951
330
18
100
AcDbEntity
  8
0
100
AcDbLine
 10
1188.205672855201
 20
348.0283213757033
 30
0.0
 11
1188.205672855201
 21
373.0099880423699
 31
0.0
  0
LINE
  5
3952
330
18
100
AcDbEntity
  8
0
100
AcDbLine
 10
1187.205672855201
 20
347.0283213757034
 30
0.0
 11
1188.205672855201
 21
348.0283213757033
 31
0.0
  0
LINE
  5
3953
330
18
100
AcDbEntity
  8
0
100
AcDbLine
 10
1184.705672855201
 20
375.0283213757033
 30
0.0
 11
1126.705672855201
 21
375.0283213757033
 31
0.0
  0
LINE
  5
3954
330
18
100
AcDbEntity
  8
0
100
AcDbLine
 10
1255.705672855201
 20
374.0283213757034
 30
0.0
 11
1235.705672855201
 21
374.0283213757034
 31
0.0
  0
LINE
  5
3955
330
18
100
AcDbEntity
  8
0
100
AcDbLine
 10
1231.686253530892
 20
335.2244375108416
 30
0.0
 11
1215.705672855201
 21
332.0283213757034
 31
0.0
  0
ARC
  5
3956
330
18
100
AcDbEntity
  8
0
100
AcDbCircle
 10
1230.705672855201
 20
340.1273408892961
 30
0.0
 40
5.0
100
AcDbArc
 50
281.3099324740189
 51
0.0
  0
LINE
  5
3957
330
18
100
AcDbEntity
  8
0
100
AcDbLine
 10
1215.705672855202
 20
536.9555798051737
 30
0.0
 11
1172.20567285521
 21
536.9555798051737
 31
0.0
  0
LINE
  5
3958
330
18
100
AcDbEntity
  8
0
100
AcDbLine
 10
1215.705672855202
 20
480.9555798051738
 30
0.0
 11
1172.20567285521
 21
480.9555798051738
 31
0.0
  0
CIRCLE
  5
3959
330
18
100
AcDbEntity
  8
0
100
AcDbCircle
 10
1155.705672855203
 20
508.9555798051738
 30
0.0
 40
29.0
  0
CIRCLE
  5
395A
330
18
100
AcDbEntity
  8
0
100
AcDbCircle
 10
1155.705672855203
 20
508.9555798051738
 30
0.0
 40
32.5
  0
POLYLINE
  5
395B
330
18
100
AcDbEntity
  8
0
100
AcDb2dPolyline
 66
     1
 10
0.0
 20
0.0
 30
0.0
 70
     1
  0
VERTEX
  5
3C46
330
395B
100
AcDbEntity
  8
0
100
AcDbVertex
100
AcDb2dVertex
 10
1132.744666913298
 20
531.9165857470791
 30
0.0
  0
VERTEX
  5
3C47
330
395B
100
AcDbEntity
  8
0
100
AcDbVertex
100
AcDb2dVertex
 10
1123.233906846431
 20
508.9555798051738
 30
0.0
  0
VERTEX
  5
3C48
330
395B
100
AcDbEntity
  8
0
100
AcDbVertex
100
AcDb2dVertex
 10
1132.744666913298
 20
485.9945738632684
 30
0.0
  0
VERTEX
  5
3C49
330
395B
100
AcDbEntity
  8
0
100
AcDbVertex
100
AcDb2dVertex
 10
1155.705672855203
 20
476.483813796402
 30
0.0
  0
VERTEX
  5
3C4A
330
395B
100
AcDbEntity
  8
0
100
AcDbVertex
100
AcDb2dVertex
 10
1178.666678797108
 20
485.9945738632684
 30
0.0
  0
VERTEX
  5
3C4B
330
395B
100
AcDbEntity
  8
0
100
AcDbVertex
100
AcDb2dVertex
 10
1188.177438863975
 20
508.9555798051738
 30
0.0
  0
VERTEX
  5
3C4C
330
395B
100
AcDbEntity
  8
0
100
AcDbVertex
100
AcDb2dVertex
 10
1178.666678797108
 20
531.9165857470791
 30
0.0
  0
VERTEX
  5
3C4D
330
395B
100
AcDbEntity
  8
0
100
AcDbVertex
100
AcDb2dVertex
 10
1155.705672855203
 20
541.4273458139456
 30
0.0
  0
SEQEND
  5
3C4E
330
395B
100
AcDbEntity
  8
0
  0
CIRCLE
  5
395C
330
18
100
AcDbEntity
  8
0
100
AcDbCircle
 10
1155.705672855203
 20
508.9555798051738
 30
0.0
 40
21.0001
  0
CIRCLE
  5
395D
330
18
100
AcDbEntity
  8
0
100
AcDbCircle
 10
1155.705672855203
 20
508.9555798051738
 30
0.0
 40
18.5
  0
LINE
  5
395E
330
18
100
AcDbEntity
  8
0
100
AcDbLine
 10
1255.705672855201
 20
438.9555798051738
 30
0.0
 11
1255.705672855201
 21
508.9555798051738
 31
0.0
  0
LINE
  5
395F
330
18
100
AcDbEntity
  8
0
100
AcDbLine
 10
1235.705672855201
 20
438.9555798051738
 30
0.0
 11
1255.705672855201
 21
438.9555798051738
 31
0.0
  0
LINE
  5
3960
330
18
100
AcDbEntity
  8
0
100
AcDbLine
 10
1231.686253530893
 20
477.7594636700355
 30
0.0
 11
1215.705672855202
 21
480.9555798051738
 31
0.0
  0
ARC
  5
3961
330
18
100
AcDbEntity
  8
0
100
AcDbCircle
 10
1230.705672855202
 20
472.856560291581
 30
0.0
 40
5.0
100
AcDbArc
 50
0.0
 51
78.69006752598102
  0
LINE
  5
3962
330
18
100
AcDbEntity
  8
0
100
AcDbLine
 10
1231.686253530893
 20
540.151695940312
 30
0.0
 11
1215.705672855202
 21
536.9555798051737
 31
0.0
  0
ARC
  5
3963
330
18
100
AcDbEntity
  8
0
100
AcDbCircle
 10
1230.705672855202
 20
545.0545993187666
 30
0.0
 40
5.0
100
AcDbArc
 50
281.3099324740189
 51
0.0
  0
LINE
  5
3964
330
18
100
AcDbEntity
  8
0
100
AcDbLine
 10
1372.17545849519
 20
375.0283213757033
 30
0.0
 11
1314.17545849519
 21
375.0283213757033
 31
0.0
  0
ARC
  5
3965
330
18
100
AcDbEntity
  8
0
100
AcDbCircle
 10
1354.655961466143
 20
341.3679701179421
 30
0.0
 40
33.66035125776125
100
AcDbArc
 50
70.05798215649917
 51
104.467590730559
  0
ARC
  5
3966
330
18
100
AcDbEntity
  8
0
100
AcDbCircle
 10
1331.694955524237
 20
341.3679701179421
 30
0.0
 40
33.66035125776125
100
AcDbArc
 50
75.5324092694409
 51
109.9420178435008
  0
ARC
  5
3967
330
18
100
AcDbEntity
  8
0
100
AcDbCircle
 10
1315.444955524237
 20
368.3838361407808
 30
0.0
 40
6.644500231519874
100
AcDbArc
 50
44.12593225479906
 51
104.0671635547661
  0
LINE
  5
3968
330
18
100
AcDbEntity
  8
0
100
AcDbLine
 10
1310.67545849519
 20
373.0099880423699
 30
0.0
 11
1314.17545849519
 21
375.0283213757033
 31
0.0
  0
CIRCLE
  5
3969
330
18
100
AcDbEntity
  8
0
100
AcDbCircle
 10
1306.052352482896
 20
341.151427387997
 30
0.0
 40
7.5
  0
LINE
  5
396A
330
18
100
AcDbEntity
  8
0
100
AcDbLine
 10
1310.675458495191
 20
366.02630521389
 30
0.0
 11
1310.67545849519
 21
373.0099880423699
 31
0.0
  0
LINE
  5
396B
330
18
100
AcDbEntity
  8
0
100
AcDbLine
 10
1320.214452553285
 20
373.0099880423699
 30
0.0
 11
1320.214452553285
 21
370.1554126933756
 31
0.0
  0
ARC
  5
396C
330
18
100
AcDbEntity
  8
0
100
AcDbCircle
 10
1370.905961466143
 20
368.3838361407808
 30
0.0
 40
6.644500231519874
100
AcDbArc
 50
75.93283644523404
 51
135.8740677452009
  0
LINE
  5
396D
330
18
100
AcDbEntity
  8
0
100
AcDbLine
 10
1372.17545849519
 20
375.0283213757033
 30
0.0
 11
1375.67545849519
 21
373.0099880423699
 31
0.0
  0
CIRCLE
  5
396E
330
18
100
AcDbEntity
  8
0
100
AcDbCircle
 10
1380.298564507484
 20
341.151427387997
 30
0.0
 40
7.5
  0
LINE
  5
396F
330
18
100
AcDbEntity
  8
0
100
AcDbLine
 10
1375.67545849519
 20
366.0263052138893
 30
0.0
 11
1375.67545849519
 21
373.0099880423699
 31
0.0
  0
LINE
  5
3970
330
18
100
AcDbEntity
  8
0
100
AcDbLine
 10
1366.136464437096
 20
373.0099880423699
 30
0.0
 11
1366.136464437096
 21
370.1554126933756
 31
0.0
  0
LINE
  5
3971
330
18
100
AcDbEntity
  8
0
100
AcDbLine
 10
1294.655766700011
 20
706.4651299203108
 30
0.0
 11
1280.681579200011
 21
706.4651299203108
 31
0.0
  0
LINE
  5
3972
330
18
100
AcDbEntity
  8
0
100
AcDbLine
 10
1271.022329200012
 20
701.7384424203109
 30
0.0
 11
1318.290891700012
 21
701.7384424203109
 31
0.0
  0
LINE
  5
3973
330
18
100
AcDbEntity
  8
0
100
AcDbLine
 10
1235.705672855201
 20
769.8944655900963
 30
0.0
 11
1235.705672855201
 21
629.8944655900964
 31
0.0
  0
LINE
  5
3974
330
18
100
AcDbEntity
  8
0
100
AcDbLine
 10
1255.705672855201
 20
629.8944655900964
 30
0.0
 11
1255.705672855201
 21
699.8944655900963
 31
0.0
  0
LINE
  5
3975
330
18
100
AcDbEntity
  8
0
100
AcDbLine
 10
1255.705672855201
 20
578.9555798051737
 30
0.0
 11
1235.705672855201
 21
578.9555798051737
 31
0.0
  0
LINE
  5
3976
330
18
100
AcDbEntity
  8
0
100
AcDbLine
 10
1235.705672855201
 20
629.8944655900964
 30
0.0
 11
1255.705672855201
 21
629.8944655900964
 31
0.0
  0
LINE
  5
3977
330
18
100
AcDbEntity
  8
0
100
AcDbLine
 10
1215.705672855201
 20
727.8944655900963
 30
0.0
 11
1182.205672855201
 21
727.8944655900963
 31
0.0
  0
LINE
  5
3978
330
18
100
AcDbEntity
  8
0
100
AcDbLine
 10
1215.705672855201
 20
671.8944655900964
 30
0.0
 11
1176.205672855201
 21
671.8944655900964
 31
0.0
  0
ARC
  5
3979
330
18
100
AcDbEntity
  8
0
100
AcDbCircle
 10
1149.705672855201
 20
653.9951191895211
 30
0.0
 40
25.0
100
AcDbArc
 50
60.00000000000005
 51
119.9999999999999
  0
ARC
  5
397A
330
18
100
AcDbEntity
  8
0
100
AcDbCircle
 10
1123.205672855201
 20
699.8944655900963
 30
0.0
 40
28.0
100
AcDbArc
 50
270.0
 51
300.0
  0
ARC
  5
397B
330
18
100
AcDbEntity
  8
0
100
AcDbCircle
 10
1176.205672855201
 20
699.8944655900963
 30
0.0
 40
28.0
100
AcDbArc
 50
239.9999999999999
 51
270.0
  0
ARC
  5
397C
330
18
100
AcDbEntity
  8
0
100
AcDbCircle
 10
1167.186175826154
 20
737.2341143323351
 30
0.0
 40
33.66035125776125
100
AcDbArc
 50
70.05798215649917
 51
109.9420178435008
  0
LINE
  5
397D
330
18
100
AcDbEntity
  8
0
100
AcDbLine
 10
1126.705672855201
 20
770.8944655900964
 30
0.0
 11
1184.705672855201
 21
770.8944655900964
 31
0.0
  0
LINE
  5
397E
330
18
100
AcDbEntity
  8
0
100
AcDbLine
 10
1187.205672855201
 20
742.8944655900964
 30
0.0
 11
1124.205672855201
 21
742.8944655900964
 31
0.0
  0
LINE
  5
397F
330
18
100
AcDbEntity
  8
0
100
AcDbLine
 10
1188.205672855201
 20
759.8944655900964
 30
0.0
 11
1123.205672855201
 21
759.8944655900964
 31
0.0
  0
ARC
  5
3980
330
18
100
AcDbEntity
  8
0
100
AcDbCircle
 10
1155.705672855201
 20
767.7850905900945
 30
0.0
 40
47.89062499999835
100
AcDbArc
 50
242.1333409264079
 51
297.866659073592
  0
LINE
  5
3981
330
18
100
AcDbEntity
  8
0
100
AcDbLine
 10
1123.205672855201
 20
743.8944655900963
 30
0.0
 11
1123.205672855201
 21
768.8761322567629
 31
0.0
  0
LINE
  5
3982
330
18
100
AcDbEntity
  8
0
100
AcDbLine
 10
1132.205672855201
 20
730.8944655900964
 30
0.0
 11
1132.205672855201
 21
742.8944655900964
 31
0.0
  0
ARC
  5
3983
330
18
100
AcDbEntity
  8
0
100
AcDbCircle
 10
1129.205672855201
 20
730.8944655900964
 30
0.0
 40
3.0
100
AcDbArc
 50
270.0
 51
0.0000000000016284
  0
LINE
  5
3984
330
18
100
AcDbEntity
  8
0
100
AcDbLine
 10
1124.205672855201
 20
742.8944655900964
 30
0.0
 11
1123.205672855201
 21
743.8944655900963
 31
0.0
  0
ARC
  5
3985
330
18
100
AcDbEntity
  8
0
100
AcDbCircle
 10
1144.225169884248
 20
737.2341143323351
 30
0.0
 40
33.66035125776125
100
AcDbArc
 50
70.05798215649917
 51
109.9420178435008
  0
ARC
  5
3986
330
18
100
AcDbEntity
  8
0
100
AcDbCircle
 10
1127.975169884248
 20
764.2499803551738
 30
0.0
 40
6.644500231519874
100
AcDbArc
 50
44.12593225479906
 51
104.0671635547659
  0
LINE
  5
3987
330
18
100
AcDbEntity
  8
0
100
AcDbLine
 10
1132.744666913296
 20
768.8761322567629
 30
0.0
 11
1132.744666913296
 21
759.8944655900964
 31
0.0
  0
LINE
  5
3988
330
18
100
AcDbEntity
  8
0
100
AcDbLine
 10
1126.705672855201
 20
770.8944655900964
 30
0.0
 11
1123.205672855201
 21
768.8761322567629
 31
0.0
  0
LINE
  5
3989
330
18
100
AcDbEntity
  8
0
100
AcDbLine
 10
1155.705672855201
 20
759.8944655900964
 30
0.0
 11
1155.705672855201
 21
768.8761322567629
 31
0.0
  0
LINE
  5
398A
330
18
100
AcDbEntity
  8
0
100
AcDbLine
 10
1188.205672855201
 20
743.8944655900963
 30
0.0
 11
1188.205672855201
 21
768.8761322567629
 31
0.0
  0
ARC
  5
398B
330
18
100
AcDbEntity
  8
0
100
AcDbCircle
 10
1182.205672855201
 20
730.8944655900964
 30
0.0
 40
3.0
100
AcDbArc
 50
179.9999999999983
 51
270.0
  0
LINE
  5
398C
330
18
100
AcDbEntity
  8
0
100
AcDbLine
 10
1179.205672855201
 20
730.8944655900964
 30
0.0
 11
1179.205672855201
 21
742.8944655900964
 31
0.0
  0
LINE
  5
398D
330
18
100
AcDbEntity
  8
0
100
AcDbLine
 10
1187.205672855201
 20
742.8944655900964
 30
0.0
 11
1188.205672855201
 21
743.8944655900963
 31
0.0
  0
ARC
  5
398E
330
18
100
AcDbEntity
  8
0
100
AcDbCircle
 10
1183.436175826154
 20
764.2499803551738
 30
0.0
 40
6.644500231519874
100
AcDbArc
 50
75.93283644523387
 51
135.8740677452009
  0
LINE
  5
398F
330
18
100
AcDbEntity
  8
0
100
AcDbLine
 10
1178.666678797107
 20
768.8761322567629
 30
0.0
 11
1178.666678797107
 21
759.8944655900964
 31
0.0
  0
LINE
  5
3990
330
18
100
AcDbEntity
  8
0
100
AcDbLine
 10
1188.205672855201
 20
768.8761322567629
 30
0.0
 11
1184.705672855201
 21
770.8944655900964
 31
0.0
  0
LINE
  5
3991
330
18
100
AcDbEntity
  8
0
100
AcDbLine
 10
1255.705672855201
 20
699.8944655900963
 30
0.0
 11
1255.705672855201
 21
769.8944655900963
 31
0.0
  0
LINE
  5
3992
330
18
100
AcDbEntity
  8
0
100
AcDbLine
 10
1231.686253530892
 20
668.6983494549581
 30
0.0
 11
1215.705672855201
 21
671.8944655900964
 31
0.0
  0
ARC
  5
3993
330
18
100
AcDbEntity
  8
0
100
AcDbCircle
 10
1230.705672855201
 20
663.7954460765036
 30
0.0
 40
5.0
100
AcDbArc
 50
0.0
 51
78.69006752598102
  0
LINE
  5
3994
330
18
100
AcDbEntity
  8
0
100
AcDbLine
 10
1280.681579200011
 20
711.1918174203106
 30
0.0
 11
1271.022329200012
 21
701.7384424203109
 31
0.0
  0
LINE
  5
3995
330
18
100
AcDbEntity
  8
0
100
AcDbLine
 10
1280.681579200011
 20
706.4651299203108
 30
0.0
 11
1280.681579200011
 21
711.1918174203106
 31
0.0
  0
LINE
  5
3996
330
18
100
AcDbEntity
  8
0
100
AcDbLine
 10
1255.705672855201
 20
769.8944655900963
 30
0.0
 11
1235.705672855201
 21
769.8944655900963
 31
0.0
  0
LINE
  5
3997
330
18
100
AcDbEntity
  8
0
100
AcDbLine
 10
1231.686253530892
 20
731.0905817252346
 30
0.0
 11
1215.705672855201
 21
727.8944655900963
 31
0.0
  0
ARC
  5
3998
330
18
100
AcDbEntity
  8
0
100
AcDbCircle
 10
1230.705672855201
 20
735.9934851036891
 30
0.0
 40
5.0
100
AcDbArc
 50
281.3099324740189
 51
0.0
  0
LINE
  5
3999
330
18
100
AcDbEntity
  8
0
100
AcDbLine
 10
1318.290891700012
 20
701.7384424203109
 30
0.0
 11
1327.744266700011
 21
711.1918174203106
 31
0.0
  0
LINE
  5
399A
330
18
100
AcDbEntity
  8
0
100
AcDbLine
 10
1327.744266700011
 20
711.1918174203106
 30
0.0
 11
1299.384141700011
 21
711.1918174203106
 31
0.0
  0
LINE
  5
399B
330
18
100
AcDbEntity
  8
0
100
AcDbLine
 10
1299.384141700011
 20
711.1918174203106
 30
0.0
 11
1294.655766700011
 21
706.4651299203108
 31
0.0
  0
LINE
  5
399C
330
18
100
AcDbEntity
  8
0
100
AcDbLine
 10
1796.797731855664
 20
508.9555798051738
 30
0.0
 11
1796.797731855664
 21
586.4555798051737
 31
0.0
  0
LINE
  5
399D
330
18
100
AcDbEntity
  8
0
100
AcDbLine
 10
1816.797731855664
 20
586.4555798051737
 30
0.0
 11
1816.797731855664
 21
431.4555798051737
 31
0.0
  0
ARC
  5
399E
330
18
100
AcDbEntity
  8
0
100
AcDbCircle
 10
1821.797731855665
 20
550.0545993187666
 30
0.0
 40
5.0
100
AcDbArc
 50
180.0
 51
258.6900675259809
  0
CIRCLE
  5
399F
330
18
100
AcDbEntity
  8
0
100
AcDbCircle
 10
1605.410709862918
 20
346.4547282468961
 30
0.0
 40
7.5
  0
LINE
  5
39A0
330
18
100
AcDbEntity
  8
0
100
AcDbLine
 10
1618.837116734111
 20
380.0283213757034
 30
0.0
 11
1632.663125828618
 21
380.0283213757034
 31
0.0
  0
ARC
  5
39A1
330
18
100
AcDbEntity
  8
0
100
AcDbCircle
 10
1620.106613763157
 20
373.3838361407809
 30
0.0
 40
6.644500231519874
100
AcDbArc
 50
44.12593225479907
 51
104.0671635547659
  0
LINE
  5
39A2
330
18
100
AcDbEntity
  8
0
100
AcDbLine
 10
1618.837116734111
 20
380.0283213757034
 30
0.0
 11
1615.337116734111
 21
378.0099880423699
 31
0.0
  0
ARC
  5
39A3
330
18
100
AcDbEntity
  8
0
100
AcDbCircle
 10
1636.356613763157
 20
346.3679701179421
 30
0.0
 40
33.66035125776125
100
AcDbArc
 50
108.3264422965662
 51
109.9420178435008
  0
LINE
  5
39A4
330
18
100
AcDbEntity
  8
0
100
AcDbLine
 10
1615.337116734111
 20
374.3845577730546
 30
0.0
 11
1615.337116734111
 21
378.0099880423699
 31
0.0
  0
CIRCLE
  5
39A5
330
18
100
AcDbEntity
  8
0
100
AcDbCircle
 10
1690.263523605303
 20
346.4547282468961
 30
0.0
 40
7.5
  0
LINE
  5
39A6
330
18
100
AcDbEntity
  8
0
100
AcDbLine
 10
1663.011107639604
 20
380.0283213757034
 30
0.0
 11
1676.837116734111
 21
380.0283213757034
 31
0.0
  0
ARC
  5
39A7
330
18
100
AcDbEntity
  8
0
100
AcDbCircle
 10
1675.567619705064
 20
373.3838361407809
 30
0.0
 40
6.644500231519874
100
AcDbArc
 50
75.93283644523387
 51
135.8740677452009
  0
LINE
  5
39A8
330
18
100
AcDbEntity
  8
0
100
AcDbLine
 10
1680.337116734111
 20
378.0099880423699
 30
0.0
 11
1676.837116734111
 21
380.0283213757034
 31
0.0
  0
LINE
  5
39A9
330
18
100
AcDbEntity
  8
0
100
AcDbLine
 10
1680.337116734111
 20
374.3845577730546
 30
0.0
 11
1680.337116734111
 21
378.0099880423699
 31
0.0
  0
LINE
  5
39AA
330
18
100
AcDbEntity
  8
0
100
AcDbLine
 10
1796.797731855664
 20
431.4555798051737
 30
0.0
 11
1796.797731855664
 21
508.9555798051738
 31
0.0
  0
LINE
  5
39AB
330
18
100
AcDbEntity
  8
0
100
AcDbLine
 10
1816.797731855664
 20
431.4555798051737
 30
0.0
 11
1796.797731855664
 21
431.4555798051737
 31
0.0
  0
LINE
  5
39AC
330
18
100
AcDbEntity
  8
0
100
AcDbLine
 10
1796.797731855664
 20
381.5283213757034
 30
0.0
 11
1816.797731855665
 21
381.5283213757034
 31
0.0
  0
LINE
  5
39AD
330
18
100
AcDbEntity
  8
0
100
AcDbLine
 10
1864.297731855664
 20
353.0283213757034
 30
0.0
 11
1864.297731855664
 21
378.0099880423699
 31
0.0
  0
LINE
  5
39AE
330
18
100
AcDbEntity
  8
0
100
AcDbLine
 10
1873.836725913759
 20
378.0099880423699
 30
0.0
 11
1873.836725913759
 21
369.0283213757034
 31
0.0
  0
LINE
  5
39AF
330
18
100
AcDbEntity
  8
0
100
AcDbLine
 10
1836.79773185562
 20
337.0283213757033
 30
0.0
 11
1870.297731855665
 21
337.0283213757033
 31
0.0
  0
ARC
  5
39B0
330
18
100
AcDbEntity
  8
0
100
AcDbCircle
 10
1821.797731855654
 20
345.1273408892868
 30
0.0
 40
5.0
100
AcDbArc
 50
180.0000000000074
 51
258.6900675259884
  0
LINE
  5
39B1
330
18
100
AcDbEntity
  8
0
100
AcDbLine
 10
1836.797731855655
 20
337.0283213756958
 30
0.0
 11
1820.817151179963
 21
340.224437510832
 31
0.0
  0
LINE
  5
39B2
330
18
100
AcDbEntity
  8
0
100
AcDbLine
 10
1873.297731855664
 20
352.0283213757031
 30
0.0
 11
1873.297731855664
 21
340.0283213757034
 31
0.0
  0
ARC
  5
39B3
330
18
100
AcDbEntity
  8
0
100
AcDbCircle
 10
1870.297731855665
 20
340.0283213757034
 30
0.0
 40
3.0
100
AcDbArc
 50
270.0
 51
0.0
  0
ARC
  5
39B4
330
18
100
AcDbEntity
  8
0
100
AcDbCircle
 10
1872.797731855665
 20
319.0283213757034
 30
0.0
 40
2.0
100
AcDbArc
 50
90.0
 51
180.0
  0
LINE
  5
39B5
330
18
100
AcDbEntity
  8
0
100
AcDbLine
 10
1865.297731855665
 20
352.0283213757033
 30
0.0
 11
1864.297731855664
 21
353.0283213757034
 31
0.0
  0
ARC
  5
39B6
330
18
100
AcDbEntity
  8
0
100
AcDbCircle
 10
1869.067228884711
 20
373.3838361407809
 30
0.0
 40
6.644500231519874
100
AcDbArc
 50
44.12593225479906
 51
104.0671635547661
  0
LINE
  5
39B7
330
18
100
AcDbEntity
  8
0
100
AcDbLine
 10
1864.297731855664
 20
378.0099880423699
 30
0.0
 11
1867.797731855665
 21
380.0283213757034
 31
0.0
  0
LINE
  5
39B8
330
18
100
AcDbEntity
  8
0
100
AcDbLine
 10
1755.508776754885
 20
517.358571413843
 30
0.0
 11
1760.237151754885
 21
512.6318839138432
 31
0.0
  0
LINE
  5
39B9
330
18
100
AcDbEntity
  8
0
100
AcDbLine
 10
1783.870589254885
 20
507.9051964138434
 30
0.0
 11
1736.602026754884
 21
507.9051964138434
 31
0.0
  0
LINE
  5
39BA
330
18
100
AcDbEntity
  8
0
100
AcDbLine
 10
1727.148651754885
 20
517.358571413843
 30
0.0
 11
1755.508776754885
 21
517.358571413843
 31
0.0
  0
LINE
  5
39BB
330
18
100
AcDbEntity
  8
0
100
AcDbLine
 10
1736.602026754884
 20
507.9051964138434
 30
0.0
 11
1727.148651754885
 21
517.358571413843
 31
0.0
  0
LINE
  5
39BC
330
18
100
AcDbEntity
  8
0
100
AcDbLine
 10
1774.211339254885
 20
517.358571413843
 30
0.0
 11
1783.870589254885
 21
507.9051964138434
 31
0.0
  0
LINE
  5
39BD
330
18
100
AcDbEntity
  8
0
100
AcDbLine
 10
1760.237151754885
 20
512.6318839138432
 30
0.0
 11
1774.211339254885
 21
512.6318839138432
 31
0.0
  0
LINE
  5
39BE
330
18
100
AcDbEntity
  8
0
100
AcDbLine
 10
1774.211339254885
 20
512.6318839138432
 30
0.0
 11
1774.211339254885
 21
517.358571413843
 31
0.0
  0
ARC
  5
39BF
330
18
100
AcDbEntity
  8
0
100
AcDbCircle
 10
1821.797731855665
 20
467.8565602915809
 30
0.0
 40
5.0
100
AcDbArc
 50
101.309932474019
 51
180.0
  0
LINE
  5
39C0
330
18
100
AcDbEntity
  8
0
100
AcDbLine
 10
1836.797731855665
 20
475.9555798051738
 30
0.0
 11
1820.817151179974
 21
472.7594636700355
 31
0.0
  0
LINE
  5
39C1
330
18
100
AcDbEntity
  8
0
100
AcDbLine
 10
1836.797731855665
 20
541.9555798051738
 30
0.0
 11
1820.817151179974
 21
545.151695940312
 31
0.0
  0
LINE
  5
39C2
330
18
100
AcDbEntity
  8
0
100
AcDbLine
 10
1796.797731855664
 20
622.3944655900964
 30
0.0
 11
1796.797731855664
 21
699.8944655900963
 31
0.0
  0
ARC
  5
39C3
330
18
100
AcDbEntity
  8
0
100
AcDbCircle
 10
1821.797731855665
 20
658.7954460765035
 30
0.0
 40
5.0
100
AcDbArc
 50
101.309932474019
 51
180.0
  0
LINE
  5
39C4
330
18
100
AcDbEntity
  8
0
100
AcDbLine
 10
1796.797731855664
 20
586.4555798051737
 30
0.0
 11
1816.797731855664
 21
586.4555798051737
 31
0.0
  0
LINE
  5
39C5
330
18
100
AcDbEntity
  8
0
100
AcDbLine
 10
1816.797731855664
 20
622.3944655900964
 30
0.0
 11
1796.797731855664
 21
622.3944655900964
 31
0.0
  0
LINE
  5
39C6
330
18
100
AcDbEntity
  8
0
100
AcDbLine
 10
1859.297731855664
 20
666.8944655900964
 30
0.0
 11
1836.797731855665
 21
666.8944655900964
 31
0.0
  0
LINE
  5
39C7
330
18
100
AcDbEntity
  8
0
100
AcDbLine
 10
1836.797731855665
 20
666.8944655900964
 30
0.0
 11
1820.817151179974
 21
663.6983494549581
 31
0.0
  0
ARC
  5
39C8
330
18
100
AcDbEntity
  8
0
100
AcDbCircle
 10
1859.297731855664
 20
699.8944655900963
 30
0.0
 40
33.0
100
AcDbArc
 50
270.0
 51
302.8951549680857
  0
LINE
  5
39C9
330
18
100
AcDbEntity
  8
0
100
AcDbLine
 10
1870.297731855665
 20
732.8944655900963
 30
0.0
 11
1836.797731855665
 21
732.8944655900963
 31
0.0
  0
ARC
  5
39CA
330
18
100
AcDbEntity
  8
0
100
AcDbCircle
 10
1821.797731855665
 20
740.9934851036892
 30
0.0
 40
5.0
100
AcDbArc
 50
180.0
 51
258.6900675259809
  0
LINE
  5
39CB
330
18
100
AcDbEntity
  8
0
100
AcDbLine
 10
1836.797731855665
 20
732.8944655900963
 30
0.0
 11
1820.817151179974
 21
736.0905817252346
 31
0.0
  0
LINE
  5
39CC
330
18
100
AcDbEntity
  8
0
100
AcDbLine
 10
1873.297731855664
 20
747.8944655900964
 30
0.0
 11
1873.297731855664
 21
735.8944655900963
 31
0.0
  0
ARC
  5
39CD
330
18
100
AcDbEntity
  8
0
100
AcDbCircle
 10
1870.297731855665
 20
735.8944655900963
 30
0.0
 40
3.0
100
AcDbArc
 50
270.0
 51
0.0
  0
LINE
  5
39CE
330
18
100
AcDbEntity
  8
0
100
AcDbLine
 10
1873.836725913759
 20
773.8761322567629
 30
0.0
 11
1873.836725913759
 21
764.8944655900963
 31
0.0
  0
LINE
  5
39CF
330
18
100
AcDbEntity
  8
0
100
AcDbLine
 10
1864.297731855664
 20
748.8944655900963
 30
0.0
 11
1864.297731855664
 21
773.8761322567629
 31
0.0
  0
LINE
  5
39D0
330
18
100
AcDbEntity
  8
0
100
AcDbLine
 10
1865.297731855665
 20
747.8944655900964
 30
0.0
 11
1864.297731855664
 21
748.8944655900963
 31
0.0
  0
LINE
  5
39D1
330
18
100
AcDbEntity
  8
0
100
AcDbLine
 10
1867.797731855665
 20
775.8944655900964
 30
0.0
 11
1864.297731855664
 21
773.8761322567629
 31
0.0
  0
LINE
  5
39D2
330
18
100
AcDbEntity
  8
0
100
AcDbLine
 10
1922.797731855665
 20
319.0283213757034
 30
0.0
 11
1922.797731855665
 21
289.0283213757033
 31
0.0
  0
LINE
  5
39D3
330
18
100
AcDbEntity
  8
0
100
AcDbLine
 10
1996.797731855664
 20
304.0283213757033
 30
0.0
 11
1996.797731855664
 21
381.5283213757034
 31
0.0
  0
LINE
  5
39D4
330
18
100
AcDbEntity
  8
0
100
AcDbLine
 10
1976.797731855665
 20
381.5283213757034
 30
0.0
 11
1976.797731855665
 21
226.5283213757034
 31
0.0
  0
CIRCLE
  5
39D5
330
18
100
AcDbEntity
  8
0
100
AcDbCircle
 10
2088.813547091675
 20
304.0283213757033
 30
0.0
 40
77.5
  0
CIRCLE
  5
39D6
330
18
100
AcDbEntity
  8
0
100
AcDbCircle
 10
2046.387140220482
 20
261.6019145045106
 30
0.0
 40
7.5
  0
TEXT
  5
39D7
330
18
100
AcDbEntity
  8
0
100
AcDbText
 10
1903.065209740251
 20
200.2213859115354
 30
0.0
 40
15.0
  1
50A
 41
0.8
 11
1903.065209740251
 21
200.2213859115354
 31
0.0
100
AcDbText
 73
     1
  0
LINE
  5
39D8
330
18
100
AcDbEntity
  8
0
100
AcDbLine
 10
1956.797731855665
 20
271.0283213757033
 30
0.0
 11
1972.778312531355
 21
267.8322052405651
 31
0.0
  0
ARC
  5
39D9
330
18
100
AcDbEntity
  8
0
100
AcDbCircle
 10
1934.297731855664
 20
304.0283213757033
 30
0.0
 40
33.0
100
AcDbArc
 50
237.1048450319142
 51
270.0
  0
ARC
  5
39DA
330
18
100
AcDbEntity
  8
0
100
AcDbCircle
 10
1902.797731855665
 20
255.3277053631723
 30
0.0
 40
25.0
100
AcDbArc
 50
57.10484503191358
 51
122.8951549680864
  0
ARC
  5
39DB
330
18
100
AcDbEntity
  8
0
100
AcDbCircle
 10
1920.797731855665
 20
289.0283213757033
 30
0.0
 40
2.0
100
AcDbArc
 50
270.0
 51
0.0
  0
LINE
  5
39DC
330
18
100
AcDbEntity
  8
0
100
AcDbLine
 10
1934.297731855664
 20
271.0283213757033
 30
0.0
 11
1956.797731855666
 21
271.0283213757033
 31
0.0
  0
LINE
  5
39DD
330
18
100
AcDbEntity
  8
0
100
AcDbLine
 10
1996.797731855664
 20
226.5283213757034
 30
0.0
 11
1996.797731855664
 21
304.0283213757033
 31
0.0
  0
LINE
  5
39DE
330
18
100
AcDbEntity
  8
0
100
AcDbLine
 10
1976.797731855665
 20
226.5283213757034
 30
0.0
 11
1996.797731855664
 21
226.5283213757034
 31
0.0
  0
ARC
  5
39DF
330
18
100
AcDbEntity
  8
0
100
AcDbCircle
 10
1971.797731855664
 20
262.9293018621106
 30
0.0
 40
5.0
100
AcDbArc
 50
0.0
 51
78.69006752598098
  0
CIRCLE
  5
39E0
330
18
100
AcDbEntity
  8
0
100
AcDbCircle
 10
2131.239953962868
 20
261.6019145045106
 30
0.0
 40
7.5
  0
ARC
  5
39E1
330
18
100
AcDbEntity
  8
0
100
AcDbCircle
 10
1971.797731855664
 20
550.0545993187675
 30
0.0
 40
5.0
100
AcDbArc
 50
281.3099324740197
 51
0.0000000000007849
  0
LINE
  5
39E2
330
18
100
AcDbEntity
  8
0
100
AcDbLine
 10
1976.797731855664
 20
586.4555798051737
 30
0.0
 11
1976.797731855664
 21
431.4555798051737
 31
0.0
  0
LINE
  5
39E3
330
18
100
AcDbEntity
  8
0
100
AcDbLine
 10
1996.797731855664
 20
508.9555798051738
 30
0.0
 11
1996.797731855664
 21
586.4555798051737
 31
0.0
  0
CIRCLE
  5
39E4
330
18
100
AcDbEntity
  8
0
100
AcDbCircle
 10
2046.387140220482
 20
346.4547282468961
 30
0.0
 40
7.5
  0
LINE
  5
39E5
330
18
100
AcDbEntity
  8
0
100
AcDbLine
 10
1996.797731855664
 20
431.4555798051737
 30
0.0
 11
1996.797731855664
 21
508.9555798051738
 31
0.0
  0
LINE
  5
39E6
330
18
100
AcDbEntity
  8
0
100
AcDbLine
 10
1956.797731855665
 20
337.0283213757033
 30
0.0
 11
1972.778312531355
 21
340.2244375108416
 31
0.0
  0
LINE
  5
39E7
330
18
100
AcDbEntity
  8
0
100
AcDbLine
 10
1929.297731855665
 20
353.0283213757034
 30
0.0
 11
1929.297731855665
 21
378.0099880423699
 31
0.0
  0
LINE
  5
39E8
330
18
100
AcDbEntity
  8
0
100
AcDbLine
 10
1919.75873779757
 20
378.0099880423699
 30
0.0
 11
1919.75873779757
 21
369.0283213757034
 31
0.0
  0
LINE
  5
39E9
330
18
100
AcDbEntity
  8
0
100
AcDbLine
 10
1896.797731855665
 20
369.0283213757034
 30
0.0
 11
1896.797731855665
 21
378.0099880423699
 31
0.0
  0
LINE
  5
39EA
330
18
100
AcDbEntity
  8
0
100
AcDbLine
 10
1920.297731855665
 20
352.0283213757033
 30
0.0
 11
1920.297731855665
 21
340.0283213757034
 31
0.0
  0
LINE
  5
39EB
330
18
100
AcDbEntity
  8
0
100
AcDbLine
 10
1923.297731855664
 20
337.0283213757033
 30
0.0
 11
1956.797731855665
 21
337.0283213757033
 31
0.0
  0
ARC
  5
39EC
330
18
100
AcDbEntity
  8
0
100
AcDbCircle
 10
1923.297731855664
 20
340.0283213757034
 30
0.0
 40
3.0
100
AcDbArc
 50
180.0
 51
270.0
  0
ARC
  5
39ED
330
18
100
AcDbEntity
  8
0
100
AcDbCircle
 10
1920.797731855665
 20
319.0283213757034
 30
0.0
 40
2.0
100
AcDbArc
 50
0.0
 51
90.0
  0
LINE
  5
39EE
330
18
100
AcDbEntity
  8
0
100
AcDbLine
 10
1928.297731855665
 20
352.0283213757033
 30
0.0
 11
1929.297731855665
 21
353.0283213757034
 31
0.0
  0
ARC
  5
39EF
330
18
100
AcDbEntity
  8
0
100
AcDbCircle
 10
1908.278234826618
 20
346.3679701179421
 30
0.0
 40
33.66035125776125
100
AcDbArc
 50
70.05798215649917
 51
109.9420178435008
  0
ARC
  5
39F0
330
18
100
AcDbEntity
  8
0
100
AcDbCircle
 10
1924.528234826618
 20
373.3838361407809
 30
0.0
 40
6.644500231519874
100
AcDbArc
 50
75.93283644523404
 51
135.8740677452009
  0
LINE
  5
39F1
330
18
100
AcDbEntity
  8
0
100
AcDbLine
 10
1925.797731855665
 20
380.0283213757034
 30
0.0
 11
1929.297731855665
 21
378.0099880423699
 31
0.0
  0
ARC
  5
39F2
330
18
100
AcDbEntity
  8
0
100
AcDbCircle
 10
1971.797731855664
 20
345.1273408892962
 30
0.0
 40
5.0
100
AcDbArc
 50
281.309932474019
 51
0.0
  0
LINE
  5
39F3
330
18
100
AcDbEntity
  8
0
100
AcDbLine
 10
1996.797731855664
 20
381.5283213757034
 30
0.0
 11
1976.797731855665
 21
381.5283213757034
 31
0.0
  0
LINE
  5
39F4
330
18
100
AcDbEntity
  8
0
100
AcDbLine
 10
1976.797731855664
 20
431.4555798051737
 30
0.0
 11
1996.797731855664
 21
431.4555798051737
 31
0.0
  0
LINE
  5
39F5
330
18
100
AcDbEntity
  8
0
100
AcDbLine
 10
1956.797731855665
 20
541.9555798051745
 30
0.0
 11
1972.778312531355
 21
545.1516959403129
 31
0.0
  0
LINE
  5
39F6
330
18
100
AcDbEntity
  8
0
100
AcDbLine
 10
1956.797731855665
 20
475.9555798051746
 30
0.0
 11
1972.778312531356
 21
472.7594636700366
 31
0.0
  0
ARC
  5
39F7
330
18
100
AcDbEntity
  8
0
100
AcDbCircle
 10
1971.797731855664
 20
467.8565602915819
 30
0.0
 40
5.0
100
AcDbArc
 50
0.0000000000007849
 51
78.69006752598176
  0
LINE
  5
39F8
330
18
100
AcDbEntity
  8
0
100
AcDbLine
 10
2073.639556186182
 20
380.0283213757034
 30
0.0
 11
2059.813547091675
 21
380.0283213757034
 31
0.0
  0
ARC
  5
39F9
330
18
100
AcDbEntity
  8
0
100
AcDbCircle
 10
2061.083044120721
 20
373.3838361407809
 30
0.0
 40
6.644500231519874
100
AcDbArc
 50
44.12593225479906
 51
104.0671635547661
  0
LINE
  5
39FA
330
18
100
AcDbEntity
  8
0
100
AcDbLine
 10
2056.313547091675
 20
374.3845577730546
 30
0.0
 11
2056.313547091675
 21
378.0099880423699
 31
0.0
  0
LINE
  5
39FB
330
18
100
AcDbEntity
  8
0
100
AcDbLine
 10
2056.313547091675
 20
378.0099880423699
 30
0.0
 11
2059.813547091675
 21
380.0283213757034
 31
0.0
  0
LINE
  5
39FC
330
18
100
AcDbEntity
  8
0
100
AcDbLine
 10
2121.313547091675
 20
374.3845577730546
 30
0.0
 11
2121.313547091675
 21
378.0099880423699
 31
0.0
  0
LINE
  5
39FD
330
18
100
AcDbEntity
  8
0
100
AcDbLine
 10
2117.813547091675
 20
380.0283213757034
 30
0.0
 11
2103.987537997168
 21
380.0283213757034
 31
0.0
  0
ARC
  5
39FE
330
18
100
AcDbEntity
  8
0
100
AcDbCircle
 10
2116.544050062628
 20
373.3838361407809
 30
0.0
 40
6.644500231519874
100
AcDbArc
 50
75.93283644523404
 51
135.8740677452009
  0
ARC
  5
39FF
330
18
100
AcDbEntity
  8
0
100
AcDbCircle
 10
2100.294050062628
 20
346.3679701179421
 30
0.0
 40
33.66035125776125
100
AcDbArc
 50
70.05798215649917
 51
71.6735577034338
  0
LINE
  5
3A00
330
18
100
AcDbEntity
  8
0
100
AcDbLine
 10
2117.813547091675
 20
380.0283213757034
 30
0.0
 11
2121.313547091675
 21
378.0099880423699
 31
0.0
  0
CIRCLE
  5
3A01
330
18
100
AcDbEntity
  8
0
100
AcDbCircle
 10
2131.239953962868
 20
346.4547282468961
 30
0.0
 40
7.5
  0
LINE
  5
3A02
330
18
100
AcDbEntity
  8
0
100
AcDbLine
 10
2043.734100514407
 20
704.078914126052
 30
0.0
 11
2039.005725514407
 21
699.3522266260522
 31
0.0
  0
LINE
  5
3A03
330
18
100
AcDbEntity
  8
0
100
AcDbLine
 10
2015.372288014407
 20
694.6255391260524
 30
0.0
 11
2062.640850514408
 21
694.6255391260524
 31
0.0
  0
ARC
  5
3A04
330
18
100
AcDbEntity
  8
0
100
AcDbCircle
 10
1971.797731855664
 20
658.795446076494
 30
0.0
 40
5.0
100
AcDbArc
 50
359.9999999999925
 51
78.69006752597354
  0
LINE
  5
3A05
330
18
100
AcDbEntity
  8
0
100
AcDbLine
 10
1996.797731855664
 20
622.3944655900964
 30
0.0
 11
1996.797731855664
 21
699.8944655900963
 31
0.0
  0
LINE
  5
3A06
330
18
100
AcDbEntity
  8
0
100
AcDbLine
 10
1996.797731855664
 20
586.4555798051737
 30
0.0
 11
1976.797731855664
 21
586.4555798051737
 31
0.0
  0
LINE
  5
3A07
330
18
100
AcDbEntity
  8
0
100
AcDbLine
 10
1976.797731855664
 20
622.3944655900964
 30
0.0
 11
1996.797731855664
 21
622.3944655900964
 31
0.0
  0
LINE
  5
3A08
330
18
100
AcDbEntity
  8
0
100
AcDbLine
 10
1956.797731855674
 20
732.8944655900889
 30
0.0
 11
1972.778312531366
 21
736.0905817252251
 31
0.0
  0
LINE
  5
3A09
330
18
100
AcDbEntity
  8
0
100
AcDbLine
 10
1956.797731855666
 20
666.8944655900888
 30
0.0
 11
1972.778312531357
 21
663.6983494549485
 31
0.0
  0
ARC
  5
3A0A
330
18
100
AcDbEntity
  8
0
100
AcDbCircle
 10
1922.297731855665
 20
699.8944655900963
 30
0.0
 40
33.0
100
AcDbArc
 50
237.1048450319142
 51
270.0
  0
LINE
  5
3A0B
330
18
100
AcDbEntity
  8
0
100
AcDbLine
 10
1956.797731855629
 20
666.8944655900964
 30
0.0
 11
1922.297731855665
 21
666.8944655900964
 31
0.0
  0
ARC
  5
3A0C
330
18
100
AcDbEntity
  8
0
100
AcDbCircle
 10
1908.278234826618
 20
742.2341143323351
 30
0.0
 40
33.66035125776125
100
AcDbArc
 50
70.05798215649917
 51
109.9420178435008
  0
LINE
  5
3A0D
330
18
100
AcDbEntity
  8
0
100
AcDbLine
 10
1896.797731855665
 20
764.8944655900963
 30
0.0
 11
1896.797731855665
 21
773.8761322567629
 31
0.0
  0
LINE
  5
3A0E
330
18
100
AcDbEntity
  8
0
100
AcDbLine
 10
1920.297731855665
 20
747.8944655900961
 30
0.0
 11
1920.297731855665
 21
735.8944655900963
 31
0.0
  0
LINE
  5
3A0F
330
18
100
AcDbEntity
  8
0
100
AcDbLine
 10
1956.797731855711
 20
732.8944655900963
 30
0.0
 11
1923.297731855664
 21
732.8944655900963
 31
0.0
  0
ARC
  5
3A10
330
18
100
AcDbEntity
  8
0
100
AcDbCircle
 10
1923.297731855664
 20
735.8944655900963
 30
0.0
 40
3.0
100
AcDbArc
 50
180.0
 51
270.0
  0
LINE
  5
3A11
330
18
100
AcDbEntity
  8
0
100
AcDbLine
 10
1919.75873779757
 20
773.8761322567629
 30
0.0
 11
1919.75873779757
 21
764.8944655900963
 31
0.0
  0
LINE
  5
3A12
330
18
100
AcDbEntity
  8
0
100
AcDbLine
 10
1929.297731855665
 20
748.8944655900963
 30
0.0
 11
1929.297731855665
 21
773.8761322567629
 31
0.0
  0
LINE
  5
3A13
330
18
100
AcDbEntity
  8
0
100
AcDbLine
 10
1928.297731855665
 20
747.8944655900964
 30
0.0
 11
1929.297731855665
 21
748.8944655900963
 31
0.0
  0
LINE
  5
3A14
330
18
100
AcDbEntity
  8
0
100
AcDbLine
 10
1929.297731855665
 20
773.8761322567629
 30
0.0
 11
1925.797731855665
 21
775.8944655900964
 31
0.0
  0
LINE
  5
3A15
330
18
100
AcDbEntity
  8
0
100
AcDbLine
 10
2025.031538014407
 20
704.078914126052
 30
0.0
 11
2015.372288014407
 21
694.6255391260524
 31
0.0
  0
LINE
  5
3A16
330
18
100
AcDbEntity
  8
0
100
AcDbLine
 10
2039.005725514407
 20
699.3522266260522
 30
0.0
 11
2025.031538014407
 21
699.3522266260522
 31
0.0
  0
LINE
  5
3A17
330
18
100
AcDbEntity
  8
0
100
AcDbLine
 10
2025.031538014407
 20
699.3522266260522
 30
0.0
 11
2025.031538014407
 21
704.078914126052
 31
0.0
  0
ARC
  5
3A18
330
18
100
AcDbEntity
  8
0
100
AcDbCircle
 10
1971.797731855676
 20
740.9934851036799
 30
0.0
 40
5.0
100
AcDbArc
 50
281.3099324740115
 51
359.9999999999925
  0
LINE
  5
3A19
330
18
100
AcDbEntity
  8
0
100
AcDbLine
 10
2072.094225514407
 20
704.078914126052
 30
0.0
 11
2043.734100514407
 21
704.078914126052
 31
0.0
  0
LINE
  5
3A1A
330
18
100
AcDbEntity
  8
0
100
AcDbLine
 10
2062.640850514408
 20
694.6255391260524
 30
0.0
 11
2072.094225514407
 21
704.078914126052
 31
0.0
  0
LINE
  5
3A1B
330
18
100
AcDbEntity
  8
0
100
AcDbLine
 10
1892.939574150763
 20
1376.964668801075
 30
0.0
 11
1868.439574150763
 21
1376.964668801075
 31
0.0
  0
LINE
  5
3A1C
330
18
100
AcDbEntity
  8
0
100
AcDbLine
 10
1868.439574150763
 20
1335.964668801075
 30
0.0
 11
1895.439574150763
 21
1335.964668801075
 31
0.0
  0
LINE
  5
3A1D
330
18
100
AcDbEntity
  8
0
100
AcDbLine
 10
1900.515143706267
 20
1163.543564227914
 30
0.0
 11
1873.734184132105
 21
1163.543564227914
 31
0.0
  0
LINE
  5
3A1E
330
18
100
AcDbEntity
  8
0
100
AcDbLine
 10
1873.734184132105
 20
1204.543564227914
 30
0.0
 11
1900.515143706267
 21
1204.543564227914
 31
0.0
  0
LINE
  5
3A1F
330
18
100
AcDbEntity
  8
0
100
AcDbLine
 10
1873.734184132105
 20
1026.070197881831
 30
0.0
 11
1898.234184132104
 21
1026.070197881831
 31
0.0
  0
LINE
  5
3A20
330
18
100
AcDbEntity
  8
0
100
AcDbLine
 10
1920.734184132104
 20
985.0701978818316
 30
0.0
 11
1873.734184132105
 21
985.0701978818316
 31
0.0
  0
LINE
  5
3A21
330
18
100
AcDbEntity
  8
0
100
AcDbLine
 10
1848.439574150763
 20
1418.964668801075
 30
0.0
 11
1848.439574150763
 21
1293.964668801075
 31
0.0
  0
LINE
  5
3A22
330
18
100
AcDbEntity
  8
0
100
AcDbLine
 10
1830.439574150763
 20
1356.464668801075
 30
0.0
 11
1830.439574150763
 21
1293.964668801075
 31
0.0
  0
ARC
  5
3A23
330
18
100
AcDbEntity
  8
0
100
AcDbCircle
 10
1328.709951773926
 20
1032.90984662407
 30
0.0
 40
33.66035125776125
100
AcDbArc
 50
70.05798215649917
 51
109.9420178435008
  0
LINE
  5
3A24
330
18
100
AcDbEntity
  8
0
100
AcDbLine
 10
1349.729448802972
 20
1055.570197881831
 30
0.0
 11
1284.729448802973
 21
1055.570197881831
 31
0.0
  0
LINE
  5
3A25
330
18
100
AcDbEntity
  8
0
100
AcDbLine
 10
1288.229448802972
 20
1066.570197881831
 30
0.0
 11
1346.229448802972
 21
1066.570197881831
 31
0.0
  0
CIRCLE
  5
3A26
330
18
100
AcDbEntity
  8
0
100
AcDbCircle
 10
1317.229448802972
 20
1005.570197881831
 30
0.0
 40
50.0
  0
LINE
  5
3A27
330
18
100
AcDbEntity
  8
0
100
AcDbLine
 10
1246.008720426707
 20
1055.570197881831
 30
0.0
 11
1228.008720426707
 21
1055.570197881831
 31
0.0
  0
LINE
  5
3A28
330
18
100
AcDbEntity
  8
0
100
AcDbLine
 10
1228.008720426707
 20
955.5701978818316
 30
0.0
 11
1246.008720426707
 21
955.5701978818316
 31
0.0
  0
LINE
  5
3A29
330
18
100
AcDbEntity
  8
0
100
AcDbLine
 10
1228.008720426707
 20
1055.570197881831
 30
0.0
 11
1228.008720426707
 21
955.5701978818316
 31
0.0
  0
LINE
  5
3A2A
330
18
100
AcDbEntity
  8
0
100
AcDbLine
 10
1173.008720426707
 20
1015.570197881831
 30
0.0
 11
1173.008720426707
 21
995.5701978818314
 31
0.0
  0
LINE
  5
3A2B
330
18
100
AcDbEntity
  8
0
100
AcDbLine
 10
1178.508720426707
 20
988.5701978818316
 30
0.0
 11
1208.008720426707
 21
988.5701978818316
 31
0.0
  0
ARC
  5
3A2C
330
18
100
AcDbEntity
  8
0
100
AcDbCircle
 10
1178.508720426707
 20
1005.570197881831
 30
0.0
 40
17.0
100
AcDbArc
 50
247.0066056857021
 51
270.0
  0
ARC
  5
3A2D
330
18
100
AcDbEntity
  8
0
100
AcDbCircle
 10
1172.008720426707
 20
995.5701978818314
 30
0.0
 40
1.0
100
AcDbArc
 50
270.0
 51
0.0
  0
ARC
  5
3A2E
330
18
100
AcDbEntity
  8
0
100
AcDbCircle
 10
1224.008720426707
 20
981.2909822709572
 30
0.0
 40
4.0
100
AcDbArc
 50
359.9999999999998
 51
78.69006752597904
  0
LINE
  5
3A2F
330
18
100
AcDbEntity
  8
0
100
AcDbLine
 10
1224.79318496726
 20
985.213304973721
 30
0.0
 11
1208.008720426707
 21
988.5701978818316
 31
0.0
  0
LINE
  5
3A30
330
18
100
AcDbEntity
  8
0
100
AcDbLine
 10
1208.008720426707
 20
1022.570197881831
 30
0.0
 11
1183.508720426707
 21
1022.570197881831
 31
0.0
  0
LINE
  5
3A31
330
18
100
AcDbEntity
  8
0
100
AcDbLine
 10
1187.508720426707
 20
1038.570197881831
 30
0.0
 11
1188.508720426707
 21
1039.570197881831
 31
0.0
  0
LINE
  5
3A32
330
18
100
AcDbEntity
  8
0
100
AcDbLine
 10
1179.508720426707
 20
1038.570197881831
 30
0.0
 11
1179.508720426707
 21
1026.570197881831
 31
0.0
  0
ARC
  5
3A33
330
18
100
AcDbEntity
  8
0
100
AcDbCircle
 10
1172.008720426707
 20
1015.570197881831
 30
0.0
 40
1.0
100
AcDbArc
 50
0.0
 51
90.0
  0
ARC
  5
3A34
330
18
100
AcDbEntity
  8
0
100
AcDbCircle
 10
1183.508720426707
 20
1026.570197881831
 30
0.0
 40
4.0
100
AcDbArc
 50
180.0
 51
270.0
  0
ARC
  5
3A35
330
18
100
AcDbEntity
  8
0
100
AcDbCircle
 10
1183.73922339766
 20
1059.925712646909
 30
0.0
 40
6.644500231519874
100
AcDbArc
 50
75.93283644523386
 51
135.8740677452009
  0
LINE
  5
3A36
330
18
100
AcDbEntity
  8
0
100
AcDbLine
 10
1178.969726368613
 20
1064.551864548498
 30
0.0
 11
1178.969726368613
 21
1055.570197881831
 31
0.0
  0
LINE
  5
3A37
330
18
100
AcDbEntity
  8
0
100
AcDbLine
 10
1188.508720426707
 20
1064.551864548498
 30
0.0
 11
1185.008720426707
 21
1066.570197881831
 31
0.0
  0
LINE
  5
3A38
330
18
100
AcDbEntity
  8
0
100
AcDbLine
 10
1188.508720426707
 20
1039.570197881831
 30
0.0
 11
1188.508720426707
 21
1064.551864548498
 31
0.0
  0
LINE
  5
3A39
330
18
100
AcDbEntity
  8
0
100
AcDbLine
 10
1224.79318496726
 20
1025.927090789942
 30
0.0
 11
1208.008720426707
 21
1022.570197881831
 31
0.0
  0
ARC
  5
3A3A
330
18
100
AcDbEntity
  8
0
100
AcDbCircle
 10
1224.008720426707
 20
1029.849413492705
 30
0.0
 40
4.0
100
AcDbArc
 50
281.309932474021
 51
0.0000000000002036
  0
LINE
  5
3A3B
330
18
100
AcDbEntity
  8
0
100
AcDbLine
 10
1246.008720426707
 20
1005.570197881831
 30
0.0
 11
1246.008720426707
 21
1055.570197881831
 31
0.0
  0
CIRCLE
  5
3A3C
330
18
100
AcDbEntity
  8
0
100
AcDbCircle
 10
1290.712944508477
 20
979.053693587336
 30
0.0
 40
6.0
  0
LINE
  5
3A3D
330
18
100
AcDbEntity
  8
0
100
AcDbLine
 10
1246.008720426707
 20
955.5701978818316
 30
0.0
 11
1246.008720426707
 21
1005.570197881831
 31
0.0
  0
LINE
  5
3A3E
330
18
100
AcDbEntity
  8
0
100
AcDbLine
 10
1288.229448802972
 20
1066.570197881831
 30
0.0
 11
1284.729448802973
 21
1064.551864548498
 31
0.0
  0
CIRCLE
  5
3A3F
330
18
100
AcDbEntity
  8
0
100
AcDbCircle
 10
1290.712944508477
 20
1032.086702176327
 30
0.0
 40
6.0
  0
LINE
  5
3A40
330
18
100
AcDbEntity
  8
0
100
AcDbLine
 10
1284.729448802973
 20
1043.566908265757
 30
0.0
 11
1284.729448802973
 21
1064.551864548498
 31
0.0
  0
ARC
  5
3A41
330
18
100
AcDbEntity
  8
0
100
AcDbCircle
 10
1305.748945832019
 20
1032.90984662407
 30
0.0
 40
33.66035125776125
100
AcDbArc
 50
70.05798215649917
 51
109.9420178435008
  0
LINE
  5
3A42
330
18
100
AcDbEntity
  8
0
100
AcDbLine
 10
1294.268442861067
 20
1064.551864548498
 30
0.0
 11
1294.268442861067
 21
1055.570197881831
 31
0.0
  0
ARC
  5
3A43
330
18
100
AcDbEntity
  8
0
100
AcDbCircle
 10
1289.498945832019
 20
1059.925712646909
 30
0.0
 40
6.644500231519874
100
AcDbArc
 50
44.12593225479906
 51
104.0671635547659
  0
LINE
  5
3A44
330
18
100
AcDbEntity
  8
0
100
AcDbLine
 10
1317.229448802972
 20
1055.570197881831
 30
0.0
 11
1317.229448802972
 21
1064.551864548498
 31
0.0
  0
CIRCLE
  5
3A45
330
18
100
AcDbEntity
  8
0
100
AcDbCircle
 10
1343.745953097468
 20
979.053693587336
 30
0.0
 40
6.0
  0
CIRCLE
  5
3A46
330
18
100
AcDbEntity
  8
0
100
AcDbCircle
 10
1343.745953097468
 20
1032.086702176327
 30
0.0
 40
6.0
  0
LINE
  5
3A47
330
18
100
AcDbEntity
  8
0
100
AcDbLine
 10
1349.729448802972
 20
1064.551864548498
 30
0.0
 11
1346.229448802972
 21
1066.570197881831
 31
0.0
  0
ARC
  5
3A48
330
18
100
AcDbEntity
  8
0
100
AcDbCircle
 10
1344.959951773926
 20
1059.925712646909
 30
0.0
 40
6.644500231519874
100
AcDbArc
 50
75.93283644523386
 51
135.8740677452009
  0
LINE
  5
3A49
330
18
100
AcDbEntity
  8
0
100
AcDbLine
 10
1340.190454744878
 20
1064.551864548498
 30
0.0
 11
1340.190454744878
 21
1055.570197881831
 31
0.0
  0
LINE
  5
3A4A
330
18
100
AcDbEntity
  8
0
100
AcDbLine
 10
1349.729448802972
 20
1043.566908265758
 30
0.0
 11
1349.729448802972
 21
1064.551864548498
 31
0.0
  0
LINE
  5
3A4B
330
18
100
AcDbEntity
  8
0
100
AcDbLine
 10
1228.008720426707
 20
1234.043564227914
 30
0.0
 11
1228.008720426707
 21
1134.043564227914
 31
0.0
  0
LINE
  5
3A4C
330
18
100
AcDbEntity
  8
0
100
AcDbLine
 10
1246.008720426707
 20
1134.043564227914
 30
0.0
 11
1246.008720426707
 21
1184.043564227914
 31
0.0
  0
LINE
  5
3A4D
330
18
100
AcDbEntity
  8
0
100
AcDbLine
 10
1228.008720426707
 20
1134.043564227914
 30
0.0
 11
1246.008720426707
 21
1134.043564227914
 31
0.0
  0
LINE
  5
3A4E
330
18
100
AcDbEntity
  8
0
100
AcDbLine
 10
1208.008720426707
 20
1167.043564227914
 30
0.0
 11
1183.707998395635
 21
1167.043564227914
 31
0.0
  0
LINE
  5
3A4F
330
18
100
AcDbEntity
  8
0
100
AcDbLine
 10
1224.79318496726
 20
1163.686671319803
 30
0.0
 11
1208.008720426707
 21
1167.043564227914
 31
0.0
  0
ARC
  5
3A50
330
18
100
AcDbEntity
  8
0
100
AcDbCircle
 10
1224.008720426707
 20
1159.76434861704
 30
0.0
 40
4.0
100
AcDbArc
 50
359.9999999999998
 51
78.69006752597904
  0
LINE
  5
3A51
330
18
100
AcDbEntity
  8
0
100
AcDbLine
 10
1246.008720426707
 20
1234.043564227914
 30
0.0
 11
1228.008720426707
 21
1234.043564227914
 31
0.0
  0
LINE
  5
3A52
330
18
100
AcDbEntity
  8
0
100
AcDbLine
 10
1208.008720426707
 20
1201.043564227914
 30
0.0
 11
1183.508720426707
 21
1201.043564227914
 31
0.0
  0
LINE
  5
3A53
330
18
100
AcDbEntity
  8
0
100
AcDbLine
 10
1224.79318496726
 20
1204.400457136025
 30
0.0
 11
1208.008720426707
 21
1201.043564227914
 31
0.0
  0
ARC
  5
3A54
330
18
100
AcDbEntity
  8
0
100
AcDbCircle
 10
1224.008720426707
 20
1208.322779838788
 30
0.0
 40
4.0
100
AcDbArc
 50
281.309932474021
 51
0.0000000000002036
  0
LINE
  5
3A55
330
18
100
AcDbEntity
  8
0
100
AcDbLine
 10
1246.008720426707
 20
1184.043564227914
 30
0.0
 11
1246.008720426707
 21
1234.043564227914
 31
0.0
  0
LINE
  5
3A56
330
18
100
AcDbEntity
  8
0
100
AcDbLine
 10
1712.126058788418
 20
1067.551864548498
 30
0.0
 11
1708.626058788418
 21
1069.570197881831
 31
0.0
  0
ARC
  5
3A57
330
18
100
AcDbEntity
  8
0
100
AcDbCircle
 10
1707.35656175937
 20
1062.925712646909
 30
0.0
 40
6.644500231519874
100
AcDbArc
 50
75.93283644523387
 51
135.8740677452009
  0
LINE
  5
3A58
330
18
100
AcDbEntity
  8
0
100
AcDbLine
 10
1650.626058788418
 20
1069.570197881831
 30
0.0
 11
1647.126058788418
 21
1067.551864548498
 31
0.0
  0
ARC
  5
3A59
330
18
100
AcDbEntity
  8
0
100
AcDbCircle
 10
1651.895555817465
 20
1062.925712646909
 30
0.0
 40
6.644500231519874
100
AcDbArc
 50
44.12593225479907
 51
104.0671635547659
  0
ARC
  5
3A5A
330
18
100
AcDbEntity
  8
0
100
AcDbCircle
 10
1668.145555817465
 20
1035.90984662407
 30
0.0
 40
33.66035125776125
100
AcDbArc
 50
72.72906705943636
 51
109.9420178435008
  0
ARC
  5
3A5B
330
18
100
AcDbEntity
  8
0
100
AcDbCircle
 10
1691.10656175937
 20
1035.90984662407
 30
0.0
 40
33.66035125776125
100
AcDbArc
 50
70.05798215649914
 51
107.2709329405636
  0
CIRCLE
  5
3A5C
330
18
100
AcDbEntity
  8
0
100
AcDbCircle
 10
1711.445863941812
 20
1037.390003035226
 30
0.0
 40
7.5
  0
CIRCLE
  5
3A5D
330
18
100
AcDbEntity
  8
0
100
AcDbCircle
 10
1711.445863941812
 20
973.750392728437
 30
0.0
 40
7.5
  0
CIRCLE
  5
3A5E
330
18
100
AcDbEntity
  8
0
100
AcDbCircle
 10
1679.626058788418
 20
1005.570197881831
 30
0.0
 40
62.5
  0
CIRCLE
  5
3A5F
330
18
100
AcDbEntity
  8
0
100
AcDbCircle
 10
1647.806253635023
 20
973.750392728437
 30
0.0
 40
7.5
  0
CIRCLE
  5
3A60
330
18
100
AcDbEntity
  8
0
100
AcDbCircle
 10
1647.806253635023
 20
1037.390003035226
 30
0.0
 40
7.5
  0
LINE
  5
3A61
330
18
100
AcDbEntity
  8
0
100
AcDbLine
 10
1647.126058788418
 20
1058.955589141987
 30
0.0
 11
1647.126058788418
 21
1067.551864548498
 31
0.0
  0
LINE
  5
3A62
330
18
100
AcDbEntity
  8
0
100
AcDbLine
 10
1656.665052846512
 20
1067.551864548498
 30
0.0
 11
1656.665052846512
 21
1063.699727435542
 31
0.0
  0
LINE
  5
3A63
330
18
100
AcDbEntity
  8
0
100
AcDbLine
 10
1702.587064730323
 20
1067.551864548498
 30
0.0
 11
1702.587064730323
 21
1063.699727435542
 31
0.0
  0
LINE
  5
3A64
330
18
100
AcDbEntity
  8
0
100
AcDbLine
 10
1712.126058788418
 20
1058.955589141987
 30
0.0
 11
1712.126058788418
 21
1067.551864548498
 31
0.0
  0
LINE
  5
3A65
330
18
100
AcDbEntity
  8
0
100
AcDbLine
 10
1853.734184132104
 20
1068.070197881831
 30
0.0
 11
1853.734184132104
 21
943.0701978818316
 31
0.0
  0
LINE
  5
3A66
330
18
100
AcDbEntity
  8
0
100
AcDbLine
 10
1835.734184132104
 20
1005.570197881831
 30
0.0
 11
1835.734184132104
 21
943.0701978818316
 31
0.0
  0
LINE
  5
3A67
330
18
100
AcDbEntity
  8
0
100
AcDbLine
 10
1796.797731855664
 20
777.3944655900963
 30
0.0
 11
1816.797731855664
 21
777.3944655900963
 31
0.0
  0
LINE
  5
3A68
330
18
100
AcDbEntity
  8
0
100
AcDbLine
 10
1835.734184132104
 20
943.0701978818316
 30
0.0
 11
1853.734184132104
 21
943.0701978818316
 31
0.0
  0
LINE
  5
3A69
330
18
100
AcDbEntity
  8
0
100
AcDbLine
 10
1795.844678497766
 20
1013.568249859982
 30
0.0
 11
1800.573053497766
 21
1008.841562359982
 31
0.0
  0
LINE
  5
3A6A
330
18
100
AcDbEntity
  8
0
100
AcDbLine
 10
1824.206490997766
 20
1004.114874859983
 30
0.0
 11
1776.937928497765
 21
1004.114874859983
 31
0.0
  0
LINE
  5
3A6B
330
18
100
AcDbEntity
  8
0
100
AcDbLine
 10
1776.937928497765
 20
1004.114874859983
 30
0.0
 11
1767.484553497766
 21
1013.568249859982
 31
0.0
  0
LINE
  5
3A6C
330
18
100
AcDbEntity
  8
0
100
AcDbLine
 10
1767.484553497766
 20
1013.568249859982
 30
0.0
 11
1795.844678497766
 21
1013.568249859982
 31
0.0
  0
LINE
  5
3A6D
330
18
100
AcDbEntity
  8
0
100
AcDbLine
 10
1814.547240997767
 20
1013.568249859982
 30
0.0
 11
1824.206490997766
 21
1004.114874859983
 31
0.0
  0
LINE
  5
3A6E
330
18
100
AcDbEntity
  8
0
100
AcDbLine
 10
1814.547240997767
 20
1008.841562359982
 30
0.0
 11
1814.547240997767
 21
1013.568249859982
 31
0.0
  0
LINE
  5
3A6F
330
18
100
AcDbEntity
  8
0
100
AcDbLine
 10
1835.734184132104
 20
1068.070197881831
 30
0.0
 11
1835.734184132104
 21
1005.570197881831
 31
0.0
  0
LINE
  5
3A70
330
18
100
AcDbEntity
  8
0
100
AcDbLine
 10
1800.573053497766
 20
1008.841562359982
 30
0.0
 11
1814.547240997767
 21
1008.841562359982
 31
0.0
  0
LINE
  5
3A71
330
18
100
AcDbEntity
  8
0
100
AcDbLine
 10
1873.734184132105
 20
985.0701978818316
 30
0.0
 11
1857.754184132105
 21
981.8801978818317
 31
0.0
  0
ARC
  5
3A72
330
18
100
AcDbEntity
  8
0
100
AcDbCircle
 10
1858.74841968059
 20
976.9655182677993
 30
0.0
 40
5.014237732145898
100
AcDbArc
 50
101.4365417287751
 51
179.9465278299425
  0
LINE
  5
3A73
330
18
100
AcDbEntity
  8
0
100
AcDbLine
 10
1835.734184132104
 20
1068.070197881831
 30
0.0
 11
1853.734184132104
 21
1068.070197881831
 31
0.0
  0
LINE
  5
3A74
330
18
100
AcDbEntity
  8
0
100
AcDbLine
 10
1857.754184132105
 20
1029.270197881831
 30
0.0
 11
1873.734184132105
 21
1026.070197881831
 31
0.0
  0
ARC
  5
3A75
330
18
100
AcDbEntity
  8
0
100
AcDbCircle
 10
1858.768707904347
 20
1034.201541874559
 30
0.0
 40
5.034621342172342
100
AcDbArc
 50
180.3567080770665
 51
258.3747586112619
  0
LINE
  5
3A76
330
18
100
AcDbEntity
  8
0
100
AcDbLine
 10
1650.626058788418
 20
1069.570197881831
 30
0.0
 11
1708.626058788418
 21
1069.570197881831
 31
0.0
  0
LINE
  5
3A77
330
18
100
AcDbEntity
  8
0
100
AcDbLine
 10
1814.547240997767
 20
1186.648894405203
 30
0.0
 11
1824.206490997766
 21
1177.195519405204
 31
0.0
  0
LINE
  5
3A78
330
18
100
AcDbEntity
  8
0
100
AcDbLine
 10
1814.547240997767
 20
1181.922206905204
 30
0.0
 11
1814.547240997767
 21
1186.648894405203
 31
0.0
  0
LINE
  5
3A79
330
18
100
AcDbEntity
  8
0
100
AcDbLine
 10
1795.844678497766
 20
1186.648894405203
 30
0.0
 11
1800.573053497766
 21
1181.922206905204
 31
0.0
  0
LINE
  5
3A7A
330
18
100
AcDbEntity
  8
0
100
AcDbLine
 10
1776.937928497765
 20
1177.195519405204
 30
0.0
 11
1767.484553497766
 21
1186.648894405203
 31
0.0
  0
LINE
  5
3A7B
330
18
100
AcDbEntity
  8
0
100
AcDbLine
 10
1835.734184132104
 20
1184.043564227914
 30
0.0
 11
1835.734184132104
 21
1121.543564227914
 31
0.0
  0
LINE
  5
3A7C
330
18
100
AcDbEntity
  8
0
100
AcDbLine
 10
1853.734184132104
 20
1246.543564227914
 30
0.0
 11
1853.734184132104
 21
1121.543564227914
 31
0.0
  0
LINE
  5
3A7D
330
18
100
AcDbEntity
  8
0
100
AcDbLine
 10
1824.206490997766
 20
1177.195519405204
 30
0.0
 11
1776.937928497765
 21
1177.195519405204
 31
0.0
  0
LINE
  5
3A7E
330
18
100
AcDbEntity
  8
0
100
AcDbLine
 10
1853.734184132104
 20
1121.543564227914
 30
0.0
 11
1835.734184132104
 21
1121.543564227914
 31
0.0
  0
LINE
  5
3A7F
330
18
100
AcDbEntity
  8
0
100
AcDbLine
 10
1800.573053497766
 20
1181.922206905204
 30
0.0
 11
1814.547240997767
 21
1181.922206905204
 31
0.0
  0
LINE
  5
3A80
330
18
100
AcDbEntity
  8
0
100
AcDbLine
 10
1873.734184132105
 20
1163.543564227914
 30
0.0
 11
1857.753184132105
 21
1160.343564227914
 31
0.0
  0
ARC
  5
3A81
330
18
100
AcDbEntity
  8
0
100
AcDbCircle
 10
1858.74395017311
 20
1155.420204231226
 30
0.0
 40
5.0218632471338
100
AcDbArc
 50
101.3669231286208
 51
176.0222732182565
  0
LINE
  5
3A82
330
18
100
AcDbEntity
  8
0
100
AcDbLine
 10
1767.484553497766
 20
1186.648894405203
 30
0.0
 11
1795.844678497766
 21
1186.648894405203
 31
0.0
  0
LINE
  5
3A83
330
18
100
AcDbEntity
  8
0
100
AcDbLine
 10
1835.734184132104
 20
1184.043564227914
 30
0.0
 11
1835.734184132104
 21
1246.543564227914
 31
0.0
  0
ARC
  5
3A84
330
18
100
AcDbEntity
  8
0
100
AcDbCircle
 10
1858.729409656687
 20
1212.64266761745
 30
0.0
 40
4.995225605031567
100
AcDbArc
 50
179.9897157806716
 51
258.7417509075334
  0
LINE
  5
3A85
330
18
100
AcDbEntity
  8
0
100
AcDbLine
 10
1857.753184132105
 20
1207.743564227914
 30
0.0
 11
1873.734184132105
 21
1204.543564227914
 31
0.0
  0
LINE
  5
3A86
330
18
100
AcDbEntity
  8
0
100
AcDbLine
 10
1848.439574150763
 20
1293.964668801075
 30
0.0
 11
1830.439574150763
 21
1293.964668801075
 31
0.0
  0
LINE
  5
3A87
330
18
100
AcDbEntity
  8
0
100
AcDbLine
 10
1853.734184132104
 20
1246.543564227914
 30
0.0
 11
1835.734184132104
 21
1246.543564227914
 31
0.0
  0
LINE
  5
3A88
330
18
100
AcDbEntity
  8
0
100
AcDbLine
 10
1183.214110445365
 20
1390.464668801075
 30
0.0
 11
1183.214110445365
 21
1415.446335467741
 31
0.0
  0
LINE
  5
3A89
330
18
100
AcDbEntity
  8
0
100
AcDbLine
 10
1173.67511638727
 20
1415.446335467741
 30
0.0
 11
1173.67511638727
 21
1406.464668801075
 31
0.0
  0
LINE
  5
3A8A
330
18
100
AcDbEntity
  8
0
100
AcDbLine
 10
1240.714110445365
 20
1306.464668801075
 30
0.0
 11
1240.714110445365
 21
1356.464668801075
 31
0.0
  0
LINE
  5
3A8B
330
18
100
AcDbEntity
  8
0
100
AcDbLine
 10
1222.714110445365
 20
1406.464668801075
 30
0.0
 11
1222.714110445365
 21
1306.464668801075
 31
0.0
  0
LINE
  5
3A8C
330
18
100
AcDbEntity
  8
0
100
AcDbLine
 10
1219.498574985919
 20
1336.107775892964
 30
0.0
 11
1202.714110445366
 21
1339.464668801075
 31
0.0
  0
LINE
  5
3A8D
330
18
100
AcDbEntity
  8
0
100
AcDbLine
 10
1222.714110445365
 20
1306.464668801075
 30
0.0
 11
1240.714110445365
 21
1306.464668801075
 31
0.0
  0
ARC
  5
3A8E
330
18
100
AcDbEntity
  8
0
100
AcDbCircle
 10
1218.714110445366
 20
1332.185453190201
 30
0.0
 40
4.0
100
AcDbArc
 50
359.9999999999998
 51
78.69006752597904
  0
LINE
  5
3A8F
330
18
100
AcDbEntity
  8
0
100
AcDbLine
 10
1219.498574985919
 20
1376.821561709186
 30
0.0
 11
1202.714110445366
 21
1373.464668801075
 31
0.0
  0
LINE
  5
3A90
330
18
100
AcDbEntity
  8
0
100
AcDbLine
 10
1174.214110445365
 20
1389.464668801075
 30
0.0
 11
1174.214110445365
 21
1377.464668801075
 31
0.0
  0
LINE
  5
3A91
330
18
100
AcDbEntity
  8
0
100
AcDbLine
 10
1202.714110445366
 20
1373.464668801075
 30
0.0
 11
1178.214110445365
 21
1373.464668801075
 31
0.0
  0
ARC
  5
3A92
330
18
100
AcDbEntity
  8
0
100
AcDbCircle
 10
1178.214110445365
 20
1377.464668801075
 30
0.0
 40
4.0
100
AcDbArc
 50
180.0
 51
270.0
  0
LINE
  5
3A93
330
18
100
AcDbEntity
  8
0
100
AcDbLine
 10
1182.214110445365
 20
1389.464668801075
 30
0.0
 11
1183.214110445365
 21
1390.464668801075
 31
0.0
  0
LINE
  5
3A94
330
18
100
AcDbEntity
  8
0
100
AcDbLine
 10
1240.714110445365
 20
1356.464668801075
 30
0.0
 11
1240.714110445365
 21
1406.464668801075
 31
0.0
  0
ARC
  5
3A95
330
18
100
AcDbEntity
  8
0
100
AcDbCircle
 10
1218.714110445366
 20
1380.743884411949
 30
0.0
 40
4.0
100
AcDbArc
 50
281.309932474021
 51
0.0000000000002036
  0
LINE
  5
3A96
330
18
100
AcDbEntity
  8
0
100
AcDbLine
 10
1240.714110445365
 20
1406.464668801075
 30
0.0
 11
1222.714110445365
 21
1406.464668801075
 31
0.0
  0
LINE
  5
3A97
330
18
100
AcDbEntity
  8
0
100
AcDbLine
 10
1302.359907767268
 20
1354.431993340141
 30
0.0
 11
1311.813282767267
 21
1363.885368340141
 31
0.0
  0
LINE
  5
3A98
330
18
100
AcDbEntity
  8
0
100
AcDbLine
 10
1264.750595267266
 20
1363.885368340141
 30
0.0
 11
1255.091345267267
 21
1354.431993340141
 31
0.0
  0
LINE
  5
3A99
330
18
100
AcDbEntity
  8
0
100
AcDbLine
 10
1255.091345267267
 20
1354.431993340141
 30
0.0
 11
1302.359907767268
 21
1354.431993340141
 31
0.0
  0
LINE
  5
3A9A
330
18
100
AcDbEntity
  8
0
100
AcDbLine
 10
1311.813282767267
 20
1363.885368340141
 30
0.0
 11
1283.453157767267
 21
1363.885368340141
 31
0.0
  0
LINE
  5
3A9B
330
18
100
AcDbEntity
  8
0
100
AcDbLine
 10
1278.724782767267
 20
1359.158680840141
 30
0.0
 11
1264.750595267266
 21
1359.158680840141
 31
0.0
  0
LINE
  5
3A9C
330
18
100
AcDbEntity
  8
0
100
AcDbLine
 10
1264.750595267266
 20
1359.158680840141
 30
0.0
 11
1264.750595267266
 21
1363.885368340141
 31
0.0
  0
LINE
  5
3A9D
330
18
100
AcDbEntity
  8
0
100
AcDbLine
 10
1283.453157767267
 20
1363.885368340141
 30
0.0
 11
1278.724782767267
 21
1359.158680840141
 31
0.0
  0
LINE
  5
3A9E
330
18
100
AcDbEntity
  8
0
100
AcDbLine
 10
1179.714110445365
 20
1417.464668801075
 30
0.0
 11
1183.214110445365
 21
1415.446335467741
 31
0.0
  0
ARC
  5
3A9F
330
18
100
AcDbEntity
  8
0
100
AcDbCircle
 10
1178.444613416318
 20
1410.820183566152
 30
0.0
 40
6.644500231519874
100
AcDbArc
 50
75.93283644523404
 51
135.8740677452009
  0
LINE
  5
3AA0
330
18
100
AcDbEntity
  8
0
100
AcDbLine
 10
1830.439574150763
 20
1356.464668801075
 30
0.0
 11
1830.439574150763
 21
1418.964668801075
 31
0.0
  0
LINE
  5
3AA1
330
18
100
AcDbEntity
  8
0
100
AcDbLine
 10
1852.458574150763
 20
1332.774668801075
 30
0.0
 11
1868.439574150763
 21
1335.964668801075
 31
0.0
  0
ARC
  5
3AA2
330
18
100
AcDbEntity
  8
0
100
AcDbCircle
 10
1853.514637202179
 20
1327.795037306279
 30
0.0
 40
5.090382990750874
100
AcDbArc
 50
101.9736834750866
 51
175.5536883066391
  0
ARC
  5
3AA3
330
18
100
AcDbEntity
  8
0
100
AcDbCircle
 10
1853.474421868981
 20
1385.096071347894
 30
0.0
 40
5.034945646737585
100
AcDbArc
 50
180.3573514373161
 51
258.360135931912
  0
LINE
  5
3AA4
330
18
100
AcDbEntity
  8
0
100
AcDbLine
 10
1868.439574150763
 20
1376.964668801075
 30
0.0
 11
1852.458574150763
 21
1380.164668801075
 31
0.0
  0
LINE
  5
3AA5
330
18
100
AcDbEntity
  8
0
100
AcDbLine
 10
1848.439574150763
 20
1418.964668801075
 30
0.0
 11
1830.439574150763
 21
1418.964668801075
 31
0.0
  0
LINE
  5
3AA6
330
18
100
AcDbEntity
  8
0
100
AcDbLine
 10
1992.439574150763
 20
1418.964668801075
 30
0.0
 11
1992.439574150763
 21
1293.964668801075
 31
0.0
  0
LINE
  5
3AA7
330
18
100
AcDbEntity
  8
0
100
AcDbLine
 10
2010.439574150763
 20
1356.464668801075
 30
0.0
 11
2010.439574150763
 21
1293.964668801075
 31
0.0
  0
ARC
  5
3AA8
330
18
100
AcDbEntity
  8
0
100
AcDbCircle
 10
2130.764501380713
 20
1062.925712646909
 30
0.0
 40
6.644500231519874
100
AcDbArc
 50
75.93283644523404
 51
135.8740677452009
  0
LINE
  5
3AA9
330
18
100
AcDbEntity
  8
0
100
AcDbLine
 10
2132.033998409761
 20
1069.570197881831
 30
0.0
 11
2135.53399840976
 21
1067.551864548498
 31
0.0
  0
ARC
  5
3AAA
330
18
100
AcDbEntity
  8
0
100
AcDbCircle
 10
2091.553495438808
 20
1035.90984662407
 30
0.0
 40
33.66035125776125
100
AcDbArc
 50
72.72906705943636
 51
109.9420178435008
  0
LINE
  5
3AAB
330
18
100
AcDbEntity
  8
0
100
AcDbLine
 10
2070.53399840976
 20
1067.551864548498
 30
0.0
 11
2074.033998409761
 21
1069.570197881831
 31
0.0
  0
ARC
  5
3AAC
330
18
100
AcDbEntity
  8
0
100
AcDbCircle
 10
2075.303495438808
 20
1062.925712646909
 30
0.0
 40
6.644500231519874
100
AcDbArc
 50
44.12593225479906
 51
104.0671635547661
  0
ARC
  5
3AAD
330
18
100
AcDbEntity
  8
0
100
AcDbCircle
 10
2114.514501380713
 20
1035.90984662407
 30
0.0
 40
33.66035125776125
100
AcDbArc
 50
70.05798215649917
 51
107.2709329405636
  0
ARC
  5
3AAE
330
18
100
AcDbEntity
  8
0
100
AcDbCircle
 10
1953.464687103057
 20
1062.925712646909
 30
0.0
 40
6.644500231519874
100
AcDbArc
 50
75.93283644523404
 51
135.8740677452009
  0
ARC
  5
3AAF
330
18
100
AcDbEntity
  8
0
100
AcDbCircle
 10
1937.214687103057
 20
1035.90984662407
 30
0.0
 40
33.66035125776125
100
AcDbArc
 50
70.05798215649917
 51
109.9420178435008
  0
ARC
  5
3AB0
330
18
100
AcDbEntity
  8
0
100
AcDbCircle
 10
1898.003681161152
 20
1062.925712646909
 30
0.0
 40
6.644500231519874
100
AcDbArc
 50
44.12593225479906
 51
104.0671635547661
  0
LINE
  5
3AB1
330
18
100
AcDbEntity
  8
0
100
AcDbLine
 10
1893.234184132105
 20
1067.551864548498
 30
0.0
 11
1896.734184132105
 21
1069.570197881831
 31
0.0
  0
ARC
  5
3AB2
330
18
100
AcDbEntity
  8
0
100
AcDbCircle
 10
1914.253681161152
 20
1035.90984662407
 30
0.0
 40
33.66035125776125
100
AcDbArc
 50
70.05798215649914
 51
109.9420178435008
  0
LINE
  5
3AB3
330
18
100
AcDbEntity
  8
0
100
AcDbLine
 10
1954.734184132105
 20
1069.570197881831
 30
0.0
 11
1958.234184132105
 21
1067.551864548498
 31
0.0
  0
CIRCLE
  5
3AB4
330
18
100
AcDbEntity
  8
0
100
AcDbCircle
 10
2103.033998409761
 20
1005.570197881831
 30
0.0
 40
62.5
  0
LINE
  5
3AB5
330
18
100
AcDbEntity
  8
0
100
AcDbLine
 10
1997.734184132104
 20
1068.070197881831
 30
0.0
 11
1997.734184132104
 21
943.0701978818316
 31
0.0
  0
LINE
  5
3AB6
330
18
100
AcDbEntity
  8
0
100
AcDbLine
 10
2015.734184132104
 20
1005.570197881831
 30
0.0
 11
2015.734184132104
 21
943.0701978818316
 31
0.0
  0
TEXT
  5
3AB7
330
18
100
AcDbEntity
  8
0
100
AcDbText
 10
1910.88013663843
 20
928.3665485911091
 30
0.0
 40
15.0
  1
25A
 41
0.8
 11
1910.88013663843
 21
928.3665485911091
 31
0.0
100
AcDbText
 73
     1
  0
LINE
  5
3AB8
330
18
100
AcDbEntity
  8
0
100
AcDbLine
 10
1996.797731855664
 20
777.3944655900963
 30
0.0
 11
1976.797731855664
 21
777.3944655900963
 31
0.0
  0
LINE
  5
3AB9
330
18
100
AcDbEntity
  8
0
100
AcDbLine
 10
1997.734184132104
 20
943.0701978818316
 30
0.0
 11
2015.734184132104
 21
943.0701978818316
 31
0.0
  0
LINE
  5
3ABA
330
18
100
AcDbEntity
  8
0
100
AcDbLine
 10
1977.734184132104
 20
985.0701978818316
 30
0.0
 11
1950.734184132105
 21
985.0701978818316
 31
0.0
  0
LINE
  5
3ABB
330
18
100
AcDbEntity
  8
0
100
AcDbLine
 10
1953.234184132105
 20
1026.070197881831
 30
0.0
 11
1977.734184132104
 21
1026.070197881831
 31
0.0
  0
LINE
  5
3ABC
330
18
100
AcDbEntity
  8
0
100
AcDbLine
 10
1908.734184132105
 20
1016.570209120027
 30
0.0
 11
1908.734184132105
 21
994.5701866436351
 31
0.0
  0
LINE
  5
3ABD
330
18
100
AcDbEntity
  8
0
100
AcDbLine
 10
1942.734184132104
 20
994.5701866436351
 30
0.0
 11
1942.734184132104
 21
1016.570209120027
 31
0.0
  0
LINE
  5
3ABE
330
18
100
AcDbEntity
  8
0
100
AcDbLine
 10
1908.734184132105
 20
994.5701866436351
 30
0.0
 11
1942.734184132104
 21
994.5701866436351
 31
0.0
  0
ARC
  5
3ABF
330
18
100
AcDbEntity
  8
0
100
AcDbCircle
 10
1935.734184132105
 20
970.1124797914811
 30
0.0
 40
18.00008072435057
100
AcDbArc
 50
67.06980493479725
 51
112.9301950652027
  0
ARC
  5
3AC0
330
18
100
AcDbEntity
  8
0
100
AcDbCircle
 10
1920.733953944495
 20
1005.570273812965
 30
0.0
 40
20.50007593242637
100
AcDbArc
 50
270.0006433526678
 51
292.9308282432687
  0
ARC
  5
3AC1
330
18
100
AcDbEntity
  8
0
100
AcDbCircle
 10
1950.734414319715
 20
1005.570273812965
 30
0.0
 40
20.50007593242634
100
AcDbArc
 50
247.0691717567312
 51
269.9993566473321
  0
LINE
  5
3AC2
330
18
100
AcDbEntity
  8
0
100
AcDbLine
 10
1908.734184132105
 20
1016.570209120027
 30
0.0
 11
1942.734184132104
 21
1016.570209120027
 31
0.0
  0
ARC
  5
3AC3
330
18
100
AcDbEntity
  8
0
100
AcDbCircle
 10
1925.5734714123
 20
1076.696206799506
 30
0.0
 40
55.05624348356242
100
AcDbArc
 50
247.7204062667611
 51
292.5525017386174
  0
LINE
  5
3AC4
330
18
100
AcDbEntity
  8
0
100
AcDbLine
 10
1894.234184132105
 20
1042.570197881831
 30
0.0
 11
1957.234184132104
 21
1042.570197881831
 31
0.0
  0
LINE
  5
3AC5
330
18
100
AcDbEntity
  8
0
100
AcDbLine
 10
1893.234184132105
 20
1058.570197881831
 30
0.0
 11
1958.234184132105
 21
1058.570197881831
 31
0.0
  0
LINE
  5
3AC6
330
18
100
AcDbEntity
  8
0
100
AcDbLine
 10
1902.234184132105
 20
1030.070197881831
 30
0.0
 11
1902.234184132105
 21
1042.570197881831
 31
0.0
  0
ARC
  5
3AC7
330
18
100
AcDbEntity
  8
0
100
AcDbCircle
 10
1898.237843264157
 20
1030.066538749737
 30
0.0
 40
3.996342543136148
100
AcDbArc
 50
269.9475388182349
 51
0.0524611823627197
  0
LINE
  5
3AC8
330
18
100
AcDbEntity
  8
0
100
AcDbLine
 10
1894.234184132105
 20
1042.570197881831
 30
0.0
 11
1893.234184132105
 21
1043.570197881831
 31
0.0
  0
LINE
  5
3AC9
330
18
100
AcDbEntity
  8
0
100
AcDbLine
 10
1893.234184132105
 20
1043.570197881831
 30
0.0
 11
1893.234184132105
 21
1067.551864548498
 31
0.0
  0
LINE
  5
3ACA
330
18
100
AcDbEntity
  8
0
100
AcDbLine
 10
1902.773178190199
 20
1067.551864548498
 30
0.0
 11
1902.773178190199
 21
1058.570197881831
 31
0.0
  0
LINE
  5
3ACB
330
18
100
AcDbEntity
  8
0
100
AcDbLine
 10
1949.234184132107
 20
1042.570197881831
 30
0.0
 11
1949.234184132104
 21
1030.070197881831
 31
0.0
  0
ARC
  5
3ACC
330
18
100
AcDbEntity
  8
0
100
AcDbCircle
 10
1953.230525000052
 20
1030.066538749737
 30
0.0
 40
3.996342543136148
100
AcDbArc
 50
179.9475388176372
 51
270.052461181765
  0
LINE
  5
3ACD
330
18
100
AcDbEntity
  8
0
100
AcDbLine
 10
1925.734184132105
 20
1058.570197881831
 30
0.0
 11
1925.734184132105
 21
1067.551864548498
 31
0.0
  0
LINE
  5
3ACE
330
18
100
AcDbEntity
  8
0
100
AcDbLine
 10
1957.234184132104
 20
1042.570197881831
 30
0.0
 11
1958.234184132105
 21
1043.570197881831
 31
0.0
  0
LINE
  5
3ACF
330
18
100
AcDbEntity
  8
0
100
AcDbLine
 10
1958.234184132105
 20
1043.570197881831
 30
0.0
 11
1958.234184132105
 21
1067.551864548498
 31
0.0
  0
LINE
  5
3AD0
330
18
100
AcDbEntity
  8
0
100
AcDbLine
 10
1948.69519007401
 20
1067.551864548498
 30
0.0
 11
1948.69519007401
 21
1058.570197881831
 31
0.0
  0
LINE
  5
3AD1
330
18
100
AcDbEntity
  8
0
100
AcDbLine
 10
2015.734184132104
 20
1068.070197881831
 30
0.0
 11
2015.734184132104
 21
1005.570197881831
 31
0.0
  0
LINE
  5
3AD2
330
18
100
AcDbEntity
  8
0
100
AcDbLine
 10
1993.715184132104
 20
981.8801978818317
 30
0.0
 11
1977.734184132104
 21
985.0701978818316
 31
0.0
  0
ARC
  5
3AD3
330
18
100
AcDbEntity
  8
0
100
AcDbCircle
 10
1992.65912108069
 20
976.9005663870359
 30
0.0
 40
5.090382990750874
100
AcDbArc
 50
4.446311693360831
 51
78.02631652491337
  0
LINE
  5
3AD4
330
18
100
AcDbEntity
  8
0
100
AcDbLine
 10
1997.734184132104
 20
1068.070197881831
 30
0.0
 11
2015.734184132104
 21
1068.070197881831
 31
0.0
  0
LINE
  5
3AD5
330
18
100
AcDbEntity
  8
0
100
AcDbLine
 10
1977.734184132104
 20
1026.070197881831
 30
0.0
 11
1993.715184132104
 21
1029.270197881831
 31
0.0
  0
ARC
  5
3AD6
330
18
100
AcDbEntity
  8
0
100
AcDbCircle
 10
1992.699336413886
 20
1034.20160042865
 30
0.0
 40
5.034945646737585
100
AcDbArc
 50
281.6398640680879
 51
359.6426485626838
  0
CIRCLE
  5
3AD7
330
18
100
AcDbEntity
  8
0
100
AcDbCircle
 10
2071.214193256366
 20
973.750392728437
 30
0.0
 40
7.5
  0
CIRCLE
  5
3AD8
330
18
100
AcDbEntity
  8
0
100
AcDbCircle
 10
2071.214193256366
 20
1037.390003035226
 30
0.0
 40
7.5
  0
LINE
  5
3AD9
330
18
100
AcDbEntity
  8
0
100
AcDbLine
 10
2080.072992467855
 20
1067.551864548498
 30
0.0
 11
2080.072992467855
 21
1063.699727435542
 31
0.0
  0
LINE
  5
3ADA
330
18
100
AcDbEntity
  8
0
100
AcDbLine
 10
2070.53399840976
 20
1058.955589141987
 30
0.0
 11
2070.53399840976
 21
1067.551864548498
 31
0.0
  0
CIRCLE
  5
3ADB
330
18
100
AcDbEntity
  8
0
100
AcDbCircle
 10
2134.853803563155
 20
973.750392728437
 30
0.0
 40
7.5
  0
CIRCLE
  5
3ADC
330
18
100
AcDbEntity
  8
0
100
AcDbCircle
 10
2134.853803563155
 20
1037.390003035226
 30
0.0
 40
7.5
  0
LINE
  5
3ADD
330
18
100
AcDbEntity
  8
0
100
AcDbLine
 10
2125.995004351666
 20
1067.551864548498
 30
0.0
 11
2125.995004351666
 21
1063.699727435542
 31
0.0
  0
LINE
  5
3ADE
330
18
100
AcDbEntity
  8
0
100
AcDbLine
 10
2135.53399840976
 20
1058.955589141987
 30
0.0
 11
2135.53399840976
 21
1067.551864548498
 31
0.0
  0
LINE
  5
3ADF
330
18
100
AcDbEntity
  8
0
100
AcDbLine
 10
2015.734184132104
 20
1121.543564227914
 30
0.0
 11
2015.734184132104
 21
1184.043564227914
 31
0.0
  0
LINE
  5
3AE0
330
18
100
AcDbEntity
  8
0
100
AcDbLine
 10
1997.734184132104
 20
1246.543564227914
 30
0.0
 11
1997.734184132104
 21
1121.543564227914
 31
0.0
  0
CIRCLE
  5
3AE1
330
18
100
AcDbEntity
  8
0
100
AcDbCircle
 10
1925.734184132105
 20
1184.043564227914
 30
0.0
 40
29.0
  0
CIRCLE
  5
3AE2
330
18
100
AcDbEntity
  8
0
100
AcDbCircle
 10
1925.734184132105
 20
1184.043564227914
 30
0.0
 40
21.0
  0
CIRCLE
  5
3AE3
330
18
100
AcDbEntity
  8
0
100
AcDbCircle
 10
1925.734184132105
 20
1184.043564227914
 30
0.0
 40
18.5
  0
CIRCLE
  5
3AE4
330
18
100
AcDbEntity
  8
0
100
AcDbCircle
 10
1925.734184132105
 20
1184.043564227914
 30
0.0
 40
32.5
  0
POLYLINE
  5
3AE5
330
18
100
AcDbEntity
  8
0
100
AcDb2dPolyline
 66
     1
 10
0.0
 20
0.0
 30
0.0
 70
     1
  0
VERTEX
  5
3C4F
330
3AE5
100
AcDbEntity
  8
0
100
AcDbVertex
100
AcDb2dVertex
 10
1902.773178190199
 20
1207.004570169819
 30
0.0
  0
VERTEX
  5
3C50
330
3AE5
100
AcDbEntity
  8
0
100
AcDbVertex
100
AcDb2dVertex
 10
1893.262418123333
 20
1184.043564227914
 30
0.0
  0
VERTEX
  5
3C51
330
3AE5
100
AcDbEntity
  8
0
100
AcDbVertex
100
AcDb2dVertex
 10
1902.773178190199
 20
1161.082558286009
 30
0.0
  0
VERTEX
  5
3C52
330
3AE5
100
AcDbEntity
  8
0
100
AcDbVertex
100
AcDb2dVertex
 10
1925.734184132105
 20
1151.571798219142
 30
0.0
  0
VERTEX
  5
3C53
330
3AE5
100
AcDbEntity
  8
0
100
AcDbVertex
100
AcDb2dVertex
 10
1948.69519007401
 20
1161.082558286009
 30
0.0
  0
VERTEX
  5
3C54
330
3AE5
100
AcDbEntity
  8
0
100
AcDbVertex
100
AcDb2dVertex
 10
1958.205950140876
 20
1184.043564227914
 30
0.0
  0
VERTEX
  5
3C55
330
3AE5
100
AcDbEntity
  8
0
100
AcDbVertex
100
AcDb2dVertex
 10
1948.69519007401
 20
1207.004570169819
 30
0.0
  0
VERTEX
  5
3C56
330
3AE5
100
AcDbEntity
  8
0
100
AcDbVertex
100
AcDb2dVertex
 10
1925.734184132105
 20
1216.515330236686
 30
0.0
  0
SEQEND
  5
3C57
330
3AE5
100
AcDbEntity
  8
0
  0
LINE
  5
3AE6
330
18
100
AcDbEntity
  8
0
100
AcDbLine
 10
1977.734184132104
 20
1163.543564227914
 30
0.0
 11
1950.953224557942
 21
1163.543564227914
 31
0.0
  0
LINE
  5
3AE7
330
18
100
AcDbEntity
  8
0
100
AcDbLine
 10
1954.734184132105
 20
1069.570197881831
 30
0.0
 11
1896.734184132105
 21
1069.570197881831
 31
0.0
  0
LINE
  5
3AE8
330
18
100
AcDbEntity
  8
0
100
AcDbLine
 10
2015.734184132104
 20
1121.543564227914
 30
0.0
 11
1997.734184132104
 21
1121.543564227914
 31
0.0
  0
LINE
  5
3AE9
330
18
100
AcDbEntity
  8
0
100
AcDbLine
 10
1993.714184132104
 20
1160.343564227914
 30
0.0
 11
1977.734184132104
 21
1163.543564227914
 31
0.0
  0
ARC
  5
3AEA
330
18
100
AcDbEntity
  8
0
100
AcDbCircle
 10
1992.724418091099
 20
1155.420204231226
 30
0.0
 40
5.0218632471338
100
AcDbArc
 50
3.977726781743422
 51
78.63307687137913
  0
LINE
  5
3AEB
330
18
100
AcDbEntity
  8
0
100
AcDbLine
 10
1950.953224557942
 20
1204.543564227914
 30
0.0
 11
1977.734184132104
 21
1204.543564227914
 31
0.0
  0
LINE
  5
3AEC
330
18
100
AcDbEntity
  8
0
100
AcDbLine
 10
2015.734184132104
 20
1184.043564227914
 30
0.0
 11
2015.734184132104
 21
1246.543564227914
 31
0.0
  0
ARC
  5
3AED
330
18
100
AcDbEntity
  8
0
100
AcDbCircle
 10
1992.738958607522
 20
1212.64266761745
 30
0.0
 40
4.995225605031567
100
AcDbArc
 50
281.2582490924666
 51
0.0102842193283819
  0
LINE
  5
3AEE
330
18
100
AcDbEntity
  8
0
100
AcDbLine
 10
1977.734184132104
 20
1204.543564227914
 30
0.0
 11
1993.714184132104
 21
1207.743564227914
 31
0.0
  0
LINE
  5
3AEF
330
18
100
AcDbEntity
  8
0
100
AcDbLine
 10
2010.439574150763
 20
1293.964668801075
 30
0.0
 11
1992.439574150763
 21
1293.964668801075
 31
0.0
  0
LINE
  5
3AF0
330
18
100
AcDbEntity
  8
0
100
AcDbLine
 10
2015.734184132104
 20
1246.543564227914
 30
0.0
 11
1997.734184132104
 21
1246.543564227914
 31
0.0
  0
LINE
  5
3AF1
330
18
100
AcDbEntity
  8
0
100
AcDbLine
 10
2132.033998409761
 20
1069.570197881831
 30
0.0
 11
2074.033998409761
 21
1069.570197881831
 31
0.0
  0
LINE
  5
3AF2
330
18
100
AcDbEntity
  8
0
100
AcDbLine
 10
2046.1238247184
 20
1359.158680840141
 30
0.0
 11
2032.149637218399
 21
1359.158680840141
 31
0.0
  0
LINE
  5
3AF3
330
18
100
AcDbEntity
  8
0
100
AcDbLine
 10
2022.4903872184
 20
1354.431993340141
 30
0.0
 11
2069.758949718401
 21
1354.431993340141
 31
0.0
  0
LINE
  5
3AF4
330
18
100
AcDbEntity
  8
0
100
AcDbLine
 10
2010.439574150763
 20
1356.464668801075
 30
0.0
 11
2010.439574150763
 21
1418.964668801075
 31
0.0
  0
LINE
  5
3AF5
330
18
100
AcDbEntity
  8
0
100
AcDbLine
 10
1887.939574150763
 20
1398.464668801075
 30
0.0
 11
1887.939574150763
 21
1422.446335467741
 31
0.0
  0
LINE
  5
3AF6
330
18
100
AcDbEntity
  8
0
100
AcDbLine
 10
1952.939574150763
 20
1398.464668801075
 30
0.0
 11
1952.939574150763
 21
1422.446335467741
 31
0.0
  0
LINE
  5
3AF7
330
18
100
AcDbEntity
  8
0
100
AcDbLine
 10
1925.439574150763
 20
1335.964668801075
 30
0.0
 11
1972.439574150763
 21
1335.964668801075
 31
0.0
  0
LINE
  5
3AF8
330
18
100
AcDbEntity
  8
0
100
AcDbLine
 10
1972.439574150763
 20
1376.964668801075
 30
0.0
 11
1947.939574150763
 21
1376.964668801075
 31
0.0
  0
ARC
  5
3AF9
330
18
100
AcDbEntity
  8
0
100
AcDbCircle
 10
1925.439804338373
 20
1356.464744732209
 30
0.0
 40
20.50007593242637
100
AcDbArc
 50
247.0691717567312
 51
269.9993566473321
  0
ARC
  5
3AFA
330
18
100
AcDbEntity
  8
0
100
AcDbCircle
 10
1895.439343963153
 20
1356.464744732209
 30
0.0
 40
20.50007593242634
100
AcDbArc
 50
270.0006433526678
 51
292.9308282432687
  0
ARC
  5
3AFB
330
18
100
AcDbEntity
  8
0
100
AcDbCircle
 10
1910.439574150763
 20
1321.006950710724
 30
0.0
 40
18.00008072435057
100
AcDbArc
 50
67.06980493479726
 51
112.9301950652027
  0
ARC
  5
3AFC
330
18
100
AcDbEntity
  8
0
100
AcDbCircle
 10
1920.600286870568
 20
1427.590677718749
 30
0.0
 40
55.05624348356242
100
AcDbArc
 50
247.4474982613825
 51
292.2795937332388
  0
LINE
  5
3AFD
330
18
100
AcDbEntity
  8
0
100
AcDbLine
 10
1888.939574150763
 20
1397.464668801075
 30
0.0
 11
1951.939574150763
 21
1397.464668801075
 31
0.0
  0
LINE
  5
3AFE
330
18
100
AcDbEntity
  8
0
100
AcDbLine
 10
1896.939574150763
 20
1397.464668801075
 30
0.0
 11
1896.939574150763
 21
1380.964668801075
 31
0.0
  0
ARC
  5
3AFF
330
18
100
AcDbEntity
  8
0
100
AcDbCircle
 10
1892.943233282814
 20
1380.961009668981
 30
0.0
 40
3.996342543136148
100
AcDbArc
 50
269.9475388182349
 51
0.0524611823627084
  0
LINE
  5
3B00
330
18
100
AcDbEntity
  8
0
100
AcDbLine
 10
1888.939574150763
 20
1397.464668801075
 30
0.0
 11
1887.939574150763
 21
1398.464668801075
 31
0.0
  0
LINE
  5
3B01
330
18
100
AcDbEntity
  8
0
100
AcDbLine
 10
1943.939574150763
 20
1380.964668801075
 30
0.0
 11
1943.939574150763
 21
1397.464668801075
 31
0.0
  0
ARC
  5
3B02
330
18
100
AcDbEntity
  8
0
100
AcDbCircle
 10
1947.935915018711
 20
1380.961009668981
 30
0.0
 40
3.996342543136148
100
AcDbArc
 50
179.9475388176372
 51
270.052461181765
  0
LINE
  5
3B03
330
18
100
AcDbEntity
  8
0
100
AcDbLine
 10
1951.939574150763
 20
1397.464668801075
 30
0.0
 11
1952.939574150763
 21
1398.464668801075
 31
0.0
  0
LINE
  5
3B04
330
18
100
AcDbEntity
  8
0
100
AcDbLine
 10
2032.149637218399
 20
1363.885368340141
 30
0.0
 11
2022.4903872184
 21
1354.431993340141
 31
0.0
  0
LINE
  5
3B05
330
18
100
AcDbEntity
  8
0
100
AcDbLine
 10
1972.439574150763
 20
1335.964668801075
 30
0.0
 11
1988.419574150762
 21
1332.774668801075
 31
0.0
  0
ARC
  5
3B06
330
18
100
AcDbEntity
  8
0
100
AcDbCircle
 10
1987.425338602278
 20
1327.859989187043
 30
0.0
 40
5.014237732145898
100
AcDbArc
 50
0.0534721700574504
 51
78.56345827122483
  0
ARC
  5
3B07
330
18
100
AcDbEntity
  8
0
100
AcDbCircle
 10
1987.40505037852
 20
1385.096012793803
 30
0.0
 40
5.034621342172342
100
AcDbArc
 50
281.625241388738
 51
359.6432919229334
  0
LINE
  5
3B08
330
18
100
AcDbEntity
  8
0
100
AcDbLine
 10
1988.419574150762
 20
1380.164668801075
 30
0.0
 11
1972.439574150763
 21
1376.964668801075
 31
0.0
  0
LINE
  5
3B09
330
18
100
AcDbEntity
  8
0
100
AcDbLine
 10
2032.149637218399
 20
1359.158680840141
 30
0.0
 11
2032.149637218399
 21
1363.885368340141
 31
0.0
  0
LINE
  5
3B0A
330
18
100
AcDbEntity
  8
0
100
AcDbLine
 10
1887.939574150763
 20
1413.464668801075
 30
0.0
 11
1952.939574150763
 21
1413.464668801075
 31
0.0
  0
LINE
  5
3B0B
330
18
100
AcDbEntity
  8
0
100
AcDbLine
 10
1949.439574150763
 20
1424.464668801075
 30
0.0
 11
1891.439574150763
 21
1424.464668801075
 31
0.0
  0
ARC
  5
3B0C
330
18
100
AcDbEntity
  8
0
100
AcDbCircle
 10
1908.95907117981
 20
1390.804317543314
 30
0.0
 40
33.66035125776125
100
AcDbArc
 50
70.05798215649914
 51
109.9420178435008
  0
LINE
  5
3B0D
330
18
100
AcDbEntity
  8
0
100
AcDbLine
 10
1897.478568208857
 20
1422.446335467741
 30
0.0
 11
1897.478568208857
 21
1413.464668801075
 31
0.0
  0
LINE
  5
3B0E
330
18
100
AcDbEntity
  8
0
100
AcDbLine
 10
1887.939574150763
 20
1422.446335467741
 30
0.0
 11
1891.439574150763
 21
1424.464668801075
 31
0.0
  0
ARC
  5
3B0F
330
18
100
AcDbEntity
  8
0
100
AcDbCircle
 10
1892.709071179811
 20
1417.820183566152
 30
0.0
 40
6.644500231519874
100
AcDbArc
 50
44.12593225479906
 51
104.0671635547661
  0
ARC
  5
3B10
330
18
100
AcDbEntity
  8
0
100
AcDbCircle
 10
1931.920077121715
 20
1390.804317543314
 30
0.0
 40
33.66035125776125
100
AcDbArc
 50
70.05798215649917
 51
109.9420178435008
  0
LINE
  5
3B11
330
18
100
AcDbEntity
  8
0
100
AcDbLine
 10
1920.439574150763
 20
1413.464668801075
 30
0.0
 11
1920.439574150763
 21
1422.446335467741
 31
0.0
  0
LINE
  5
3B12
330
18
100
AcDbEntity
  8
0
100
AcDbLine
 10
1943.400580092668
 20
1422.446335467741
 30
0.0
 11
1943.400580092668
 21
1413.464668801075
 31
0.0
  0
LINE
  5
3B13
330
18
100
AcDbEntity
  8
0
100
AcDbLine
 10
1949.439574150763
 20
1424.464668801075
 30
0.0
 11
1952.939574150763
 21
1422.446335467741
 31
0.0
  0
ARC
  5
3B14
330
18
100
AcDbEntity
  8
0
100
AcDbCircle
 10
1948.170077121715
 20
1417.820183566152
 30
0.0
 40
6.644500231519874
100
AcDbArc
 50
75.93283644523404
 51
135.8740677452009
  0
LINE
  5
3B15
330
18
100
AcDbEntity
  8
0
100
AcDbLine
 10
2010.439574150763
 20
1418.964668801075
 30
0.0
 11
1992.439574150763
 21
1418.964668801075
 31
0.0
  0
LINE
  5
3B16
330
18
100
AcDbEntity
  8
0
100
AcDbLine
 10
2069.758949718401
 20
1354.431993340141
 30
0.0
 11
2079.2123247184
 21
1363.885368340141
 31
0.0
  0
LINE
  5
3B17
330
18
100
AcDbEntity
  8
0
100
AcDbLine
 10
2079.2123247184
 20
1363.885368340141
 30
0.0
 11
2050.8521997184
 21
1363.885368340141
 31
0.0
  0
LINE
  5
3B18
330
18
100
AcDbEntity
  8
0
100
AcDbLine
 10
2050.8521997184
 20
1363.885368340141
 30
0.0
 11
2046.1238247184
 21
1359.158680840141
 31
0.0
  0
VIEWPORT
  5
41
330
15
100
AcDbEntity
 67
     1
  8
0
100
AcDbViewport
 10
117.358407079646
 20
73.5
 30
0.0
 40
234.716814159292
 41
147.0
 68
     1
 69
     1
1001
ACAD
1000
MVIEW
1002
{
1070
    16
1010
0.0
1020
0.0
1030
0.0
1010
0.0
1020
0.0
1030
1.0
1040
0.0
1040
147.0
1040
117.358407079646
1040
73.5
1040
50.0
1040
0.0
1040
0.0
1070
     0
1070
   100
1070
     1
1070
     1
1070
     0
1070
     0
1070
     0
1070
     0
1040
0.0
1040
0.0
1040
0.0
1040
1.0
1040
1.0
1040
0.0
1040
0.0
1070
     0
1002
{
1002
}
1002
}
  0
ENDSEC
  0
SECTION
  2
OBJECTS
  0
DICTIONARY
  5
C
330
0
100
AcDbDictionary
  3
ACAD_GROUP
350
D
  3
ACAD_LAYOUT
350
3BA9
  3
ACAD_MLINESTYLE
350
E
  3
ACAD_PLOTSETTINGS
350
3BAA
1001
ACAD
1000
TREAT_AS_HARD
1070
     0
  0
DICTIONARY
  5
3C1B
330
18
100
AcDbDictionary
  3
ACAD_LAYOUTSELFREF
350
3C1C
  0
DICTIONARY
  5
3C19
330
15
100
AcDbDictionary
  3
ACAD_LAYOUTSELFREF
350
3C1A
  0
DICTIONARY
  5
D
102
{ACAD_REACTORS
330
C
102
}
330
C
100
AcDbDictionary
1001
ACAD
1000
TREAT_AS_HARD
1070
     0
  0
DICTIONARY
  5
3BA9
102
{ACAD_REACTORS
330
C
102
}
330
C
100
AcDbDictionary
1001
ACAD
1000
TREAT_AS_HARD
1070
     0
  0
DICTIONARY
  5
E
102
{ACAD_REACTORS
330
C
102
}
330
C
100
AcDbDictionary
  3
STANDARD
350
1B
1001
ACAD
1000
TREAT_AS_HARD
1070
     0
  0
DICTIONARY
  5
3BAA
102
{ACAD_REACTORS
330
C
102
}
330
C
100
AcDbDictionary
1001
ACAD
1000
TREAT_AS_HARD
1070
     0
  0
XRECORD
  5
3C1C
102
{ACAD_REACTORS
330
3C1B
102
}
330
3C1B
100
AcDbXrecord
340
18
  0
XRECORD
  5
3C1A
102
{ACAD_REACTORS
330
3C19
102
}
330
3C19
100
AcDbXrecord
340
15
  0
MLINESTYLE
  5
1B
102
{ACAD_REACTORS
330
E
102
}
330
E
100
AcDbMlineStyle
  2
STANDARD
 70
     0
  3

 62
     0
 51
90.0
 52
90.0
 71
     2
 49
0.5
 62
   256
  6
BYLAYER
 49
-0.5
 62
   256
  6
BYLAYER
  0
ENDSEC
  0
EOF
