  0
SECTION
  2
HEADER
  9
$ACADVER
  1
AC1009
  9
$INSBASE
 10
0.0
 20
0.0
 30
0.0
  9
$EXTMIN
 10
44.0
 20
20.0
 30
0.0
  9
$EXTMAX
 10
1144.0
 20
764.0
 30
0.0
  9
$LIMMIN
 10
0.0
 20
0.0
  9
$LIMMAX
 10
1188.0
 20
840.0
  9
$ORTHOMODE
 70
     1
  9
$REGENMODE
 70
     1
  9
$FILLMODE
 70
     1
  9
$QTEXTMODE
 70
     0
  9
$MIRRTEXT
 70
     1
  9
$DRAGMODE
 70
     2
  9
$LTSCALE
 40
16.0
  9
$OSMODE
 70
   163
  9
$ATTMODE
 70
     1
  9
$TEXTSIZE
 40
16.0
  9
$TRACEWID
 40
0.05
  9
$TEXTSTYLE
  7
STANDARD
  9
$CLAYER
  8
0
  9
$CELTYPE
  6
BYLAYER
  9
$CECOLOR
 62
   256
  9
$DIMSCALE
 40
4.0
  9
$DIMASZ
 40
2.8
  9
$DIMEXO
 40
1.0
  9
$DIMDLI
 40
5.0
  9
$DIMRND
 40
0.1
  9
$DIMDLE
 40
0.0
  9
$DIMEXE
 40
1.0
  9
$DIMTP
 40
0.0
  9
$DIMTM
 40
0.0
  9
$DIMTXT
 40
2.5
  9
$DIMCEN
 40
0.0
  9
$DIMTSZ
 40
0.0
  9
$DIMTOL
 70
     0
  9
$DIMLIM
 70
     0
  9
$DIMTIH
 70
     0
  9
$DIMTOH
 70
     0
  9
$DIMSE1
 70
     0
  9
$DIMSE2
 70
     0
  9
$DIMTAD
 70
     3
  9
$DIMZIN
 70
     8
  9
$DIMBLK
  1

  9
$DIMASO
 70
     1
  9
$DIMSHO
 70
     1
  9
$DIMPOST
  1
 
  9
$DIMAPOST
  1

  9
$DIMALT
 70
     0
  9
$DIMALTD
 70
     2
  9
$DIMALTF
 40
1.0
  9
$DIMLFAC
 40
1.0
  9
$DIMTOFL
 70
     1
  9
$DIMTVP
 40
0.0
  9
$DIMTIX
 70
     0
  9
$DIMSOXD
 70
     0
  9
$DIMSAH
 70
     1
  9
$DIMBLK1
  1
_OPEN
  9
$DIMBLK2
  1
_OPEN
  9
$DIMSTYLE
  2
DIM1
  9
$DIMCLRD
 70
     2
  9
$DIMCLRE
 70
     2
  9
$DIMCLRT
 70
     2
  9
$DIMTFAC
 40
0.7
  9
$DIMGAP
 40
0.85
  9
$LUNITS
 70
     2
  9
$LUPREC
 70
     4
  9
$SKETCHINC
 40
0.1
  9
$FILLETRAD
 40
0.5
  9
$AUNITS
 70
     0
  9
$AUPREC
 70
     0
  9
$MENU
  1
C:\ACADR13\WIN\SUPPORT\ACAD.mnc
  9
$ELEVATION
 40
0.0
  9
$PELEVATION
 40
0.0
  9
$THICKNESS
 40
0.0
  9
$LIMCHECK
 70
     0
  9
$BLIPMODE
 70
     1
  9
$CHAMFERA
 40
0.0
  9
$CHAMFERB
 40
0.0
  9
$SKPOLY
 70
     0
  9
$TDCREATE
 40
2451564.587412
  9
$TDUPDATE
 40
2451673.461757
  9
$TDINDWG
 40
0.091364
  9
$TDUSRTIMER
 40
0.091364
  9
$USRTIMER
 70
     1
  9
$ANGBASE
 50
0.0
  9
$ANGDIR
 70
     0
  9
$PDMODE
 70
     0
  9
$PDSIZE
 40
0.0
  9
$PLINEWID
 40
0.0
  9
$COORDS
 70
     1
  9
$SPLFRAME
 70
     0
  9
$SPLINETYPE
 70
     6
  9
$SPLINESEGS
 70
     8
  9
$ATTDIA
 70
     0
  9
$ATTREQ
 70
     1
  9
$HANDLING
 70
     1
  9
$HANDSEED
  5
5F88
  9
$SURFTAB1
 70
     6
  9
$SURFTAB2
 70
     6
  9
$SURFTYPE
 70
     6
  9
$SURFU
 70
     6
  9
$SURFV
 70
     6
  9
$UCSNAME
  2

  9
$UCSORG
 10
0.0
 20
0.0
 30
0.0
  9
$UCSXDIR
 10
1.0
 20
0.0
 30
0.0
  9
$UCSYDIR
 10
0.0
 20
1.0
 30
0.0
  9
$PUCSNAME
  2

  9
$PUCSORG
 10
0.0
 20
0.0
 30
0.0
  9
$PUCSXDIR
 10
1.0
 20
0.0
 30
0.0
  9
$PUCSYDIR
 10
0.0
 20
1.0
 30
0.0
  9
$USERI1
 70
     0
  9
$USERI2
 70
     0
  9
$USERI3
 70
     0
  9
$USERI4
 70
     0
  9
$USERI5
 70
     0
  9
$USERR1
 40
0.0
  9
$USERR2
 40
0.0
  9
$USERR3
 40
0.0
  9
$USERR4
 40
0.0
  9
$USERR5
 40
0.0
  9
$WORLDVIEW
 70
     1
  9
$SHADEDGE
 70
     3
  9
$SHADEDIF
 70
    70
  9
$TILEMODE
 70
     1
  9
$MAXACTVP
 70
    16
  9
$PLIMCHECK
 70
     0
  9
$PEXTMIN
 10
1.000000E+020
 20
1.000000E+020
 30
1.000000E+020
  9
$PEXTMAX
 10
-1.000000E+020
 20
-1.000000E+020
 30
-1.000000E+020
  9
$PLIMMIN
 10
0.0
 20
0.0
  9
$PLIMMAX
 10
20.0
 20
147.0
  9
$UNITMODE
 70
     0
  9
$VISRETAIN
 70
     0
  9
$PLINEGEN
 70
     0
  9
$PSLTSCALE
 70
     1
  0
ENDSEC
  0
SECTION
  2
TABLES
  0
TABLE
  2
VPORT
 70
     2
  0
VPORT
  2
*ACTIVE
 70
     0
 10
0.0
 20
0.0
 11
1.0
 21
1.0
 12
766.303237
 22
434.88975
 13
0.0
 23
0.0
 14
1.0
 24
1.0
 15
0.0
 25
0.0
 16
0.0
 26
0.0
 36
1.0
 17
0.0
 27
0.0
 37
0.0
 40
869.7795
 41
1.762063
 42
50.0
 43
0.0
 44
0.0
 50
0.0
 51
0.0
 71
     0
 72
   100
 73
     1
 74
     1
 75
     0
 76
     0
 77
     0
 78
     0
  0
ENDTAB
  0
TABLE
  2
LTYPE
 70
     5
  0
LTYPE
  2
CONTINUOUS
 70
     0
  3
Solid line
 72
    65
 73
     0
 40
0.0
  0
LTYPE
  2
DASHED
 70
     0
  3
__ __ __ __ __ __ __ __ __ __ __ __ __ __ __ __
 72
    65
 73
     2
 40
0.75
 49
0.5
 49
-0.25
  0
LTYPE
  2
HIDDEN
 70
     0
  3
__ __ __ __ __ __ __ __ __ __ __ __ __ __ __ __
 72
    65
 73
     2
 40
0.375
 49
0.25
 49
-0.125
  0
LTYPE
  2
CENTER
 70
     0
  3
____ _ ____ _ ____ _ ____ _ ____ _ ____ _ ____ 
 72
    65
 73
     4
 40
2.0
 49
1.25
 49
-0.25
 49
0.25
 49
-0.25
  0
LTYPE
  2
PHANTOM
 70
     0
  3
______  __  __  ______  __  __  ______  __  __ 
 72
    65
 73
     6
 40
2.5
 49
1.25
 49
-0.25
 49
0.25
 49
-0.25
 49
0.25
 49
-0.25
  0
ENDTAB
  0
TABLE
  2
LAYER
 70
    15
  0
LAYER
  2
0
 70
     0
 62
     7
  6
CONTINUOUS
  0
LAYER
  2
5
 70
     0
 62
     2
  6
CONTINUOUS
  0
LAYER
  2
1
 70
     0
 62
     4
  6
DASHED
  0
LAYER
  2
2
 70
     0
 62
     3
  6
CENTER
  0
LAYER
  2
3
 70
     0
 62
     5
  6
CONTINUOUS
  0
LAYER
  2
4
 70
     0
 62
     4
  6
PHANTOM
  0
LAYER
  2
HOJO
 70
     0
 62
     4
  6
HIDDEN
  0
LAYER
  2
6-TEX1
 70
     0
 62
     2
  6
CONTINUOUS
  0
LAYER
  2
8-TEX3
 70
     0
 62
     5
  6
CONTINUOUS
  0
LAYER
  2
7-TEX2
 70
     0
 62
     7
  6
CONTINUOUS
  0
LAYER
  2
DIM
 70
     0
 62
     2
  6
CONTINUOUS
  0
LAYER
  2
FORM
 70
     4
 62
     1
  6
CONTINUOUS
  0
LAYER
  2
BLK
 70
     0
 62
     7
  6
CONTINUOUS
  0
LAYER
  2
DUST
 70
     0
 62
     1
  6
CONTINUOUS
  0
LAYER
  2
DEFPOINTS
 70
     0
 62
     7
  6
CONTINUOUS
  0
ENDTAB
  0
TABLE
  2
STYLE
 70
     3
  0
STYLE
  2
STANDARD
 70
     0
 40
0.0
 41
0.8
 50
0.0
 71
     0
 42
16.0
  3
simplex
  4
extfont
  0
STYLE
  2
PTSH
 70
     0
 40
0.0
 41
0.9
 50
0.0
 71
     0
 42
4.0
  3
SIMPLEX
  4
EXTFONT
  0
STYLE
  2
DIM
 70
     0
 40
0.0
 41
0.8
 50
0.0
 71
     0
 42
4.0
  3
simplex
  4
extfont
  0
ENDTAB
  0
TABLE
  2
VIEW
 70
     0
  0
ENDTAB
  0
TABLE
  2
UCS
 70
     0
  0
ENDTAB
  0
TABLE
  2
APPID
 70
     1
  0
APPID
  2
ACAD
 70
     0
  0
ENDTAB
  0
TABLE
  2
DIMSTYLE
 70
     7
  0
DIMSTYLE
  2
DIM1
 70
     0
  3
 
  4

  5

  6
_OPEN
  7
_OPEN
 40
4.0
 41
2.8
 42
1.0
 43
5.0
 44
1.0
 45
0.1
 46
0.0
 47
0.0
 48
0.0
140
2.5
141
0.0
142
0.0
143
1.0
144
1.0
145
0.0
146
0.7
147
0.85
 71
     0
 72
     0
 73
     0
 74
     0
 75
     0
 76
     0
 77
     3
 78
     8
170
     0
171
     2
172
     1
173
     1
174
     0
175
     0
176
     2
177
     2
178
     2
  0
DIMSTYLE
  2
USER1
 70
     0
  3

  4

  5

  6
_OPEN
  7
_OPEN
 40
1.0
 41
2.8
 42
1.0
 43
5.0
 44
1.0
 45
0.1
 46
0.0
 47
0.0
 48
0.0
140
2.5
141
0.0
142
0.0
143
1.0
144
1.0
145
0.0
146
0.7
147
0.85
 71
     0
 72
     0
 73
     0
 74
     0
 75
     0
 76
     0
 77
     3
 78
     8
170
     0
171
     2
172
     1
173
     1
174
     0
175
     0
176
     2
177
     2
178
     2
  0
DIMSTYLE
  2
USER2
 70
     0
  3

  4

  5

  6
_OPEN
  7
_OPEN
 40
1.0
 41
2.8
 42
1.0
 43
5.0
 44
1.0
 45
0.1
 46
0.0
 47
0.0
 48
0.0
140
2.5
141
0.0
142
0.0
143
1.0
144
1.0
145
0.0
146
0.7
147
0.85
 71
     0
 72
     0
 73
     0
 74
     0
 75
     0
 76
     0
 77
     3
 78
     8
170
     0
171
     2
172
     1
173
     1
174
     0
175
     0
176
     2
177
     2
178
     2
  0
DIMSTYLE
  2
USER3
 70
     0
  3

  4

  5

  6
_OPEN
  7
_OPEN
 40
1.0
 41
2.8
 42
1.0
 43
5.0
 44
1.0
 45
0.1
 46
0.0
 47
0.0
 48
0.0
140
2.5
141
0.0
142
0.0
143
1.0
144
1.0
145
0.0
146
0.7
147
0.85
 71
     0
 72
     0
 73
     0
 74
     0
 75
     0
 76
     0
 77
     3
 78
     8
170
     0
171
     2
172
     1
173
     1
174
     0
175
     0
176
     2
177
     2
178
     2
  0
DIMSTYLE
  2
USER4
 70
     0
  3

  4

  5

  6
_OPEN
  7
_OPEN
 40
1.0
 41
2.8
 42
1.0
 43
5.0
 44
1.0
 45
0.1
 46
0.0
 47
0.0
 48
0.0
140
2.5
141
0.0
142
0.0
143
1.0
144
1.0
145
0.0
146
0.7
147
0.85
 71
     0
 72
     0
 73
     0
 74
     0
 75
     0
 76
     0
 77
     3
 78
     8
170
     0
171
     2
172
     1
173
     1
174
     0
175
     0
176
     2
177
     2
178
     2
  0
DIMSTYLE
  2
USER5
 70
     0
  3

  4

  5

  6
_OPEN
  7
_OPEN
 40
1.0
 41
2.8
 42
1.0
 43
5.0
 44
1.0
 45
0.1
 46
0.0
 47
0.0
 48
0.0
140
2.5
141
0.0
142
0.0
143
1.0
144
1.0
145
0.0
146
0.7
147
0.85
 71
     0
 72
     0
 73
     0
 74
     0
 75
     0
 76
     0
 77
     3
 78
     8
170
     0
171
     2
172
     1
173
     1
174
     0
175
     0
176
     2
177
     2
178
     2
  0
DIMSTYLE
  2
JIS1
 70
     0
  3

  4

  5

  6

  7

 40
1.0
 41
2.5
 42
0.0625
 43
0.38
 44
0.18
 45
0.1
 46
0.0
 47
0.0
 48
0.0
140
2.5
141
0.09
142
0.0
143
25.4
144
1.0
145
0.0
146
1.0
147
0.09
 71
     0
 72
     0
 73
     1
 74
     1
 75
     0
 76
     0
 77
     1
 78
    12
170
     0
171
     2
172
     0
173
     0
174
     0
175
     0
176
     0
177
     0
178
     0
  0
ENDTAB
  0
ENDSEC
  0
SECTION
  2
BLOCKS
  0
BLOCK
  8
0
  2
$MODEL_SPACE
 70
     0
 10
0.0
 20
0.0
 30
0.0
  3
$MODEL_SPACE
  1

  0
ENDBLK
  5
3D
  8
0
  0
BLOCK
 67
     1
  8
0
  2
$PAPER_SPACE
 70
     0
 10
0.0
 20
0.0
 30
0.0
  3
$PAPER_SPACE
  1

  0
ENDBLK
  5
3B
 67
     1
  8
0
  0
BLOCK
  8
0
  2
_OPEN
 70
     0
 10
0.0
 20
0.0
 30
0.0
  3
_OPEN
  1
H1111.DWG
  0
LINE
  5
244A
  8
0
  6
BYBLOCK
 62
     0
 10
-1.0
 20
0.166667
 30
0.0
 11
0.0
 21
0.0
 31
0.0
  0
LINE
  5
244B
  8
0
  6
BYBLOCK
 62
     0
 10
0.0
 20
0.0
 30
0.0
 11
-1.0
 21
-0.166667
 31
0.0
  0
LINE
  5
244C
  8
0
  6
BYBLOCK
 62
     0
 10
0.0
 20
0.0
 30
0.0
 11
-1.0
 21
0.0
 31
0.0
  0
ENDBLK
  5
244D
  8
0
  0
ENDSEC
  0
SECTION
  2
ENTITIES
  0
TEXT
  5
2529
  8
FORM
  6
CONTINUOUS
 62
     1
 10
1101.371429
 20
28.0
 30
0.0
 40
12.0
  1
TR1
 41
0.9
  7
PTSH
 72
     2
 11
1124.0
 21
34.0
 31
0.0
 73
     2
  0
POLYLINE
  5
2563
  8
FORM
 62
     7
 66
     1
 10
0.0
 20
0.0
 30
0.0
 70
     1
  0
VERTEX
  5
5F82
  8
FORM
 62
     7
 10
44.0
 20
20.0
 30
0.0
  0
VERTEX
  5
5F83
  8
FORM
 62
     7
 10
1144.0
 20
20.0
 30
0.0
  0
VERTEX
  5
5F84
  8
FORM
 62
     7
 10
1144.0
 20
764.0
 30
0.0
  0
VERTEX
  5
5F85
  8
FORM
 62
     7
 10
44.0
 20
764.0
 30
0.0
  0
SEQEND
  5
5F86
  8
FORM
 62
     7
  0
TEXT
  5
4CFF
  8
7-TEX2
 10
206.493047
 20
408.450642
 30
0.0
 40
14.0
  1
正面
  0
TEXT
  5
4D02
  8
7-TEX2
 10
206.493047
 20
637.857143
 30
0.0
 40
14.0
  1
平面
  0
TEXT
  5
4D10
  8
0
 10
544.4
 20
70.666667
 30
0.0
 40
18.666667
  1
TLV TR1
 72
     4
 11
594.0
 21
80.0
 31
0.0
  0
ARC
  5
5DDC
  8
0
 10
812.748385
 20
412.883018
 30
0.0
 40
6.720479
 50
0.0
 51
46.907514
  0
ARC
  5
5DDD
  8
0
 10
812.748385
 20
412.883018
 30
0.0
 40
4.476625
 50
0.0
 51
46.907514
  0
LINE
  5
5DDE
  8
0
 10
819.468864
 20
412.883018
 30
0.0
 11
819.468864
 21
422.101664
 31
0.0
  0
LINE
  5
5DDF
  8
0
 10
766.817951
 20
415.950642
 30
0.0
 11
766.817951
 21
400.950642
 31
0.0
  0
CIRCLE
  5
5DE0
  8
0
 10
779.808332
 20
408.450642
 30
0.0
 40
9.3155
  0
LINE
  5
5DE1
  8
0
 10
792.798713
 20
400.950642
 30
0.0
 11
792.798713
 21
415.950642
 31
0.0
  0
ARC
  5
5DE2
  8
0
 10
746.868279
 20
412.883018
 30
0.0
 40
6.720479
 50
133.092486
 51
180.0
  0
ARC
  5
5DE3
  8
0
 10
746.868279
 20
412.883018
 30
0.0
 40
4.476625
 50
133.092486
 51
180.0
  0
CIRCLE
  5
5DE4
  8
0
 10
779.808332
 20
408.450642
 30
0.0
 40
12.990381
  0
LINE
  5
5DE5
  8
0
 10
740.1478
 20
412.883018
 30
0.0
 11
740.1478
 21
422.101664
 31
0.0
  0
ARC
  5
5DE6
  8
0
 10
624.5
 20
408.450642
 30
0.0
 40
25.0
 50
343.739795
 51
16.260205
  0
LINE
  5
5DE7
  8
0
 10
649.5
 20
394.027992
 30
0.0
 11
649.5
 21
422.873291
 31
0.0
  0
LINE
  5
5DE8
  8
0
 10
644.5
 20
423.450642
 30
0.0
 11
644.5
 21
393.450642
 31
0.0
  0
ARC
  5
5DE9
  8
0
 10
426.903322
 20
438.13371
 30
0.0
 40
28.784579
 50
291.69236
 51
313.841574
  0
LINE
  5
5DEA
  8
0
 10
448.965596
 20
422.357628
 30
0.0
 11
448.965596
 21
413.138983
 31
0.0
  0
ARC
  5
5DEB
  8
0
 10
393.02787
 20
438.13371
 30
0.0
 40
28.784579
 50
226.158426
 51
248.30764
  0
LINE
  5
5DEC
  8
0
 10
370.965596
 20
422.357628
 30
0.0
 11
370.965596
 21
413.138983
 31
0.0
  0
ARC
  5
5DED
  8
0
 10
615.766548
 20
356.859153
 30
0.0
 40
81.05
 50
115.825577
 51
141.562586
  0
LINE
  5
5DEE
  8
0
 10
625.833609
 20
427.315395
 30
0.0
 11
557.166391
 21
398.450642
 31
0.0
  0
LINE
  5
5DEF
  8
0
 10
624.186514
 20
437.470608
 30
0.0
 11
552.281081
 21
407.244648
 31
0.0
  0
ARC
  5
5DF0
  8
0
 10
615.833609
 20
391.113398
 30
0.0
 40
10.0
 50
270.0
 51
0.0
  0
LINE
  5
5DF1
  8
0
 10
625.833609
 20
393.450642
 30
0.0
 11
648.5
 21
393.450642
 31
0.0
  0
LINE
  5
5DF2
  8
0
 10
403.433971
 20
262.470608
 30
0.0
 11
403.074596
 21
273.970608
 31
0.0
  0
LINE
  5
5DF3
  8
0
 10
416.497221
 20
262.470608
 30
0.0
 11
416.856596
 21
273.970608
 31
0.0
  0
LINE
  5
5DF4
  8
0
 10
598.031625
 20
262.470608
 30
0.0
 11
598.391
 21
273.970608
 31
0.0
  0
LINE
  5
5DF5
  8
0
 10
584.968375
 20
262.470608
 30
0.0
 11
584.609
 21
273.970608
 31
0.0
  0
LINE
  5
5DF6
  8
0
 10
406.765596
 20
262.470608
 30
0.0
 11
406.765596
 21
148.761734
 31
0.0
  0
LINE
  5
5DF7
  8
0
 10
413.165596
 20
148.761734
 30
0.0
 11
413.165596
 21
262.470608
 31
0.0
  0
LINE
  5
5DF8
  8
0
 10
406.765596
 20
148.761734
 30
0.0
 11
409.965596
 21
147.470608
 31
0.0
  0
LINE
  5
5DF9
  8
0
 10
406.765596
 20
148.761734
 30
0.0
 11
413.165596
 21
148.761734
 31
0.0
  0
LINE
  5
5DFA
  8
0
 10
409.965596
 20
147.470608
 30
0.0
 11
413.165596
 21
148.761734
 31
0.0
  0
LINE
  5
5DFB
  8
0
 10
403.433971
 20
262.470608
 30
0.0
 11
416.497221
 21
262.470608
 31
0.0
  0
LINE
  5
5DFC
  8
0
 10
588.3
 20
262.470608
 30
0.0
 11
588.3
 21
148.761734
 31
0.0
  0
LINE
  5
5DFD
  8
0
 10
594.7
 20
148.761734
 30
0.0
 11
594.7
 21
262.470608
 31
0.0
  0
LINE
  5
5DFE
  8
0
 10
591.5
 20
147.470608
 30
0.0
 11
594.7
 21
148.761734
 31
0.0
  0
LINE
  5
5DFF
  8
0
 10
588.3
 20
148.761734
 30
0.0
 11
591.5
 21
147.470608
 31
0.0
  0
LINE
  5
5E00
  8
0
 10
588.3
 20
148.761734
 30
0.0
 11
594.7
 21
148.761734
 31
0.0
  0
LINE
  5
5E01
  8
0
 10
584.968375
 20
262.470608
 30
0.0
 11
598.031625
 21
262.470608
 31
0.0
  0
LINE
  5
5E02
  8
0
 10
413.165596
 20
302.470608
 30
0.0
 11
413.165596
 21
347.470608
 31
0.0
  0
LINE
  5
5E03
  8
0
 10
406.765596
 20
347.470608
 30
0.0
 11
406.765596
 21
302.470608
 31
0.0
  0
LINE
  5
5E04
  8
0
 10
403.480846
 20
285.470608
 30
0.0
 11
416.450346
 21
285.470608
 31
0.0
  0
LINE
  5
5E05
  8
0
 10
401.715596
 20
285.470608
 30
0.0
 11
418.215596
 21
285.470608
 31
0.0
  0
LINE
  5
5E06
  8
0
 10
416.856596
 20
273.970608
 30
0.0
 11
403.074596
 21
273.970608
 31
0.0
  0
LINE
  5
5E07
  8
0
 10
403.387096
 20
288.470608
 30
0.0
 11
403.480846
 21
285.470608
 31
0.0
  0
LINE
  5
5E08
  8
0
 10
403.074596
 20
273.970608
 30
0.0
 11
403.074596
 21
275.470608
 31
0.0
  0
LINE
  5
5E09
  8
0
 10
416.544096
 20
288.470608
 30
0.0
 11
416.450346
 21
285.470608
 31
0.0
  0
LINE
  5
5E0A
  8
0
 10
416.856596
 20
273.970608
 30
0.0
 11
416.856596
 21
275.470608
 31
0.0
  0
ARC
  5
5E0B
  8
0
 10
405.215596
 20
272.933201
 30
0.0
 40
12.537407
 50
67.736529
 51
112.263471
  0
ARC
  5
5E0C
  8
0
 10
414.715596
 20
272.933201
 30
0.0
 40
12.537407
 50
67.736529
 51
112.263471
  0
LINE
  5
5E0D
  8
0
 10
400.465596
 20
285.470608
 30
0.0
 11
400.465596
 21
275.470608
 31
0.0
  0
LINE
  5
5E0E
  8
0
 10
400.465596
 20
285.470608
 30
0.0
 11
419.465596
 21
285.470608
 31
0.0
  0
LINE
  5
5E0F
  8
0
 10
419.465596
 20
285.470608
 30
0.0
 11
419.465596
 21
275.470608
 31
0.0
  0
LINE
  5
5E10
  8
0
 10
419.465596
 20
275.470608
 30
0.0
 11
400.465596
 21
275.470608
 31
0.0
  0
ARC
  5
5E11
  8
0
 10
405.215596
 20
288.008015
 30
0.0
 40
12.537407
 50
247.736529
 51
292.263471
  0
ARC
  5
5E12
  8
0
 10
414.715596
 20
288.008015
 30
0.0
 40
12.537407
 50
247.736529
 51
292.263471
  0
LINE
  5
5E13
  8
0
 10
409.965596
 20
284.535962
 30
0.0
 11
409.965596
 21
276.405253
 31
0.0
  0
ARC
  5
5E14
  8
0
 10
405.715596
 20
292.939358
 30
0.0
 40
9.53125
 50
63.51896
 51
116.48104
  0
LINE
  5
5E15
  8
0
 10
401.465596
 20
302.470608
 30
0.0
 11
401.465596
 21
288.470608
 31
0.0
  0
ARC
  5
5E16
  8
0
 10
414.215596
 20
292.939358
 30
0.0
 40
9.53125
 50
63.51896
 51
116.48104
  0
ARC
  5
5E17
  8
0
 10
405.715596
 20
298.001858
 30
0.0
 40
9.53125
 50
243.51896
 51
296.48104
  0
ARC
  5
5E18
  8
0
 10
414.215596
 20
298.001858
 30
0.0
 40
9.53125
 50
243.51896
 51
296.48104
  0
LINE
  5
5E19
  8
0
 10
401.465596
 20
302.470608
 30
0.0
 11
418.465596
 21
302.470608
 31
0.0
  0
LINE
  5
5E1A
  8
0
 10
418.465596
 20
302.470608
 30
0.0
 11
418.465596
 21
288.470608
 31
0.0
  0
LINE
  5
5E1B
  8
0
 10
401.465596
 20
288.470608
 30
0.0
 11
418.465596
 21
288.470608
 31
0.0
  0
LINE
  5
5E1C
  8
0
 10
409.965596
 20
301.470608
 30
0.0
 11
409.965596
 21
289.470608
 31
0.0
  0
ARC
  5
5E1D
  8
0
 10
409.965596
 20
498.458651
 30
0.0
 40
100.432649
 50
270.0
 51
279.118926
  0
ARC
  5
5E1E
  8
0
 10
409.965596
 20
504.672501
 30
0.0
 40
97.828834
 50
270.0
 51
279.356646
  0
LINE
  5
5E1F
  8
0
 10
382.548918
 20
381.113398
 30
0.0
 11
437.382274
 21
381.113398
 31
0.0
  0
LINE
  5
5E20
  8
0
 10
389.965596
 20
361.980519
 30
0.0
 11
429.965596
 21
361.980519
 31
0.0
  0
LINE
  5
5E21
  8
0
 10
392.645088
 20
361.980519
 30
0.0
 11
427.286104
 21
361.980519
 31
0.0
  0
LINE
  5
5E22
  8
0
 10
396.10919
 20
347.470608
 30
0.0
 11
423.822002
 21
347.470608
 31
0.0
  0
ARC
  5
5E23
  8
0
 10
418.62585
 20
367.220608
 30
0.0
 40
19.75
 50
243.992176
 51
296.007824
  0
LINE
  5
5E24
  8
0
 10
385.631987
 20
381.113398
 30
0.0
 11
385.631987
 21
364.980519
 31
0.0
  0
LINE
  5
5E25
  8
0
 10
409.965596
 20
361.980519
 30
0.0
 11
409.965596
 21
349.470608
 31
0.0
  0
LINE
  5
5E26
  8
0
 10
388.631987
 20
361.980519
 30
0.0
 11
389.965596
 21
361.980519
 31
0.0
  0
LINE
  5
5E27
  8
0
 10
392.645088
 20
361.980519
 30
0.0
 11
392.645088
 21
349.470608
 31
0.0
  0
ARC
  5
5E28
  8
0
 10
388.631987
 20
364.980519
 30
0.0
 40
3.0
 50
180.0
 51
270.0
  0
ARC
  5
5E29
  8
0
 10
409.965596
 20
498.458651
 30
0.0
 40
100.432649
 50
260.881074
 51
270.0
  0
ARC
  5
5E2A
  8
0
 10
403.1587
 20
456.051482
 30
0.0
 40
57.482657
 50
248.818037
 51
260.881074
  0
ARC
  5
5E2B
  8
0
 10
409.965596
 20
504.672501
 30
0.0
 40
97.828834
 50
260.643354
 51
270.0
  0
ARC
  5
5E2C
  8
0
 10
403.226163
 20
463.770837
 30
0.0
 40
56.375655
 50
248.30764
 51
260.643354
  0
ARC
  5
5E2D
  8
0
 10
377.574148
 20
413.138983
 30
0.0
 40
6.608552
 50
180.0
 51
226.907514
  0
LINE
  5
5E2E
  8
0
 10
372.548918
 20
408.847127
 30
0.0
 11
372.548918
 21
391.113398
 31
0.0
  0
ARC
  5
5E2F
  8
0
 10
382.548918
 20
391.113398
 30
0.0
 40
10.0
 50
180.0
 51
270.0
  0
ARC
  5
5E30
  8
0
 10
392.862024
 20
429.480259
 30
0.0
 40
28.98614
 50
226.907514
 51
248.818037
  0
LINE
  5
5E31
  8
0
 10
392.645088
 20
349.470608
 30
0.0
 11
396.10919
 21
347.470608
 31
0.0
  0
ARC
  5
5E32
  8
0
 10
401.305342
 20
367.220608
 30
0.0
 40
19.75
 50
243.992176
 51
296.007824
  0
ARC
  5
5E33
  8
0
 10
437.382274
 20
391.113398
 30
0.0
 40
10.0
 50
270.0
 51
0.0
  0
LINE
  5
5E34
  8
0
 10
434.299205
 20
364.980519
 30
0.0
 11
434.299205
 21
381.113398
 31
0.0
  0
LINE
  5
5E35
  8
0
 10
429.965596
 20
361.980519
 30
0.0
 11
431.299205
 21
361.980519
 31
0.0
  0
LINE
  5
5E36
  8
0
 10
427.286104
 20
361.980519
 30
0.0
 11
427.286104
 21
349.470608
 31
0.0
  0
ARC
  5
5E37
  8
0
 10
431.299205
 20
364.980519
 30
0.0
 40
3.0
 50
270.0
 51
0.0
  0
ARC
  5
5E38
  8
0
 10
442.357044
 20
413.138983
 30
0.0
 40
6.608552
 50
313.092486
 51
0.0
  0
ARC
  5
5E39
  8
0
 10
427.069168
 20
429.480259
 30
0.0
 40
28.98614
 50
291.181963
 51
313.092486
  0
ARC
  5
5E3A
  8
0
 10
416.772492
 20
456.051482
 30
0.0
 40
57.482657
 50
279.118926
 51
291.181963
  0
ARC
  5
5E3B
  8
0
 10
416.70503
 20
463.770837
 30
0.0
 40
56.375655
 50
279.356646
 51
291.69236
  0
LINE
  5
5E3C
  8
0
 10
447.382274
 20
408.847127
 30
0.0
 11
447.382274
 21
391.113398
 31
0.0
  0
LINE
  5
5E3D
  8
0
 10
427.286104
 20
349.470608
 30
0.0
 11
423.822002
 21
347.470608
 31
0.0
  0
LINE
  5
5E3E
  8
0
 10
594.7
 20
302.470608
 30
0.0
 11
594.7
 21
347.470608
 31
0.0
  0
LINE
  5
5E3F
  8
0
 10
588.3
 20
347.470608
 30
0.0
 11
588.3
 21
302.470608
 31
0.0
  0
ARC
  5
5E40
  8
0
 10
599.75
 20
279.983582
 30
0.0
 40
4.512974
 50
232.457176
 51
307.542824
  0
ARC
  5
5E41
  8
0
 10
599.75
 20
280.957634
 30
0.0
 40
4.512974
 50
52.457176
 51
127.542824
  0
LINE
  5
5E42
  8
0
 10
596.998903
 20
284.529531
 30
0.0
 11
596.998903
 21
276.411685
 31
0.0
  0
ARC
  5
5E43
  8
0
 10
591.490298
 20
292.063443
 30
0.0
 40
16.592838
 50
250.677586
 51
289.389419
  0
ARC
  5
5E44
  8
0
 10
583.25
 20
279.983582
 30
0.0
 40
4.512974
 50
232.457176
 51
307.542824
  0
ARC
  5
5E45
  8
0
 10
591.490298
 20
268.877773
 30
0.0
 40
16.592838
 50
70.610581
 51
109.322414
  0
ARC
  5
5E46
  8
0
 10
583.25
 20
280.957634
 30
0.0
 40
4.512974
 50
52.457176
 51
127.542824
  0
LINE
  5
5E47
  8
0
 10
586.0
 20
284.535962
 30
0.0
 11
586.0
 21
276.405253
 31
0.0
  0
LINE
  5
5E48
  8
0
 10
602.5
 20
284.535962
 30
0.0
 11
602.5
 21
276.405253
 31
0.0
  0
LINE
  5
5E49
  8
0
 10
580.5
 20
284.535962
 30
0.0
 11
580.5
 21
276.405253
 31
0.0
  0
LINE
  5
5E4A
  8
0
 10
598.391
 20
273.970608
 30
0.0
 11
598.391
 21
275.470608
 31
0.0
  0
LINE
  5
5E4B
  8
0
 10
584.609
 20
273.970608
 30
0.0
 11
584.609
 21
275.470608
 31
0.0
  0
LINE
  5
5E4C
  8
0
 10
598.391
 20
273.970608
 30
0.0
 11
584.609
 21
273.970608
 31
0.0
  0
LINE
  5
5E4D
  8
0
 10
583.25
 20
285.470608
 30
0.0
 11
599.75
 21
285.470608
 31
0.0
  0
LINE
  5
5E4E
  8
0
 10
599.75
 20
275.470608
 30
0.0
 11
583.25
 21
275.470608
 31
0.0
  0
LINE
  5
5E4F
  8
0
 10
598.0785
 20
288.470608
 30
0.0
 11
597.98475
 21
285.470608
 31
0.0
  0
LINE
  5
5E50
  8
0
 10
584.9215
 20
288.470608
 30
0.0
 11
585.01525
 21
285.470608
 31
0.0
  0
LINE
  5
5E51
  8
0
 10
585.01525
 20
285.470608
 30
0.0
 11
597.98475
 21
285.470608
 31
0.0
  0
LINE
  5
5E52
  8
0
 10
596.407477
 20
289.470608
 30
0.0
 11
596.407477
 21
301.470608
 31
0.0
  0
LINE
  5
5E53
  8
0
 10
586.592523
 20
289.470608
 30
0.0
 11
586.592523
 21
301.470608
 31
0.0
  0
LINE
  5
5E54
  8
0
 10
601.314955
 20
289.470608
 30
0.0
 11
601.314955
 21
301.470608
 31
0.0
  0
LINE
  5
5E55
  8
0
 10
581.685045
 20
289.470608
 30
0.0
 11
581.685045
 21
301.470608
 31
0.0
  0
LINE
  5
5E56
  8
0
 10
582.685045
 20
288.470608
 30
0.0
 11
600.314955
 21
288.470608
 31
0.0
  0
ARC
  5
5E57
  8
0
 10
591.5
 20
301.012275
 30
0.0
 40
12.541667
 50
246.964968
 51
293.035032
  0
ARC
  5
5E58
  8
0
 10
598.861216
 20
291.981025
 30
0.0
 40
3.510417
 50
225.654144
 51
314.345856
  0
LINE
  5
5E59
  8
0
 10
600.314955
 20
288.470608
 30
0.0
 11
601.314955
 21
289.470608
 31
0.0
  0
ARC
  5
5E5A
  8
0
 10
584.138784
 20
291.981025
 30
0.0
 40
3.510417
 50
225.654144
 51
314.345856
  0
LINE
  5
5E5B
  8
0
 10
581.685045
 20
289.470608
 30
0.0
 11
582.685045
 21
288.470608
 31
0.0
  0
ARC
  5
5E5C
  8
0
 10
591.5
 20
289.928941
 30
0.0
 40
12.541667
 50
66.964968
 51
113.035032
  0
LINE
  5
5E5D
  8
0
 10
582.685045
 20
302.470608
 30
0.0
 11
600.314955
 21
302.470608
 31
0.0
  0
LINE
  5
5E5E
  8
0
 10
600.314955
 20
302.470608
 30
0.0
 11
601.314955
 21
301.470608
 31
0.0
  0
ARC
  5
5E5F
  8
0
 10
598.861216
 20
298.960191
 30
0.0
 40
3.510417
 50
45.654144
 51
134.345856
  0
LINE
  5
5E60
  8
0
 10
581.685045
 20
301.470608
 30
0.0
 11
582.685045
 21
302.470608
 31
0.0
  0
ARC
  5
5E61
  8
0
 10
584.138784
 20
298.960191
 30
0.0
 40
3.510417
 50
45.654144
 51
134.345856
  0
LINE
  5
5E62
  8
0
 10
583.25
 20
285.470608
 30
0.0
 11
599.75
 21
285.470608
 31
0.0
  0
LINE
  5
5E63
  8
0
 10
571.5
 20
361.980519
 30
0.0
 11
611.5
 21
361.980519
 31
0.0
  0
LINE
  5
5E64
  8
0
 10
567.166391
 20
381.113398
 30
0.0
 11
615.833609
 21
381.113398
 31
0.0
  0
LINE
  5
5E65
  8
0
 10
573.455294
 20
347.470608
 30
0.0
 11
588.3
 21
347.470608
 31
0.0
  0
ARC
  5
5E66
  8
0
 10
576.5
 20
354.720608
 30
0.0
 40
7.25
 50
226.397181
 51
313.602819
  0
LINE
  5
5E67
  8
0
 10
571.5
 20
361.980519
 30
0.0
 11
571.5
 21
349.470608
 31
0.0
  0
LINE
  5
5E68
  8
0
 10
570.166391
 20
361.980519
 30
0.0
 11
571.5
 21
361.980519
 31
0.0
  0
ARC
  5
5E69
  8
0
 10
570.166391
 20
364.980519
 30
0.0
 40
3.0
 50
180.0
 51
270.0
  0
LINE
  5
5E6A
  8
0
 10
567.166391
 20
381.113398
 30
0.0
 11
567.166391
 21
364.980519
 31
0.0
  0
LINE
  5
5E6B
  8
0
 10
557.166391
 20
398.450642
 30
0.0
 11
557.166391
 21
391.113398
 31
0.0
  0
LINE
  5
5E6C
  8
0
 10
556.156204
 20
398.026002
 30
0.0
 11
557.166391
 21
398.450642
 31
0.0
  0
LINE
  5
5E6D
  8
0
 10
552.281081
 20
407.244648
 30
0.0
 11
556.156204
 21
398.026002
 31
0.0
  0
ARC
  5
5E6E
  8
0
 10
567.166391
 20
391.113398
 30
0.0
 40
10.0
 50
180.0
 51
270.0
  0
LINE
  5
5E6F
  8
0
 10
571.5
 20
349.470608
 30
0.0
 11
573.455294
 21
347.470608
 31
0.0
  0
LINE
  5
5E70
  8
0
 10
615.833609
 20
364.980519
 30
0.0
 11
615.833609
 21
381.113398
 31
0.0
  0
ARC
  5
5E71
  8
0
 10
612.833609
 20
364.980519
 30
0.0
 40
3.0
 50
270.0
 51
0.0
  0
LINE
  5
5E72
  8
0
 10
611.5
 20
361.980519
 30
0.0
 11
612.833609
 21
361.980519
 31
0.0
  0
LINE
  5
5E73
  8
0
 10
611.5
 20
349.470608
 30
0.0
 11
611.5
 21
361.980519
 31
0.0
  0
LINE
  5
5E74
  8
0
 10
625.833609
 20
391.113398
 30
0.0
 11
625.833609
 21
390.805998
 31
0.0
  0
LINE
  5
5E75
  8
0
 10
625.833609
 20
390.805998
 30
0.0
 11
625.833609
 21
393.450642
 31
0.0
  0
LINE
  5
5E76
  8
0
 10
581.5
 20
349.470608
 30
0.0
 11
581.5
 21
361.980519
 31
0.0
  0
LINE
  5
5E77
  8
0
 10
601.5
 20
349.470608
 30
0.0
 11
601.5
 21
361.980519
 31
0.0
  0
LINE
  5
5E78
  8
0
 10
588.3
 20
347.470608
 30
0.0
 11
594.7
 21
347.470608
 31
0.0
  0
LINE
  5
5E79
  8
0
 10
594.7
 20
347.470608
 30
0.0
 11
609.544706
 21
347.470608
 31
0.0
  0
ARC
  5
5E7A
  8
0
 10
606.5
 20
354.720608
 30
0.0
 40
7.25
 50
226.397181
 51
313.602819
  0
ARC
  5
5E7B
  8
0
 10
591.5
 20
373.470608
 30
0.0
 40
26.0
 50
247.380135
 51
292.619865
  0
LINE
  5
5E7C
  8
0
 10
609.544706
 20
347.470608
 30
0.0
 11
611.5
 21
349.470608
 31
0.0
  0
LINE
  5
5E7D
  8
0
 10
786.339957
 20
262.470608
 30
0.0
 11
786.699332
 21
273.970608
 31
0.0
  0
LINE
  5
5E7E
  8
0
 10
773.276707
 20
262.470608
 30
0.0
 11
772.917332
 21
273.970608
 31
0.0
  0
LINE
  5
5E7F
  8
0
 10
773.276707
 20
262.470608
 30
0.0
 11
786.339957
 21
262.470608
 31
0.0
  0
LINE
  5
5E80
  8
0
 10
779.808332
 20
147.470608
 30
0.0
 11
783.008332
 21
148.761734
 31
0.0
  0
LINE
  5
5E81
  8
0
 10
776.608332
 20
148.761734
 30
0.0
 11
783.008332
 21
148.761734
 31
0.0
  0
LINE
  5
5E82
  8
0
 10
776.608332
 20
262.470608
 30
0.0
 11
776.608332
 21
148.761734
 31
0.0
  0
LINE
  5
5E83
  8
0
 10
776.608332
 20
148.761734
 30
0.0
 11
779.808332
 21
147.470608
 31
0.0
  0
LINE
  5
5E84
  8
0
 10
783.008332
 20
148.761734
 30
0.0
 11
783.008332
 21
262.470608
 31
0.0
  0
ARC
  5
5E85
  8
0
 10
784.058332
 20
298.001858
 30
0.0
 40
9.53125
 50
243.51896
 51
296.48104
  0
ARC
  5
5E86
  8
0
 10
784.058332
 20
292.939358
 30
0.0
 40
9.53125
 50
63.51896
 51
116.48104
  0
ARC
  5
5E87
  8
0
 10
784.558332
 20
288.008015
 30
0.0
 40
12.537407
 50
247.736529
 51
292.263471
  0
ARC
  5
5E88
  8
0
 10
784.558332
 20
272.933201
 30
0.0
 40
12.537407
 50
67.736529
 51
112.263471
  0
LINE
  5
5E89
  8
0
 10
786.699332
 20
273.970608
 30
0.0
 11
772.917332
 21
273.970608
 31
0.0
  0
LINE
  5
5E8A
  8
0
 10
789.308332
 20
275.470608
 30
0.0
 11
770.308332
 21
275.470608
 31
0.0
  0
LINE
  5
5E8B
  8
0
 10
770.308332
 20
285.470608
 30
0.0
 11
789.308332
 21
285.470608
 31
0.0
  0
LINE
  5
5E8C
  8
0
 10
771.558332
 20
285.470608
 30
0.0
 11
788.058332
 21
285.470608
 31
0.0
  0
LINE
  5
5E8D
  8
0
 10
773.323582
 20
285.470608
 30
0.0
 11
786.293082
 21
285.470608
 31
0.0
  0
LINE
  5
5E8E
  8
0
 10
771.308332
 20
288.470608
 30
0.0
 11
788.308332
 21
288.470608
 31
0.0
  0
LINE
  5
5E8F
  8
0
 10
771.308332
 20
302.470608
 30
0.0
 11
788.308332
 21
302.470608
 31
0.0
  0
LINE
  5
5E90
  8
0
 10
762.487824
 20
361.980519
 30
0.0
 11
797.12884
 21
361.980519
 31
0.0
  0
LINE
  5
5E91
  8
0
 10
759.808332
 20
361.980519
 30
0.0
 11
799.808332
 21
361.980519
 31
0.0
  0
LINE
  5
5E92
  8
0
 10
779.808332
 20
393.450642
 30
0.0
 11
792.798713
 21
400.950642
 31
0.0
  0
LINE
  5
5E93
  8
0
 10
765.951926
 20
347.470608
 30
0.0
 11
793.664739
 21
347.470608
 31
0.0
  0
ARC
  5
5E94
  8
0
 10
788.468586
 20
367.220608
 30
0.0
 40
19.75
 50
243.992176
 51
296.007824
  0
LINE
  5
5E95
  8
0
 10
752.391654
 20
381.113398
 30
0.0
 11
807.22501
 21
381.113398
 31
0.0
  0
LINE
  5
5E96
  8
0
 10
776.608332
 20
347.470608
 30
0.0
 11
776.608332
 21
302.470608
 31
0.0
  0
LINE
  5
5E97
  8
0
 10
779.808332
 20
301.470608
 30
0.0
 11
779.808332
 21
289.470608
 31
0.0
  0
ARC
  5
5E98
  8
0
 10
775.558332
 20
298.001858
 30
0.0
 40
9.53125
 50
243.51896
 51
296.48104
  0
ARC
  5
5E99
  8
0
 10
775.558332
 20
292.939358
 30
0.0
 40
9.53125
 50
63.51896
 51
116.48104
  0
LINE
  5
5E9A
  8
0
 10
771.308332
 20
302.470608
 30
0.0
 11
771.308332
 21
288.470608
 31
0.0
  0
LINE
  5
5E9B
  8
0
 10
779.808332
 20
284.535962
 30
0.0
 11
779.808332
 21
276.405253
 31
0.0
  0
ARC
  5
5E9C
  8
0
 10
775.058332
 20
288.008015
 30
0.0
 40
12.537407
 50
247.736529
 51
292.263471
  0
ARC
  5
5E9D
  8
0
 10
775.058332
 20
272.933201
 30
0.0
 40
12.537407
 50
67.736529
 51
112.263471
  0
LINE
  5
5E9E
  8
0
 10
770.308332
 20
285.470608
 30
0.0
 11
770.308332
 21
275.470608
 31
0.0
  0
LINE
  5
5E9F
  8
0
 10
772.917332
 20
273.970608
 30
0.0
 11
772.917332
 21
275.470608
 31
0.0
  0
LINE
  5
5EA0
  8
0
 10
773.229832
 20
288.470608
 30
0.0
 11
773.323582
 21
285.470608
 31
0.0
  0
LINE
  5
5EA1
  8
0
 10
648.5
 20
393.450642
 30
0.0
 11
649.5
 21
394.027992
 31
0.0
  0
ARC
  5
5EA2
  8
0
 10
641.0
 20
397.450642
 30
0.0
 40
8.5
 50
331.927513
 51
28.072487
  0
LINE
  5
5EA3
  8
0
 10
644.5
 20
401.450642
 30
0.0
 11
648.5
 21
401.450642
 31
0.0
  0
LINE
  5
5EA4
  8
0
 10
779.808332
 20
361.980519
 30
0.0
 11
779.808332
 21
349.470608
 31
0.0
  0
LINE
  5
5EA5
  8
0
 10
762.487824
 20
361.980519
 30
0.0
 11
762.487824
 21
349.470608
 31
0.0
  0
LINE
  5
5EA6
  8
0
 10
758.474723
 20
361.980519
 30
0.0
 11
759.808332
 21
361.980519
 31
0.0
  0
LINE
  5
5EA7
  8
0
 10
755.474723
 20
381.113398
 30
0.0
 11
755.474723
 21
364.980519
 31
0.0
  0
LINE
  5
5EA8
  8
0
 10
766.817951
 20
400.950642
 30
0.0
 11
779.808332
 21
393.450642
 31
0.0
  0
ARC
  5
5EA9
  8
0
 10
752.391654
 20
391.113398
 30
0.0
 40
10.0
 50
180.0
 51
270.0
  0
ARC
  5
5EAA
  8
0
 10
762.415082
 20
429.501062
 30
0.0
 40
29.47707
 50
226.907514
 51
227.21195
  0
ARC
  5
5EAB
  8
0
 10
746.868279
 20
412.883018
 30
0.0
 40
6.720479
 50
180.0
 51
226.907514
  0
LINE
  5
5EAC
  8
0
 10
742.391654
 20
412.883018
 30
0.0
 11
742.391654
 21
391.113398
 31
0.0
  0
ARC
  5
5EAD
  8
0
 10
758.474723
 20
364.980519
 30
0.0
 40
3.0
 50
180.0
 51
270.0
  0
ARC
  5
5EAE
  8
0
 10
771.148078
 20
367.220608
 30
0.0
 40
19.75
 50
243.992176
 51
296.007824
  0
LINE
  5
5EAF
  8
0
 10
762.487824
 20
349.470608
 30
0.0
 11
765.951926
 21
347.470608
 31
0.0
  0
LINE
  5
5EB0
  8
0
 10
783.008332
 20
302.470608
 30
0.0
 11
783.008332
 21
347.470608
 31
0.0
  0
LINE
  5
5EB1
  8
0
 10
788.308332
 20
302.470608
 30
0.0
 11
788.308332
 21
288.470608
 31
0.0
  0
LINE
  5
5EB2
  8
0
 10
789.308332
 20
285.470608
 30
0.0
 11
789.308332
 21
275.470608
 31
0.0
  0
LINE
  5
5EB3
  8
0
 10
786.699332
 20
273.970608
 30
0.0
 11
786.699332
 21
275.470608
 31
0.0
  0
LINE
  5
5EB4
  8
0
 10
786.386832
 20
288.470608
 30
0.0
 11
786.293082
 21
285.470608
 31
0.0
  0
ARC
  5
5EB5
  8
0
 10
807.22501
 20
391.113398
 30
0.0
 40
10.0
 50
270.0
 51
0.0
  0
ARC
  5
5EB6
  8
0
 10
801.141941
 20
364.980519
 30
0.0
 40
3.0
 50
270.0
 51
0.0
  0
LINE
  5
5EB7
  8
0
 10
804.141941
 20
364.980519
 30
0.0
 11
804.141941
 21
381.113398
 31
0.0
  0
ARC
  5
5EB8
  8
0
 10
812.748385
 20
412.883018
 30
0.0
 40
6.720479
 50
313.092486
 51
360.0
  0
ARC
  5
5EB9
  8
0
 10
797.201583
 20
429.501062
 30
0.0
 40
29.47707
 50
312.78805
 51
313.092486
  0
LINE
  5
5EBA
  8
0
 10
817.22501
 20
412.883018
 30
0.0
 11
817.22501
 21
391.113398
 31
0.0
  0
LINE
  5
5EBB
  8
0
 10
797.12884
 20
361.980519
 30
0.0
 11
797.12884
 21
349.470608
 31
0.0
  0
LINE
  5
5EBC
  8
0
 10
797.12884
 20
349.470608
 30
0.0
 11
793.664739
 21
347.470608
 31
0.0
  0
LINE
  5
5EBD
  8
0
 10
799.808332
 20
361.980519
 30
0.0
 11
801.141941
 21
361.980519
 31
0.0
  0
ARC
  5
5EBE
  8
0
 10
585.780046
 20
637.857143
 30
0.0
 40
42.281591
 50
0.0
 51
20.890247
  0
ARC
  5
5EBF
  8
0
 10
585.780046
 20
637.857143
 30
0.0
 40
42.281591
 50
339.109753
 51
0.0
  0
LINE
  5
5EC0
  8
0
 10
648.5
 20
624.866762
 30
0.0
 11
626.016634
 21
624.866762
 31
0.0
  0
LINE
  5
5EC1
  8
0
 10
648.5
 20
650.847524
 30
0.0
 11
626.016634
 21
650.847524
 31
0.0
  0
LINE
  5
5EC2
  8
0
 10
628.061638
 20
428.251963
 30
0.0
 11
624.186514
 21
437.470608
 31
0.0
  0
LINE
  5
5EC3
  8
0
 10
625.833609
 20
427.315395
 30
0.0
 11
628.061638
 21
428.251963
 31
0.0
  0
LINE
  5
5EC4
  8
0
 10
648.5
 20
423.450642
 30
0.0
 11
625.833609
 21
423.450642
 31
0.0
  0
ARC
  5
5EC5
  8
0
 10
409.965596
 20
340.042755
 30
0.0
 40
97.828834
 50
80.643354
 51
90.0
  0
ARC
  5
5EC6
  8
0
 10
409.965596
 20
432.732093
 30
0.0
 40
5.150392
 50
80.881074
 51
90.0
  0
ARC
  5
5EC7
  8
0
 10
410.314668
 20
434.906819
 30
0.0
 40
2.947829
 50
68.818037
 51
80.881074
  0
ARC
  5
5EC8
  8
0
 10
410.842702
 20
436.269446
 30
0.0
 40
1.486469
 50
46.907514
 51
68.818037
  0
ARC
  5
5EC9
  8
0
 10
411.626696
 20
437.10746
 30
0.0
 40
0.3389
 50
0.0
 51
46.907514
  0
ARC
  5
5ECA
  8
0
 10
411.626696
 20
437.10746
 30
0.0
 40
0.3389
 50
313.092486
 51
0.0
  0
ARC
  5
5ECB
  8
0
 10
410.842702
 20
437.945474
 30
0.0
 40
1.486469
 50
291.181963
 51
313.092486
  0
ARC
  5
5ECC
  8
0
 10
410.314668
 20
439.308101
 30
0.0
 40
2.947829
 50
279.118926
 51
291.181963
  0
ARC
  5
5ECD
  8
0
 10
409.965596
 20
441.482828
 30
0.0
 40
5.150392
 50
270.0
 51
279.118926
  0
ARC
  5
5ECE
  8
0
 10
409.965596
 20
441.482828
 30
0.0
 40
5.150392
 50
260.881074
 51
270.0
  0
ARC
  5
5ECF
  8
0
 10
409.616524
 20
439.308101
 30
0.0
 40
2.947829
 50
248.818037
 51
260.881074
  0
ARC
  5
5ED0
  8
0
 10
409.08849
 20
437.945474
 30
0.0
 40
1.486469
 50
226.907514
 51
248.818037
  0
ARC
  5
5ED1
  8
0
 10
408.304496
 20
437.10746
 30
0.0
 40
0.3389
 50
180.0
 51
226.907514
  0
ARC
  5
5ED2
  8
0
 10
408.304496
 20
437.10746
 30
0.0
 40
0.3389
 50
133.092486
 51
180.0
  0
ARC
  5
5ED3
  8
0
 10
409.08849
 20
436.269446
 30
0.0
 40
1.486469
 50
111.181963
 51
133.092486
  0
ARC
  5
5ED4
  8
0
 10
409.616524
 20
434.906819
 30
0.0
 40
2.947829
 50
99.118926
 51
111.181963
  0
ARC
  5
5ED5
  8
0
 10
409.965596
 20
432.732093
 30
0.0
 40
5.150392
 50
90.0
 51
99.118926
  0
ARC
  5
5ED6
  8
0
 10
413.518895
 20
431.472109
 30
0.0
 40
0.724949
 50
0.0
 51
22.284172
  0
ARC
  5
5ED7
  8
0
 10
413.518895
 20
431.472109
 30
0.0
 40
0.724949
 50
313.092486
 51
0.0
  0
ARC
  5
5ED8
  8
0
 10
411.841835
 20
433.264725
 30
0.0
 40
3.179741
 50
291.181963
 51
313.092486
  0
ARC
  5
5ED9
  8
0
 10
410.712303
 20
436.179553
 30
0.0
 40
6.305771
 50
279.118926
 51
291.181963
  0
ARC
  5
5EDA
  8
0
 10
409.965596
 20
440.831563
 30
0.0
 40
11.017328
 50
270.0
 51
279.118926
  0
ARC
  5
5EDB
  8
0
 10
409.965596
 20
440.831563
 30
0.0
 40
11.017328
 50
260.881074
 51
270.0
  0
ARC
  5
5EDC
  8
0
 10
409.218889
 20
436.179553
 30
0.0
 40
6.305771
 50
248.818037
 51
260.881074
  0
ARC
  5
5EDD
  8
0
 10
408.089357
 20
433.264725
 30
0.0
 40
3.179741
 50
226.907514
 51
248.818037
  0
ARC
  5
5EDE
  8
0
 10
406.412297
 20
431.472109
 30
0.0
 40
0.724949
 50
180.0
 51
226.907514
  0
ARC
  5
5EDF
  8
0
 10
406.412297
 20
431.472109
 30
0.0
 40
0.724949
 50
157.715828
 51
180.0
  0
ARC
  5
5EE0
  8
0
 10
403.226163
 20
380.944419
 30
0.0
 40
56.375655
 50
99.356646
 51
111.69236
  0
ARC
  5
5EE1
  8
0
 10
409.965596
 20
340.042755
 30
0.0
 40
97.828834
 50
90.0
 51
99.356646
  0
LINE
  5
5EE2
  8
0
 10
411.940285
 20
437.235971
 30
0.0
 11
414.189701
 21
431.74701
 31
0.0
  0
LINE
  5
5EE3
  8
0
 10
407.990907
 20
437.235971
 30
0.0
 11
405.741491
 21
431.74701
 31
0.0
  0
ARC
  5
5EE4
  8
0
 10
377.877162
 20
422.357628
 30
0.0
 40
6.911566
 50
133.841574
 51
180.0
  0
ARC
  5
5EE5
  8
0
 10
393.02787
 20
406.581546
 30
0.0
 40
28.784579
 50
111.69236
 51
133.841574
  0
ARC
  5
5EE6
  8
0
 10
377.877162
 20
422.357628
 30
0.0
 40
6.911566
 50
180.0
 51
226.158426
  0
ARC
  5
5EE7
  8
0
 10
416.70503
 20
380.944419
 30
0.0
 40
56.375655
 50
68.30764
 51
80.643354
  0
ARC
  5
5EE8
  8
0
 10
426.903322
 20
406.581546
 30
0.0
 40
28.784579
 50
46.158426
 51
68.30764
  0
ARC
  5
5EE9
  8
0
 10
442.05403
 20
422.357628
 30
0.0
 40
6.911566
 50
0.0
 51
46.158426
  0
ARC
  5
5EEA
  8
0
 10
442.05403
 20
422.357628
 30
0.0
 40
6.911566
 50
313.841574
 51
0.0
  0
ARC
  5
5EEB
  8
0
 10
586.96544
 20
634.860514
 30
0.0
 40
36.293839
 50
294.205564
 51
317.341674
  0
ARC
  5
5EEC
  8
0
 10
590.840563
 20
634.860514
 30
0.0
 40
36.293839
 50
294.205564
 51
317.341674
  0
ARC
  5
5EED
  8
0
 10
588.867108
 20
636.678911
 30
0.0
 40
38.977324
 50
317.341674
 51
339.109753
  0
ARC
  5
5EEE
  8
0
 10
584.991985
 20
636.678911
 30
0.0
 40
38.977324
 50
317.341674
 51
339.109753
  0
ARC
  5
5EEF
  8
0
 10
591.475611
 20
636.678911
 30
0.0
 40
38.977324
 50
200.890247
 51
222.658326
  0
ARC
  5
5EF0
  8
0
 10
589.502156
 20
634.860514
 30
0.0
 40
36.293839
 50
222.658326
 51
245.794436
  0
ARC
  5
5EF1
  8
0
 10
588.233798
 20
632.039023
 30
0.0
 40
33.200372
 50
245.794436
 51
270.0
  0
LINE
  5
5EF2
  8
0
 10
625.833609
 20
423.450642
 30
0.0
 11
625.833609
 21
427.315395
 31
0.0
  0
LINE
  5
5EF3
  8
0
 10
580.189872
 20
436.332436
 30
0.0
 11
580.458496
 21
429.814235
 31
0.0
  0
LINE
  5
5EF4
  8
0
 10
583.87733
 20
437.882485
 30
0.0
 11
580.189872
 21
436.332436
 31
0.0
  0
LINE
  5
5EF5
  8
0
 10
588.346426
 20
433.129983
 30
0.0
 11
583.87733
 21
437.882485
 31
0.0
  0
ARC
  5
5EF6
  8
0
 10
615.766548
 20
356.859153
 30
0.0
 40
81.05
 50
109.067431
 51
109.774016
  0
LINE
  5
5EF7
  8
0
 10
588.874165
 20
438.898182
 30
0.0
 11
589.289077
 21
433.462326
 31
0.0
  0
LINE
  5
5EF8
  8
0
 10
590.717894
 20
439.673207
 30
0.0
 11
588.874165
 21
438.898182
 31
0.0
  0
LINE
  5
5EF9
  8
0
 10
594.42798
 20
435.049741
 30
0.0
 11
590.717894
 21
439.673207
 31
0.0
  0
ARC
  5
5EFA
  8
0
 10
615.766548
 20
356.859153
 30
0.0
 40
81.05
 50
109.774016
 51
115.825577
  0
ARC
  5
5EFB
  8
0
 10
615.766548
 20
356.859153
 30
0.0
 40
81.05
 50
105.264573
 51
109.067431
  0
LINE
  5
5EFC
  8
0
 10
589.289077
 20
433.462326
 30
0.0
 11
594.42798
 21
435.049741
 31
0.0
  0
LINE
  5
5EFD
  8
0
 10
580.458496
 20
429.814235
 30
0.0
 11
588.346426
 21
433.129983
 31
0.0
  0
ARC
  5
5EFE
  8
0
 10
592.108921
 20
632.039023
 30
0.0
 40
33.200372
 50
270.0
 51
294.205564
  0
ARC
  5
5EFF
  8
0
 10
592.108921
 20
632.039023
 30
0.0
 40
33.200372
 50
266.654338
 51
270.0
  0
ARC
  5
5F00
  8
0
 10
588.233798
 20
632.039023
 30
0.0
 40
33.200372
 50
270.0
 51
294.205564
  0
LINE
  5
5F01
  8
0
 10
587.125881
 20
598.857143
 30
0.0
 11
593.216838
 21
598.857143
 31
0.0
  0
ARC
  5
5F02
  8
0
 10
615.766548
 20
356.859153
 30
0.0
 40
81.05
 50
84.037007
 51
105.264573
  0
ARC
  5
5F03
  8
0
 10
588.233798
 20
643.675263
 30
0.0
 40
33.200372
 50
90.0
 51
114.205564
  0
ARC
  5
5F04
  8
0
 10
594.562672
 20
637.857143
 30
0.0
 40
42.281591
 50
159.109753
 51
180.0
  0
ARC
  5
5F05
  8
0
 10
594.562672
 20
637.857143
 30
0.0
 40
42.281591
 50
180.0
 51
200.890247
  0
ARC
  5
5F06
  8
0
 10
591.475611
 20
639.035375
 30
0.0
 40
38.977324
 50
137.341674
 51
159.109753
  0
ARC
  5
5F07
  8
0
 10
589.502156
 20
640.853772
 30
0.0
 40
36.293839
 50
114.205564
 51
137.341674
  0
ARC
  5
5F08
  8
0
 10
581.904923
 20
637.857143
 30
0.0
 40
42.281591
 50
0.0
 51
20.890247
  0
ARC
  5
5F09
  8
0
 10
581.904923
 20
637.857143
 30
0.0
 40
42.281591
 50
339.109753
 51
0.0
  0
ARC
  5
5F0A
  8
0
 10
584.991985
 20
639.035375
 30
0.0
 40
38.977324
 50
20.890247
 51
42.658326
  0
ARC
  5
5F0B
  8
0
 10
588.867108
 20
639.035375
 30
0.0
 40
38.977324
 50
20.890247
 51
42.658326
  0
ARC
  5
5F0C
  8
0
 10
581.711082
 20
637.857143
 30
0.0
 40
2.166248
 50
339.100704
 51
0.0
  0
ARC
  5
5F0D
  8
0
 10
581.868396
 20
637.797073
 30
0.0
 40
1.997855
 50
317.328139
 51
339.100704
  0
ARC
  5
5F0E
  8
0
 10
581.968964
 20
637.704363
 30
0.0
 40
1.861075
 50
294.195409
 51
317.328139
  0
ARC
  5
5F0F
  8
0
 10
582.033601
 20
637.560508
 30
0.0
 40
1.703365
 50
270.0
 51
294.195409
  0
ARC
  5
5F10
  8
0
 10
582.033601
 20
637.560508
 30
0.0
 40
1.703365
 50
245.804591
 51
270.0
  0
ARC
  5
5F11
  8
0
 10
582.098238
 20
637.704363
 30
0.0
 40
1.861075
 50
222.671861
 51
245.804591
  0
ARC
  5
5F12
  8
0
 10
582.198806
 20
637.797073
 30
0.0
 40
1.997855
 50
200.899296
 51
222.671861
  0
ARC
  5
5F13
  8
0
 10
582.356119
 20
637.857143
 30
0.0
 40
2.166248
 50
180.0
 51
200.899296
  0
ARC
  5
5F14
  8
0
 10
582.356119
 20
637.857143
 30
0.0
 40
2.166248
 50
159.100704
 51
180.0
  0
ARC
  5
5F15
  8
0
 10
582.198806
 20
637.917213
 30
0.0
 40
1.997855
 50
137.328139
 51
159.100704
  0
ARC
  5
5F16
  8
0
 10
582.098238
 20
638.009923
 30
0.0
 40
1.861075
 50
114.195409
 51
137.328139
  0
ARC
  5
5F17
  8
0
 10
582.033601
 20
638.153778
 30
0.0
 40
1.703365
 50
90.0
 51
114.195409
  0
ARC
  5
5F18
  8
0
 10
582.033601
 20
638.153778
 30
0.0
 40
1.703365
 50
65.804591
 51
90.0
  0
ARC
  5
5F19
  8
0
 10
581.968964
 20
638.009923
 30
0.0
 40
1.861075
 50
42.671861
 51
65.804591
  0
ARC
  5
5F1A
  8
0
 10
581.868396
 20
637.917213
 30
0.0
 40
1.997855
 50
20.899296
 51
42.671861
  0
ARC
  5
5F1B
  8
0
 10
581.711082
 20
637.857143
 30
0.0
 40
2.166248
 50
360.0
 51
20.899296
  0
ARC
  5
5F1C
  8
0
 10
589.957289
 20
637.857143
 30
0.0
 40
1.083124
 50
159.100704
 51
180.0
  0
ARC
  5
5F1D
  8
0
 10
589.878632
 20
637.887178
 30
0.0
 40
0.998928
 50
137.328139
 51
159.100704
  0
ARC
  5
5F1E
  8
0
 10
589.828348
 20
637.933533
 30
0.0
 40
0.930537
 50
114.195409
 51
137.328139
  0
ARC
  5
5F1F
  8
0
 10
589.796029
 20
638.005461
 30
0.0
 40
0.851682
 50
90.0
 51
114.195409
  0
ARC
  5
5F20
  8
0
 10
589.796029
 20
638.005461
 30
0.0
 40
0.851682
 50
65.804591
 51
90.0
  0
ARC
  5
5F21
  8
0
 10
589.763711
 20
637.933533
 30
0.0
 40
0.930537
 50
42.671861
 51
65.804591
  0
ARC
  5
5F22
  8
0
 10
589.713427
 20
637.887178
 30
0.0
 40
0.998928
 50
20.899296
 51
42.671861
  0
ARC
  5
5F23
  8
0
 10
589.63477
 20
637.857143
 30
0.0
 40
1.083124
 50
360.0
 51
20.899296
  0
ARC
  5
5F24
  8
0
 10
589.63477
 20
637.857143
 30
0.0
 40
1.083124
 50
339.100704
 51
0.0
  0
ARC
  5
5F25
  8
0
 10
589.713427
 20
637.827108
 30
0.0
 40
0.998928
 50
317.328139
 51
339.100704
  0
ARC
  5
5F26
  8
0
 10
589.763711
 20
637.780753
 30
0.0
 40
0.930537
 50
294.195409
 51
317.328139
  0
ARC
  5
5F27
  8
0
 10
589.796029
 20
637.708825
 30
0.0
 40
0.851682
 50
270.0
 51
294.195409
  0
ARC
  5
5F28
  8
0
 10
589.796029
 20
637.708825
 30
0.0
 40
0.851682
 50
245.804591
 51
270.0
  0
ARC
  5
5F29
  8
0
 10
589.828348
 20
637.780753
 30
0.0
 40
0.930537
 50
222.671861
 51
245.804591
  0
ARC
  5
5F2A
  8
0
 10
589.878632
 20
637.827108
 30
0.0
 40
0.998928
 50
200.899296
 51
222.671861
  0
ARC
  5
5F2B
  8
0
 10
589.957289
 20
637.857143
 30
0.0
 40
1.083124
 50
180.0
 51
200.899296
  0
ARC
  5
5F2C
  8
0
 10
592.101127
 20
637.857143
 30
0.0
 40
2.812051
 50
158.40823
 51
160.806948
  0
ARC
  5
5F2D
  8
0
 10
591.98294
 20
637.903917
 30
0.0
 40
2.684944
 50
136.305005
 51
158.40823
  0
ARC
  5
5F2E
  8
0
 10
591.907262
 20
637.976224
 30
0.0
 40
2.580275
 50
113.437964
 51
136.305005
  0
ARC
  5
5F2F
  8
0
 10
591.858528
 20
638.088636
 30
0.0
 40
2.457754
 50
90.0
 51
113.437964
  0
ARC
  5
5F30
  8
0
 10
591.858528
 20
638.088636
 30
0.0
 40
2.457754
 50
66.562036
 51
90.0
  0
ARC
  5
5F31
  8
0
 10
591.809795
 20
637.976224
 30
0.0
 40
2.580275
 50
43.694995
 51
66.562036
  0
ARC
  5
5F32
  8
0
 10
591.734116
 20
637.903917
 30
0.0
 40
2.684944
 50
21.59177
 51
43.694995
  0
ARC
  5
5F33
  8
0
 10
591.615929
 20
637.857143
 30
0.0
 40
2.812051
 50
0.0
 51
21.59177
  0
ARC
  5
5F34
  8
0
 10
591.615929
 20
637.857143
 30
0.0
 40
2.812051
 50
338.40823
 51
360.0
  0
ARC
  5
5F35
  8
0
 10
591.734116
 20
637.810369
 30
0.0
 40
2.684944
 50
316.305005
 51
338.40823
  0
ARC
  5
5F36
  8
0
 10
591.809795
 20
637.738062
 30
0.0
 40
2.580275
 50
293.437964
 51
316.305005
  0
ARC
  5
5F37
  8
0
 10
591.858528
 20
637.62565
 30
0.0
 40
2.457754
 50
270.0
 51
293.437964
  0
ARC
  5
5F38
  8
0
 10
591.858528
 20
637.62565
 30
0.0
 40
2.457754
 50
246.562036
 51
270.0
  0
ARC
  5
5F39
  8
0
 10
591.907262
 20
637.738062
 30
0.0
 40
2.580275
 50
223.694995
 51
246.562036
  0
ARC
  5
5F3A
  8
0
 10
591.98294
 20
637.810369
 30
0.0
 40
2.684944
 50
201.59177
 51
223.694995
  0
ARC
  5
5F3B
  8
0
 10
592.101127
 20
637.857143
 30
0.0
 40
2.812051
 50
199.193052
 51
201.59177
  0
ARC
  5
5F3C
  8
0
 10
585.095576
 20
637.857143
 30
0.0
 40
4.63708
 50
159.10736
 51
163.411031
  0
ARC
  5
5F3D
  8
0
 10
584.757494
 20
637.986194
 30
0.0
 40
4.275205
 50
137.338094
 51
159.10736
  0
ARC
  5
5F3E
  8
0
 10
584.541368
 20
638.185364
 30
0.0
 40
3.981302
 50
114.202878
 51
137.338094
  0
ARC
  5
5F3F
  8
0
 10
584.402461
 20
638.494404
 30
0.0
 40
3.642479
 50
90.0
 51
114.202878
  0
ARC
  5
5F40
  8
0
 10
584.402461
 20
638.494404
 30
0.0
 40
3.642479
 50
65.797122
 51
90.0
  0
ARC
  5
5F41
  8
0
 10
584.263554
 20
638.185364
 30
0.0
 40
3.981302
 50
42.661906
 51
65.797122
  0
ARC
  5
5F42
  8
0
 10
584.047428
 20
637.986194
 30
0.0
 40
4.275205
 50
20.89264
 51
42.661906
  0
ARC
  5
5F43
  8
0
 10
583.709346
 20
637.857143
 30
0.0
 40
4.63708
 50
0.0
 51
20.89264
  0
ARC
  5
5F44
  8
0
 10
583.709346
 20
637.857143
 30
0.0
 40
4.63708
 50
339.10736
 51
360.0
  0
ARC
  5
5F45
  8
0
 10
584.047428
 20
637.728092
 30
0.0
 40
4.275205
 50
317.338094
 51
339.10736
  0
ARC
  5
5F46
  8
0
 10
584.263554
 20
637.528922
 30
0.0
 40
3.981302
 50
294.202878
 51
317.338094
  0
ARC
  5
5F47
  8
0
 10
584.402461
 20
637.219882
 30
0.0
 40
3.642479
 50
270.0
 51
294.202878
  0
ARC
  5
5F48
  8
0
 10
584.402461
 20
637.219882
 30
0.0
 40
3.642479
 50
245.797122
 51
270.0
  0
ARC
  5
5F49
  8
0
 10
584.541368
 20
637.528922
 30
0.0
 40
3.981302
 50
222.661906
 51
245.797122
  0
ARC
  5
5F4A
  8
0
 10
584.757494
 20
637.728092
 30
0.0
 40
4.275205
 50
200.89264
 51
222.661906
  0
ARC
  5
5F4B
  8
0
 10
585.095576
 20
637.857143
 30
0.0
 40
4.63708
 50
196.588969
 51
200.89264
  0
LINE
  5
5F4C
  8
0
 10
582.909158
 20
641.816707
 30
0.0
 11
582.909158
 21
641.816707
 31
0.0
  0
LINE
  5
5F4D
  8
0
 10
582.033601
 20
639.857143
 30
0.0
 11
582.033601
 21
639.857143
 31
0.0
  0
ARC
  5
5F4E
  8
0
 10
592.108921
 20
643.675263
 30
0.0
 40
33.200372
 50
65.794436
 51
90.0
  0
ARC
  5
5F4F
  8
0
 10
588.233798
 20
643.675263
 30
0.0
 40
33.200372
 50
65.794436
 51
90.0
  0
ARC
  5
5F50
  8
0
 10
592.108921
 20
643.675263
 30
0.0
 40
33.200372
 50
90.0
 51
93.345662
  0
LINE
  5
5F51
  8
0
 10
587.125881
 20
676.857143
 30
0.0
 11
589.341715
 21
676.857143
 31
0.0
  0
ARC
  5
5F52
  8
0
 10
586.96544
 20
640.853772
 30
0.0
 40
36.293839
 50
42.658326
 51
65.794436
  0
ARC
  5
5F53
  8
0
 10
590.840563
 20
640.853772
 30
0.0
 40
36.293839
 50
42.658326
 51
65.794436
  0
ARC
  5
5F54
  8
0
 10
779.808332
 20
335.33696
 30
0.0
 40
102.133648
 50
80.881074
 51
90.0
  0
ARC
  5
5F55
  8
0
 10
779.808332
 20
326.118315
 30
0.0
 40
102.133648
 50
80.881074
 51
90.0
  0
ARC
  5
5F56
  8
0
 10
779.808332
 20
326.118315
 30
0.0
 40
99.889794
 50
80.881074
 51
90.0
  0
LINE
  5
5F57
  8
0
 10
792.798713
 20
415.950642
 30
0.0
 11
779.808332
 21
423.450642
 31
0.0
  0
LINE
  5
5F58
  8
0
 10
649.5
 20
422.873291
 30
0.0
 11
648.5
 21
423.450642
 31
0.0
  0
LINE
  5
5F59
  8
0
 10
644.5
 20
415.450642
 30
0.0
 11
648.5
 21
415.450642
 31
0.0
  0
ARC
  5
5F5A
  8
0
 10
641.0
 20
419.450642
 30
0.0
 40
8.5
 50
331.927513
 51
28.072487
  0
ARC
  5
5F5B
  8
0
 10
779.808332
 20
335.33696
 30
0.0
 40
102.133648
 50
90.0
 51
99.118926
  0
ARC
  5
5F5C
  8
0
 10
779.808332
 20
326.118315
 30
0.0
 40
102.133648
 50
90.0
 51
99.118926
  0
ARC
  5
5F5D
  8
0
 10
779.808332
 20
326.118315
 30
0.0
 40
99.889794
 50
90.0
 51
99.118926
  0
ARC
  5
5F5E
  8
0
 10
762.415082
 20
405.48362
 30
0.0
 40
29.47707
 50
111.181963
 51
133.092486
  0
ARC
  5
5F5F
  8
0
 10
746.868279
 20
422.101664
 30
0.0
 40
6.720479
 50
133.092486
 51
180.0
  0
ARC
  5
5F60
  8
0
 10
772.88615
 20
378.462367
 30
0.0
 40
58.456224
 50
99.118926
 51
111.181963
  0
ARC
  5
5F61
  8
0
 10
772.88615
 20
369.243722
 30
0.0
 40
58.456224
 50
99.118926
 51
111.181963
  0
ARC
  5
5F62
  8
0
 10
772.88615
 20
369.243722
 30
0.0
 40
56.21237
 50
99.118926
 51
111.181963
  0
ARC
  5
5F63
  8
0
 10
762.415082
 20
396.264974
 30
0.0
 40
29.47707
 50
111.181963
 51
133.092486
  0
ARC
  5
5F64
  8
0
 10
762.415082
 20
396.264974
 30
0.0
 40
27.233216
 50
111.181963
 51
133.092486
  0
LINE
  5
5F65
  8
0
 10
779.808332
 20
423.450642
 30
0.0
 11
766.817951
 21
415.950642
 31
0.0
  0
LINE
  5
5F66
  8
0
 10
649.5
 20
626.598813
 30
0.0
 11
649.5
 21
649.115473
 31
0.0
  0
LINE
  5
5F67
  8
0
 10
644.5
 20
624.866762
 30
0.0
 11
644.5
 21
650.847524
 31
0.0
  0
ARC
  5
5F68
  8
0
 10
627.90625
 20
644.352334
 30
0.0
 40
21.59375
 50
342.494923
 51
17.505077
  0
LINE
  5
5F69
  8
0
 10
648.5
 20
637.857143
 30
0.0
 11
644.5
 21
637.857143
 31
0.0
  0
LINE
  5
5F6A
  8
0
 10
649.5
 20
626.598813
 30
0.0
 11
648.5
 21
624.866762
 31
0.0
  0
ARC
  5
5F6B
  8
0
 10
627.90625
 20
631.361952
 30
0.0
 40
21.59375
 50
342.494923
 51
17.505077
  0
LINE
  5
5F6C
  8
0
 10
649.5
 20
649.115473
 30
0.0
 11
648.5
 21
650.847524
 31
0.0
  0
ARC
  5
5F6D
  8
0
 10
797.201583
 20
405.48362
 30
0.0
 40
29.47707
 50
46.907514
 51
68.818037
  0
ARC
  5
5F6E
  8
0
 10
812.748385
 20
422.101664
 30
0.0
 40
6.720479
 50
0.0
 51
46.907514
  0
ARC
  5
5F6F
  8
0
 10
797.201583
 20
396.264974
 30
0.0
 40
29.47707
 50
46.907514
 51
68.818037
  0
ARC
  5
5F70
  8
0
 10
797.201583
 20
396.264974
 30
0.0
 40
27.233216
 50
46.907514
 51
68.818037
  0
ARC
  5
5F71
  8
0
 10
786.730514
 20
378.462367
 30
0.0
 40
58.456224
 50
68.818037
 51
80.881074
  0
ARC
  5
5F72
  8
0
 10
786.730514
 20
369.243722
 30
0.0
 40
58.456224
 50
68.818037
 51
80.881074
  0
ARC
  5
5F73
  8
0
 10
786.730514
 20
369.243722
 30
0.0
 40
56.21237
 50
68.818037
 51
80.881074
  0
VIEWPORT
  5
41
 67
     1
  8
0
 10
117.358407
 20
73.5
 30
0.0
 40
234.716814
 41
147.0
 68
    -1
 69
     1
1001
ACAD
1000
MVIEW
1002
{
1070
    16
1010
0.0
1020
0.0
1030
0.0
1010
0.0
1020
0.0
1030
1.0
1040
0.0
1040
147.0
1040
117.358407
1040
73.5
1040
50.0
1040
0.0
1040
0.0
1070
     0
1070
   100
1070
     1
1070
     1
1070
     0
1070
     0
1070
     0
1070
     0
1040
0.0
1040
0.0
1040
0.0
1040
1.0
1040
1.0
1040
0.0
1040
0.0
1070
     0
1002
{
1002
}
1002
}
  0
ENDSEC
  0
EOF
