  0
SECTION
  2
HEADER
  9
$ACADVER
  1
AC1012
  9
$DWGCODEPAGE
  3
dos932
  9
$INSBASE
 10
0.0
 20
0.0
 30
0.0
  9
$EXTMIN
 10
88.0
 20
40.0
 30
0.0
  9
$EXTMAX
 10
2288.0
 20
1528.0
 30
0.0
  9
$LIMMIN
 10
0.0
 20
0.0
  9
$LIMMAX
 10
2376.0
 20
1680.0
  9
$ORTHOMODE
 70
     1
  9
$REGENMODE
 70
     1
  9
$FILLMODE
 70
     1
  9
$QTEXTMODE
 70
     0
  9
$MIRRTEXT
 70
     1
  9
$DRAGMODE
 70
     2
  9
$LTSCALE
 40
32.0
  9
$OSMODE
 70
    35
  9
$ATTMODE
 70
     1
  9
$TEXTSIZE
 40
32.0
  9
$TRACEWID
 40
0.05
  9
$TEXTSTYLE
  7
STANDARD
  9
$CLAYER
  8
0
  9
$CELTYPE
  6
BYLAYER
  9
$CECOLOR
 62
   256
  9
$CELTSCALE
 40
1.0
  9
$DELOBJ
 70
     1
  9
$DISPSILH
 70
     0
  9
$DIMSCALE
 40
8.0
  9
$DIMASZ
 40
2.8
  9
$DIMEXO
 40
1.0
  9
$DIMDLI
 40
5.0
  9
$DIMRND
 40
0.1
  9
$DIMDLE
 40
0.0
  9
$DIMEXE
 40
1.0
  9
$DIMTP
 40
0.0
  9
$DIMTM
 40
0.0
  9
$DIMTXT
 40
2.5
  9
$DIMCEN
 40
0.0
  9
$DIMTSZ
 40
0.0
  9
$DIMTOL
 70
     0
  9
$DIMLIM
 70
     0
  9
$DIMTIH
 70
     0
  9
$DIMTOH
 70
     0
  9
$DIMSE1
 70
     0
  9
$DIMSE2
 70
     0
  9
$DIMTAD
 70
     3
  9
$DIMZIN
 70
     8
  9
$DIMBLK
  1

  9
$DIMASO
 70
     1
  9
$DIMSHO
 70
     1
  9
$DIMPOST
  1
 
  9
$DIMAPOST
  1

  9
$DIMALT
 70
     0
  9
$DIMALTD
 70
     2
  9
$DIMALTF
 40
1.0
  9
$DIMLFAC
 40
1.0
  9
$DIMTOFL
 70
     1
  9
$DIMTVP
 40
0.0
  9
$DIMTIX
 70
     0
  9
$DIMSOXD
 70
     0
  9
$DIMSAH
 70
     1
  9
$DIMBLK1
  1
_OPEN
  9
$DIMBLK2
  1
_OPEN
  9
$DIMSTYLE
  2
DIM1
  9
$DIMCLRD
 70
     2
  9
$DIMCLRE
 70
     2
  9
$DIMCLRT
 70
     2
  9
$DIMTFAC
 40
0.7
  9
$DIMGAP
 40
0.85
  9
$DIMJUST
 70
     0
  9
$DIMSD1
 70
     0
  9
$DIMSD2
 70
     0
  9
$DIMTOLJ
 70
     1
  9
$DIMTZIN
 70
     8
  9
$DIMALTZ
 70
     8
  9
$DIMALTTZ
 70
     8
  9
$DIMFIT
 70
     0
  9
$DIMUPT
 70
     0
  9
$DIMUNIT
 70
     2
  9
$DIMDEC
 70
     2
  9
$DIMTDEC
 70
     3
  9
$DIMALTU
 70
     2
  9
$DIMALTTD
 70
     3
  9
$DIMTXSTY
  7
DIM
  9
$DIMAUNIT
 70
     0
  9
$LUNITS
 70
     2
  9
$LUPREC
 70
     4
  9
$SKETCHINC
 40
0.1
  9
$FILLETRAD
 40
2.0
  9
$AUNITS
 70
     0
  9
$AUPREC
 70
     0
  9
$MENU
  1
C:\ACADR13\WIN\SUPPORT\ACAD.mnc
  9
$ELEVATION
 40
0.0
  9
$PELEVATION
 40
0.0
  9
$THICKNESS
 40
0.0
  9
$LIMCHECK
 70
     0
  9
$BLIPMODE
 70
     1
  9
$CHAMFERA
 40
0.0
  9
$CHAMFERB
 40
0.0
  9
$CHAMFERC
 40
0.0
  9
$CHAMFERD
 40
0.0
  9
$SKPOLY
 70
     0
  9
$TDCREATE
 40
2451564.587411898
  9
$TDUPDATE
 40
2451967.651043287
  9
$TDINDWG
 40
0.2137999074
  9
$TDUSRTIMER
 40
0.2137999074
  9
$USRTIMER
 70
     1
  9
$ANGBASE
 50
0.0
  9
$ANGDIR
 70
     0
  9
$PDMODE
 70
     0
  9
$PDSIZE
 40
0.0
  9
$PLINEWID
 40
0.0
  9
$COORDS
 70
     1
  9
$SPLFRAME
 70
     0
  9
$SPLINETYPE
 70
     6
  9
$SPLINESEGS
 70
     8
  9
$ATTDIA
 70
     0
  9
$ATTREQ
 70
     1
  9
$HANDLING
 70
     1
  9
$HANDSEED
  5
6440
  9
$SURFTAB1
 70
     6
  9
$SURFTAB2
 70
     6
  9
$SURFTYPE
 70
     6
  9
$SURFU
 70
     6
  9
$SURFV
 70
     6
  9
$UCSNAME
  2

  9
$UCSORG
 10
0.0
 20
0.0
 30
0.0
  9
$UCSXDIR
 10
1.0
 20
0.0
 30
0.0
  9
$UCSYDIR
 10
0.0
 20
1.0
 30
0.0
  9
$PUCSNAME
  2

  9
$PUCSORG
 10
0.0
 20
0.0
 30
0.0
  9
$PUCSXDIR
 10
1.0
 20
0.0
 30
0.0
  9
$PUCSYDIR
 10
0.0
 20
1.0
 30
0.0
  9
$USERI1
 70
     0
  9
$USERI2
 70
     0
  9
$USERI3
 70
     0
  9
$USERI4
 70
     0
  9
$USERI5
 70
     0
  9
$USERR1
 40
0.0
  9
$USERR2
 40
0.0
  9
$USERR3
 40
0.0
  9
$USERR4
 40
0.0
  9
$USERR5
 40
0.0
  9
$WORLDVIEW
 70
     1
  9
$SHADEDGE
 70
     3
  9
$SHADEDIF
 70
    70
  9
$TILEMODE
 70
     1
  9
$MAXACTVP
 70
    16
  9
$PINSBASE
 10
0.0
 20
0.0
 30
0.0
  9
$PLIMCHECK
 70
     0
  9
$PEXTMIN
 10
1.000000E+20
 20
1.000000E+20
 30
1.000000E+20
  9
$PEXTMAX
 10
-1.000000E+20
 20
-1.000000E+20
 30
-1.000000E+20
  9
$PLIMMIN
 10
0.0
 20
0.0
  9
$PLIMMAX
 10
20.0
 20
147.0
  9
$UNITMODE
 70
     0
  9
$VISRETAIN
 70
     0
  9
$PLINEGEN
 70
     0
  9
$PSLTSCALE
 70
     1
  9
$TREEDEPTH
 70
  3020
  9
$PICKSTYLE
 70
     1
  9
$CMLSTYLE
  2
STANDARD
  9
$CMLJUST
 70
     0
  9
$CMLSCALE
 40
1.0
  9
$SAVEIMAGES
 70
     1
  0
ENDSEC
  0
SECTION
  2
CLASSES
  0
CLASS
  1
LWPOLYLINE
  2
AcDbPolyline
  3
"AutoCAD"
 90
    32768
280
     0
281
     1
  0
ENDSEC
  0
SECTION
  2
TABLES
  0
TABLE
  2
VPORT
  5
8
100
AcDbSymbolTable
 70
     2
  0
VPORT
  5
643F
100
AcDbSymbolTableRecord
100
AcDbViewportTableRecord
  2
*ACTIVE
 70
     0
 10
0.0
 20
0.0
 11
1.0
 21
1.0
 12
1532.606474
 22
869.7795
 13
0.0
 23
0.0
 14
1.0
 24
1.0
 15
0.0
 25
0.0
 16
0.0
 26
0.0
 36
1.0
 17
0.0
 27
0.0
 37
0.0
 40
1739.559
 41
1.762063
 42
50.0
 43
0.0
 44
0.0
 50
0.0
 51
0.0
 71
     0
 72
   100
 73
     1
 74
     1
 75
     0
 76
     0
 77
     0
 78
     0
  0
ENDTAB
  0
TABLE
  2
LTYPE
  5
5
100
AcDbSymbolTable
 70
     5
  0
LTYPE
  5
12
100
AcDbSymbolTableRecord
100
AcDbLinetypeTableRecord
  2
BYBLOCK
 70
     0
  3

 72
    65
 73
     0
 40
0.0
  0
LTYPE
  5
13
100
AcDbSymbolTableRecord
100
AcDbLinetypeTableRecord
  2
BYLAYER
 70
     0
  3

 72
    65
 73
     0
 40
0.0
  0
LTYPE
  5
14
100
AcDbSymbolTableRecord
100
AcDbLinetypeTableRecord
  2
CONTINUOUS
 70
     0
  3
Solid line
 72
    65
 73
     0
 40
0.0
  0
ENDTAB
  0
TABLE
  2
LAYER
  5
2
100
AcDbSymbolTable
 70
     4
  0
LAYER
  5
F
100
AcDbSymbolTableRecord
100
AcDbLayerTableRecord
  2
0
 70
     0
 62
     7
  6
CONTINUOUS
  0
ENDTAB
  0
TABLE
  2
STYLE
  5
3
100
AcDbSymbolTable
 70
     3
  0
STYLE
  5
10
100
AcDbSymbolTableRecord
100
AcDbTextStyleTableRecord
  2
STANDARD
 70
     0
 40
0.0
 41
0.8
 50
0.0
 71
     0
 42
32.0
  3
simplex
  4
extfont
  0
STYLE
  5
237C
100
AcDbSymbolTableRecord
100
AcDbTextStyleTableRecord
  2
PTSH
 70
     0
 40
0.0
 41
0.9
 50
0.0
 71
     0
 42
4.0
  3
SIMPLEX
  4
EXTFONT
  0
STYLE
  5
2592
100
AcDbSymbolTableRecord
100
AcDbTextStyleTableRecord
  2
DIM
 70
     0
 40
0.0
 41
0.8
 50
0.0
 71
     0
 42
4.0
  3
simplex
  4
extfont
  0
ENDTAB
  0
TABLE
  2
VIEW
  5
6
100
AcDbSymbolTable
 70
     0
  0
ENDTAB
  0
TABLE
  2
UCS
  5
7
100
AcDbSymbolTable
 70
     0
  0
ENDTAB
  0
TABLE
  2
APPID
  5
9
100
AcDbSymbolTable
 70
     1
  0
APPID
  5
11
100
AcDbSymbolTableRecord
100
AcDbRegAppTableRecord
  2
ACAD
 70
     0
  0
ENDTAB
  0
TABLE
  2
DIMSTYLE
  5
A
100
AcDbSymbolTable
 70
     1
  0
DIMSTYLE
105
2237
100
AcDbSymbolTableRecord
100
AcDbDimStyleTableRecord
  2
DIM1
 70
     0
  3
 
  4

  5

  6
_OPEN
  7
_OPEN
 40
8.0
 41
2.8
 42
1.0
 43
5.0
 44
1.0
 45
0.1
 46
0.0
 47
0.0
 48
0.0
140
2.5
141
0.0
142
0.0
143
1.0
144
1.0
145
0.0
146
0.7
147
0.85
 71
     0
 72
     0
 73
     0
 74
     0
 75
     0
 76
     0
 77
     3
 78
     8
170
     0
171
     2
172
     1
173
     1
174
     0
175
     0
176
     2
177
     2
178
     2
270
     2
271
     2
272
     3
273
     2
274
     3
340
2592
275
     0
280
     0
281
     0
282
     0
283
     1
284
     8
285
     8
286
     8
287
     0
288
     0
  0
ENDTAB
  0
TABLE
  2
BLOCK_RECORD
  5
1
100
AcDbSymbolTable
 70
     2
  0
BLOCK_RECORD
  5
18
100
AcDbSymbolTableRecord
100
AcDbBlockTableRecord
  2
*MODEL_SPACE
  0
BLOCK_RECORD
  5
15
100
AcDbSymbolTableRecord
100
AcDbBlockTableRecord
  2
*PAPER_SPACE
  0
BLOCK_RECORD
  5
2448
100
AcDbSymbolTableRecord
100
AcDbBlockTableRecord
  2
_OPEN
  0
BLOCK_RECORD
  5
5BA3
100
AcDbSymbolTableRecord
100
AcDbBlockTableRecord
  2
YA
  0
ENDTAB
  0
ENDSEC
  0
SECTION
  2
BLOCKS
  0
BLOCK
  5
3C
100
AcDbEntity
  8
0
100
AcDbBlockBegin
  2
*MODEL_SPACE
 70
     0
 10
0.0
 20
0.0
 30
0.0
  3
*MODEL_SPACE
  1

  0
ENDBLK
  5
3D
100
AcDbEntity
  8
0
100
AcDbBlockEnd
  0
BLOCK
  5
3A
100
AcDbEntity
 67
     1
  8
0
100
AcDbBlockBegin
  2
*PAPER_SPACE
 70
     0
 10
0.0
 20
0.0
 30
0.0
  3
*PAPER_SPACE
  1

  0
ENDBLK
  5
3B
100
AcDbEntity
 67
     1
  8
0
100
AcDbBlockEnd
  0
BLOCK
  5
2449
100
AcDbEntity
  8
0
 48
4.0
100
AcDbBlockBegin
  2
_OPEN
 70
     0
 10
0.0
 20
0.0
 30
0.0
  3
_OPEN
  1
H1111.DWG
  0
LINE
  5
244A
100
AcDbEntity
  8
0
  6
BYBLOCK
 62
     0
 48
4.0
100
AcDbLine
 10
-1.0
 20
0.166667
 30
0.0
 11
0.0
 21
0.0
 31
0.0
  0
LINE
  5
244B
100
AcDbEntity
  8
0
  6
BYBLOCK
 62
     0
 48
4.0
100
AcDbLine
 10
0.0
 20
0.0
 30
0.0
 11
-1.0
 21
-0.166667
 31
0.0
  0
LINE
  5
244C
100
AcDbEntity
  8
0
  6
BYBLOCK
 62
     0
 48
4.0
100
AcDbLine
 10
0.0
 20
0.0
 30
0.0
 11
-1.0
 21
0.0
 31
0.0
  0
ENDBLK
  5
244D
100
AcDbEntity
  8
0
 48
4.0
100
AcDbBlockEnd
  0
BLOCK
  5
5BAB
100
AcDbEntity
  8
0
100
AcDbBlockBegin
  2
YA
 70
     0
 10
0.0
 20
0.0
 30
0.0
  3
YA
  1

  0
LINE
  5
5BA4
100
AcDbEntity
  8
0
100
AcDbLine
 10
-16.8065
 20
2.801
 30
0.0
 11
-8.4035
 21
2.801
 31
0.0
  0
LINE
  5
5BA5
100
AcDbEntity
  8
0
100
AcDbLine
 10
-8.4035
 20
2.801
 30
0.0
 11
-7.0025
 21
1.4005
 31
0.0
  0
LINE
  5
5BA6
100
AcDbEntity
  8
0
100
AcDbLine
 10
-7.0025
 20
1.4005
 30
0.0
 11
-2.862
 21
1.4005
 31
0.0
  0
LINE
  5
5BA7
100
AcDbEntity
  8
0
100
AcDbLine
 10
-2.862
 20
1.4005
 30
0.0
 11
-2.862
 21
2.801
 31
0.0
  0
LINE
  5
5BA8
100
AcDbEntity
  8
0
100
AcDbLine
 10
-2.862
 20
2.801
 30
0.0
 11
0.0
 21
0.0
 31
0.0
  0
LINE
  5
5BA9
100
AcDbEntity
  8
0
100
AcDbLine
 10
0.0
 20
0.0
 30
0.0
 11
-14.0055
 21
0.0
 31
0.0
  0
LINE
  5
5BAA
100
AcDbEntity
  8
0
100
AcDbLine
 10
-14.0055
 20
0.0
 30
0.0
 11
-16.8065
 21
2.801
 31
0.0
  0
ENDBLK
  5
5BAC
100
AcDbEntity
  8
0
100
AcDbBlockEnd
  0
ENDSEC
  0
SECTION
  2
ENTITIES
  0
MTEXT
  5
ADA
100
AcDbEntity
  8
0
100
AcDbMText
 10
3041.114238
 20
398.770489
 30
0.0
 40
1.6
 41
377.811719
 71
     1
 72
     1
  1

  0
MTEXT
  5
ADB
100
AcDbEntity
  8
0
100
AcDbMText
 10
3112.399465
 20
462.80635
 30
0.0
 40
1.6
 41
363.554673
 71
     1
 72
     1
  1

  0
MTEXT
  5
ADC
100
AcDbEntity
  8
0
100
AcDbMText
 10
3069.628329
 20
-383.889971
 30
0.0
 40
1.6
 41
413.454332
 71
     1
 72
     1
  1

  0
TEXT
  5
2529
100
AcDbEntity
  8
0
  6
CONTINUOUS
100
AcDbText
 10
2127.657143
 20
56.0
 30
0.0
 40
24.0
  1
UFO3BN
 41
0.9
  7
PTSH
 72
     2
 11
2248.0
 21
68.0
 31
0.0
100
AcDbText
 73
     2
  0
POLYLINE
  5
2563
100
AcDbEntity
  8
0
100
AcDb2dPolyline
 66
     1
 10
0.0
 20
0.0
 30
0.0
 70
     1
  0
VERTEX
  5
6350
100
AcDbEntity
  8
0
100
AcDbVertex
100
AcDb2dVertex
 10
88.0
 20
40.0
 30
0.0
  0
VERTEX
  5
6351
100
AcDbEntity
  8
0
100
AcDbVertex
100
AcDb2dVertex
 10
2288.0
 20
40.0
 30
0.0
  0
VERTEX
  5
6352
100
AcDbEntity
  8
0
100
AcDbVertex
100
AcDb2dVertex
 10
2288.0
 20
1528.0
 30
0.0
  0
VERTEX
  5
6353
100
AcDbEntity
  8
0
100
AcDbVertex
100
AcDb2dVertex
 10
88.0
 20
1528.0
 30
0.0
  0
SEQEND
  5
6354
100
AcDbEntity
  8
0
  0
TEXT
  5
28A0
100
AcDbEntity
  8
0
100
AcDbText
 10
949.466667
 20
148.0
 30
0.0
 40
28.0
  1
TLV  UFO3FBN (JIS10K)
 72
     4
 11
1188.0
 21
160.0
 31
0.0
100
AcDbText
  0
TEXT
  5
4720
100
AcDbEntity
  8
0
100
AcDbText
 10
161.796833
 20
1091.568755
 30
0.0
 40
28.0
  1
正面
100
AcDbText
  0
TEXT
  5
487F
100
AcDbEntity
  8
0
100
AcDbText
 10
161.796833
 20
1238.895636
 30
0.0
 40
28.0
  1
平面
100
AcDbText
  0
TEXT
  5
4880
100
AcDbEntity
  8
0
100
AcDbText
 10
161.796833
 20
1402.538299
 30
0.0
 40
28.0
  1
背面
100
AcDbText
  0
TEXT
  5
4FE2
100
AcDbEntity
  8
0
100
AcDbText
 10
161.796833
 20
344.575321
 30
0.0
 40
28.0
  1
正面
100
AcDbText
  0
TEXT
  5
4FE3
100
AcDbEntity
  8
0
100
AcDbText
 10
161.796833
 20
518.572761
 30
0.0
 40
28.0
  1
平面
100
AcDbText
  0
TEXT
  5
4FE4
100
AcDbEntity
  8
0
100
AcDbText
 10
161.796833
 20
704.7184
 30
0.0
 40
28.0
  1
背面
100
AcDbText
  0
ARC
  5
53C2
100
AcDbEntity
  8
0
100
AcDbCircle
 10
580.302329
 20
1036.068755
 30
0.0
 40
10.0
100
AcDbArc
 50
200.0
 51
270.0
  0
LINE
  5
53C3
100
AcDbEntity
  8
0
100
AcDbLine
 10
563.234363
 20
1120.068755
 30
0.0
 11
646.234363
 21
1120.068755
 31
0.0
  0
LINE
  5
53C4
100
AcDbEntity
  8
0
100
AcDbLine
 10
561.734363
 20
1108.068755
 30
0.0
 11
647.734363
 21
1108.068755
 31
0.0
  0
LINE
  5
53C5
100
AcDbEntity
  8
0
100
AcDbLine
 10
567.234363
 20
1096.068755
 30
0.0
 11
642.234363
 21
1096.068755
 31
0.0
  0
LINE
  5
53C6
100
AcDbEntity
  8
0
100
AcDbLine
 10
570.141592
 20
1126.568755
 30
0.0
 11
582.759592
 21
1126.568755
 31
0.0
  0
LINE
  5
53C7
100
AcDbEntity
  8
0
100
AcDbLine
 10
582.234363
 20
1136.068755
 30
0.0
 11
569.837772
 21
1126.393368
 31
0.0
  0
ARC
  5
53C8
100
AcDbEntity
  8
0
100
AcDbCircle
 10
570.822092
 20
1122.874797
 30
0.0
 40
3.541047
100
AcDbArc
 50
57.999406
 51
122.000594
  0
LINE
  5
53C9
100
AcDbEntity
  8
0
100
AcDbLine
 10
555.398726
 20
1075.252796
 30
0.0
 11
570.905402
 21
1032.648554
 31
0.0
  0
LINE
  5
53CA
100
AcDbEntity
  8
0
100
AcDbLine
 10
567.234363
 20
1120.068755
 30
0.0
 11
567.234363
 21
1108.068755
 31
0.0
  0
LINE
  5
53CB
100
AcDbEntity
  8
0
100
AcDbLine
 10
561.734363
 20
1119.336696
 30
0.0
 11
561.734363
 21
1108.068755
 31
0.0
  0
LINE
  5
53CC
100
AcDbEntity
  8
0
100
AcDbLine
 10
552.734363
 20
1091.568755
 30
0.0
 11
552.734363
 21
1076.568755
 31
0.0
  0
ARC
  5
53CD
100
AcDbEntity
  8
0
100
AcDbCircle
 10
553.519341
 20
1074.568755
 30
0.0
 40
2.0
100
AcDbArc
 50
20.0
 51
90.0
  0
LINE
  5
53CE
100
AcDbEntity
  8
0
100
AcDbLine
 10
552.734363
 20
1076.568755
 30
0.0
 11
553.519341
 21
1076.568755
 31
0.0
  0
LINE
  5
53CF
100
AcDbEntity
  8
0
100
AcDbLine
 10
552.734363
 20
1106.568755
 30
0.0
 11
552.734363
 21
1091.568755
 31
0.0
  0
LINE
  5
53D0
100
AcDbEntity
  8
0
100
AcDbLine
 10
567.234363
 20
1108.068755
 30
0.0
 11
567.234363
 21
1096.068755
 31
0.0
  0
LINE
  5
53D1
100
AcDbEntity
  8
0
100
AcDbLine
 10
552.734363
 20
1106.568755
 30
0.0
 11
567.234363
 21
1106.568755
 31
0.0
  0
LINE
  5
53D2
100
AcDbEntity
  8
0
100
AcDbLine
 10
561.734363
 20
1108.068755
 30
0.0
 11
561.734363
 21
1106.568755
 31
0.0
  0
ARC
  5
53D3
100
AcDbEntity
  8
0
100
AcDbCircle
 10
563.234363
 20
1118.568755
 30
0.0
 40
1.5
100
AcDbArc
 50
90.0
 51
180.0
  0
LINE
  5
53D4
100
AcDbEntity
  8
0
100
AcDbLine
 10
568.944592
 20
1120.068755
 30
0.0
 11
568.944592
 21
1125.877755
 31
0.0
  0
LINE
  5
53D5
100
AcDbEntity
  8
0
100
AcDbLine
 10
568.944592
 20
1125.696251
 30
0.0
 11
562.311457
 21
1120.51917
 31
0.0
  0
ARC
  5
53D6
100
AcDbEntity
  8
0
100
AcDbCircle
 10
563.234363
 20
1119.336696
 30
0.0
 40
1.5
100
AcDbArc
 50
127.971604
 51
180.0
  0
LINE
  5
53D7
100
AcDbEntity
  8
0
100
AcDbLine
 10
568.944592
 20
1125.877755
 30
0.0
 11
570.141592
 21
1126.568755
 31
0.0
  0
LINE
  5
53D8
100
AcDbEntity
  8
0
100
AcDbLine
 10
634.734363
 20
1048.568755
 30
0.0
 11
634.734363
 21
1027.568755
 31
0.0
  0
LINE
  5
53D9
100
AcDbEntity
  8
0
100
AcDbLine
 10
640.734363
 20
1048.568755
 30
0.0
 11
640.734363
 21
1027.568755
 31
0.0
  0
LINE
  5
53DA
100
AcDbEntity
  8
0
100
AcDbLine
 10
640.734363
 20
1048.568755
 30
0.0
 11
640.734363
 21
1027.568755
 31
0.0
  0
LINE
  5
53DB
100
AcDbEntity
  8
0
100
AcDbLine
 10
634.734363
 20
1050.068755
 30
0.0
 11
634.734363
 21
1026.068755
 31
0.0
  0
ARC
  5
53DC
100
AcDbEntity
  8
0
100
AcDbCircle
 10
628.552272
 20
1038.068755
 30
0.0
 40
12.182091
100
AcDbArc
 50
340.179294
 51
19.820706
  0
ARC
  5
53DD
100
AcDbEntity
  8
0
100
AcDbCircle
 10
628.552272
 20
1038.068755
 30
0.0
 40
12.182091
100
AcDbArc
 50
340.179294
 51
19.820706
  0
ARC
  5
53DE
100
AcDbEntity
  8
0
100
AcDbCircle
 10
646.916454
 20
1038.068755
 30
0.0
 40
12.182091
100
AcDbArc
 50
160.179294
 51
199.820706
  0
ARC
  5
53DF
100
AcDbEntity
  8
0
100
AcDbCircle
 10
646.916454
 20
1038.068755
 30
0.0
 40
12.182091
100
AcDbArc
 50
160.179294
 51
199.820706
  0
LINE
  5
53E0
100
AcDbEntity
  8
0
100
AcDbLine
 10
580.302329
 20
1026.068755
 30
0.0
 11
634.734363
 21
1026.068755
 31
0.0
  0
ARC
  5
53E1
100
AcDbEntity
  8
0
100
AcDbCircle
 10
637.187233
 20
1028.463285
 30
0.0
 40
3.54713
100
AcDbArc
 50
337.198744
 51
37.198744
  0
ARC
  5
53E2
100
AcDbEntity
  8
0
100
AcDbCircle
 10
638.281493
 20
1028.463285
 30
0.0
 40
3.54713
100
AcDbArc
 50
142.801256
 51
202.801256
  0
LINE
  5
53E3
100
AcDbEntity
  8
0
100
AcDbLine
 10
640.012675
 20
1026.318755
 30
0.0
 11
640.734363
 21
1027.568755
 31
0.0
  0
LINE
  5
53E4
100
AcDbEntity
  8
0
100
AcDbLine
 10
635.456051
 20
1026.318755
 30
0.0
 11
634.734363
 21
1027.568755
 31
0.0
  0
LINE
  5
53E5
100
AcDbEntity
  8
0
100
AcDbLine
 10
635.456051
 20
1026.318755
 30
0.0
 11
640.012675
 21
1026.318755
 31
0.0
  0
LINE
  5
53E6
100
AcDbEntity
  8
0
100
AcDbLine
 10
640.012675
 20
1030.607815
 30
0.0
 11
640.012675
 21
1033.938077
 31
0.0
  0
LINE
  5
53E7
100
AcDbEntity
  8
0
100
AcDbLine
 10
635.456051
 20
1030.607815
 30
0.0
 11
635.456051
 21
1033.938077
 31
0.0
  0
LINE
  5
53E8
100
AcDbEntity
  8
0
100
AcDbLine
 10
635.456051
 20
1033.938077
 30
0.0
 11
640.012675
 21
1033.938077
 31
0.0
  0
LINE
  5
53E9
100
AcDbEntity
  8
0
100
AcDbLine
 10
635.456051
 20
1030.607815
 30
0.0
 11
640.012675
 21
1030.607815
 31
0.0
  0
LINE
  5
53EA
100
AcDbEntity
  8
0
100
AcDbLine
 10
642.234363
 20
1120.068755
 30
0.0
 11
642.234363
 21
1108.068755
 31
0.0
  0
LINE
  5
53EB
100
AcDbEntity
  8
0
100
AcDbLine
 10
647.734363
 20
1118.784203
 30
0.0
 11
647.734363
 21
1108.068755
 31
0.0
  0
ARC
  5
53EC
100
AcDbEntity
  8
0
100
AcDbCircle
 10
641.734363
 20
1074.568755
 30
0.0
 40
2.0
100
AcDbArc
 50
90.0
 51
180.0
  0
LINE
  5
53ED
100
AcDbEntity
  8
0
100
AcDbLine
 10
639.734363
 20
1072.714881
 30
0.0
 11
639.734363
 21
1096.068755
 31
0.0
  0
ARC
  5
53EE
100
AcDbEntity
  8
0
100
AcDbCircle
 10
583.234363
 20
1073.332025
 30
0.0
 40
10.0
100
AcDbArc
 50
180.0
 51
200.0
  0
LINE
  5
53EF
100
AcDbEntity
  8
0
100
AcDbLine
 10
588.061798
 20
1050.068755
 30
0.0
 11
634.734363
 21
1050.068755
 31
0.0
  0
LINE
  5
53F0
100
AcDbEntity
  8
0
100
AcDbLine
 10
576.247011
 20
1071.568755
 30
0.0
 11
637.348599
 21
1071.568755
 31
0.0
  0
ARC
  5
53F1
100
AcDbEntity
  8
0
100
AcDbCircle
 10
588.061798
 20
1060.068755
 30
0.0
 40
10.0
100
AcDbArc
 50
200.0
 51
270.0
  0
LINE
  5
53F2
100
AcDbEntity
  8
0
100
AcDbLine
 10
573.837437
 20
1069.911824
 30
0.0
 11
578.664872
 21
1056.648554
 31
0.0
  0
LINE
  5
53F3
100
AcDbEntity
  8
0
100
AcDbLine
 10
639.131289
 20
1069.294679
 30
0.0
 11
632.133625
 21
1050.068755
 31
0.0
  0
LINE
  5
53F4
100
AcDbEntity
  8
0
100
AcDbLine
 10
640.012675
 20
1042.199433
 30
0.0
 11
640.012675
 21
1045.529696
 31
0.0
  0
LINE
  5
53F5
100
AcDbEntity
  8
0
100
AcDbLine
 10
635.456051
 20
1042.199433
 30
0.0
 11
635.456051
 21
1045.529696
 31
0.0
  0
LINE
  5
53F6
100
AcDbEntity
  8
0
100
AcDbLine
 10
635.456051
 20
1042.199433
 30
0.0
 11
640.012675
 21
1042.199433
 31
0.0
  0
LINE
  5
53F7
100
AcDbEntity
  8
0
100
AcDbLine
 10
640.012675
 20
1049.818755
 30
0.0
 11
640.734363
 21
1048.568755
 31
0.0
  0
ARC
  5
53F8
100
AcDbEntity
  8
0
100
AcDbCircle
 10
637.187233
 20
1047.674226
 30
0.0
 40
3.54713
100
AcDbArc
 50
322.801256
 51
22.801256
  0
LINE
  5
53F9
100
AcDbEntity
  8
0
100
AcDbLine
 10
635.456051
 20
1049.818755
 30
0.0
 11
634.734363
 21
1048.568755
 31
0.0
  0
ARC
  5
53FA
100
AcDbEntity
  8
0
100
AcDbCircle
 10
638.281493
 20
1047.674226
 30
0.0
 40
3.54713
100
AcDbArc
 50
157.198744
 51
217.198744
  0
LINE
  5
53FB
100
AcDbEntity
  8
0
100
AcDbLine
 10
635.456051
 20
1049.818755
 30
0.0
 11
640.012675
 21
1049.818755
 31
0.0
  0
LINE
  5
53FC
100
AcDbEntity
  8
0
100
AcDbLine
 10
635.456051
 20
1045.529696
 30
0.0
 11
640.012675
 21
1045.529696
 31
0.0
  0
ARC
  5
53FD
100
AcDbEntity
  8
0
100
AcDbCircle
 10
629.734363
 20
1072.714881
 30
0.0
 40
10.0
100
AcDbArc
 50
340.0
 51
360.0
  0
LINE
  5
53FE
100
AcDbEntity
  8
0
100
AcDbLine
 10
573.234363
 20
1073.332025
 30
0.0
 11
573.234363
 21
1096.068755
 31
0.0
  0
LINE
  5
53FF
100
AcDbEntity
  8
0
100
AcDbLine
 10
655.734363
 20
1091.568755
 30
0.0
 11
655.734363
 21
1076.568755
 31
0.0
  0
LINE
  5
5400
100
AcDbEntity
  8
0
100
AcDbLine
 10
641.734363
 20
1076.568755
 30
0.0
 11
655.734363
 21
1076.568755
 31
0.0
  0
LINE
  5
5401
100
AcDbEntity
  8
0
100
AcDbLine
 10
655.734363
 20
1106.568755
 30
0.0
 11
655.734363
 21
1091.568755
 31
0.0
  0
LINE
  5
5402
100
AcDbEntity
  8
0
100
AcDbLine
 10
642.234363
 20
1108.068755
 30
0.0
 11
642.234363
 21
1096.068755
 31
0.0
  0
LINE
  5
5403
100
AcDbEntity
  8
0
100
AcDbLine
 10
642.234363
 20
1106.568755
 30
0.0
 11
655.734363
 21
1106.568755
 31
0.0
  0
LINE
  5
5404
100
AcDbEntity
  8
0
100
AcDbLine
 10
647.734363
 20
1108.068755
 30
0.0
 11
647.734363
 21
1106.568755
 31
0.0
  0
LINE
  5
5405
100
AcDbEntity
  8
0
100
AcDbLine
 10
636.659255
 20
1136.068755
 30
0.0
 11
644.332343
 21
1128.395667
 31
0.0
  0
LINE
  5
5406
100
AcDbEntity
  8
0
100
AcDbLine
 10
582.234363
 20
1136.068755
 30
0.0
 11
636.659255
 21
1136.068755
 31
0.0
  0
ARC
  5
5407
100
AcDbEntity
  8
0
100
AcDbCircle
 10
576.450592
 20
1113.063276
 30
0.0
 40
13.352467
100
AcDbArc
 50
73.680297
 51
106.319703
  0
LINE
  5
5408
100
AcDbEntity
  8
0
100
AcDbLine
 10
582.234363
 20
1136.068755
 30
0.0
 11
578.968738
 21
1126.568755
 31
0.0
  0
LINE
  5
5409
100
AcDbEntity
  8
0
100
AcDbLine
 10
572.698592
 20
1125.877755
 30
0.0
 11
572.698592
 21
1120.068755
 31
0.0
  0
LINE
  5
540A
100
AcDbEntity
  8
0
100
AcDbLine
 10
583.955592
 20
1125.877755
 30
0.0
 11
583.955592
 21
1120.068755
 31
0.0
  0
LINE
  5
540B
100
AcDbEntity
  8
0
100
AcDbLine
 10
580.202592
 20
1125.877755
 30
0.0
 11
580.202592
 21
1120.068755
 31
0.0
  0
LINE
  5
540C
100
AcDbEntity
  8
0
100
AcDbLine
 10
582.759592
 20
1126.568755
 30
0.0
 11
583.955592
 21
1125.877755
 31
0.0
  0
ARC
  5
540D
100
AcDbEntity
  8
0
100
AcDbCircle
 10
582.079092
 20
1122.874797
 30
0.0
 40
3.541047
100
AcDbArc
 50
57.999406
 51
122.000594
  0
LINE
  5
540E
100
AcDbEntity
  8
0
100
AcDbLine
 10
627.234363
 20
1136.068755
 30
0.0
 11
630.499988
 21
1126.568755
 31
0.0
  0
LINE
  5
540F
100
AcDbEntity
  8
0
100
AcDbLine
 10
640.524134
 20
1120.068755
 30
0.0
 11
640.524134
 21
1125.877755
 31
0.0
  0
LINE
  5
5410
100
AcDbEntity
  8
0
100
AcDbLine
 10
636.770134
 20
1125.877755
 30
0.0
 11
636.770134
 21
1120.068755
 31
0.0
  0
LINE
  5
5411
100
AcDbEntity
  8
0
100
AcDbLine
 10
629.266134
 20
1125.877755
 30
0.0
 11
629.266134
 21
1120.068755
 31
0.0
  0
LINE
  5
5412
100
AcDbEntity
  8
0
100
AcDbLine
 10
625.513134
 20
1125.877755
 30
0.0
 11
625.513134
 21
1120.068755
 31
0.0
  0
LINE
  5
5413
100
AcDbEntity
  8
0
100
AcDbLine
 10
640.524134
 20
1125.877755
 30
0.0
 11
639.327134
 21
1126.568755
 31
0.0
  0
ARC
  5
5414
100
AcDbEntity
  8
0
100
AcDbCircle
 10
638.646634
 20
1122.874797
 30
0.0
 40
3.541047
100
AcDbArc
 50
57.999406
 51
122.000594
  0
ARC
  5
5415
100
AcDbEntity
  8
0
100
AcDbCircle
 10
633.018134
 20
1113.063276
 30
0.0
 40
13.352467
100
AcDbArc
 50
73.680297
 51
106.319703
  0
LINE
  5
5416
100
AcDbEntity
  8
0
100
AcDbLine
 10
639.327134
 20
1126.568755
 30
0.0
 11
626.709134
 21
1126.568755
 31
0.0
  0
LINE
  5
5417
100
AcDbEntity
  8
0
100
AcDbLine
 10
626.709134
 20
1126.568755
 30
0.0
 11
625.513134
 21
1125.877755
 31
0.0
  0
ARC
  5
5418
100
AcDbEntity
  8
0
100
AcDbCircle
 10
627.389634
 20
1122.874797
 30
0.0
 40
3.541047
100
AcDbArc
 50
57.999406
 51
122.000594
  0
ARC
  5
5419
100
AcDbEntity
  8
0
100
AcDbCircle
 10
646.234363
 20
1118.784203
 30
0.0
 40
1.5
100
AcDbArc
 50
0.0
 51
20.0
  0
ARC
  5
541A
100
AcDbEntity
  8
0
100
AcDbCircle
 10
646.234363
 20
1118.568755
 30
0.0
 40
1.5
100
AcDbArc
 50
0.0
 51
90.0
  0
LINE
  5
541B
100
AcDbEntity
  8
0
100
AcDbLine
 10
644.332343
 20
1128.395667
 30
0.0
 11
647.643902
 21
1119.297233
 31
0.0
  0
CIRCLE
  5
541C
100
AcDbEntity
  8
0
100
AcDbCircle
 10
753.373782
 20
1091.568755
 30
0.0
 40
15.0
  0
LINE
  5
541D
100
AcDbEntity
  8
0
100
AcDbLine
 10
715.873782
 20
1108.068755
 30
0.0
 11
790.873782
 21
1108.068755
 31
0.0
  0
LINE
  5
541E
100
AcDbEntity
  8
0
100
AcDbLine
 10
715.873782
 20
1096.068755
 30
0.0
 11
736.55861
 21
1096.068755
 31
0.0
  0
LINE
  5
541F
100
AcDbEntity
  8
0
100
AcDbLine
 10
715.873782
 20
1096.068755
 30
0.0
 11
715.873782
 21
1120.068755
 31
0.0
  0
LINE
  5
5420
100
AcDbEntity
  8
0
100
AcDbLine
 10
790.873782
 20
1096.068755
 30
0.0
 11
790.873782
 21
1120.068755
 31
0.0
  0
LINE
  5
5421
100
AcDbEntity
  8
0
100
AcDbLine
 10
720.873782
 20
1074.092173
 30
0.0
 11
720.873782
 21
1096.068755
 31
0.0
  0
LINE
  5
5423
100
AcDbEntity
  8
0
100
AcDbLine
 10
737.209147
 20
1046.068755
 30
0.0
 11
740.724671
 21
1046.068755
 31
0.0
  0
LINE
  5
542C
100
AcDbEntity
  8
0
100
AcDbLine
 10
724.88643
 20
1071.568755
 30
0.0
 11
781.861134
 21
1071.568755
 31
0.0
  0
LINE
  5
542E
100
AcDbEntity
  8
0
100
AcDbLine
 10
721.687932
 20
1069.474901
 30
0.0
 11
727.812221
 21
1052.648554
 31
0.0
  0
ARC
  5
542F
100
AcDbEntity
  8
0
100
AcDbCircle
 10
737.209147
 20
1056.068755
 30
0.0
 40
10.0
100
AcDbArc
 50
200.0
 51
270.0
  0
ARC
  5
5430
100
AcDbEntity
  8
0
100
AcDbCircle
 10
734.373782
 20
1074.092173
 30
0.0
 40
13.5
100
AcDbArc
 50
180.0
 51
200.0
  0
LINE
  5
5434
100
AcDbEntity
  8
0
100
AcDbLine
 10
747.707115
 20
1026.068755
 30
0.0
 11
759.040449
 21
1026.068755
 31
0.0
  0
LINE
  5
5437
100
AcDbEntity
  8
0
100
AcDbLine
 10
745.860961
 20
1027.299525
 30
0.0
 11
743.904998
 21
1031.993838
 31
0.0
  0
ARC
  5
5438
100
AcDbEntity
  8
0
100
AcDbCircle
 10
753.373782
 20
1038.068755
 30
0.0
 40
12.0
100
AcDbArc
 50
0.0
 51
180.0
  0
ARC
  5
5439
100
AcDbEntity
  8
0
100
AcDbCircle
 10
740.724671
 20
1044.068755
 30
0.0
 40
2.0
100
AcDbArc
 50
334.623066
 51
90.0
  0
ARC
  5
543A
100
AcDbEntity
  8
0
100
AcDbCircle
 10
747.707115
 20
1028.068755
 30
0.0
 40
2.0
100
AcDbArc
 50
202.619865
 51
270.0
  0
LINE
  5
543B
100
AcDbEntity
  8
0
100
AcDbLine
 10
715.873782
 20
1120.068755
 30
0.0
 11
740.873782
 21
1120.068755
 31
0.0
  0
LINE
  5
543C
100
AcDbEntity
  8
0
100
AcDbLine
 10
730.873782
 20
1136.068755
 30
0.0
 11
775.873782
 21
1136.068755
 31
0.0
  0
LINE
  5
543D
100
AcDbEntity
  8
0
100
AcDbLine
 10
740.873782
 20
1099.860317
 30
0.0
 11
740.873782
 21
1136.068755
 31
0.0
  0
LINE
  5
5441
100
AcDbEntity
  8
0
100
AcDbLine
 10
730.873782
 20
1136.068755
 30
0.0
 11
727.608157
 21
1126.568755
 31
0.0
  0
ELLIPSE
  5
5444
100
AcDbEntity
  8
0
100
AcDbEllipse
 10
753.373782
 20
1132.232211
 30
0.0
 11
-5.0
 21
0.0
 31
0.0
210
0.0
220
0.0
230
1.0
 40
0.767309
 41
0.0
 42
6.283185307179586
  0
LINE
  5
5445
100
AcDbEntity
  8
0
100
AcDbLine
 10
770.188954
 20
1096.068755
 30
0.0
 11
790.873782
 21
1096.068755
 31
0.0
  0
CIRCLE
  5
5447
100
AcDbEntity
  8
0
100
AcDbCircle
 10
576.450092
 20
1212.420308
 30
0.0
 40
6.30876
  0
ARC
  5
5448
100
AcDbEntity
  8
0
100
AcDbCircle
 10
576.450092
 20
1212.420308
 30
0.0
 40
9.215729
100
AcDbArc
 50
180.0
 51
270.0
  0
LINE
  5
5449
100
AcDbEntity
  8
0
100
AcDbLine
 10
576.450092
 20
1204.914308
 30
0.0
 11
569.950092
 21
1208.667308
 31
0.0
  0
LINE
  5
544A
100
AcDbEntity
  8
0
100
AcDbLine
 10
568.734363
 20
1228.204579
 30
0.0
 11
586.026076
 21
1228.204579
 31
0.0
  0
LINE
  5
544B
100
AcDbEntity
  8
0
100
AcDbLine
 10
569.950092
 20
1216.173308
 30
0.0
 11
576.450092
 21
1219.926308
 31
0.0
  0
CIRCLE
  5
544C
100
AcDbEntity
  8
0
100
AcDbCircle
 10
576.450092
 20
1268.98885
 30
0.0
 40
6.30876
  0
ARC
  5
544D
100
AcDbEntity
  8
0
100
AcDbCircle
 10
576.450092
 20
1268.98885
 30
0.0
 40
9.215729
100
AcDbArc
 50
90.0
 51
180.0
  0
LINE
  5
544E
100
AcDbEntity
  8
0
100
AcDbLine
 10
568.944092
 20
1268.98885
 30
0.0
 11
572.697092
 21
1275.48885
 31
0.0
  0
LINE
  5
544F
100
AcDbEntity
  8
0
100
AcDbLine
 10
568.734363
 20
1253.204579
 30
0.0
 11
586.026076
 21
1253.204579
 31
0.0
  0
LINE
  5
5450
100
AcDbEntity
  8
0
100
AcDbLine
 10
572.697092
 20
1262.48885
 30
0.0
 11
568.944092
 21
1268.98885
 31
0.0
  0
LINE
  5
5451
100
AcDbEntity
  8
0
100
AcDbLine
 10
567.234363
 20
1226.913017
 30
0.0
 11
567.234363
 21
1212.420308
 31
0.0
  0
LINE
  5
5452
100
AcDbEntity
  8
0
100
AcDbLine
 10
552.734363
 20
1240.704579
 30
0.0
 11
552.734363
 21
1225.704579
 31
0.0
  0
LINE
  5
5453
100
AcDbEntity
  8
0
100
AcDbLine
 10
569.950092
 20
1208.667308
 30
0.0
 11
569.950092
 21
1216.173308
 31
0.0
  0
LINE
  5
5454
100
AcDbEntity
  8
0
100
AcDbLine
 10
552.734363
 20
1225.704579
 30
0.0
 11
567.234363
 21
1225.704579
 31
0.0
  0
LINE
  5
5455
100
AcDbEntity
  8
0
100
AcDbLine
 10
567.234363
 20
1268.98885
 30
0.0
 11
567.234363
 21
1254.496141
 31
0.0
  0
LINE
  5
5456
100
AcDbEntity
  8
0
100
AcDbLine
 10
552.734363
 20
1255.704579
 30
0.0
 11
552.734363
 21
1240.704579
 31
0.0
  0
LINE
  5
5457
100
AcDbEntity
  8
0
100
AcDbLine
 10
561.734363
 20
1235.204579
 30
0.0
 11
561.734363
 21
1246.204579
 31
0.0
  0
ARC
  5
5458
100
AcDbEntity
  8
0
100
AcDbCircle
 10
568.734363
 20
1235.204579
 30
0.0
 40
7.0
100
AcDbArc
 50
180.0
 51
270.0
  0
ARC
  5
5459
100
AcDbEntity
  8
0
100
AcDbCircle
 10
565.234363
 20
1226.913017
 30
0.0
 40
2.0
100
AcDbArc
 50
0.0
 51
67.11462
  0
LINE
  5
545A
100
AcDbEntity
  8
0
100
AcDbLine
 10
552.734363
 20
1255.704579
 30
0.0
 11
567.234363
 21
1255.704579
 31
0.0
  0
ARC
  5
545B
100
AcDbEntity
  8
0
100
AcDbCircle
 10
568.734363
 20
1246.204579
 30
0.0
 40
7.0
100
AcDbArc
 50
90.0
 51
180.0
  0
ARC
  5
545C
100
AcDbEntity
  8
0
100
AcDbCircle
 10
565.234363
 20
1254.496141
 30
0.0
 40
2.0
100
AcDbArc
 50
292.88538
 51
0.0
  0
CIRCLE
  5
545D
100
AcDbEntity
  8
0
100
AcDbCircle
 10
604.734363
 20
1240.704579
 30
0.0
 40
20.25
  0
CIRCLE
  5
545E
100
AcDbEntity
  8
0
100
AcDbCircle
 10
604.734363
 20
1240.704579
 30
0.0
 40
22.5
  0
ARC
  5
545F
100
AcDbEntity
  8
0
100
AcDbCircle
 10
604.734363
 20
1240.704579
 30
0.0
 40
28.0
100
AcDbArc
 50
206.514775
 51
333.485225
  0
LINE
  5
5460
100
AcDbEntity
  8
0
100
AcDbLine
 10
642.234363
 20
1226.913017
 30
0.0
 11
642.234363
 21
1212.420308
 31
0.0
  0
LINE
  5
5461
100
AcDbEntity
  8
0
100
AcDbLine
 10
655.734363
 20
1240.704579
 30
0.0
 11
655.734363
 21
1225.704579
 31
0.0
  0
ARC
  5
5462
100
AcDbEntity
  8
0
100
AcDbCircle
 10
633.018634
 20
1212.420308
 30
0.0
 40
9.215729
100
AcDbArc
 50
270.0
 51
0.0
  0
LINE
  5
5463
100
AcDbEntity
  8
0
100
AcDbLine
 10
576.450092
 20
1203.204579
 30
0.0
 11
633.018634
 21
1203.204579
 31
0.0
  0
LINE
  5
5464
100
AcDbEntity
  8
0
100
AcDbLine
 10
582.950092
 20
1216.173308
 30
0.0
 11
582.950092
 21
1208.667308
 31
0.0
  0
LINE
  5
5465
100
AcDbEntity
  8
0
100
AcDbLine
 10
582.950092
 20
1208.667308
 30
0.0
 11
576.450092
 21
1204.914308
 31
0.0
  0
LINE
  5
5466
100
AcDbEntity
  8
0
100
AcDbLine
 10
576.450092
 20
1219.926308
 30
0.0
 11
582.950092
 21
1216.173308
 31
0.0
  0
CIRCLE
  5
5467
100
AcDbEntity
  8
0
100
AcDbCircle
 10
633.018634
 20
1212.420308
 30
0.0
 40
6.30876
  0
LINE
  5
5468
100
AcDbEntity
  8
0
100
AcDbLine
 10
640.524634
 20
1212.420308
 30
0.0
 11
636.771634
 21
1205.920308
 31
0.0
  0
LINE
  5
5469
100
AcDbEntity
  8
0
100
AcDbLine
 10
629.265634
 20
1205.920308
 30
0.0
 11
625.512634
 21
1212.420308
 31
0.0
  0
LINE
  5
546A
100
AcDbEntity
  8
0
100
AcDbLine
 10
636.771634
 20
1205.920308
 30
0.0
 11
629.265634
 21
1205.920308
 31
0.0
  0
LINE
  5
546B
100
AcDbEntity
  8
0
100
AcDbLine
 10
636.771634
 20
1218.920308
 30
0.0
 11
640.524634
 21
1212.420308
 31
0.0
  0
LINE
  5
546C
100
AcDbEntity
  8
0
100
AcDbLine
 10
625.512634
 20
1212.420308
 30
0.0
 11
629.265634
 21
1218.920308
 31
0.0
  0
LINE
  5
546D
100
AcDbEntity
  8
0
100
AcDbLine
 10
629.265634
 20
1218.920308
 30
0.0
 11
636.771634
 21
1218.920308
 31
0.0
  0
LINE
  5
546E
100
AcDbEntity
  8
0
100
AcDbLine
 10
642.234363
 20
1225.704579
 30
0.0
 11
655.734363
 21
1225.704579
 31
0.0
  0
POLYLINE
  5
546F
100
AcDbEntity
  8
0
100
AcDb2dPolyline
 66
     1
 10
0.0
 20
0.0
 30
0.0
 70
     1
  0
VERTEX
  5
6355
100
AcDbEntity
  8
0
100
AcDbVertex
100
AcDb2dVertex
 10
636.659255
 20
1240.704579
 30
0.0
 42
0.077085
  0
VERTEX
  5
6356
100
AcDbEntity
  8
0
100
AcDbVertex
100
AcDb2dVertex
 10
636.964397
 20
1238.737091
 30
0.0
 42
0.086906
  0
VERTEX
  5
6357
100
AcDbEntity
  8
0
100
AcDbVertex
100
AcDb2dVertex
 10
637.782952
 20
1237.169045
 30
0.0
 42
0.105719
  0
VERTEX
  5
6358
100
AcDbEntity
  8
0
100
AcDbVertex
100
AcDb2dVertex
 10
639.082732
 20
1236.061633
 30
0.0
 42
0.124385
  0
VERTEX
  5
6359
100
AcDbEntity
  8
0
100
AcDbVertex
100
AcDb2dVertex
 10
640.495799
 20
1235.704579
 30
0.0
 42
0.124385
  0
VERTEX
  5
635A
100
AcDbEntity
  8
0
100
AcDbVertex
100
AcDb2dVertex
 10
641.908865
 20
1236.061633
 30
0.0
 42
0.105719
  0
VERTEX
  5
635B
100
AcDbEntity
  8
0
100
AcDbVertex
100
AcDb2dVertex
 10
643.208645
 20
1237.169045
 30
0.0
 42
0.086906
  0
VERTEX
  5
635C
100
AcDbEntity
  8
0
100
AcDbVertex
100
AcDb2dVertex
 10
644.0272
 20
1238.737091
 30
0.0
 42
0.077085
  0
VERTEX
  5
635D
100
AcDbEntity
  8
0
100
AcDbVertex
100
AcDb2dVertex
 10
644.332343
 20
1240.704579
 30
0.0
 42
0.077085
  0
VERTEX
  5
635E
100
AcDbEntity
  8
0
100
AcDbVertex
100
AcDb2dVertex
 10
644.0272
 20
1242.672067
 30
0.0
 42
0.086906
  0
VERTEX
  5
635F
100
AcDbEntity
  8
0
100
AcDbVertex
100
AcDb2dVertex
 10
643.208645
 20
1244.240113
 30
0.0
 42
0.105719
  0
VERTEX
  5
6360
100
AcDbEntity
  8
0
100
AcDbVertex
100
AcDb2dVertex
 10
641.908865
 20
1245.347525
 30
0.0
 42
0.124385
  0
VERTEX
  5
6361
100
AcDbEntity
  8
0
100
AcDbVertex
100
AcDb2dVertex
 10
640.495799
 20
1245.704579
 30
0.0
 42
0.124385
  0
VERTEX
  5
6362
100
AcDbEntity
  8
0
100
AcDbVertex
100
AcDb2dVertex
 10
639.082732
 20
1245.347525
 30
0.0
 42
0.105719
  0
VERTEX
  5
6363
100
AcDbEntity
  8
0
100
AcDbVertex
100
AcDb2dVertex
 10
637.782952
 20
1244.240113
 30
0.0
 42
0.086906
  0
VERTEX
  5
6364
100
AcDbEntity
  8
0
100
AcDbVertex
100
AcDb2dVertex
 10
636.964397
 20
1242.672067
 30
0.0
 42
0.077085
  0
SEQEND
  5
6365
100
AcDbEntity
  8
0
  0
ARC
  5
5470
100
AcDbEntity
  8
0
100
AcDbCircle
 10
640.734363
 20
1235.204579
 30
0.0
 40
7.0
100
AcDbArc
 50
270.0
 51
0.0
  0
ARC
  5
5471
100
AcDbEntity
  8
0
100
AcDbCircle
 10
633.018634
 20
1268.98885
 30
0.0
 40
9.215729
100
AcDbArc
 50
0.0
 51
90.0
  0
ARC
  5
5472
100
AcDbEntity
  8
0
100
AcDbCircle
 10
640.734363
 20
1246.204579
 30
0.0
 40
7.0
100
AcDbArc
 50
0.0
 51
90.0
  0
ARC
  5
5473
100
AcDbEntity
  8
0
100
AcDbCircle
 10
604.734363
 20
1240.704579
 30
0.0
 40
28.0
100
AcDbArc
 50
26.514775
 51
153.485225
  0
LINE
  5
5474
100
AcDbEntity
  8
0
100
AcDbLine
 10
583.956092
 20
1268.98885
 30
0.0
 11
580.203092
 21
1262.48885
 31
0.0
  0
CIRCLE
  5
5475
100
AcDbEntity
  8
0
100
AcDbCircle
 10
633.018634
 20
1268.98885
 30
0.0
 40
6.30876
  0
LINE
  5
5476
100
AcDbEntity
  8
0
100
AcDbLine
 10
639.518634
 20
1265.23585
 30
0.0
 11
633.018634
 21
1261.48285
 31
0.0
  0
LINE
  5
5477
100
AcDbEntity
  8
0
100
AcDbLine
 10
633.018634
 20
1261.48285
 30
0.0
 11
626.518634
 21
1265.23585
 31
0.0
  0
LINE
  5
5478
100
AcDbEntity
  8
0
100
AcDbLine
 10
580.203092
 20
1262.48885
 30
0.0
 11
572.697092
 21
1262.48885
 31
0.0
  0
LINE
  5
5479
100
AcDbEntity
  8
0
100
AcDbLine
 10
623.44265
 20
1228.204579
 30
0.0
 11
640.734363
 21
1228.204579
 31
0.0
  0
ARC
  5
547A
100
AcDbEntity
  8
0
100
AcDbCircle
 10
639.231919
 20
1233.704579
 30
0.0
 40
2.0
100
AcDbArc
 50
90.0
 51
180.0
  0
LINE
  5
547B
100
AcDbEntity
  8
0
100
AcDbLine
 10
639.231919
 20
1235.704579
 30
0.0
 11
640.495799
 21
1235.704579
 31
0.0
  0
LINE
  5
547C
100
AcDbEntity
  8
0
100
AcDbLine
 10
623.44265
 20
1253.204579
 30
0.0
 11
640.734363
 21
1253.204579
 31
0.0
  0
LINE
  5
547D
100
AcDbEntity
  8
0
100
AcDbLine
 10
639.231919
 20
1245.704579
 30
0.0
 11
640.495799
 21
1245.704579
 31
0.0
  0
ARC
  5
547E
100
AcDbEntity
  8
0
100
AcDbCircle
 10
639.231919
 20
1247.704579
 30
0.0
 40
2.0
100
AcDbArc
 50
180.0
 51
270.0
  0
LINE
  5
547F
100
AcDbEntity
  8
0
100
AcDbLine
 10
576.450092
 20
1278.204579
 30
0.0
 11
633.018634
 21
1278.204579
 31
0.0
  0
LINE
  5
5480
100
AcDbEntity
  8
0
100
AcDbLine
 10
580.203092
 20
1275.48885
 30
0.0
 11
583.956092
 21
1268.98885
 31
0.0
  0
LINE
  5
5481
100
AcDbEntity
  8
0
100
AcDbLine
 10
572.697092
 20
1275.48885
 30
0.0
 11
580.203092
 21
1275.48885
 31
0.0
  0
LINE
  5
5482
100
AcDbEntity
  8
0
100
AcDbLine
 10
633.018634
 20
1276.49485
 30
0.0
 11
639.518634
 21
1272.74185
 31
0.0
  0
LINE
  5
5483
100
AcDbEntity
  8
0
100
AcDbLine
 10
626.518634
 20
1272.74185
 30
0.0
 11
633.018634
 21
1276.49485
 31
0.0
  0
LINE
  5
5484
100
AcDbEntity
  8
0
100
AcDbLine
 10
639.518634
 20
1272.74185
 30
0.0
 11
639.518634
 21
1265.23585
 31
0.0
  0
LINE
  5
5485
100
AcDbEntity
  8
0
100
AcDbLine
 10
626.518634
 20
1265.23585
 30
0.0
 11
626.518634
 21
1272.74185
 31
0.0
  0
LINE
  5
5486
100
AcDbEntity
  8
0
100
AcDbLine
 10
642.234363
 20
1268.98885
 30
0.0
 11
642.234363
 21
1254.496141
 31
0.0
  0
LINE
  5
5487
100
AcDbEntity
  8
0
100
AcDbLine
 10
655.734363
 20
1255.704579
 30
0.0
 11
655.734363
 21
1240.704579
 31
0.0
  0
LINE
  5
5488
100
AcDbEntity
  8
0
100
AcDbLine
 10
647.734363
 20
1235.204579
 30
0.0
 11
647.734363
 21
1246.204579
 31
0.0
  0
ARC
  5
5489
100
AcDbEntity
  8
0
100
AcDbCircle
 10
644.234363
 20
1226.913017
 30
0.0
 40
2.0
100
AcDbArc
 50
112.88538
 51
180.0
  0
LINE
  5
548A
100
AcDbEntity
  8
0
100
AcDbLine
 10
642.234363
 20
1255.704579
 30
0.0
 11
655.734363
 21
1255.704579
 31
0.0
  0
ARC
  5
548B
100
AcDbEntity
  8
0
100
AcDbCircle
 10
644.234363
 20
1254.496141
 30
0.0
 40
2.0
100
AcDbArc
 50
180.0
 51
247.11462
  0
LINE
  5
5490
100
AcDbEntity
  8
0
100
AcDbLine
 10
718.590011
 20
1126.568755
 30
0.0
 11
731.590011
 21
1126.568755
 31
0.0
  0
LINE
  5
5499
100
AcDbEntity
  8
0
100
AcDbLine
 10
725.090011
 20
1125.893765
 30
0.0
 11
725.090011
 21
1120.068755
 31
0.0
  0
LINE
  5
549A
100
AcDbEntity
  8
0
100
AcDbLine
 10
718.590011
 20
1126.568755
 30
0.0
 11
718.590011
 21
1120.068755
 31
0.0
  0
ARC
  5
549F
100
AcDbEntity
  8
0
100
AcDbCircle
 10
721.858215
 20
1118.494724
 30
0.0
 40
8.074051
100
AcDbArc
 50
66.122736
 51
113.877264
  0
ARC
  5
54A0
100
AcDbEntity
  8
0
100
AcDbCircle
 10
728.321806
 20
1118.494724
 30
0.0
 40
8.074051
100
AcDbArc
 50
66.122736
 51
113.877264
  0
LINE
  5
54A1
100
AcDbEntity
  8
0
100
AcDbLine
 10
731.590011
 20
1126.568755
 30
0.0
 11
731.590011
 21
1120.068755
 31
0.0
  0
LINE
  5
54A2
100
AcDbEntity
  8
0
100
AcDbLine
 10
775.873782
 20
1136.068755
 30
0.0
 11
779.139407
 21
1126.568755
 31
0.0
  0
LINE
  5
54A3
100
AcDbEntity
  8
0
100
AcDbLine
 10
781.657553
 20
1125.893765
 30
0.0
 11
781.657553
 21
1120.068755
 31
0.0
  0
LINE
  5
54A4
100
AcDbEntity
  8
0
100
AcDbLine
 10
775.157553
 20
1126.568755
 30
0.0
 11
775.157553
 21
1120.068755
 31
0.0
  0
LINE
  5
54A5
100
AcDbEntity
  8
0
100
AcDbLine
 10
788.157553
 20
1126.568755
 30
0.0
 11
775.157553
 21
1126.568755
 31
0.0
  0
ARC
  5
54A6
100
AcDbEntity
  8
0
100
AcDbCircle
 10
778.425758
 20
1118.494724
 30
0.0
 40
8.074051
100
AcDbArc
 50
66.122736
 51
113.877264
  0
LINE
  5
54A7
100
AcDbEntity
  8
0
100
AcDbLine
 10
788.157553
 20
1126.568755
 30
0.0
 11
788.157553
 21
1120.068755
 31
0.0
  0
ARC
  5
54A8
100
AcDbEntity
  8
0
100
AcDbCircle
 10
784.889349
 20
1118.494724
 30
0.0
 40
8.074051
100
AcDbArc
 50
66.122736
 51
113.877264
  0
LINE
  5
54A9
100
AcDbEntity
  8
0
100
AcDbLine
 10
790.873782
 20
1096.068755
 30
0.0
 11
790.873782
 21
1120.068755
 31
0.0
  0
ARC
  5
54AA
100
AcDbEntity
  8
0
100
AcDbCircle
 10
772.373782
 20
1074.092173
 30
0.0
 40
13.5
100
AcDbArc
 50
340.0
 51
0.0
  0
LINE
  5
54AB
100
AcDbEntity
  8
0
100
AcDbLine
 10
785.059632
 20
1069.474901
 30
0.0
 11
778.935343
 21
1052.648554
 31
0.0
  0
LINE
  5
54AC
100
AcDbEntity
  8
0
100
AcDbLine
 10
785.873782
 20
1074.092173
 30
0.0
 11
785.873782
 21
1096.068755
 31
0.0
  0
ARC
  5
54AD
100
AcDbEntity
  8
0
100
AcDbCircle
 10
769.538416
 20
1056.068755
 30
0.0
 40
10.0
100
AcDbArc
 50
270.0
 51
340.0
  0
LINE
  5
54AE
100
AcDbEntity
  8
0
100
AcDbLine
 10
769.538416
 20
1046.068755
 30
0.0
 11
766.022893
 21
1046.068755
 31
0.0
  0
ARC
  5
54AF
100
AcDbEntity
  8
0
100
AcDbCircle
 10
766.022893
 20
1044.068755
 30
0.0
 40
2.0
100
AcDbArc
 50
90.0
 51
205.376934
  0
LINE
  5
54B0
100
AcDbEntity
  8
0
100
AcDbLine
 10
765.873782
 20
1099.860317
 30
0.0
 11
765.873782
 21
1136.068755
 31
0.0
  0
LINE
  5
54B2
100
AcDbEntity
  8
0
100
AcDbLine
 10
759.040449
 20
1026.068755
 30
0.0
 11
747.707115
 21
1026.068755
 31
0.0
  0
LINE
  5
54B3
100
AcDbEntity
  8
0
100
AcDbLine
 10
760.886602
 20
1027.299525
 30
0.0
 11
762.842566
 21
1031.993838
 31
0.0
  0
ARC
  5
54B4
100
AcDbEntity
  8
0
100
AcDbCircle
 10
759.040449
 20
1028.068755
 30
0.0
 40
2.0
100
AcDbArc
 50
270.0
 51
337.380135
  0
LINE
  5
54B9
100
AcDbEntity
  8
0
100
AcDbLine
 10
743.729407
 20
1120.068755
 30
0.0
 11
763.018157
 21
1120.068755
 31
0.0
  0
LINE
  5
54BA
100
AcDbEntity
  8
0
100
AcDbLine
 10
790.873782
 20
1120.068755
 30
0.0
 11
765.873782
 21
1120.068755
 31
0.0
  0
ARC
  5
54BB
100
AcDbEntity
  8
0
100
AcDbCircle
 10
736.55861
 20
1094.068755
 30
0.0
 40
2.0
100
AcDbArc
 50
351.543481
 51
90.0
  0
ARC
  5
54BC
100
AcDbEntity
  8
0
100
AcDbCircle
 10
770.188954
 20
1094.068755
 30
0.0
 40
2.0
100
AcDbArc
 50
90.0
 51
188.456519
  0
POLYLINE
  5
54D6
100
AcDbEntity
  8
0
100
AcDb2dPolyline
 66
     1
 10
0.0
 20
0.0
 30
0.0
  0
VERTEX
  5
6366
100
AcDbEntity
  8
0
100
AcDbVertex
100
AcDb2dVertex
 10
751.621549
 20
1049.181459
 30
0.0
  0
VERTEX
  5
6367
100
AcDbEntity
  8
0
100
AcDbVertex
100
AcDb2dVertex
 10
744.626015
 20
1045.142585
 30
0.0
  0
SEQEND
  5
6368
100
AcDbEntity
  8
0
  0
ARC
  5
54D8
100
AcDbEntity
  8
0
100
AcDbCircle
 10
753.373782
 20
1038.068755
 30
0.0
 40
11.25
100
AcDbArc
 50
261.03947
 51
278.96053
  0
POLYLINE
  5
54D9
100
AcDbEntity
  8
0
100
AcDb2dPolyline
 66
     1
 10
0.0
 20
0.0
 30
0.0
  0
VERTEX
  5
6369
100
AcDbEntity
  8
0
100
AcDbVertex
100
AcDb2dVertex
 10
742.873782
 20
1042.107629
 30
0.0
  0
VERTEX
  5
636A
100
AcDbEntity
  8
0
100
AcDbVertex
100
AcDb2dVertex
 10
742.873782
 20
1034.029882
 30
0.0
  0
SEQEND
  5
636B
100
AcDbEntity
  8
0
  0
POLYLINE
  5
54DA
100
AcDbEntity
  8
0
100
AcDb2dPolyline
 66
     1
 10
0.0
 20
0.0
 30
0.0
  0
VERTEX
  5
636C
100
AcDbEntity
  8
0
100
AcDbVertex
100
AcDb2dVertex
 10
744.626015
 20
1030.994925
 30
0.0
  0
VERTEX
  5
636D
100
AcDbEntity
  8
0
100
AcDbVertex
100
AcDb2dVertex
 10
751.621549
 20
1026.956052
 30
0.0
  0
SEQEND
  5
636E
100
AcDbEntity
  8
0
  0
POLYLINE
  5
54DB
100
AcDbEntity
  8
0
100
AcDb2dPolyline
 66
     1
 10
0.0
 20
0.0
 30
0.0
  0
VERTEX
  5
636F
100
AcDbEntity
  8
0
100
AcDbVertex
100
AcDb2dVertex
 10
755.126015
 20
1026.956052
 30
0.0
  0
VERTEX
  5
6370
100
AcDbEntity
  8
0
100
AcDbVertex
100
AcDb2dVertex
 10
762.121549
 20
1030.994925
 30
0.0
  0
SEQEND
  5
6371
100
AcDbEntity
  8
0
  0
POLYLINE
  5
54DC
100
AcDbEntity
  8
0
100
AcDb2dPolyline
 66
     1
 10
0.0
 20
0.0
 30
0.0
  0
VERTEX
  5
6372
100
AcDbEntity
  8
0
100
AcDbVertex
100
AcDb2dVertex
 10
763.873782
 20
1034.029882
 30
0.0
  0
VERTEX
  5
6373
100
AcDbEntity
  8
0
100
AcDbVertex
100
AcDb2dVertex
 10
763.873782
 20
1042.107629
 30
0.0
  0
SEQEND
  5
6374
100
AcDbEntity
  8
0
  0
POLYLINE
  5
54DD
100
AcDbEntity
  8
0
100
AcDb2dPolyline
 66
     1
 10
0.0
 20
0.0
 30
0.0
  0
VERTEX
  5
6375
100
AcDbEntity
  8
0
100
AcDbVertex
100
AcDb2dVertex
 10
762.121549
 20
1045.142585
 30
0.0
  0
VERTEX
  5
6376
100
AcDbEntity
  8
0
100
AcDbVertex
100
AcDb2dVertex
 10
755.126015
 20
1049.181459
 30
0.0
  0
SEQEND
  5
6377
100
AcDbEntity
  8
0
  0
ARC
  5
54DE
100
AcDbEntity
  8
0
100
AcDbCircle
 10
753.373782
 20
1038.068755
 30
0.0
 40
11.25
100
AcDbArc
 50
321.03947
 51
338.96053
  0
ARC
  5
54DF
100
AcDbEntity
  8
0
100
AcDbCircle
 10
753.373782
 20
1038.068755
 30
0.0
 40
11.25
100
AcDbArc
 50
21.03947
 51
38.96053
  0
ARC
  5
54E0
100
AcDbEntity
  8
0
100
AcDbCircle
 10
753.373782
 20
1038.068755
 30
0.0
 40
11.25
100
AcDbArc
 50
81.03947
 51
98.96053
  0
ARC
  5
54E1
100
AcDbEntity
  8
0
100
AcDbCircle
 10
753.373782
 20
1038.068755
 30
0.0
 40
11.25
100
AcDbArc
 50
141.03947
 51
158.96053
  0
ARC
  5
54E2
100
AcDbEntity
  8
0
100
AcDbCircle
 10
753.373782
 20
1038.068755
 30
0.0
 40
11.25
100
AcDbArc
 50
201.03947
 51
218.96053
  0
LINE
  5
54E3
100
AcDbEntity
  8
0
100
AcDbLine
 10
763.873782
 20
1034.468755
 30
0.0
 11
765.373782
 21
1038.068755
 31
0.0
  0
LINE
  5
54E4
100
AcDbEntity
  8
0
100
AcDbLine
 10
742.873782
 20
1034.468755
 30
0.0
 11
741.373782
 21
1038.068755
 31
0.0
  0
LINE
  5
54E5
100
AcDbEntity
  8
0
100
AcDbLine
 10
417.129381
 20
1027.299525
 30
0.0
 11
412.642201
 21
1038.068755
 31
0.0
  0
LINE
  5
54E8
100
AcDbEntity
  8
0
100
AcDbLine
 10
434.286576
 20
1120.068755
 30
0.0
 11
414.997826
 21
1120.068755
 31
0.0
  0
LINE
  5
54EA
100
AcDbEntity
  8
0
100
AcDbLine
 10
447.142201
 20
1136.068755
 30
0.0
 11
402.142201
 21
1136.068755
 31
0.0
  0
LINE
  5
54EC
100
AcDbEntity
  8
0
100
AcDbLine
 10
462.142201
 20
1108.068755
 30
0.0
 11
387.142201
 21
1108.068755
 31
0.0
  0
CIRCLE
  5
54ED
100
AcDbEntity
  8
0
100
AcDbCircle
 10
424.642201
 20
1091.568755
 30
0.0
 40
15.0
  0
LINE
  5
54EE
100
AcDbEntity
  8
0
100
AcDbLine
 10
437.142201
 20
1099.860317
 30
0.0
 11
437.142201
 21
1136.068755
 31
0.0
  0
LINE
  5
54EF
100
AcDbEntity
  8
0
100
AcDbLine
 10
462.142201
 20
1096.068755
 30
0.0
 11
462.142201
 21
1120.068755
 31
0.0
  0
LINE
  5
54F2
100
AcDbEntity
  8
0
100
AcDbLine
 10
432.155022
 20
1027.299525
 30
0.0
 11
436.642201
 21
1038.068755
 31
0.0
  0
LINE
  5
54F6
100
AcDbEntity
  8
0
100
AcDbLine
 10
430.308868
 20
1026.068755
 30
0.0
 11
418.975534
 21
1026.068755
 31
0.0
  0
LINE
  5
54F7
100
AcDbEntity
  8
0
100
AcDbLine
 10
418.975534
 20
1026.068755
 30
0.0
 11
430.308868
 21
1026.068755
 31
0.0
  0
ARC
  5
54F8
100
AcDbEntity
  8
0
100
AcDbCircle
 10
418.975534
 20
1028.068755
 30
0.0
 40
2.0
100
AcDbArc
 50
202.619865
 51
270.0
  0
ARC
  5
54F9
100
AcDbEntity
  8
0
100
AcDbCircle
 10
430.308868
 20
1028.068755
 30
0.0
 40
2.0
100
AcDbArc
 50
270.0
 51
337.380135
  0
ARC
  5
54FA
100
AcDbEntity
  8
0
100
AcDbCircle
 10
443.642201
 20
1074.092173
 30
0.0
 40
13.5
100
AcDbArc
 50
340.0
 51
0.0
  0
LINE
  5
54FC
100
AcDbEntity
  8
0
100
AcDbLine
 10
456.328052
 20
1069.474901
 30
0.0
 11
450.203762
 21
1052.648554
 31
0.0
  0
ARC
  5
5502
100
AcDbEntity
  8
0
100
AcDbCircle
 10
441.457373
 20
1094.068755
 30
0.0
 40
2.0
100
AcDbArc
 50
90.0
 51
188.456519
  0
LINE
  5
5503
100
AcDbEntity
  8
0
100
AcDbLine
 10
462.142201
 20
1096.068755
 30
0.0
 11
441.457373
 21
1096.068755
 31
0.0
  0
LINE
  5
5504
100
AcDbEntity
  8
0
100
AcDbLine
 10
457.142201
 20
1074.092173
 30
0.0
 11
457.142201
 21
1096.068755
 31
0.0
  0
LINE
  5
5505
100
AcDbEntity
  8
0
100
AcDbLine
 10
447.142201
 20
1136.068755
 30
0.0
 11
450.407826
 21
1126.568755
 31
0.0
  0
LINE
  5
5508
100
AcDbEntity
  8
0
100
AcDbLine
 10
462.142201
 20
1120.068755
 30
0.0
 11
437.142201
 21
1120.068755
 31
0.0
  0
LINE
  5
5509
100
AcDbEntity
  8
0
100
AcDbLine
 10
452.925972
 20
1125.893765
 30
0.0
 11
452.925972
 21
1120.068755
 31
0.0
  0
LINE
  5
550A
100
AcDbEntity
  8
0
100
AcDbLine
 10
446.425972
 20
1126.568755
 30
0.0
 11
446.425972
 21
1120.068755
 31
0.0
  0
LINE
  5
550B
100
AcDbEntity
  8
0
100
AcDbLine
 10
459.425972
 20
1126.568755
 30
0.0
 11
446.425972
 21
1126.568755
 31
0.0
  0
ARC
  5
550C
100
AcDbEntity
  8
0
100
AcDbCircle
 10
449.694177
 20
1118.494724
 30
0.0
 40
8.074051
100
AcDbArc
 50
66.122736
 51
113.877264
  0
LINE
  5
550D
100
AcDbEntity
  8
0
100
AcDbLine
 10
459.425972
 20
1126.568755
 30
0.0
 11
459.425972
 21
1120.068755
 31
0.0
  0
ARC
  5
550E
100
AcDbEntity
  8
0
100
AcDbCircle
 10
456.157768
 20
1118.494724
 30
0.0
 40
8.074051
100
AcDbArc
 50
66.122736
 51
113.877264
  0
LINE
  5
550F
100
AcDbEntity
  8
0
100
AcDbLine
 10
412.142201
 20
1099.860317
 30
0.0
 11
412.142201
 21
1136.068755
 31
0.0
  0
LINE
  5
5510
100
AcDbEntity
  8
0
100
AcDbLine
 10
387.142201
 20
1096.068755
 30
0.0
 11
387.142201
 21
1120.068755
 31
0.0
  0
LINE
  5
5511
100
AcDbEntity
  8
0
100
AcDbLine
 10
387.142201
 20
1096.068755
 30
0.0
 11
387.142201
 21
1120.068755
 31
0.0
  0
ARC
  5
5515
100
AcDbEntity
  8
0
100
AcDbCircle
 10
405.642201
 20
1074.092173
 30
0.0
 40
13.5
100
AcDbArc
 50
180.0
 51
200.0
  0
LINE
  5
5516
100
AcDbEntity
  8
0
100
AcDbLine
 10
392.956351
 20
1069.474901
 30
0.0
 11
399.08064
 21
1052.648554
 31
0.0
  0
LINE
  5
5519
100
AcDbEntity
  8
0
100
AcDbLine
 10
408.477567
 20
1046.068755
 30
0.0
 11
410.299875
 21
1046.068755
 31
0.0
  0
ARC
  5
551A
100
AcDbEntity
  8
0
100
AcDbCircle
 10
408.477567
 20
1056.068755
 30
0.0
 40
10.0
100
AcDbArc
 50
200.0
 51
270.0
  0
LINE
  5
551B
100
AcDbEntity
  8
0
100
AcDbLine
 10
407.827029
 20
1096.068755
 30
0.0
 11
387.142201
 21
1096.068755
 31
0.0
  0
ARC
  5
551C
100
AcDbEntity
  8
0
100
AcDbCircle
 10
407.827029
 20
1094.068755
 30
0.0
 40
2.0
100
AcDbArc
 50
351.543481
 51
90.0
  0
LINE
  5
551D
100
AcDbEntity
  8
0
100
AcDbLine
 10
392.142201
 20
1074.092173
 30
0.0
 11
392.142201
 21
1096.068755
 31
0.0
  0
LINE
  5
551E
100
AcDbEntity
  8
0
100
AcDbLine
 10
402.142201
 20
1136.068755
 30
0.0
 11
398.876576
 21
1126.568755
 31
0.0
  0
LINE
  5
551F
100
AcDbEntity
  8
0
100
AcDbLine
 10
387.142201
 20
1120.068755
 30
0.0
 11
412.142201
 21
1120.068755
 31
0.0
  0
ARC
  5
5520
100
AcDbEntity
  8
0
100
AcDbCircle
 10
393.126634
 20
1118.494724
 30
0.0
 40
8.074051
100
AcDbArc
 50
66.122736
 51
113.877264
  0
LINE
  5
5521
100
AcDbEntity
  8
0
100
AcDbLine
 10
389.85843
 20
1126.568755
 30
0.0
 11
402.85843
 21
1126.568755
 31
0.0
  0
ARC
  5
5522
100
AcDbEntity
  8
0
100
AcDbCircle
 10
399.590225
 20
1118.494724
 30
0.0
 40
8.074051
100
AcDbArc
 50
66.122736
 51
113.877264
  0
LINE
  5
5523
100
AcDbEntity
  8
0
100
AcDbLine
 10
402.85843
 20
1126.568755
 30
0.0
 11
402.85843
 21
1120.068755
 31
0.0
  0
LINE
  5
5524
100
AcDbEntity
  8
0
100
AcDbLine
 10
396.35843
 20
1125.893765
 30
0.0
 11
396.35843
 21
1120.068755
 31
0.0
  0
LINE
  5
5525
100
AcDbEntity
  8
0
100
AcDbLine
 10
389.85843
 20
1126.568755
 30
0.0
 11
389.85843
 21
1120.068755
 31
0.0
  0
LINE
  5
552A
100
AcDbEntity
  8
0
100
AcDbLine
 10
412.642201
 20
1038.068755
 30
0.0
 11
409.666105
 21
1090.722272
 31
0.0
  0
ARC
  5
552B
100
AcDbEntity
  8
0
100
AcDbCircle
 10
410.299875
 20
1044.068755
 30
0.0
 40
2.0
100
AcDbArc
 50
3.235046
 51
90.0
  0
ARC
  5
552C
100
AcDbEntity
  8
0
100
AcDbCircle
 10
440.806836
 20
1056.068755
 30
0.0
 40
10.0
100
AcDbArc
 50
270.0
 51
340.0
  0
ARC
  5
552D
100
AcDbEntity
  8
0
100
AcDbCircle
 10
438.984527
 20
1044.068755
 30
0.0
 40
2.0
100
AcDbArc
 50
90.0
 51
176.764954
  0
LINE
  5
552E
100
AcDbEntity
  8
0
100
AcDbLine
 10
440.806836
 20
1046.068755
 30
0.0
 11
438.984527
 21
1046.068755
 31
0.0
  0
LINE
  5
552F
100
AcDbEntity
  8
0
100
AcDbLine
 10
436.642201
 20
1038.068755
 30
0.0
 11
439.618298
 21
1090.722272
 31
0.0
  0
LINE
  5
5530
100
AcDbEntity
  8
0
100
AcDbLine
 10
407.243119
 20
1071.568755
 30
0.0
 11
396.154849
 21
1071.568755
 31
0.0
  0
LINE
  5
5532
100
AcDbEntity
  8
0
100
AcDbLine
 10
442.041284
 20
1071.568755
 30
0.0
 11
453.129553
 21
1071.568755
 31
0.0
  0
LINE
  5
5534
100
AcDbEntity
  8
0
100
AcDbLine
 10
1279.190466
 20
1441.660309
 30
0.0
 11
1279.190466
 21
1430.392368
 31
0.0
  0
LINE
  5
5535
100
AcDbEntity
  8
0
100
AcDbLine
 10
1273.690466
 20
1442.392368
 30
0.0
 11
1273.690466
 21
1430.392368
 31
0.0
  0
LINE
  5
5536
100
AcDbEntity
  8
0
100
AcDbLine
 10
1198.690466
 20
1442.392368
 30
0.0
 11
1198.690466
 21
1430.392368
 31
0.0
  0
LINE
  5
5537
100
AcDbEntity
  8
0
100
AcDbLine
 10
1193.190466
 20
1441.107816
 30
0.0
 11
1193.190466
 21
1430.392368
 31
0.0
  0
LINE
  5
5538
100
AcDbEntity
  8
0
100
AcDbLine
 10
1206.190466
 20
1370.892368
 30
0.0
 11
1206.190466
 21
1349.892368
 31
0.0
  0
LINE
  5
5539
100
AcDbEntity
  8
0
100
AcDbLine
 10
1206.190466
 20
1372.392368
 30
0.0
 11
1206.190466
 21
1348.392368
 31
0.0
  0
LINE
  5
553A
100
AcDbEntity
  8
0
100
AcDbLine
 10
1283.342281
 20
1391.576408
 30
0.0
 11
1270.019427
 21
1354.972167
 31
0.0
  0
ARC
  5
553B
100
AcDbEntity
  8
0
100
AcDbCircle
 10
1212.372557
 20
1360.392368
 30
0.0
 40
12.182091
100
AcDbArc
 50
160.179294
 51
199.820706
  0
ARC
  5
553C
100
AcDbEntity
  8
0
100
AcDbCircle
 10
1212.372557
 20
1360.392368
 30
0.0
 40
12.182091
100
AcDbArc
 50
160.179294
 51
199.820706
  0
LINE
  5
553D
100
AcDbEntity
  8
0
100
AcDbLine
 10
1200.190466
 20
1370.892368
 30
0.0
 11
1200.190466
 21
1349.892368
 31
0.0
  0
LINE
  5
553E
100
AcDbEntity
  8
0
100
AcDbLine
 10
1200.190466
 20
1370.892368
 30
0.0
 11
1200.190466
 21
1349.892368
 31
0.0
  0
ARC
  5
553F
100
AcDbEntity
  8
0
100
AcDbCircle
 10
1194.008375
 20
1360.392368
 30
0.0
 40
12.182091
100
AcDbArc
 50
340.179294
 51
19.820706
  0
ARC
  5
5540
100
AcDbEntity
  8
0
100
AcDbCircle
 10
1194.008375
 20
1360.392368
 30
0.0
 40
12.182091
100
AcDbArc
 50
340.179294
 51
19.820706
  0
LINE
  5
5541
100
AcDbEntity
  8
0
100
AcDbLine
 10
1260.6225
 20
1348.392368
 30
0.0
 11
1206.190466
 21
1348.392368
 31
0.0
  0
LINE
  5
5542
100
AcDbEntity
  8
0
100
AcDbLine
 10
1205.468778
 20
1356.26169
 30
0.0
 11
1200.912154
 21
1356.26169
 31
0.0
  0
LINE
  5
5543
100
AcDbEntity
  8
0
100
AcDbLine
 10
1205.468778
 20
1352.931428
 30
0.0
 11
1200.912154
 21
1352.931428
 31
0.0
  0
LINE
  5
5544
100
AcDbEntity
  8
0
100
AcDbLine
 10
1200.912154
 20
1352.931428
 30
0.0
 11
1200.912154
 21
1356.26169
 31
0.0
  0
LINE
  5
5545
100
AcDbEntity
  8
0
100
AcDbLine
 10
1205.468778
 20
1352.931428
 30
0.0
 11
1205.468778
 21
1356.26169
 31
0.0
  0
LINE
  5
5546
100
AcDbEntity
  8
0
100
AcDbLine
 10
1205.468778
 20
1348.642368
 30
0.0
 11
1200.912154
 21
1348.642368
 31
0.0
  0
ARC
  5
5547
100
AcDbEntity
  8
0
100
AcDbCircle
 10
1203.737596
 20
1350.786898
 30
0.0
 40
3.54713
100
AcDbArc
 50
142.801256
 51
202.801256
  0
LINE
  5
5548
100
AcDbEntity
  8
0
100
AcDbLine
 10
1200.912154
 20
1348.642368
 30
0.0
 11
1200.190466
 21
1349.892368
 31
0.0
  0
ARC
  5
5549
100
AcDbEntity
  8
0
100
AcDbCircle
 10
1202.643336
 20
1350.786898
 30
0.0
 40
3.54713
100
AcDbArc
 50
337.198744
 51
37.198744
  0
LINE
  5
554A
100
AcDbEntity
  8
0
100
AcDbLine
 10
1205.468778
 20
1348.642368
 30
0.0
 11
1206.190466
 21
1349.892368
 31
0.0
  0
ARC
  5
554B
100
AcDbEntity
  8
0
100
AcDbCircle
 10
1260.6225
 20
1358.392368
 30
0.0
 40
10.0
100
AcDbArc
 50
270.0
 51
340.0
  0
LINE
  5
554C
100
AcDbEntity
  8
0
100
AcDbLine
 10
1252.86303
 20
1372.392368
 30
0.0
 11
1206.190466
 21
1372.392368
 31
0.0
  0
LINE
  5
554D
100
AcDbEntity
  8
0
100
AcDbLine
 10
1264.677818
 20
1393.892368
 30
0.0
 11
1203.57623
 21
1393.892368
 31
0.0
  0
LINE
  5
554E
100
AcDbEntity
  8
0
100
AcDbLine
 10
1273.690466
 20
1418.392368
 30
0.0
 11
1198.690466
 21
1418.392368
 31
0.0
  0
LINE
  5
554F
100
AcDbEntity
  8
0
100
AcDbLine
 10
1279.190466
 20
1430.392368
 30
0.0
 11
1193.190466
 21
1430.392368
 31
0.0
  0
ARC
  5
5550
100
AcDbEntity
  8
0
100
AcDbCircle
 10
1211.190466
 20
1395.038493
 30
0.0
 40
10.0
100
AcDbArc
 50
180.0
 51
200.0
  0
LINE
  5
5551
100
AcDbEntity
  8
0
100
AcDbLine
 10
1182.690466
 20
1410.892368
 30
0.0
 11
1182.690466
 21
1392.892368
 31
0.0
  0
LINE
  5
5552
100
AcDbEntity
  8
0
100
AcDbLine
 10
1201.423473
 20
1392.892368
 30
0.0
 11
1182.690466
 21
1392.892368
 31
0.0
  0
LINE
  5
5553
100
AcDbEntity
  8
0
100
AcDbLine
 10
1205.468778
 20
1372.142368
 30
0.0
 11
1200.912154
 21
1372.142368
 31
0.0
  0
ARC
  5
5554
100
AcDbEntity
  8
0
100
AcDbCircle
 10
1203.737596
 20
1369.997838
 30
0.0
 40
3.54713
100
AcDbArc
 50
157.198744
 51
217.198744
  0
LINE
  5
5555
100
AcDbEntity
  8
0
100
AcDbLine
 10
1205.468778
 20
1367.853309
 30
0.0
 11
1200.912154
 21
1367.853309
 31
0.0
  0
LINE
  5
5556
100
AcDbEntity
  8
0
100
AcDbLine
 10
1200.912154
 20
1372.142368
 30
0.0
 11
1200.190466
 21
1370.892368
 31
0.0
  0
LINE
  5
5557
100
AcDbEntity
  8
0
100
AcDbLine
 10
1205.468778
 20
1364.523046
 30
0.0
 11
1200.912154
 21
1364.523046
 31
0.0
  0
LINE
  5
5558
100
AcDbEntity
  8
0
100
AcDbLine
 10
1205.468778
 20
1364.523046
 30
0.0
 11
1205.468778
 21
1367.853309
 31
0.0
  0
LINE
  5
5559
100
AcDbEntity
  8
0
100
AcDbLine
 10
1200.912154
 20
1364.523046
 30
0.0
 11
1200.912154
 21
1367.853309
 31
0.0
  0
ARC
  5
555A
100
AcDbEntity
  8
0
100
AcDbCircle
 10
1202.643336
 20
1369.997838
 30
0.0
 40
3.54713
100
AcDbArc
 50
322.801256
 51
22.801256
  0
LINE
  5
555B
100
AcDbEntity
  8
0
100
AcDbLine
 10
1205.468778
 20
1372.142368
 30
0.0
 11
1206.190466
 21
1370.892368
 31
0.0
  0
LINE
  5
555C
100
AcDbEntity
  8
0
100
AcDbLine
 10
1201.79354
 20
1391.618292
 30
0.0
 11
1208.791204
 21
1372.392368
 31
0.0
  0
LINE
  5
555D
100
AcDbEntity
  8
0
100
AcDbLine
 10
1198.690466
 20
1428.892368
 30
0.0
 11
1182.690466
 21
1428.892368
 31
0.0
  0
LINE
  5
555E
100
AcDbEntity
  8
0
100
AcDbLine
 10
1182.690466
 20
1428.892368
 30
0.0
 11
1182.690466
 21
1410.892368
 31
0.0
  0
LINE
  5
555F
100
AcDbEntity
  8
0
100
AcDbLine
 10
1193.190466
 20
1430.392368
 30
0.0
 11
1193.190466
 21
1428.892368
 31
0.0
  0
LINE
  5
5560
100
AcDbEntity
  8
0
100
AcDbLine
 10
1198.690466
 20
1430.392368
 30
0.0
 11
1198.690466
 21
1418.392368
 31
0.0
  0
LINE
  5
5561
100
AcDbEntity
  8
0
100
AcDbLine
 10
1201.190466
 20
1395.038493
 30
0.0
 11
1201.190466
 21
1418.392368
 31
0.0
  0
ARC
  5
5562
100
AcDbEntity
  8
0
100
AcDbCircle
 10
1257.690466
 20
1395.655638
 30
0.0
 40
10.0
100
AcDbArc
 50
340.0
 51
0.0
  0
LINE
  5
5563
100
AcDbEntity
  8
0
100
AcDbLine
 10
1290.690466
 20
1410.892368
 30
0.0
 11
1290.690466
 21
1392.892368
 31
0.0
  0
ARC
  5
5564
100
AcDbEntity
  8
0
100
AcDbCircle
 10
1252.86303
 20
1382.392368
 30
0.0
 40
10.0
100
AcDbArc
 50
270.0
 51
340.0
  0
LINE
  5
5565
100
AcDbEntity
  8
0
100
AcDbLine
 10
1290.690466
 20
1392.892368
 30
0.0
 11
1285.221666
 21
1392.892368
 31
0.0
  0
ARC
  5
5566
100
AcDbEntity
  8
0
100
AcDbCircle
 10
1285.221666
 20
1390.892368
 30
0.0
 40
2.0
100
AcDbArc
 50
90.0
 51
160.0
  0
LINE
  5
5567
100
AcDbEntity
  8
0
100
AcDbLine
 10
1267.087392
 20
1392.235436
 30
0.0
 11
1262.259957
 21
1378.972167
 31
0.0
  0
LINE
  5
5568
100
AcDbEntity
  8
0
100
AcDbLine
 10
1290.690466
 20
1428.892368
 30
0.0
 11
1273.690466
 21
1428.892368
 31
0.0
  0
LINE
  5
5569
100
AcDbEntity
  8
0
100
AcDbLine
 10
1279.190466
 20
1430.392368
 30
0.0
 11
1279.190466
 21
1428.892368
 31
0.0
  0
LINE
  5
556A
100
AcDbEntity
  8
0
100
AcDbLine
 10
1273.690466
 20
1430.392368
 30
0.0
 11
1273.690466
 21
1418.392368
 31
0.0
  0
LINE
  5
556B
100
AcDbEntity
  8
0
100
AcDbLine
 10
1267.690466
 20
1395.655638
 30
0.0
 11
1267.690466
 21
1418.392368
 31
0.0
  0
LINE
  5
556C
100
AcDbEntity
  8
0
100
AcDbLine
 10
1290.690466
 20
1428.892368
 30
0.0
 11
1290.690466
 21
1410.892368
 31
0.0
  0
LINE
  5
556D
100
AcDbEntity
  8
0
100
AcDbLine
 10
1277.690466
 20
1442.392368
 30
0.0
 11
1194.690466
 21
1442.392368
 31
0.0
  0
LINE
  5
556E
100
AcDbEntity
  8
0
100
AcDbLine
 10
1258.690466
 20
1458.392368
 30
0.0
 11
1204.265574
 21
1458.392368
 31
0.0
  0
LINE
  5
556F
100
AcDbEntity
  8
0
100
AcDbLine
 10
1214.215695
 20
1448.892368
 30
0.0
 11
1215.411695
 21
1448.201368
 31
0.0
  0
ARC
  5
5570
100
AcDbEntity
  8
0
100
AcDbCircle
 10
1213.535195
 20
1445.19841
 30
0.0
 40
3.541047
100
AcDbArc
 50
57.999406
 51
122.000594
  0
LINE
  5
5571
100
AcDbEntity
  8
0
100
AcDbLine
 10
1213.690466
 20
1458.392368
 30
0.0
 11
1210.424841
 21
1448.892368
 31
0.0
  0
LINE
  5
5572
100
AcDbEntity
  8
0
100
AcDbLine
 10
1211.658695
 20
1448.201368
 30
0.0
 11
1211.658695
 21
1442.392368
 31
0.0
  0
LINE
  5
5573
100
AcDbEntity
  8
0
100
AcDbLine
 10
1215.411695
 20
1448.201368
 30
0.0
 11
1215.411695
 21
1442.392368
 31
0.0
  0
ARC
  5
5574
100
AcDbEntity
  8
0
100
AcDbCircle
 10
1202.278195
 20
1445.19841
 30
0.0
 40
3.541047
100
AcDbArc
 50
57.999406
 51
122.000594
  0
LINE
  5
5575
100
AcDbEntity
  8
0
100
AcDbLine
 10
1200.400695
 20
1448.201368
 30
0.0
 11
1201.597695
 21
1448.892368
 31
0.0
  0
LINE
  5
5576
100
AcDbEntity
  8
0
100
AcDbLine
 10
1204.265574
 20
1458.392368
 30
0.0
 11
1196.592486
 21
1450.71928
 31
0.0
  0
ARC
  5
5577
100
AcDbEntity
  8
0
100
AcDbCircle
 10
1194.690466
 20
1441.107816
 30
0.0
 40
1.5
100
AcDbArc
 50
160.0
 51
180.0
  0
ARC
  5
5578
100
AcDbEntity
  8
0
100
AcDbCircle
 10
1194.690466
 20
1440.892368
 30
0.0
 40
1.5
100
AcDbArc
 50
90.0
 51
180.0
  0
LINE
  5
5579
100
AcDbEntity
  8
0
100
AcDbLine
 10
1204.154695
 20
1448.201368
 30
0.0
 11
1204.154695
 21
1442.392368
 31
0.0
  0
LINE
  5
557A
100
AcDbEntity
  8
0
100
AcDbLine
 10
1196.592486
 20
1450.71928
 30
0.0
 11
1193.280927
 21
1441.620846
 31
0.0
  0
LINE
  5
557B
100
AcDbEntity
  8
0
100
AcDbLine
 10
1200.400695
 20
1442.392368
 30
0.0
 11
1200.400695
 21
1448.201368
 31
0.0
  0
LINE
  5
557C
100
AcDbEntity
  8
0
100
AcDbLine
 10
1201.597695
 20
1448.892368
 30
0.0
 11
1214.215695
 21
1448.892368
 31
0.0
  0
ARC
  5
557D
100
AcDbEntity
  8
0
100
AcDbCircle
 10
1207.906695
 20
1435.386889
 30
0.0
 40
13.352467
100
AcDbArc
 50
73.680297
 51
106.319703
  0
ARC
  5
557E
100
AcDbEntity
  8
0
100
AcDbCircle
 10
1258.845737
 20
1445.19841
 30
0.0
 40
3.541047
100
AcDbArc
 50
57.999406
 51
122.000594
  0
LINE
  5
557F
100
AcDbEntity
  8
0
100
AcDbLine
 10
1270.783237
 20
1448.892368
 30
0.0
 11
1258.165237
 21
1448.892368
 31
0.0
  0
LINE
  5
5580
100
AcDbEntity
  8
0
100
AcDbLine
 10
1258.690466
 20
1458.392368
 30
0.0
 11
1271.087056
 21
1448.71698
 31
0.0
  0
LINE
  5
5581
100
AcDbEntity
  8
0
100
AcDbLine
 10
1258.690466
 20
1458.392368
 30
0.0
 11
1261.956091
 21
1448.892368
 31
0.0
  0
LINE
  5
5582
100
AcDbEntity
  8
0
100
AcDbLine
 10
1258.165237
 20
1448.892368
 30
0.0
 11
1256.969237
 21
1448.201368
 31
0.0
  0
LINE
  5
5583
100
AcDbEntity
  8
0
100
AcDbLine
 10
1256.969237
 20
1448.201368
 30
0.0
 11
1256.969237
 21
1442.392368
 31
0.0
  0
LINE
  5
5584
100
AcDbEntity
  8
0
100
AcDbLine
 10
1271.980237
 20
1448.201368
 30
0.0
 11
1270.783237
 21
1448.892368
 31
0.0
  0
ARC
  5
5585
100
AcDbEntity
  8
0
100
AcDbCircle
 10
1264.474237
 20
1435.386889
 30
0.0
 40
13.352467
100
AcDbArc
 50
73.680297
 51
106.319703
  0
ARC
  5
5586
100
AcDbEntity
  8
0
100
AcDbCircle
 10
1270.102737
 20
1445.19841
 30
0.0
 40
3.541047
100
AcDbArc
 50
57.999406
 51
122.000594
  0
ARC
  5
5587
100
AcDbEntity
  8
0
100
AcDbCircle
 10
1277.690466
 20
1441.660309
 30
0.0
 40
1.5
100
AcDbArc
 50
0.0
 51
52.028396
  0
ARC
  5
5588
100
AcDbEntity
  8
0
100
AcDbCircle
 10
1277.690466
 20
1440.892368
 30
0.0
 40
1.5
100
AcDbArc
 50
0.0
 51
90.0
  0
LINE
  5
5589
100
AcDbEntity
  8
0
100
AcDbLine
 10
1271.980237
 20
1442.392368
 30
0.0
 11
1271.980237
 21
1448.201368
 31
0.0
  0
LINE
  5
558A
100
AcDbEntity
  8
0
100
AcDbLine
 10
1271.980237
 20
1448.019864
 30
0.0
 11
1278.613372
 21
1442.842783
 31
0.0
  0
LINE
  5
558B
100
AcDbEntity
  8
0
100
AcDbLine
 10
1260.722237
 20
1448.201368
 30
0.0
 11
1260.722237
 21
1442.392368
 31
0.0
  0
LINE
  5
558C
100
AcDbEntity
  8
0
100
AcDbLine
 10
1268.226237
 20
1448.201368
 30
0.0
 11
1268.226237
 21
1442.392368
 31
0.0
  0
LINE
  5
558E
100
AcDbEntity
  8
0
100
AcDbLine
 10
1290.690466
 20
1240.704579
 30
0.0
 11
1290.690466
 21
1222.704579
 31
0.0
  0
LINE
  5
558F
100
AcDbEntity
  8
0
100
AcDbLine
 10
1274.690466
 20
1226.913017
 30
0.0
 11
1274.690466
 21
1212.420308
 31
0.0
  0
ARC
  5
5590
100
AcDbEntity
  8
0
100
AcDbCircle
 10
1237.190466
 20
1240.704579
 30
0.0
 40
28.0
100
AcDbArc
 50
206.514775
 51
333.485225
  0
LINE
  5
5591
100
AcDbEntity
  8
0
100
AcDbLine
 10
1182.690466
 20
1240.704579
 30
0.0
 11
1182.690466
 21
1222.704579
 31
0.0
  0
LINE
  5
5592
100
AcDbEntity
  8
0
100
AcDbLine
 10
1199.690466
 20
1226.913017
 30
0.0
 11
1199.690466
 21
1212.420308
 31
0.0
  0
CIRCLE
  5
5593
100
AcDbEntity
  8
0
100
AcDbCircle
 10
1237.190466
 20
1240.704579
 30
0.0
 40
20.25
  0
CIRCLE
  5
5594
100
AcDbEntity
  8
0
100
AcDbCircle
 10
1237.190466
 20
1240.704579
 30
0.0
 40
22.5
  0
LINE
  5
5595
100
AcDbEntity
  8
0
100
AcDbLine
 10
1208.906195
 20
1203.204579
 30
0.0
 11
1265.474737
 21
1203.204579
 31
0.0
  0
LINE
  5
5596
100
AcDbEntity
  8
0
100
AcDbLine
 10
1182.690466
 20
1222.704579
 30
0.0
 11
1199.690466
 21
1222.704579
 31
0.0
  0
LINE
  5
5597
100
AcDbEntity
  8
0
100
AcDbLine
 10
1208.906195
 20
1219.926308
 30
0.0
 11
1215.406195
 21
1216.173308
 31
0.0
  0
LINE
  5
5598
100
AcDbEntity
  8
0
100
AcDbLine
 10
1215.406195
 20
1208.667308
 30
0.0
 11
1208.906195
 21
1204.914308
 31
0.0
  0
LINE
  5
5599
100
AcDbEntity
  8
0
100
AcDbLine
 10
1215.406195
 20
1216.173308
 30
0.0
 11
1215.406195
 21
1208.667308
 31
0.0
  0
LINE
  5
559A
100
AcDbEntity
  8
0
100
AcDbLine
 10
1202.406195
 20
1208.667308
 30
0.0
 11
1202.406195
 21
1216.173308
 31
0.0
  0
LINE
  5
559B
100
AcDbEntity
  8
0
100
AcDbLine
 10
1202.406195
 20
1216.173308
 30
0.0
 11
1208.906195
 21
1219.926308
 31
0.0
  0
LINE
  5
559C
100
AcDbEntity
  8
0
100
AcDbLine
 10
1208.906195
 20
1204.914308
 30
0.0
 11
1202.406195
 21
1208.667308
 31
0.0
  0
ARC
  5
559D
100
AcDbEntity
  8
0
100
AcDbCircle
 10
1208.906195
 20
1212.420308
 30
0.0
 40
9.215729
100
AcDbArc
 50
180.0
 51
270.0
  0
CIRCLE
  5
559E
100
AcDbEntity
  8
0
100
AcDbCircle
 10
1208.906195
 20
1212.420308
 30
0.0
 40
6.30876
  0
LINE
  5
559F
100
AcDbEntity
  8
0
100
AcDbLine
 10
1257.968737
 20
1212.420308
 30
0.0
 11
1261.721737
 21
1218.920308
 31
0.0
  0
LINE
  5
55A0
100
AcDbEntity
  8
0
100
AcDbLine
 10
1261.721737
 20
1205.920308
 30
0.0
 11
1257.968737
 21
1212.420308
 31
0.0
  0
CIRCLE
  5
55A1
100
AcDbEntity
  8
0
100
AcDbCircle
 10
1265.474737
 20
1212.420308
 30
0.0
 40
6.30876
  0
LINE
  5
55A2
100
AcDbEntity
  8
0
100
AcDbLine
 10
1261.721737
 20
1218.920308
 30
0.0
 11
1269.227737
 21
1218.920308
 31
0.0
  0
LINE
  5
55A3
100
AcDbEntity
  8
0
100
AcDbLine
 10
1269.227737
 20
1218.920308
 30
0.0
 11
1272.980737
 21
1212.420308
 31
0.0
  0
LINE
  5
55A4
100
AcDbEntity
  8
0
100
AcDbLine
 10
1274.690466
 20
1222.704579
 30
0.0
 11
1290.690466
 21
1222.704579
 31
0.0
  0
LINE
  5
55A5
100
AcDbEntity
  8
0
100
AcDbLine
 10
1269.227737
 20
1205.920308
 30
0.0
 11
1261.721737
 21
1205.920308
 31
0.0
  0
ARC
  5
55A6
100
AcDbEntity
  8
0
100
AcDbCircle
 10
1265.474737
 20
1212.420308
 30
0.0
 40
9.215729
100
AcDbArc
 50
270.0
 51
0.0
  0
LINE
  5
55A7
100
AcDbEntity
  8
0
100
AcDbLine
 10
1272.980737
 20
1212.420308
 30
0.0
 11
1269.227737
 21
1205.920308
 31
0.0
  0
LINE
  5
55A8
100
AcDbEntity
  8
0
100
AcDbLine
 10
1208.906195
 20
1278.204579
 30
0.0
 11
1265.474737
 21
1278.204579
 31
0.0
  0
ARC
  5
55A9
100
AcDbEntity
  8
0
100
AcDbCircle
 10
1237.190466
 20
1240.704579
 30
0.0
 40
28.0
100
AcDbArc
 50
26.514775
 51
153.485225
  0
LINE
  5
55AA
100
AcDbEntity
  8
0
100
AcDbLine
 10
1216.412195
 20
1268.98885
 30
0.0
 11
1212.659195
 21
1262.48885
 31
0.0
  0
LINE
  5
55AB
100
AcDbEntity
  8
0
100
AcDbLine
 10
1205.153195
 20
1262.48885
 30
0.0
 11
1201.400195
 21
1268.98885
 31
0.0
  0
LINE
  5
55AC
100
AcDbEntity
  8
0
100
AcDbLine
 10
1199.690466
 20
1268.98885
 30
0.0
 11
1199.690466
 21
1254.496141
 31
0.0
  0
CIRCLE
  5
55AD
100
AcDbEntity
  8
0
100
AcDbCircle
 10
1208.906195
 20
1268.98885
 30
0.0
 40
6.30876
  0
LINE
  5
55AE
100
AcDbEntity
  8
0
100
AcDbLine
 10
1182.690466
 20
1258.704579
 30
0.0
 11
1199.690466
 21
1258.704579
 31
0.0
  0
LINE
  5
55AF
100
AcDbEntity
  8
0
100
AcDbLine
 10
1182.690466
 20
1258.704579
 30
0.0
 11
1182.690466
 21
1240.704579
 31
0.0
  0
ARC
  5
55B0
100
AcDbEntity
  8
0
100
AcDbCircle
 10
1197.690466
 20
1254.496141
 30
0.0
 40
2.0
100
AcDbArc
 50
292.88538
 51
0.0
  0
ARC
  5
55B1
100
AcDbEntity
  8
0
100
AcDbCircle
 10
1201.190466
 20
1246.204579
 30
0.0
 40
7.0
100
AcDbArc
 50
90.0
 51
180.0
  0
LINE
  5
55B2
100
AcDbEntity
  8
0
100
AcDbLine
 10
1212.659195
 20
1262.48885
 30
0.0
 11
1205.153195
 21
1262.48885
 31
0.0
  0
LINE
  5
55B3
100
AcDbEntity
  8
0
100
AcDbLine
 10
1201.190466
 20
1253.204579
 30
0.0
 11
1218.482179
 21
1253.204579
 31
0.0
  0
ARC
  5
55B4
100
AcDbEntity
  8
0
100
AcDbCircle
 10
1197.690466
 20
1226.913017
 30
0.0
 40
2.0
100
AcDbArc
 50
0.0
 51
67.11462
  0
ARC
  5
55B5
100
AcDbEntity
  8
0
100
AcDbCircle
 10
1201.190466
 20
1235.204579
 30
0.0
 40
7.0
100
AcDbArc
 50
180.0
 51
270.0
  0
LINE
  5
55B6
100
AcDbEntity
  8
0
100
AcDbLine
 10
1201.190466
 20
1228.204579
 30
0.0
 11
1218.482179
 21
1228.204579
 31
0.0
  0
LINE
  5
55B7
100
AcDbEntity
  8
0
100
AcDbLine
 10
1194.190466
 20
1235.204579
 30
0.0
 11
1194.190466
 21
1246.204579
 31
0.0
  0
LINE
  5
55B8
100
AcDbEntity
  8
0
100
AcDbLine
 10
1212.659195
 20
1275.48885
 30
0.0
 11
1216.412195
 21
1268.98885
 31
0.0
  0
LINE
  5
55B9
100
AcDbEntity
  8
0
100
AcDbLine
 10
1201.400195
 20
1268.98885
 30
0.0
 11
1205.153195
 21
1275.48885
 31
0.0
  0
LINE
  5
55BA
100
AcDbEntity
  8
0
100
AcDbLine
 10
1205.153195
 20
1275.48885
 30
0.0
 11
1212.659195
 21
1275.48885
 31
0.0
  0
ARC
  5
55BB
100
AcDbEntity
  8
0
100
AcDbCircle
 10
1208.906195
 20
1268.98885
 30
0.0
 40
9.215729
100
AcDbArc
 50
90.0
 51
180.0
  0
LINE
  5
55BC
100
AcDbEntity
  8
0
100
AcDbLine
 10
1265.474737
 20
1261.48285
 30
0.0
 11
1258.974737
 21
1265.23585
 31
0.0
  0
LINE
  5
55BD
100
AcDbEntity
  8
0
100
AcDbLine
 10
1271.974737
 20
1265.23585
 30
0.0
 11
1265.474737
 21
1261.48285
 31
0.0
  0
LINE
  5
55BE
100
AcDbEntity
  8
0
100
AcDbLine
 10
1274.690466
 20
1268.98885
 30
0.0
 11
1274.690466
 21
1254.496141
 31
0.0
  0
CIRCLE
  5
55BF
100
AcDbEntity
  8
0
100
AcDbCircle
 10
1265.474737
 20
1268.98885
 30
0.0
 40
6.30876
  0
LINE
  5
55C0
100
AcDbEntity
  8
0
100
AcDbLine
 10
1255.898753
 20
1253.204579
 30
0.0
 11
1273.190466
 21
1253.204579
 31
0.0
  0
LINE
  5
55C1
100
AcDbEntity
  8
0
100
AcDbLine
 10
1255.898753
 20
1228.204579
 30
0.0
 11
1273.190466
 21
1228.204579
 31
0.0
  0
LINE
  5
55C2
100
AcDbEntity
  8
0
100
AcDbLine
 10
1274.690466
 20
1258.704579
 30
0.0
 11
1290.690466
 21
1258.704579
 31
0.0
  0
LINE
  5
55C3
100
AcDbEntity
  8
0
100
AcDbLine
 10
1271.688022
 20
1245.704579
 30
0.0
 11
1272.951902
 21
1245.704579
 31
0.0
  0
ARC
  5
55C4
100
AcDbEntity
  8
0
100
AcDbCircle
 10
1271.688022
 20
1247.704579
 30
0.0
 40
2.0
100
AcDbArc
 50
180.0
 51
270.0
  0
ARC
  5
55C5
100
AcDbEntity
  8
0
100
AcDbCircle
 10
1276.690466
 20
1254.496141
 30
0.0
 40
2.0
100
AcDbArc
 50
180.0
 51
247.11462
  0
ARC
  5
55C6
100
AcDbEntity
  8
0
100
AcDbCircle
 10
1273.190466
 20
1246.204579
 30
0.0
 40
7.0
100
AcDbArc
 50
0.0
 51
90.0
  0
LINE
  5
55C7
100
AcDbEntity
  8
0
100
AcDbLine
 10
1271.688022
 20
1235.704579
 30
0.0
 11
1272.951902
 21
1235.704579
 31
0.0
  0
ARC
  5
55C8
100
AcDbEntity
  8
0
100
AcDbCircle
 10
1271.688022
 20
1233.704579
 30
0.0
 40
2.0
100
AcDbArc
 50
90.0
 51
180.0
  0
ARC
  5
55C9
100
AcDbEntity
  8
0
100
AcDbCircle
 10
1276.690466
 20
1226.913017
 30
0.0
 40
2.0
100
AcDbArc
 50
112.88538
 51
180.0
  0
ARC
  5
55CA
100
AcDbEntity
  8
0
100
AcDbCircle
 10
1273.190466
 20
1235.204579
 30
0.0
 40
7.0
100
AcDbArc
 50
270.0
 51
0.0
  0
LINE
  5
55CB
100
AcDbEntity
  8
0
100
AcDbLine
 10
1280.190466
 20
1235.204579
 30
0.0
 11
1280.190466
 21
1246.204579
 31
0.0
  0
POLYLINE
  5
55CC
100
AcDbEntity
  8
0
100
AcDb2dPolyline
 66
     1
 10
0.0
 20
0.0
 30
0.0
 70
     1
  0
VERTEX
  5
6378
100
AcDbEntity
  8
0
100
AcDbVertex
100
AcDb2dVertex
 10
1269.115358
 20
1240.704579
 30
0.0
 42
0.077085
  0
VERTEX
  5
6379
100
AcDbEntity
  8
0
100
AcDbVertex
100
AcDb2dVertex
 10
1269.4205
 20
1238.737091
 30
0.0
 42
0.086906
  0
VERTEX
  5
637A
100
AcDbEntity
  8
0
100
AcDbVertex
100
AcDb2dVertex
 10
1270.239055
 20
1237.169045
 30
0.0
 42
0.105719
  0
VERTEX
  5
637B
100
AcDbEntity
  8
0
100
AcDbVertex
100
AcDb2dVertex
 10
1271.538835
 20
1236.061633
 30
0.0
 42
0.124385
  0
VERTEX
  5
637C
100
AcDbEntity
  8
0
100
AcDbVertex
100
AcDb2dVertex
 10
1272.951902
 20
1235.704579
 30
0.0
 42
0.124385
  0
VERTEX
  5
637D
100
AcDbEntity
  8
0
100
AcDbVertex
100
AcDb2dVertex
 10
1274.364968
 20
1236.061633
 30
0.0
 42
0.105719
  0
VERTEX
  5
637E
100
AcDbEntity
  8
0
100
AcDbVertex
100
AcDb2dVertex
 10
1275.664748
 20
1237.169045
 30
0.0
 42
0.086906
  0
VERTEX
  5
637F
100
AcDbEntity
  8
0
100
AcDbVertex
100
AcDb2dVertex
 10
1276.483303
 20
1238.737091
 30
0.0
 42
0.077085
  0
VERTEX
  5
6380
100
AcDbEntity
  8
0
100
AcDbVertex
100
AcDb2dVertex
 10
1276.788446
 20
1240.704579
 30
0.0
 42
0.077085
  0
VERTEX
  5
6381
100
AcDbEntity
  8
0
100
AcDbVertex
100
AcDb2dVertex
 10
1276.483303
 20
1242.672067
 30
0.0
 42
0.086906
  0
VERTEX
  5
6382
100
AcDbEntity
  8
0
100
AcDbVertex
100
AcDb2dVertex
 10
1275.664748
 20
1244.240113
 30
0.0
 42
0.105719
  0
VERTEX
  5
6383
100
AcDbEntity
  8
0
100
AcDbVertex
100
AcDb2dVertex
 10
1274.364968
 20
1245.347525
 30
0.0
 42
0.124385
  0
VERTEX
  5
6384
100
AcDbEntity
  8
0
100
AcDbVertex
100
AcDb2dVertex
 10
1272.951902
 20
1245.704579
 30
0.0
 42
0.124385
  0
VERTEX
  5
6385
100
AcDbEntity
  8
0
100
AcDbVertex
100
AcDb2dVertex
 10
1271.538835
 20
1245.347525
 30
0.0
 42
0.105719
  0
VERTEX
  5
6386
100
AcDbEntity
  8
0
100
AcDbVertex
100
AcDb2dVertex
 10
1270.239055
 20
1244.240113
 30
0.0
 42
0.086906
  0
VERTEX
  5
6387
100
AcDbEntity
  8
0
100
AcDbVertex
100
AcDb2dVertex
 10
1269.4205
 20
1242.672067
 30
0.0
 42
0.077085
  0
SEQEND
  5
6388
100
AcDbEntity
  8
0
  0
LINE
  5
55CD
100
AcDbEntity
  8
0
100
AcDbLine
 10
1290.690466
 20
1258.704579
 30
0.0
 11
1290.690466
 21
1240.704579
 31
0.0
  0
LINE
  5
55CE
100
AcDbEntity
  8
0
100
AcDbLine
 10
1258.974737
 20
1272.74185
 30
0.0
 11
1265.474737
 21
1276.49485
 31
0.0
  0
LINE
  5
55CF
100
AcDbEntity
  8
0
100
AcDbLine
 10
1258.974737
 20
1265.23585
 30
0.0
 11
1258.974737
 21
1272.74185
 31
0.0
  0
LINE
  5
55D0
100
AcDbEntity
  8
0
100
AcDbLine
 10
1271.974737
 20
1272.74185
 30
0.0
 11
1271.974737
 21
1265.23585
 31
0.0
  0
ARC
  5
55D1
100
AcDbEntity
  8
0
100
AcDbCircle
 10
1265.474737
 20
1268.98885
 30
0.0
 40
9.215729
100
AcDbArc
 50
0.0
 51
90.0
  0
LINE
  5
55D2
100
AcDbEntity
  8
0
100
AcDbLine
 10
1265.474737
 20
1276.49485
 30
0.0
 11
1271.974737
 21
1272.74185
 31
0.0
  0
LINE
  5
55D3
100
AcDbEntity
  8
0
100
AcDbLine
 10
1272.468778
 20
1033.607815
 30
0.0
 11
1272.468778
 21
1036.938077
 31
0.0
  0
LINE
  5
55D4
100
AcDbEntity
  8
0
100
AcDbLine
 10
1267.912154
 20
1033.607815
 30
0.0
 11
1267.912154
 21
1036.938077
 31
0.0
  0
LINE
  5
55D5
100
AcDbEntity
  8
0
100
AcDbLine
 10
1273.190466
 20
1051.568755
 30
0.0
 11
1273.190466
 21
1030.568755
 31
0.0
  0
LINE
  5
55D6
100
AcDbEntity
  8
0
100
AcDbLine
 10
1273.190466
 20
1051.568755
 30
0.0
 11
1273.190466
 21
1030.568755
 31
0.0
  0
LINE
  5
55D7
100
AcDbEntity
  8
0
100
AcDbLine
 10
1267.190466
 20
1051.568755
 30
0.0
 11
1267.190466
 21
1030.568755
 31
0.0
  0
LINE
  5
55D8
100
AcDbEntity
  8
0
100
AcDbLine
 10
1267.190466
 20
1053.068755
 30
0.0
 11
1267.190466
 21
1029.068755
 31
0.0
  0
LINE
  5
55D9
100
AcDbEntity
  8
0
100
AcDbLine
 10
1190.038651
 20
1072.252796
 30
0.0
 11
1203.361505
 21
1035.648554
 31
0.0
  0
LINE
  5
55DB
100
AcDbEntity
  8
0
100
AcDbLine
 10
1212.758431
 20
1029.068755
 30
0.0
 11
1267.190466
 21
1029.068755
 31
0.0
  0
ARC
  5
55DC
100
AcDbEntity
  8
0
100
AcDbCircle
 10
1212.758431
 20
1039.068755
 30
0.0
 40
10.0
100
AcDbArc
 50
200.0
 51
270.0
  0
LINE
  5
55DD
100
AcDbEntity
  8
0
100
AcDbLine
 10
1267.912154
 20
1033.607815
 30
0.0
 11
1272.468778
 21
1033.607815
 31
0.0
  0
LINE
  5
55DE
100
AcDbEntity
  8
0
100
AcDbLine
 10
1267.912154
 20
1029.318755
 30
0.0
 11
1272.468778
 21
1029.318755
 31
0.0
  0
ARC
  5
55DF
100
AcDbEntity
  8
0
100
AcDbCircle
 10
1269.643336
 20
1031.463285
 30
0.0
 40
3.54713
100
AcDbArc
 50
337.198744
 51
37.198744
  0
ARC
  5
55E0
100
AcDbEntity
  8
0
100
AcDbCircle
 10
1270.737596
 20
1031.463285
 30
0.0
 40
3.54713
100
AcDbArc
 50
142.801256
 51
202.801256
  0
LINE
  5
55E1
100
AcDbEntity
  8
0
100
AcDbLine
 10
1272.468778
 20
1029.318755
 30
0.0
 11
1273.190466
 21
1030.568755
 31
0.0
  0
LINE
  5
55E2
100
AcDbEntity
  8
0
100
AcDbLine
 10
1267.912154
 20
1029.318755
 30
0.0
 11
1267.190466
 21
1030.568755
 31
0.0
  0
LINE
  5
55E3
100
AcDbEntity
  8
0
100
AcDbLine
 10
1274.690466
 20
1123.068755
 30
0.0
 11
1274.690466
 21
1111.068755
 31
0.0
  0
LINE
  5
55E4
100
AcDbEntity
  8
0
100
AcDbLine
 10
1280.190466
 20
1121.784203
 30
0.0
 11
1280.190466
 21
1111.068755
 31
0.0
  0
LINE
  5
55E5
100
AcDbEntity
  8
0
100
AcDbLine
 10
1199.690466
 20
1123.068755
 30
0.0
 11
1199.690466
 21
1111.068755
 31
0.0
  0
LINE
  5
55E6
100
AcDbEntity
  8
0
100
AcDbLine
 10
1194.190466
 20
1122.336696
 30
0.0
 11
1194.190466
 21
1111.068755
 31
0.0
  0
LINE
  5
55E7
100
AcDbEntity
  8
0
100
AcDbLine
 10
1208.703114
 20
1074.568755
 30
0.0
 11
1269.804702
 21
1074.568755
 31
0.0
  0
LINE
  5
55E8
100
AcDbEntity
  8
0
100
AcDbLine
 10
1220.517901
 20
1053.068755
 30
0.0
 11
1267.190466
 21
1053.068755
 31
0.0
  0
LINE
  5
55E9
100
AcDbEntity
  8
0
100
AcDbLine
 10
1199.690466
 20
1099.068755
 30
0.0
 11
1274.690466
 21
1099.068755
 31
0.0
  0
LINE
  5
55EA
100
AcDbEntity
  8
0
100
AcDbLine
 10
1194.190466
 20
1111.068755
 30
0.0
 11
1280.190466
 21
1111.068755
 31
0.0
  0
ARC
  5
55EB
100
AcDbEntity
  8
0
100
AcDbCircle
 10
1215.690466
 20
1076.332025
 30
0.0
 40
10.0
100
AcDbArc
 50
180.0
 51
200.0
  0
LINE
  5
55EC
100
AcDbEntity
  8
0
100
AcDbLine
 10
1182.690466
 20
1091.568755
 30
0.0
 11
1182.690466
 21
1073.568755
 31
0.0
  0
LINE
  5
55ED
100
AcDbEntity
  8
0
100
AcDbLine
 10
1182.690466
 20
1073.568755
 30
0.0
 11
1188.159266
 21
1073.568755
 31
0.0
  0
ARC
  5
55EE
100
AcDbEntity
  8
0
100
AcDbCircle
 10
1188.159266
 20
1071.568755
 30
0.0
 40
2.0
100
AcDbArc
 50
20.0
 51
90.0
  0
ARC
  5
55EF
100
AcDbEntity
  8
0
100
AcDbCircle
 10
1220.517901
 20
1063.068755
 30
0.0
 40
10.0
100
AcDbArc
 50
200.0
 51
270.0
  0
LINE
  5
55F0
100
AcDbEntity
  8
0
100
AcDbLine
 10
1206.29354
 20
1072.911824
 30
0.0
 11
1211.120975
 21
1059.648554
 31
0.0
  0
LINE
  5
55F1
100
AcDbEntity
  8
0
100
AcDbLine
 10
1182.690466
 20
1109.568755
 30
0.0
 11
1199.690466
 21
1109.568755
 31
0.0
  0
LINE
  5
55F2
100
AcDbEntity
  8
0
100
AcDbLine
 10
1182.690466
 20
1109.568755
 30
0.0
 11
1182.690466
 21
1091.568755
 31
0.0
  0
LINE
  5
55F3
100
AcDbEntity
  8
0
100
AcDbLine
 10
1194.190466
 20
1111.068755
 30
0.0
 11
1194.190466
 21
1109.568755
 31
0.0
  0
LINE
  5
55F4
100
AcDbEntity
  8
0
100
AcDbLine
 10
1199.690466
 20
1111.068755
 30
0.0
 11
1199.690466
 21
1099.068755
 31
0.0
  0
LINE
  5
55F5
100
AcDbEntity
  8
0
100
AcDbLine
 10
1205.690466
 20
1076.332025
 30
0.0
 11
1205.690466
 21
1099.068755
 31
0.0
  0
ARC
  5
55F6
100
AcDbEntity
  8
0
100
AcDbCircle
 10
1262.190466
 20
1075.714881
 30
0.0
 40
10.0
100
AcDbArc
 50
340.0
 51
360.0
  0
LINE
  5
55F7
100
AcDbEntity
  8
0
100
AcDbLine
 10
1290.690466
 20
1091.568755
 30
0.0
 11
1290.690466
 21
1073.568755
 31
0.0
  0
LINE
  5
55F8
100
AcDbEntity
  8
0
100
AcDbLine
 10
1271.957459
 20
1073.568755
 30
0.0
 11
1290.690466
 21
1073.568755
 31
0.0
  0
LINE
  5
55F9
100
AcDbEntity
  8
0
100
AcDbLine
 10
1272.468778
 20
1052.818755
 30
0.0
 11
1273.190466
 21
1051.568755
 31
0.0
  0
ARC
  5
55FA
100
AcDbEntity
  8
0
100
AcDbCircle
 10
1269.643336
 20
1050.674226
 30
0.0
 40
3.54713
100
AcDbArc
 50
322.801256
 51
22.801256
  0
LINE
  5
55FB
100
AcDbEntity
  8
0
100
AcDbLine
 10
1272.468778
 20
1045.199433
 30
0.0
 11
1272.468778
 21
1048.529696
 31
0.0
  0
LINE
  5
55FC
100
AcDbEntity
  8
0
100
AcDbLine
 10
1267.912154
 20
1052.818755
 30
0.0
 11
1267.190466
 21
1051.568755
 31
0.0
  0
ARC
  5
55FD
100
AcDbEntity
  8
0
100
AcDbCircle
 10
1270.737596
 20
1050.674226
 30
0.0
 40
3.54713
100
AcDbArc
 50
157.198744
 51
217.198744
  0
LINE
  5
55FE
100
AcDbEntity
  8
0
100
AcDbLine
 10
1267.912154
 20
1045.199433
 30
0.0
 11
1267.912154
 21
1048.529696
 31
0.0
  0
LINE
  5
55FF
100
AcDbEntity
  8
0
100
AcDbLine
 10
1267.912154
 20
1045.199433
 30
0.0
 11
1272.468778
 21
1045.199433
 31
0.0
  0
LINE
  5
5600
100
AcDbEntity
  8
0
100
AcDbLine
 10
1267.912154
 20
1052.818755
 30
0.0
 11
1272.468778
 21
1052.818755
 31
0.0
  0
LINE
  5
5601
100
AcDbEntity
  8
0
100
AcDbLine
 10
1267.912154
 20
1048.529696
 30
0.0
 11
1272.468778
 21
1048.529696
 31
0.0
  0
LINE
  5
5602
100
AcDbEntity
  8
0
100
AcDbLine
 10
1267.912154
 20
1036.938077
 30
0.0
 11
1272.468778
 21
1036.938077
 31
0.0
  0
ARC
  5
5603
100
AcDbEntity
  8
0
100
AcDbCircle
 10
1261.008375
 20
1041.068755
 30
0.0
 40
12.182091
100
AcDbArc
 50
340.179294
 51
19.820706
  0
ARC
  5
5604
100
AcDbEntity
  8
0
100
AcDbCircle
 10
1261.008375
 20
1041.068755
 30
0.0
 40
12.182091
100
AcDbArc
 50
340.179294
 51
19.820706
  0
ARC
  5
5605
100
AcDbEntity
  8
0
100
AcDbCircle
 10
1279.372557
 20
1041.068755
 30
0.0
 40
12.182091
100
AcDbArc
 50
160.179294
 51
199.820706
  0
ARC
  5
5606
100
AcDbEntity
  8
0
100
AcDbCircle
 10
1279.372557
 20
1041.068755
 30
0.0
 40
12.182091
100
AcDbArc
 50
160.179294
 51
199.820706
  0
LINE
  5
5607
100
AcDbEntity
  8
0
100
AcDbLine
 10
1271.587392
 20
1072.294679
 30
0.0
 11
1264.589728
 21
1053.068755
 31
0.0
  0
LINE
  5
5608
100
AcDbEntity
  8
0
100
AcDbLine
 10
1280.190466
 20
1111.068755
 30
0.0
 11
1280.190466
 21
1109.568755
 31
0.0
  0
LINE
  5
5609
100
AcDbEntity
  8
0
100
AcDbLine
 10
1274.690466
 20
1109.568755
 30
0.0
 11
1290.690466
 21
1109.568755
 31
0.0
  0
LINE
  5
560A
100
AcDbEntity
  8
0
100
AcDbLine
 10
1274.690466
 20
1111.068755
 30
0.0
 11
1274.690466
 21
1099.068755
 31
0.0
  0
LINE
  5
560B
100
AcDbEntity
  8
0
100
AcDbLine
 10
1290.690466
 20
1109.568755
 30
0.0
 11
1290.690466
 21
1091.568755
 31
0.0
  0
LINE
  5
560C
100
AcDbEntity
  8
0
100
AcDbLine
 10
1272.190466
 20
1075.714881
 30
0.0
 11
1272.190466
 21
1099.068755
 31
0.0
  0
LINE
  5
560D
100
AcDbEntity
  8
0
100
AcDbLine
 10
1214.690466
 20
1139.068755
 30
0.0
 11
1269.115358
 21
1139.068755
 31
0.0
  0
LINE
  5
560E
100
AcDbEntity
  8
0
100
AcDbLine
 10
1195.690466
 20
1123.068755
 30
0.0
 11
1278.690466
 21
1123.068755
 31
0.0
  0
LINE
  5
560F
100
AcDbEntity
  8
0
100
AcDbLine
 10
1215.215695
 20
1129.568755
 30
0.0
 11
1216.411695
 21
1128.877755
 31
0.0
  0
ARC
  5
5610
100
AcDbEntity
  8
0
100
AcDbCircle
 10
1214.535195
 20
1125.874797
 30
0.0
 40
3.541047
100
AcDbArc
 50
57.999406
 51
122.000594
  0
LINE
  5
5611
100
AcDbEntity
  8
0
100
AcDbLine
 10
1216.411695
 20
1128.877755
 30
0.0
 11
1216.411695
 21
1123.068755
 31
0.0
  0
LINE
  5
5612
100
AcDbEntity
  8
0
100
AcDbLine
 10
1212.658695
 20
1128.877755
 30
0.0
 11
1212.658695
 21
1123.068755
 31
0.0
  0
LINE
  5
5613
100
AcDbEntity
  8
0
100
AcDbLine
 10
1214.690466
 20
1139.068755
 30
0.0
 11
1211.424841
 21
1129.568755
 31
0.0
  0
LINE
  5
5614
100
AcDbEntity
  8
0
100
AcDbLine
 10
1201.400695
 20
1128.877755
 30
0.0
 11
1202.597695
 21
1129.568755
 31
0.0
  0
ARC
  5
5615
100
AcDbEntity
  8
0
100
AcDbCircle
 10
1203.278195
 20
1125.874797
 30
0.0
 40
3.541047
100
AcDbArc
 50
57.999406
 51
122.000594
  0
ARC
  5
5616
100
AcDbEntity
  8
0
100
AcDbCircle
 10
1195.690466
 20
1122.336696
 30
0.0
 40
1.5
100
AcDbArc
 50
127.971604
 51
180.0
  0
ARC
  5
5617
100
AcDbEntity
  8
0
100
AcDbCircle
 10
1195.690466
 20
1121.568755
 30
0.0
 40
1.5
100
AcDbArc
 50
90.0
 51
180.0
  0
LINE
  5
5618
100
AcDbEntity
  8
0
100
AcDbLine
 10
1205.154695
 20
1128.877755
 30
0.0
 11
1205.154695
 21
1123.068755
 31
0.0
  0
LINE
  5
5619
100
AcDbEntity
  8
0
100
AcDbLine
 10
1201.400695
 20
1123.068755
 30
0.0
 11
1201.400695
 21
1128.877755
 31
0.0
  0
LINE
  5
561A
100
AcDbEntity
  8
0
100
AcDbLine
 10
1201.400695
 20
1128.696251
 30
0.0
 11
1194.76756
 21
1123.51917
 31
0.0
  0
LINE
  5
561B
100
AcDbEntity
  8
0
100
AcDbLine
 10
1202.597695
 20
1129.568755
 30
0.0
 11
1215.215695
 21
1129.568755
 31
0.0
  0
LINE
  5
561C
100
AcDbEntity
  8
0
100
AcDbLine
 10
1214.690466
 20
1139.068755
 30
0.0
 11
1202.293875
 21
1129.393368
 31
0.0
  0
ARC
  5
561D
100
AcDbEntity
  8
0
100
AcDbCircle
 10
1208.906695
 20
1116.063276
 30
0.0
 40
13.352467
100
AcDbArc
 50
73.680297
 51
106.319703
  0
ARC
  5
561E
100
AcDbEntity
  8
0
100
AcDbCircle
 10
1259.845737
 20
1125.874797
 30
0.0
 40
3.541047
100
AcDbArc
 50
57.999406
 51
122.000594
  0
LINE
  5
561F
100
AcDbEntity
  8
0
100
AcDbLine
 10
1271.783237
 20
1129.568755
 30
0.0
 11
1259.165237
 21
1129.568755
 31
0.0
  0
LINE
  5
5620
100
AcDbEntity
  8
0
100
AcDbLine
 10
1259.690466
 20
1139.068755
 30
0.0
 11
1262.956091
 21
1129.568755
 31
0.0
  0
LINE
  5
5621
100
AcDbEntity
  8
0
100
AcDbLine
 10
1259.165237
 20
1129.568755
 30
0.0
 11
1257.969237
 21
1128.877755
 31
0.0
  0
LINE
  5
5622
100
AcDbEntity
  8
0
100
AcDbLine
 10
1257.969237
 20
1128.877755
 30
0.0
 11
1257.969237
 21
1123.068755
 31
0.0
  0
ARC
  5
5623
100
AcDbEntity
  8
0
100
AcDbCircle
 10
1278.690466
 20
1121.784203
 30
0.0
 40
1.5
100
AcDbArc
 50
0.0
 51
20.0
  0
ARC
  5
5624
100
AcDbEntity
  8
0
100
AcDbCircle
 10
1278.690466
 20
1121.568755
 30
0.0
 40
1.5
100
AcDbArc
 50
0.0
 51
90.0
  0
LINE
  5
5625
100
AcDbEntity
  8
0
100
AcDbLine
 10
1276.788446
 20
1131.395667
 30
0.0
 11
1280.100005
 21
1122.297233
 31
0.0
  0
LINE
  5
5626
100
AcDbEntity
  8
0
100
AcDbLine
 10
1272.980237
 20
1128.877755
 30
0.0
 11
1271.783237
 21
1129.568755
 31
0.0
  0
ARC
  5
5627
100
AcDbEntity
  8
0
100
AcDbCircle
 10
1265.474237
 20
1116.063276
 30
0.0
 40
13.352467
100
AcDbArc
 50
73.680297
 51
106.319703
  0
ARC
  5
5628
100
AcDbEntity
  8
0
100
AcDbCircle
 10
1271.102737
 20
1125.874797
 30
0.0
 40
3.541047
100
AcDbArc
 50
57.999406
 51
122.000594
  0
LINE
  5
5629
100
AcDbEntity
  8
0
100
AcDbLine
 10
1272.980237
 20
1123.068755
 30
0.0
 11
1272.980237
 21
1128.877755
 31
0.0
  0
LINE
  5
562A
100
AcDbEntity
  8
0
100
AcDbLine
 10
1269.226237
 20
1128.877755
 30
0.0
 11
1269.226237
 21
1123.068755
 31
0.0
  0
LINE
  5
562B
100
AcDbEntity
  8
0
100
AcDbLine
 10
1261.722237
 20
1128.877755
 30
0.0
 11
1261.722237
 21
1123.068755
 31
0.0
  0
LINE
  5
562C
100
AcDbEntity
  8
0
100
AcDbLine
 10
1269.115358
 20
1139.068755
 30
0.0
 11
1276.788446
 21
1131.395667
 31
0.0
  0
LINE
  5
5631
100
AcDbEntity
  8
0
100
AcDbLine
 10
1365.792546
 20
1123.068755
 30
0.0
 11
1365.792546
 21
1111.068755
 31
0.0
  0
LINE
  5
5633
100
AcDbEntity
  8
0
100
AcDbLine
 10
1440.792546
 20
1123.068755
 30
0.0
 11
1440.792546
 21
1111.068755
 31
0.0
  0
LINE
  5
5634
100
AcDbEntity
  8
0
100
AcDbLine
 10
1365.792546
 20
1111.068755
 30
0.0
 11
1440.792546
 21
1111.068755
 31
0.0
  0
LINE
  5
5635
100
AcDbEntity
  8
0
100
AcDbLine
 10
1365.792546
 20
1099.068755
 30
0.0
 11
1384.063662
 21
1099.068755
 31
0.0
  0
LINE
  5
5636
100
AcDbEntity
  8
0
100
AcDbLine
 10
1365.792546
 20
1111.068755
 30
0.0
 11
1365.792546
 21
1099.068755
 31
0.0
  0
LINE
  5
5638
100
AcDbEntity
  8
0
100
AcDbLine
 10
1440.792546
 20
1111.068755
 30
0.0
 11
1440.792546
 21
1099.068755
 31
0.0
  0
LINE
  5
563A
100
AcDbEntity
  8
0
100
AcDbLine
 10
1365.792546
 20
1123.068755
 30
0.0
 11
1390.792546
 21
1123.068755
 31
0.0
  0
LINE
  5
563B
100
AcDbEntity
  8
0
100
AcDbLine
 10
1380.792546
 20
1139.068755
 30
0.0
 11
1425.792546
 21
1139.068755
 31
0.0
  0
LINE
  5
5648
100
AcDbEntity
  8
0
100
AcDbLine
 10
1380.792546
 20
1139.068755
 30
0.0
 11
1377.526921
 21
1129.568755
 31
0.0
  0
LINE
  5
564C
100
AcDbEntity
  8
0
100
AcDbLine
 10
1425.792546
 20
1139.068755
 30
0.0
 11
1429.058171
 21
1129.568755
 31
0.0
  0
LINE
  5
565B
100
AcDbEntity
  8
0
100
AcDbLine
 10
1375.008775
 20
1128.893765
 30
0.0
 11
1375.008775
 21
1123.068755
 31
0.0
  0
LINE
  5
565C
100
AcDbEntity
  8
0
100
AcDbLine
 10
1381.508775
 20
1129.568755
 30
0.0
 11
1381.508775
 21
1123.068755
 31
0.0
  0
LINE
  5
565D
100
AcDbEntity
  8
0
100
AcDbLine
 10
1368.508775
 20
1129.568755
 30
0.0
 11
1381.508775
 21
1129.568755
 31
0.0
  0
ARC
  5
565E
100
AcDbEntity
  8
0
100
AcDbCircle
 10
1378.24057
 20
1121.494724
 30
0.0
 40
8.074051
100
AcDbArc
 50
66.122736
 51
113.877264
  0
LINE
  5
565F
100
AcDbEntity
  8
0
100
AcDbLine
 10
1368.508775
 20
1129.568755
 30
0.0
 11
1368.508775
 21
1123.068755
 31
0.0
  0
ARC
  5
5660
100
AcDbEntity
  8
0
100
AcDbCircle
 10
1371.77698
 20
1121.494724
 30
0.0
 40
8.074051
100
AcDbArc
 50
66.122736
 51
113.877264
  0
CIRCLE
  5
5661
100
AcDbEntity
  8
0
100
AcDbCircle
 10
1403.292546
 20
1091.568755
 30
0.0
 40
18.0
  0
LINE
  5
5662
100
AcDbEntity
  8
0
100
AcDbLine
 10
1422.521431
 20
1099.068755
 30
0.0
 11
1440.792546
 21
1099.068755
 31
0.0
  0
ARC
  5
5663
100
AcDbEntity
  8
0
100
AcDbCircle
 10
1428.344522
 20
1121.494724
 30
0.0
 40
8.074051
100
AcDbArc
 50
66.122736
 51
113.877264
  0
LINE
  5
5664
100
AcDbEntity
  8
0
100
AcDbLine
 10
1438.076317
 20
1129.568755
 30
0.0
 11
1425.076317
 21
1129.568755
 31
0.0
  0
ARC
  5
5665
100
AcDbEntity
  8
0
100
AcDbCircle
 10
1434.808113
 20
1121.494724
 30
0.0
 40
8.074051
100
AcDbArc
 50
66.122736
 51
113.877264
  0
LINE
  5
5666
100
AcDbEntity
  8
0
100
AcDbLine
 10
1438.076317
 20
1129.568755
 30
0.0
 11
1438.076317
 21
1123.068755
 31
0.0
  0
LINE
  5
5667
100
AcDbEntity
  8
0
100
AcDbLine
 10
1431.576317
 20
1128.893765
 30
0.0
 11
1431.576317
 21
1123.068755
 31
0.0
  0
LINE
  5
5668
100
AcDbEntity
  8
0
100
AcDbLine
 10
1425.076317
 20
1129.568755
 30
0.0
 11
1425.076317
 21
1123.068755
 31
0.0
  0
LINE
  5
566B
100
AcDbEntity
  8
0
100
AcDbLine
 10
1410.805367
 20
1030.299525
 30
0.0
 11
1412.761331
 21
1034.993838
 31
0.0
  0
POLYLINE
  5
566C
100
AcDbEntity
  8
0
100
AcDb2dPolyline
 66
     1
 10
0.0
 20
0.0
 30
0.0
  0
VERTEX
  5
6389
100
AcDbEntity
  8
0
100
AcDbVertex
100
AcDb2dVertex
 10
1412.040313
 20
1048.142585
 30
0.0
  0
VERTEX
  5
638A
100
AcDbEntity
  8
0
100
AcDbVertex
100
AcDb2dVertex
 10
1405.044779
 20
1052.181459
 30
0.0
  0
SEQEND
  5
638B
100
AcDbEntity
  8
0
  0
POLYLINE
  5
566D
100
AcDbEntity
  8
0
100
AcDb2dPolyline
 66
     1
 10
0.0
 20
0.0
 30
0.0
  0
VERTEX
  5
638C
100
AcDbEntity
  8
0
100
AcDbVertex
100
AcDb2dVertex
 10
1405.044779
 20
1029.956052
 30
0.0
  0
VERTEX
  5
638D
100
AcDbEntity
  8
0
100
AcDbVertex
100
AcDb2dVertex
 10
1412.040313
 20
1033.994925
 30
0.0
  0
SEQEND
  5
638E
100
AcDbEntity
  8
0
  0
ARC
  5
566E
100
AcDbEntity
  8
0
100
AcDbCircle
 10
1403.292546
 20
1041.068755
 30
0.0
 40
12.0
100
AcDbArc
 50
0.0
 51
180.0
  0
ARC
  5
566F
100
AcDbEntity
  8
0
100
AcDbCircle
 10
1403.292546
 20
1041.068755
 30
0.0
 40
11.25
100
AcDbArc
 50
141.03947
 51
158.96053
  0
ARC
  5
5670
100
AcDbEntity
  8
0
100
AcDbCircle
 10
1403.292546
 20
1041.068755
 30
0.0
 40
11.25
100
AcDbArc
 50
81.03947
 51
98.96053
  0
POLYLINE
  5
5671
100
AcDbEntity
  8
0
100
AcDb2dPolyline
 66
     1
 10
0.0
 20
0.0
 30
0.0
  0
VERTEX
  5
638F
100
AcDbEntity
  8
0
100
AcDbVertex
100
AcDb2dVertex
 10
1401.540313
 20
1052.181459
 30
0.0
  0
VERTEX
  5
6390
100
AcDbEntity
  8
0
100
AcDbVertex
100
AcDb2dVertex
 10
1394.544779
 20
1048.142585
 30
0.0
  0
SEQEND
  5
6391
100
AcDbEntity
  8
0
  0
ARC
  5
5672
100
AcDbEntity
  8
0
100
AcDbCircle
 10
1390.643436
 20
1047.068755
 30
0.0
 40
2.0
100
AcDbArc
 50
334.623066
 51
90.0
  0
LINE
  5
5673
100
AcDbEntity
  8
0
100
AcDbLine
 10
1395.779726
 20
1030.299525
 30
0.0
 11
1393.823762
 21
1034.993838
 31
0.0
  0
ARC
  5
5674
100
AcDbEntity
  8
0
100
AcDbCircle
 10
1403.292546
 20
1041.068755
 30
0.0
 40
11.25
100
AcDbArc
 50
201.03947
 51
218.96053
  0
ARC
  5
5675
100
AcDbEntity
  8
0
100
AcDbCircle
 10
1403.292546
 20
1041.068755
 30
0.0
 40
11.25
100
AcDbArc
 50
261.03947
 51
278.96053
  0
POLYLINE
  5
5676
100
AcDbEntity
  8
0
100
AcDb2dPolyline
 66
     1
 10
0.0
 20
0.0
 30
0.0
  0
VERTEX
  5
6392
100
AcDbEntity
  8
0
100
AcDbVertex
100
AcDb2dVertex
 10
1394.544779
 20
1033.994925
 30
0.0
  0
VERTEX
  5
6393
100
AcDbEntity
  8
0
100
AcDbVertex
100
AcDb2dVertex
 10
1401.540313
 20
1029.956052
 30
0.0
  0
SEQEND
  5
6394
100
AcDbEntity
  8
0
  0
LINE
  5
5677
100
AcDbEntity
  8
0
100
AcDbLine
 10
1397.62588
 20
1029.068755
 30
0.0
 11
1408.959213
 21
1029.068755
 31
0.0
  0
LINE
  5
5678
100
AcDbEntity
  8
0
100
AcDbLine
 10
1408.959213
 20
1029.068755
 30
0.0
 11
1397.62588
 21
1029.068755
 31
0.0
  0
ARC
  5
5679
100
AcDbEntity
  8
0
100
AcDbCircle
 10
1408.959213
 20
1031.068755
 30
0.0
 40
2.0
100
AcDbArc
 50
270.0
 51
337.380135
  0
ARC
  5
567A
100
AcDbEntity
  8
0
100
AcDbCircle
 10
1397.62588
 20
1031.068755
 30
0.0
 40
2.0
100
AcDbArc
 50
202.619865
 51
270.0
  0
LINE
  5
567B
100
AcDbEntity
  8
0
100
AcDbLine
 10
1392.792546
 20
1037.468755
 30
0.0
 11
1391.292546
 21
1041.068755
 31
0.0
  0
POLYLINE
  5
567C
100
AcDbEntity
  8
0
100
AcDb2dPolyline
 66
     1
 10
0.0
 20
0.0
 30
0.0
  0
VERTEX
  5
6395
100
AcDbEntity
  8
0
100
AcDbVertex
100
AcDb2dVertex
 10
1392.792546
 20
1045.107629
 30
0.0
  0
VERTEX
  5
6396
100
AcDbEntity
  8
0
100
AcDbVertex
100
AcDb2dVertex
 10
1392.792546
 20
1037.029882
 30
0.0
  0
SEQEND
  5
6397
100
AcDbEntity
  8
0
  0
ARC
  5
567D
100
AcDbEntity
  8
0
100
AcDbCircle
 10
1403.292546
 20
1041.068755
 30
0.0
 40
11.25
100
AcDbArc
 50
21.03947
 51
38.96053
  0
ARC
  5
567E
100
AcDbEntity
  8
0
100
AcDbCircle
 10
1415.941657
 20
1047.068755
 30
0.0
 40
2.0
100
AcDbArc
 50
90.0
 51
205.376934
  0
LINE
  5
567F
100
AcDbEntity
  8
0
100
AcDbLine
 10
1419.457181
 20
1049.068755
 30
0.0
 11
1415.941657
 21
1049.068755
 31
0.0
  0
ARC
  5
5680
100
AcDbEntity
  8
0
100
AcDbCircle
 10
1403.292546
 20
1041.068755
 30
0.0
 40
11.25
100
AcDbArc
 50
321.03947
 51
338.96053
  0
LINE
  5
5681
100
AcDbEntity
  8
0
100
AcDbLine
 10
1413.792546
 20
1037.468755
 30
0.0
 11
1415.292546
 21
1041.068755
 31
0.0
  0
POLYLINE
  5
5682
100
AcDbEntity
  8
0
100
AcDb2dPolyline
 66
     1
 10
0.0
 20
0.0
 30
0.0
  0
VERTEX
  5
6398
100
AcDbEntity
  8
0
100
AcDbVertex
100
AcDb2dVertex
 10
1413.792546
 20
1037.029882
 30
0.0
  0
VERTEX
  5
6399
100
AcDbEntity
  8
0
100
AcDbVertex
100
AcDb2dVertex
 10
1413.792546
 20
1045.107629
 30
0.0
  0
SEQEND
  5
639A
100
AcDbEntity
  8
0
  0
LINE
  5
5683
100
AcDbEntity
  8
0
100
AcDbLine
 10
1370.792546
 20
1077.092173
 30
0.0
 11
1370.792546
 21
1099.068755
 31
0.0
  0
ARC
  5
5684
100
AcDbEntity
  8
0
100
AcDbCircle
 10
1384.292546
 20
1077.092173
 30
0.0
 40
13.5
100
AcDbArc
 50
180.0
 51
200.0
  0
LINE
  5
5685
100
AcDbEntity
  8
0
100
AcDbLine
 10
1371.606696
 20
1072.474901
 30
0.0
 11
1377.730985
 21
1055.648554
 31
0.0
  0
ARC
  5
5686
100
AcDbEntity
  8
0
100
AcDbCircle
 10
1419.457181
 20
1059.068755
 30
0.0
 40
10.0
100
AcDbArc
 50
270.0
 51
340.0
  0
LINE
  5
5687
100
AcDbEntity
  8
0
100
AcDbLine
 10
1434.978397
 20
1072.474901
 30
0.0
 11
1428.854107
 21
1055.648554
 31
0.0
  0
LINE
  5
5688
100
AcDbEntity
  8
0
100
AcDbLine
 10
1435.792546
 20
1077.092173
 30
0.0
 11
1435.792546
 21
1099.068755
 31
0.0
  0
ARC
  5
5689
100
AcDbEntity
  8
0
100
AcDbCircle
 10
1422.292546
 20
1077.092173
 30
0.0
 40
13.5
100
AcDbArc
 50
340.0
 51
0.0
  0
ARC
  5
568A
100
AcDbEntity
  8
0
100
AcDbCircle
 10
1387.127912
 20
1059.068755
 30
0.0
 40
10.0
100
AcDbArc
 50
200.0
 51
270.0
  0
LINE
  5
568B
100
AcDbEntity
  8
0
100
AcDbLine
 10
1374.805194
 20
1074.568755
 30
0.0
 11
1397.376466
 21
1074.568755
 31
0.0
  0
LINE
  5
568C
100
AcDbEntity
  8
0
100
AcDbLine
 10
1387.127912
 20
1049.068755
 30
0.0
 11
1390.643436
 21
1049.068755
 31
0.0
  0
LINE
  5
568D
100
AcDbEntity
  8
0
100
AcDbLine
 10
1409.208626
 20
1074.568755
 30
0.0
 11
1431.779898
 21
1074.568755
 31
0.0
  0
LINE
  5
568E
100
AcDbEntity
  8
0
100
AcDbLine
 10
1393.648171
 20
1123.068755
 30
0.0
 11
1412.936921
 21
1123.068755
 31
0.0
  0
LINE
  5
568F
100
AcDbEntity
  8
0
100
AcDbLine
 10
1390.792546
 20
1104.520589
 30
0.0
 11
1390.792546
 21
1139.068755
 31
0.0
  0
ELLIPSE
  5
5690
100
AcDbEntity
  8
0
100
AcDbEllipse
 10
1403.292546
 20
1135.232211
 30
0.0
 11
-5.0
 21
0.0
 31
0.0
210
0.0
220
0.0
230
1.0
 40
0.767309
 41
0.0
 42
6.283185307179586
  0
LINE
  5
5691
100
AcDbEntity
  8
0
100
AcDbLine
 10
1415.792546
 20
1104.520589
 30
0.0
 11
1415.792546
 21
1139.068755
 31
0.0
  0
ARC
  5
5692
100
AcDbEntity
  8
0
100
AcDbCircle
 10
1384.063662
 20
1097.068755
 30
0.0
 40
2.0
100
AcDbArc
 50
344.037986
 51
90.0
  0
ARC
  5
5693
100
AcDbEntity
  8
0
100
AcDbCircle
 10
1422.521431
 20
1097.068755
 30
0.0
 40
2.0
100
AcDbArc
 50
90.0
 51
195.962014
  0
LINE
  5
5694
100
AcDbEntity
  8
0
100
AcDbLine
 10
1415.792546
 20
1123.068755
 30
0.0
 11
1440.792546
 21
1123.068755
 31
0.0
  0
LINE
  5
5695
100
AcDbEntity
  8
0
100
AcDbLine
 10
1027.135643
 20
1104.520589
 30
0.0
 11
1027.135643
 21
1139.068755
 31
0.0
  0
LINE
  5
5696
100
AcDbEntity
  8
0
100
AcDbLine
 10
1052.135643
 20
1104.520589
 30
0.0
 11
1052.135643
 21
1139.068755
 31
0.0
  0
LINE
  5
5697
100
AcDbEntity
  8
0
100
AcDbLine
 10
1002.135643
 20
1123.068755
 30
0.0
 11
1002.135643
 21
1111.068755
 31
0.0
  0
LINE
  5
5698
100
AcDbEntity
  8
0
100
AcDbLine
 10
1077.135643
 20
1123.068755
 30
0.0
 11
1077.135643
 21
1111.068755
 31
0.0
  0
ARC
  5
5699
100
AcDbEntity
  8
0
100
AcDbCircle
 10
1055.800277
 20
1059.068755
 30
0.0
 40
10.0
100
AcDbArc
 50
263.246145
 51
340.0
  0
ARC
  5
569A
100
AcDbEntity
  8
0
100
AcDbCircle
 10
1023.471008
 20
1059.068755
 30
0.0
 40
10.0
100
AcDbArc
 50
200.0
 51
270.0
  0
LINE
  5
569E
100
AcDbEntity
  8
0
100
AcDbLine
 10
1033.968976
 20
1029.068755
 30
0.0
 11
1045.302309
 21
1029.068755
 31
0.0
  0
LINE
  5
569F
100
AcDbEntity
  8
0
100
AcDbLine
 10
1045.302309
 20
1029.068755
 30
0.0
 11
1033.968976
 21
1029.068755
 31
0.0
  0
ARC
  5
56A4
100
AcDbEntity
  8
0
100
AcDbCircle
 10
1045.302309
 20
1031.068755
 30
0.0
 40
2.0
100
AcDbArc
 50
270.0
 51
337.380135
  0
LINE
  5
56AD
100
AcDbEntity
  8
0
100
AcDbLine
 10
1023.471008
 20
1049.068755
 30
0.0
 11
1024.892371
 21
1049.068755
 31
0.0
  0
ARC
  5
56B0
100
AcDbEntity
  8
0
100
AcDbCircle
 10
1033.968976
 20
1031.068755
 30
0.0
 40
2.0
100
AcDbArc
 50
202.619865
 51
270.0
  0
CIRCLE
  5
56B4
100
AcDbEntity
  8
0
100
AcDbCircle
 10
1039.635643
 20
1091.568755
 30
0.0
 40
18.0
  0
LINE
  5
56B5
100
AcDbEntity
  8
0
100
AcDbLine
 10
1077.135643
 20
1111.068755
 30
0.0
 11
1002.135643
 21
1111.068755
 31
0.0
  0
LINE
  5
56B6
100
AcDbEntity
  8
0
100
AcDbLine
 10
1072.135643
 20
1077.092173
 30
0.0
 11
1072.135643
 21
1099.068755
 31
0.0
  0
LINE
  5
56B8
100
AcDbEntity
  8
0
100
AcDbLine
 10
1071.321493
 20
1072.474901
 30
0.0
 11
1065.197203
 21
1055.648554
 31
0.0
  0
ARC
  5
56B9
100
AcDbEntity
  8
0
100
AcDbCircle
 10
1058.635643
 20
1077.092173
 30
0.0
 40
13.5
100
AcDbArc
 50
340.0
 51
0.0
  0
LINE
  5
56BA
100
AcDbEntity
  8
0
100
AcDbLine
 10
1077.135643
 20
1099.068755
 30
0.0
 11
1058.864527
 21
1099.068755
 31
0.0
  0
LINE
  5
56BB
100
AcDbEntity
  8
0
100
AcDbLine
 10
1077.135643
 20
1111.068755
 30
0.0
 11
1077.135643
 21
1099.068755
 31
0.0
  0
ARC
  5
56BC
100
AcDbEntity
  8
0
100
AcDbCircle
 10
1058.864527
 20
1097.068755
 30
0.0
 40
2.0
100
AcDbArc
 50
90.0
 51
195.962014
  0
LINE
  5
56BD
100
AcDbEntity
  8
0
100
AcDbLine
 10
1007.135643
 20
1077.092173
 30
0.0
 11
1007.135643
 21
1099.068755
 31
0.0
  0
LINE
  5
56BE
100
AcDbEntity
  8
0
100
AcDbLine
 10
1020.042023
 20
1074.568755
 30
0.0
 11
1011.148291
 21
1074.568755
 31
0.0
  0
ARC
  5
56BF
100
AcDbEntity
  8
0
100
AcDbCircle
 10
1020.635643
 20
1077.092173
 30
0.0
 40
13.5
100
AcDbArc
 50
180.0
 51
200.0
  0
LINE
  5
56C0
100
AcDbEntity
  8
0
100
AcDbLine
 10
1007.949792
 20
1072.474901
 30
0.0
 11
1014.074082
 21
1055.648554
 31
0.0
  0
LINE
  5
56C1
100
AcDbEntity
  8
0
100
AcDbLine
 10
1020.406758
 20
1099.068755
 30
0.0
 11
1002.135643
 21
1099.068755
 31
0.0
  0
ARC
  5
56C2
100
AcDbEntity
  8
0
100
AcDbCircle
 10
1020.406758
 20
1097.068755
 30
0.0
 40
2.0
100
AcDbArc
 50
344.037986
 51
90.0
  0
LINE
  5
56C3
100
AcDbEntity
  8
0
100
AcDbLine
 10
1002.135643
 20
1111.068755
 30
0.0
 11
1002.135643
 21
1099.068755
 31
0.0
  0
LINE
  5
56C5
100
AcDbEntity
  8
0
100
AcDbLine
 10
1049.280018
 20
1123.068755
 30
0.0
 11
1029.991267
 21
1123.068755
 31
0.0
  0
LINE
  5
56C6
100
AcDbEntity
  8
0
100
AcDbLine
 10
1062.135643
 20
1139.068755
 30
0.0
 11
1017.135643
 21
1139.068755
 31
0.0
  0
LINE
  5
56C7
100
AcDbEntity
  8
0
100
AcDbLine
 10
1077.135643
 20
1123.068755
 30
0.0
 11
1052.135643
 21
1123.068755
 31
0.0
  0
ARC
  5
56C8
100
AcDbEntity
  8
0
100
AcDbCircle
 10
1064.687619
 20
1121.494724
 30
0.0
 40
8.074051
100
AcDbArc
 50
66.122736
 51
113.877264
  0
LINE
  5
56C9
100
AcDbEntity
  8
0
100
AcDbLine
 10
1074.419414
 20
1129.568755
 30
0.0
 11
1061.419414
 21
1129.568755
 31
0.0
  0
LINE
  5
56CA
100
AcDbEntity
  8
0
100
AcDbLine
 10
1062.135643
 20
1139.068755
 30
0.0
 11
1065.401268
 21
1129.568755
 31
0.0
  0
ARC
  5
56CB
100
AcDbEntity
  8
0
100
AcDbCircle
 10
1071.151209
 20
1121.494724
 30
0.0
 40
8.074051
100
AcDbArc
 50
66.122736
 51
113.877264
  0
LINE
  5
56CC
100
AcDbEntity
  8
0
100
AcDbLine
 10
1074.419414
 20
1129.568755
 30
0.0
 11
1074.419414
 21
1123.068755
 31
0.0
  0
LINE
  5
56CD
100
AcDbEntity
  8
0
100
AcDbLine
 10
1067.919414
 20
1128.893765
 30
0.0
 11
1067.919414
 21
1123.068755
 31
0.0
  0
LINE
  5
56CE
100
AcDbEntity
  8
0
100
AcDbLine
 10
1061.419414
 20
1129.568755
 30
0.0
 11
1061.419414
 21
1123.068755
 31
0.0
  0
LINE
  5
56CF
100
AcDbEntity
  8
0
100
AcDbLine
 10
1027.135643
 20
1123.068755
 30
0.0
 11
1002.135643
 21
1123.068755
 31
0.0
  0
LINE
  5
56D0
100
AcDbEntity
  8
0
100
AcDbLine
 10
1004.851871
 20
1129.568755
 30
0.0
 11
1017.851871
 21
1129.568755
 31
0.0
  0
ARC
  5
56D1
100
AcDbEntity
  8
0
100
AcDbCircle
 10
1014.583667
 20
1121.494724
 30
0.0
 40
8.074051
100
AcDbArc
 50
66.122736
 51
113.877264
  0
LINE
  5
56D2
100
AcDbEntity
  8
0
100
AcDbLine
 10
1017.851871
 20
1129.568755
 30
0.0
 11
1017.851871
 21
1123.068755
 31
0.0
  0
LINE
  5
56D3
100
AcDbEntity
  8
0
100
AcDbLine
 10
1011.351871
 20
1128.893765
 30
0.0
 11
1011.351871
 21
1123.068755
 31
0.0
  0
LINE
  5
56D4
100
AcDbEntity
  8
0
100
AcDbLine
 10
1004.851871
 20
1129.568755
 30
0.0
 11
1004.851871
 21
1123.068755
 31
0.0
  0
ARC
  5
56D5
100
AcDbEntity
  8
0
100
AcDbCircle
 10
1008.120076
 20
1121.494724
 30
0.0
 40
8.074051
100
AcDbArc
 50
66.122736
 51
113.877264
  0
LINE
  5
56D6
100
AcDbEntity
  8
0
100
AcDbLine
 10
1017.135643
 20
1139.068755
 30
0.0
 11
1013.870018
 21
1129.568755
 31
0.0
  0
LINE
  5
56D7
100
AcDbEntity
  8
0
100
AcDbLine
 10
1032.122822
 20
1030.299525
 30
0.0
 11
1027.635643
 21
1041.068755
 31
0.0
  0
LINE
  5
56D8
100
AcDbEntity
  8
0
100
AcDbLine
 10
1047.148463
 20
1030.299525
 30
0.0
 11
1051.635643
 21
1041.068755
 31
0.0
  0
LINE
  5
56D9
100
AcDbEntity
  8
0
100
AcDbLine
 10
1027.635643
 20
1041.068755
 30
0.0
 11
1021.7669
 21
1089.398951
 31
0.0
  0
LINE
  5
56DA
100
AcDbEntity
  8
0
100
AcDbLine
 10
1051.635643
 20
1041.068755
 30
0.0
 11
1057.504385
 21
1089.398951
 31
0.0
  0
ARC
  5
56DB
100
AcDbEntity
  8
0
100
AcDbCircle
 10
1024.892371
 20
1047.068755
 30
0.0
 40
2.0
100
AcDbArc
 50
6.923537
 51
90.0
  0
ARC
  5
56DC
100
AcDbEntity
  8
0
100
AcDbCircle
 10
1054.389027
 20
1047.152029
 30
0.0
 40
2.0
100
AcDbArc
 50
83.246145
 51
173.076463
  0
LINE
  5
56DE
100
AcDbEntity
  8
0
100
AcDbLine
 10
1059.229262
 20
1074.568755
 30
0.0
 11
1068.122995
 21
1074.568755
 31
0.0
  0
ARC
  5
56E0
100
AcDbEntity
  8
0
100
AcDbCircle
 10
1969.444675
 20
1035.463285
 30
0.0
 40
3.54713
100
AcDbArc
 50
142.801256
 51
202.801256
  0
ARC
  5
56E1
100
AcDbEntity
  8
0
100
AcDbCircle
 10
1968.350415
 20
1035.463285
 30
0.0
 40
3.54713
100
AcDbArc
 50
337.198744
 51
37.198744
  0
LINE
  5
56E2
100
AcDbEntity
  8
0
100
AcDbLine
 10
1971.897545
 20
1055.568755
 30
0.0
 11
1971.897545
 21
1034.568755
 31
0.0
  0
LINE
  5
56E3
100
AcDbEntity
  8
0
100
AcDbLine
 10
1971.897545
 20
1055.568755
 30
0.0
 11
1971.897545
 21
1034.568755
 31
0.0
  0
LINE
  5
56E4
100
AcDbEntity
  8
0
100
AcDbLine
 10
1965.897545
 20
1055.568755
 30
0.0
 11
1965.897545
 21
1034.568755
 31
0.0
  0
LINE
  5
56E5
100
AcDbEntity
  8
0
100
AcDbLine
 10
1965.897545
 20
1057.068755
 30
0.0
 11
1965.897545
 21
1033.068755
 31
0.0
  0
ARC
  5
56E6
100
AcDbEntity
  8
0
100
AcDbCircle
 10
1911.465511
 20
1043.068755
 30
0.0
 40
10.0
100
AcDbArc
 50
200.0
 51
270.0
  0
LINE
  5
56E7
100
AcDbEntity
  8
0
100
AcDbLine
 10
1911.465511
 20
1033.068755
 30
0.0
 11
1965.897545
 21
1033.068755
 31
0.0
  0
LINE
  5
56E9
100
AcDbEntity
  8
0
100
AcDbLine
 10
1966.619233
 20
1033.318755
 30
0.0
 11
1965.897545
 21
1034.568755
 31
0.0
  0
LINE
  5
56EA
100
AcDbEntity
  8
0
100
AcDbLine
 10
1971.175857
 20
1033.318755
 30
0.0
 11
1971.897545
 21
1034.568755
 31
0.0
  0
LINE
  5
56EB
100
AcDbEntity
  8
0
100
AcDbLine
 10
1966.619233
 20
1033.318755
 30
0.0
 11
1971.175857
 21
1033.318755
 31
0.0
  0
ARC
  5
56EC
100
AcDbEntity
  8
0
100
AcDbCircle
 10
1969.444675
 20
1054.674226
 30
0.0
 40
3.54713
100
AcDbArc
 50
157.198744
 51
217.198744
  0
ARC
  5
56ED
100
AcDbEntity
  8
0
100
AcDbCircle
 10
1964.181316
 20
1120.063276
 30
0.0
 40
13.352467
100
AcDbArc
 50
73.680297
 51
106.319703
  0
LINE
  5
56EE
100
AcDbEntity
  8
0
100
AcDbLine
 10
1970.490316
 20
1133.568755
 30
0.0
 11
1957.872316
 21
1133.568755
 31
0.0
  0
LINE
  5
56EF
100
AcDbEntity
  8
0
100
AcDbLine
 10
1894.397545
 20
1127.068755
 30
0.0
 11
1977.397545
 21
1127.068755
 31
0.0
  0
LINE
  5
56F0
100
AcDbEntity
  8
0
100
AcDbLine
 10
1913.397545
 20
1143.068755
 30
0.0
 11
1967.822437
 21
1143.068755
 31
0.0
  0
LINE
  5
56F1
100
AcDbEntity
  8
0
100
AcDbLine
 10
1892.897545
 20
1115.068755
 30
0.0
 11
1978.897545
 21
1115.068755
 31
0.0
  0
LINE
  5
56F2
100
AcDbEntity
  8
0
100
AcDbLine
 10
1898.397545
 20
1103.068755
 30
0.0
 11
1973.397545
 21
1103.068755
 31
0.0
  0
LINE
  5
56F3
100
AcDbEntity
  8
0
100
AcDbLine
 10
1907.410193
 20
1078.568755
 30
0.0
 11
1968.511781
 21
1078.568755
 31
0.0
  0
LINE
  5
56F4
100
AcDbEntity
  8
0
100
AcDbLine
 10
1919.22498
 20
1057.068755
 30
0.0
 11
1965.897545
 21
1057.068755
 31
0.0
  0
LINE
  5
56F5
100
AcDbEntity
  8
0
100
AcDbLine
 10
1970.294471
 20
1076.294679
 30
0.0
 11
1963.296807
 21
1057.068755
 31
0.0
  0
LINE
  5
56F6
100
AcDbEntity
  8
0
100
AcDbLine
 10
1898.397545
 20
1115.068755
 30
0.0
 11
1898.397545
 21
1103.068755
 31
0.0
  0
LINE
  5
56F7
100
AcDbEntity
  8
0
100
AcDbLine
 10
1879.397545
 20
1091.568755
 30
0.0
 11
1879.397545
 21
1113.568755
 31
0.0
  0
LINE
  5
56F8
100
AcDbEntity
  8
0
100
AcDbLine
 10
1891.657492
 20
1068.252796
 30
0.0
 11
1902.068584
 21
1039.648554
 31
0.0
  0
LINE
  5
56F9
100
AcDbEntity
  8
0
100
AcDbLine
 10
1879.397545
 20
1069.568755
 30
0.0
 11
1879.397545
 21
1091.568755
 31
0.0
  0
LINE
  5
56FA
100
AcDbEntity
  8
0
100
AcDbLine
 10
1879.397545
 20
1069.568755
 30
0.0
 11
1889.778106
 21
1069.568755
 31
0.0
  0
ARC
  5
56FB
100
AcDbEntity
  8
0
100
AcDbCircle
 10
1889.778106
 20
1067.568755
 30
0.0
 40
2.0
100
AcDbArc
 50
20.0
 51
90.0
  0
LINE
  5
56FC
100
AcDbEntity
  8
0
100
AcDbLine
 10
1905.000619
 20
1076.911824
 30
0.0
 11
1909.828054
 21
1063.648554
 31
0.0
  0
ARC
  5
56FD
100
AcDbEntity
  8
0
100
AcDbCircle
 10
1919.22498
 20
1067.068755
 30
0.0
 40
10.0
100
AcDbArc
 50
200.0
 51
270.0
  0
ARC
  5
56FE
100
AcDbEntity
  8
0
100
AcDbCircle
 10
1914.397545
 20
1080.332025
 30
0.0
 40
10.0
100
AcDbArc
 50
180.0
 51
200.0
  0
LINE
  5
56FF
100
AcDbEntity
  8
0
100
AcDbLine
 10
1904.397545
 20
1080.332025
 30
0.0
 11
1904.397545
 21
1103.068755
 31
0.0
  0
LINE
  5
5700
100
AcDbEntity
  8
0
100
AcDbLine
 10
1900.107774
 20
1132.696251
 30
0.0
 11
1893.474639
 21
1127.51917
 31
0.0
  0
LINE
  5
5701
100
AcDbEntity
  8
0
100
AcDbLine
 10
1879.397545
 20
1113.568755
 30
0.0
 11
1898.397545
 21
1113.568755
 31
0.0
  0
ARC
  5
5702
100
AcDbEntity
  8
0
100
AcDbCircle
 10
1894.397545
 20
1125.568755
 30
0.0
 40
1.5
100
AcDbArc
 50
90.0
 51
180.0
  0
ARC
  5
5703
100
AcDbEntity
  8
0
100
AcDbCircle
 10
1894.397545
 20
1126.336696
 30
0.0
 40
1.5
100
AcDbArc
 50
127.971604
 51
180.0
  0
LINE
  5
5704
100
AcDbEntity
  8
0
100
AcDbLine
 10
1892.897545
 20
1115.068755
 30
0.0
 11
1892.897545
 21
1113.568755
 31
0.0
  0
LINE
  5
5705
100
AcDbEntity
  8
0
100
AcDbLine
 10
1892.897545
 20
1126.336696
 30
0.0
 11
1892.897545
 21
1115.068755
 31
0.0
  0
LINE
  5
5706
100
AcDbEntity
  8
0
100
AcDbLine
 10
1915.118774
 20
1132.877755
 30
0.0
 11
1915.118774
 21
1127.068755
 31
0.0
  0
LINE
  5
5707
100
AcDbEntity
  8
0
100
AcDbLine
 10
1901.304774
 20
1133.568755
 30
0.0
 11
1913.922774
 21
1133.568755
 31
0.0
  0
LINE
  5
5708
100
AcDbEntity
  8
0
100
AcDbLine
 10
1900.107774
 20
1127.068755
 30
0.0
 11
1900.107774
 21
1132.877755
 31
0.0
  0
LINE
  5
5709
100
AcDbEntity
  8
0
100
AcDbLine
 10
1903.861774
 20
1132.877755
 30
0.0
 11
1903.861774
 21
1127.068755
 31
0.0
  0
LINE
  5
570A
100
AcDbEntity
  8
0
100
AcDbLine
 10
1911.365774
 20
1132.877755
 30
0.0
 11
1911.365774
 21
1127.068755
 31
0.0
  0
ARC
  5
570B
100
AcDbEntity
  8
0
100
AcDbCircle
 10
1901.985274
 20
1129.874797
 30
0.0
 40
3.541047
100
AcDbArc
 50
57.999406
 51
122.000594
  0
LINE
  5
570C
100
AcDbEntity
  8
0
100
AcDbLine
 10
1900.107774
 20
1132.877755
 30
0.0
 11
1901.304774
 21
1133.568755
 31
0.0
  0
ARC
  5
570D
100
AcDbEntity
  8
0
100
AcDbCircle
 10
1907.613774
 20
1120.063276
 30
0.0
 40
13.352467
100
AcDbArc
 50
73.680297
 51
106.319703
  0
ARC
  5
570E
100
AcDbEntity
  8
0
100
AcDbCircle
 10
1913.242274
 20
1129.874797
 30
0.0
 40
3.541047
100
AcDbArc
 50
57.999406
 51
122.000594
  0
LINE
  5
570F
100
AcDbEntity
  8
0
100
AcDbLine
 10
1913.922774
 20
1133.568755
 30
0.0
 11
1915.118774
 21
1132.877755
 31
0.0
  0
LINE
  5
5710
100
AcDbEntity
  8
0
100
AcDbLine
 10
1913.397545
 20
1143.068755
 30
0.0
 11
1910.13192
 21
1133.568755
 31
0.0
  0
LINE
  5
5711
100
AcDbEntity
  8
0
100
AcDbLine
 10
1913.397545
 20
1143.068755
 30
0.0
 11
1901.000954
 21
1133.393368
 31
0.0
  0
LINE
  5
5712
100
AcDbEntity
  8
0
100
AcDbLine
 10
1898.397545
 20
1127.068755
 30
0.0
 11
1898.397545
 21
1115.068755
 31
0.0
  0
LINE
  5
5713
100
AcDbEntity
  8
0
100
AcDbLine
 10
1960.429316
 20
1132.877755
 30
0.0
 11
1960.429316
 21
1127.068755
 31
0.0
  0
LINE
  5
5714
100
AcDbEntity
  8
0
100
AcDbLine
 10
1956.676316
 20
1132.877755
 30
0.0
 11
1956.676316
 21
1127.068755
 31
0.0
  0
LINE
  5
5715
100
AcDbEntity
  8
0
100
AcDbLine
 10
1957.872316
 20
1133.568755
 30
0.0
 11
1956.676316
 21
1132.877755
 31
0.0
  0
ARC
  5
5716
100
AcDbEntity
  8
0
100
AcDbCircle
 10
1958.552816
 20
1129.874797
 30
0.0
 40
3.541047
100
AcDbArc
 50
57.999406
 51
122.000594
  0
LINE
  5
5717
100
AcDbEntity
  8
0
100
AcDbLine
 10
1958.397545
 20
1143.068755
 30
0.0
 11
1961.66317
 21
1133.568755
 31
0.0
  0
LINE
  5
5718
100
AcDbEntity
  8
0
100
AcDbLine
 10
1991.397545
 20
1091.568755
 30
0.0
 11
1991.397545
 21
1113.568755
 31
0.0
  0
LINE
  5
5719
100
AcDbEntity
  8
0
100
AcDbLine
 10
1973.397545
 20
1115.068755
 30
0.0
 11
1973.397545
 21
1103.068755
 31
0.0
  0
LINE
  5
571A
100
AcDbEntity
  8
0
100
AcDbLine
 10
1991.397545
 20
1069.568755
 30
0.0
 11
1991.397545
 21
1091.568755
 31
0.0
  0
LINE
  5
571B
100
AcDbEntity
  8
0
100
AcDbLine
 10
1966.619233
 20
1056.818755
 30
0.0
 11
1971.175857
 21
1056.818755
 31
0.0
  0
LINE
  5
571C
100
AcDbEntity
  8
0
100
AcDbLine
 10
1967.846435
 20
1069.568755
 30
0.0
 11
1991.397545
 21
1069.568755
 31
0.0
  0
LINE
  5
571D
100
AcDbEntity
  8
0
100
AcDbLine
 10
1966.619233
 20
1049.199433
 30
0.0
 11
1966.619233
 21
1052.529696
 31
0.0
  0
LINE
  5
571E
100
AcDbEntity
  8
0
100
AcDbLine
 10
1971.175857
 20
1049.199433
 30
0.0
 11
1971.175857
 21
1052.529696
 31
0.0
  0
LINE
  5
571F
100
AcDbEntity
  8
0
100
AcDbLine
 10
1966.619233
 20
1049.199433
 30
0.0
 11
1971.175857
 21
1049.199433
 31
0.0
  0
LINE
  5
5720
100
AcDbEntity
  8
0
100
AcDbLine
 10
1966.619233
 20
1052.529696
 30
0.0
 11
1971.175857
 21
1052.529696
 31
0.0
  0
LINE
  5
5721
100
AcDbEntity
  8
0
100
AcDbLine
 10
1966.619233
 20
1040.938077
 30
0.0
 11
1971.175857
 21
1040.938077
 31
0.0
  0
ARC
  5
5722
100
AcDbEntity
  8
0
100
AcDbCircle
 10
1978.079636
 20
1045.068755
 30
0.0
 40
12.182091
100
AcDbArc
 50
160.179294
 51
199.820706
  0
ARC
  5
5723
100
AcDbEntity
  8
0
100
AcDbCircle
 10
1978.079636
 20
1045.068755
 30
0.0
 40
12.182091
100
AcDbArc
 50
160.179294
 51
199.820706
  0
ARC
  5
5724
100
AcDbEntity
  8
0
100
AcDbCircle
 10
1959.715454
 20
1045.068755
 30
0.0
 40
12.182091
100
AcDbArc
 50
340.179294
 51
19.820706
  0
ARC
  5
5725
100
AcDbEntity
  8
0
100
AcDbCircle
 10
1959.715454
 20
1045.068755
 30
0.0
 40
12.182091
100
AcDbArc
 50
340.179294
 51
19.820706
  0
LINE
  5
5726
100
AcDbEntity
  8
0
100
AcDbLine
 10
1966.619233
 20
1037.607815
 30
0.0
 11
1971.175857
 21
1037.607815
 31
0.0
  0
LINE
  5
5727
100
AcDbEntity
  8
0
100
AcDbLine
 10
1966.619233
 20
1037.607815
 30
0.0
 11
1966.619233
 21
1040.938077
 31
0.0
  0
LINE
  5
5728
100
AcDbEntity
  8
0
100
AcDbLine
 10
1971.175857
 20
1037.607815
 30
0.0
 11
1971.175857
 21
1040.938077
 31
0.0
  0
LINE
  5
5729
100
AcDbEntity
  8
0
100
AcDbLine
 10
1966.619233
 20
1056.818755
 30
0.0
 11
1965.897545
 21
1055.568755
 31
0.0
  0
ARC
  5
572A
100
AcDbEntity
  8
0
100
AcDbCircle
 10
1968.350415
 20
1054.674226
 30
0.0
 40
3.54713
100
AcDbArc
 50
322.801256
 51
22.801256
  0
LINE
  5
572B
100
AcDbEntity
  8
0
100
AcDbLine
 10
1971.175857
 20
1056.818755
 30
0.0
 11
1971.897545
 21
1055.568755
 31
0.0
  0
ARC
  5
572C
100
AcDbEntity
  8
0
100
AcDbCircle
 10
1960.897545
 20
1079.714881
 30
0.0
 40
10.0
100
AcDbArc
 50
340.0
 51
360.0
  0
LINE
  5
572D
100
AcDbEntity
  8
0
100
AcDbLine
 10
1970.897545
 20
1079.714881
 30
0.0
 11
1970.897545
 21
1103.068755
 31
0.0
  0
LINE
  5
572E
100
AcDbEntity
  8
0
100
AcDbLine
 10
1967.933316
 20
1132.877755
 30
0.0
 11
1967.933316
 21
1127.068755
 31
0.0
  0
LINE
  5
572F
100
AcDbEntity
  8
0
100
AcDbLine
 10
1971.687316
 20
1127.068755
 30
0.0
 11
1971.687316
 21
1132.877755
 31
0.0
  0
ARC
  5
5730
100
AcDbEntity
  8
0
100
AcDbCircle
 10
1969.809816
 20
1129.874797
 30
0.0
 40
3.541047
100
AcDbArc
 50
57.999406
 51
122.000594
  0
LINE
  5
5731
100
AcDbEntity
  8
0
100
AcDbLine
 10
1971.687316
 20
1132.877755
 30
0.0
 11
1970.490316
 21
1133.568755
 31
0.0
  0
ARC
  5
5732
100
AcDbEntity
  8
0
100
AcDbCircle
 10
1977.397545
 20
1125.784203
 30
0.0
 40
1.5
100
AcDbArc
 50
0.0
 51
20.0
  0
ARC
  5
5733
100
AcDbEntity
  8
0
100
AcDbCircle
 10
1977.397545
 20
1125.568755
 30
0.0
 40
1.5
100
AcDbArc
 50
0.0
 51
90.0
  0
LINE
  5
5734
100
AcDbEntity
  8
0
100
AcDbLine
 10
1975.495525
 20
1135.395667
 30
0.0
 11
1978.807084
 21
1126.297233
 31
0.0
  0
LINE
  5
5735
100
AcDbEntity
  8
0
100
AcDbLine
 10
1967.822437
 20
1143.068755
 30
0.0
 11
1975.495525
 21
1135.395667
 31
0.0
  0
LINE
  5
5736
100
AcDbEntity
  8
0
100
AcDbLine
 10
1978.897545
 20
1115.068755
 30
0.0
 11
1978.897545
 21
1113.568755
 31
0.0
  0
LINE
  5
5737
100
AcDbEntity
  8
0
100
AcDbLine
 10
1973.397545
 20
1113.568755
 30
0.0
 11
1991.397545
 21
1113.568755
 31
0.0
  0
LINE
  5
5738
100
AcDbEntity
  8
0
100
AcDbLine
 10
1978.897545
 20
1125.784203
 30
0.0
 11
1978.897545
 21
1115.068755
 31
0.0
  0
LINE
  5
5739
100
AcDbEntity
  8
0
100
AcDbLine
 10
1973.397545
 20
1127.068755
 30
0.0
 11
1973.397545
 21
1115.068755
 31
0.0
  0
CIRCLE
  5
573A
100
AcDbEntity
  8
0
100
AcDbCircle
 10
2088.945331
 20
1091.568755
 30
0.0
 40
22.0
  0
LINE
  5
573C
100
AcDbEntity
  8
0
100
AcDbLine
 10
2126.445331
 20
1127.068755
 30
0.0
 11
2126.445331
 21
1115.068755
 31
0.0
  0
LINE
  5
573E
100
AcDbEntity
  8
0
100
AcDbLine
 10
2051.445331
 20
1127.068755
 30
0.0
 11
2051.445331
 21
1115.068755
 31
0.0
  0
LINE
  5
5740
100
AcDbEntity
  8
0
100
AcDbLine
 10
2051.445331
 20
1103.068755
 30
0.0
 11
2066.905594
 21
1103.068755
 31
0.0
  0
LINE
  5
5741
100
AcDbEntity
  8
0
100
AcDbLine
 10
2051.445331
 20
1115.068755
 30
0.0
 11
2126.445331
 21
1115.068755
 31
0.0
  0
LINE
  5
5743
100
AcDbEntity
  8
0
100
AcDbLine
 10
2051.445331
 20
1115.068755
 30
0.0
 11
2051.445331
 21
1103.068755
 31
0.0
  0
LINE
  5
5745
100
AcDbEntity
  8
0
100
AcDbLine
 10
2126.445331
 20
1115.068755
 30
0.0
 11
2126.445331
 21
1103.068755
 31
0.0
  0
LINE
  5
5746
100
AcDbEntity
  8
0
100
AcDbLine
 10
2066.445331
 20
1143.068755
 30
0.0
 11
2111.445331
 21
1143.068755
 31
0.0
  0
LINE
  5
5747
100
AcDbEntity
  8
0
100
AcDbLine
 10
2051.445331
 20
1127.068755
 30
0.0
 11
2076.445331
 21
1127.068755
 31
0.0
  0
LINE
  5
5749
100
AcDbEntity
  8
0
100
AcDbLine
 10
2066.445331
 20
1143.068755
 30
0.0
 11
2063.179706
 21
1133.568755
 31
0.0
  0
LINE
  5
5762
100
AcDbEntity
  8
0
100
AcDbLine
 10
2111.445331
 20
1143.068755
 30
0.0
 11
2114.710956
 21
1133.568755
 31
0.0
  0
ARC
  5
5767
100
AcDbEntity
  8
0
100
AcDbCircle
 10
2063.893355
 20
1125.494724
 30
0.0
 40
8.074051
100
AcDbArc
 50
66.122736
 51
113.877264
  0
LINE
  5
5768
100
AcDbEntity
  8
0
100
AcDbLine
 10
2054.161559
 20
1133.568755
 30
0.0
 11
2067.161559
 21
1133.568755
 31
0.0
  0
ARC
  5
5769
100
AcDbEntity
  8
0
100
AcDbCircle
 10
2057.429764
 20
1125.494724
 30
0.0
 40
8.074051
100
AcDbArc
 50
66.122736
 51
113.877264
  0
LINE
  5
576A
100
AcDbEntity
  8
0
100
AcDbLine
 10
2054.161559
 20
1133.568755
 30
0.0
 11
2054.161559
 21
1127.068755
 31
0.0
  0
LINE
  5
576B
100
AcDbEntity
  8
0
100
AcDbLine
 10
2060.661559
 20
1132.893765
 30
0.0
 11
2060.661559
 21
1127.068755
 31
0.0
  0
LINE
  5
576C
100
AcDbEntity
  8
0
100
AcDbLine
 10
2067.161559
 20
1133.568755
 30
0.0
 11
2067.161559
 21
1127.068755
 31
0.0
  0
ARC
  5
576D
100
AcDbEntity
  8
0
100
AcDbCircle
 10
2113.997306
 20
1125.494724
 30
0.0
 40
8.074051
100
AcDbArc
 50
66.122736
 51
113.877264
  0
LINE
  5
576E
100
AcDbEntity
  8
0
100
AcDbLine
 10
2123.729102
 20
1133.568755
 30
0.0
 11
2110.729102
 21
1133.568755
 31
0.0
  0
ARC
  5
576F
100
AcDbEntity
  8
0
100
AcDbCircle
 10
2120.460897
 20
1125.494724
 30
0.0
 40
8.074051
100
AcDbArc
 50
66.122736
 51
113.877264
  0
LINE
  5
5770
100
AcDbEntity
  8
0
100
AcDbLine
 10
2123.729102
 20
1133.568755
 30
0.0
 11
2123.729102
 21
1127.068755
 31
0.0
  0
LINE
  5
5771
100
AcDbEntity
  8
0
100
AcDbLine
 10
2117.229102
 20
1132.893765
 30
0.0
 11
2117.229102
 21
1127.068755
 31
0.0
  0
LINE
  5
5772
100
AcDbEntity
  8
0
100
AcDbLine
 10
2110.729102
 20
1133.568755
 30
0.0
 11
2110.729102
 21
1127.068755
 31
0.0
  0
ARC
  5
5775
100
AcDbEntity
  8
0
100
AcDbCircle
 10
2072.780696
 20
1063.068755
 30
0.0
 40
10.0
100
AcDbArc
 50
200.0
 51
270.0
  0
ARC
  5
5776
100
AcDbEntity
  8
0
100
AcDbCircle
 10
2105.109965
 20
1063.068755
 30
0.0
 40
10.0
100
AcDbArc
 50
270.0
 51
340.0
  0
POLYLINE
  5
5777
100
AcDbEntity
  8
0
100
AcDb2dPolyline
 66
     1
 10
0.0
 20
0.0
 30
0.0
  0
VERTEX
  5
639B
100
AcDbEntity
  8
0
100
AcDbVertex
100
AcDb2dVertex
 10
2087.193098
 20
1056.181459
 30
0.0
  0
VERTEX
  5
639C
100
AcDbEntity
  8
0
100
AcDbVertex
100
AcDb2dVertex
 10
2080.197563
 20
1052.142585
 30
0.0
  0
SEQEND
  5
639D
100
AcDbEntity
  8
0
  0
ARC
  5
5778
100
AcDbEntity
  8
0
100
AcDbCircle
 10
2088.945331
 20
1045.068755
 30
0.0
 40
12.0
100
AcDbArc
 50
0.0
 51
180.0
  0
POLYLINE
  5
5779
100
AcDbEntity
  8
0
100
AcDb2dPolyline
 66
     1
 10
0.0
 20
0.0
 30
0.0
  0
VERTEX
  5
639E
100
AcDbEntity
  8
0
100
AcDbVertex
100
AcDb2dVertex
 10
2097.693098
 20
1052.142585
 30
0.0
  0
VERTEX
  5
639F
100
AcDbEntity
  8
0
100
AcDbVertex
100
AcDb2dVertex
 10
2090.697563
 20
1056.181459
 30
0.0
  0
SEQEND
  5
63A0
100
AcDbEntity
  8
0
  0
LINE
  5
577A
100
AcDbEntity
  8
0
100
AcDbLine
 10
2094.611997
 20
1033.068755
 30
0.0
 11
2083.278664
 21
1033.068755
 31
0.0
  0
LINE
  5
577B
100
AcDbEntity
  8
0
100
AcDbLine
 10
2083.278664
 20
1033.068755
 30
0.0
 11
2094.611997
 21
1033.068755
 31
0.0
  0
ARC
  5
577C
100
AcDbEntity
  8
0
100
AcDbCircle
 10
2088.945331
 20
1045.068755
 30
0.0
 40
11.25
100
AcDbArc
 50
261.03947
 51
278.96053
  0
LINE
  5
577D
100
AcDbEntity
  8
0
100
AcDbLine
 10
2072.780696
 20
1053.068755
 30
0.0
 11
2076.29622
 21
1053.068755
 31
0.0
  0
POLYLINE
  5
577E
100
AcDbEntity
  8
0
100
AcDb2dPolyline
 66
     1
 10
0.0
 20
0.0
 30
0.0
  0
VERTEX
  5
63A1
100
AcDbEntity
  8
0
100
AcDbVertex
100
AcDb2dVertex
 10
2078.445331
 20
1049.107629
 30
0.0
  0
VERTEX
  5
63A2
100
AcDbEntity
  8
0
100
AcDbVertex
100
AcDb2dVertex
 10
2078.445331
 20
1041.029882
 30
0.0
  0
SEQEND
  5
63A3
100
AcDbEntity
  8
0
  0
LINE
  5
577F
100
AcDbEntity
  8
0
100
AcDbLine
 10
2078.445331
 20
1041.468755
 30
0.0
 11
2076.945331
 21
1045.068755
 31
0.0
  0
ARC
  5
5780
100
AcDbEntity
  8
0
100
AcDbCircle
 10
2083.278664
 20
1035.068755
 30
0.0
 40
2.0
100
AcDbArc
 50
202.619865
 51
270.0
  0
POLYLINE
  5
5781
100
AcDbEntity
  8
0
100
AcDb2dPolyline
 66
     1
 10
0.0
 20
0.0
 30
0.0
  0
VERTEX
  5
63A4
100
AcDbEntity
  8
0
100
AcDbVertex
100
AcDb2dVertex
 10
2080.197563
 20
1037.994925
 30
0.0
  0
VERTEX
  5
63A5
100
AcDbEntity
  8
0
100
AcDbVertex
100
AcDb2dVertex
 10
2087.193098
 20
1033.956052
 30
0.0
  0
SEQEND
  5
63A6
100
AcDbEntity
  8
0
  0
ARC
  5
5782
100
AcDbEntity
  8
0
100
AcDbCircle
 10
2088.945331
 20
1045.068755
 30
0.0
 40
11.25
100
AcDbArc
 50
201.03947
 51
218.96053
  0
LINE
  5
5783
100
AcDbEntity
  8
0
100
AcDbLine
 10
2081.43251
 20
1034.299525
 30
0.0
 11
2079.476546
 21
1038.993838
 31
0.0
  0
ARC
  5
5784
100
AcDbEntity
  8
0
100
AcDbCircle
 10
2076.29622
 20
1051.068755
 30
0.0
 40
2.0
100
AcDbArc
 50
334.623066
 51
90.0
  0
ARC
  5
5785
100
AcDbEntity
  8
0
100
AcDbCircle
 10
2088.945331
 20
1045.068755
 30
0.0
 40
11.25
100
AcDbArc
 50
141.03947
 51
158.96053
  0
POLYLINE
  5
5786
100
AcDbEntity
  8
0
100
AcDb2dPolyline
 66
     1
 10
0.0
 20
0.0
 30
0.0
  0
VERTEX
  5
63A7
100
AcDbEntity
  8
0
100
AcDbVertex
100
AcDb2dVertex
 10
2099.445331
 20
1041.029882
 30
0.0
  0
VERTEX
  5
63A8
100
AcDbEntity
  8
0
100
AcDbVertex
100
AcDb2dVertex
 10
2099.445331
 20
1049.107629
 30
0.0
  0
SEQEND
  5
63A9
100
AcDbEntity
  8
0
  0
LINE
  5
5787
100
AcDbEntity
  8
0
100
AcDbLine
 10
2099.445331
 20
1041.468755
 30
0.0
 11
2100.945331
 21
1045.068755
 31
0.0
  0
ARC
  5
5788
100
AcDbEntity
  8
0
100
AcDbCircle
 10
2088.945331
 20
1045.068755
 30
0.0
 40
11.25
100
AcDbArc
 50
321.03947
 51
338.96053
  0
LINE
  5
5789
100
AcDbEntity
  8
0
100
AcDbLine
 10
2105.109965
 20
1053.068755
 30
0.0
 11
2101.594441
 21
1053.068755
 31
0.0
  0
ARC
  5
578A
100
AcDbEntity
  8
0
100
AcDbCircle
 10
2101.594441
 20
1051.068755
 30
0.0
 40
2.0
100
AcDbArc
 50
90.0
 51
205.376934
  0
ARC
  5
578B
100
AcDbEntity
  8
0
100
AcDbCircle
 10
2088.945331
 20
1045.068755
 30
0.0
 40
11.25
100
AcDbArc
 50
21.03947
 51
38.96053
  0
ARC
  5
578C
100
AcDbEntity
  8
0
100
AcDbCircle
 10
2094.611997
 20
1035.068755
 30
0.0
 40
2.0
100
AcDbArc
 50
270.0
 51
337.380135
  0
POLYLINE
  5
578D
100
AcDbEntity
  8
0
100
AcDb2dPolyline
 66
     1
 10
0.0
 20
0.0
 30
0.0
  0
VERTEX
  5
63AA
100
AcDbEntity
  8
0
100
AcDbVertex
100
AcDb2dVertex
 10
2090.697563
 20
1033.956052
 30
0.0
  0
VERTEX
  5
63AB
100
AcDbEntity
  8
0
100
AcDbVertex
100
AcDb2dVertex
 10
2097.693098
 20
1037.994925
 30
0.0
  0
SEQEND
  5
63AC
100
AcDbEntity
  8
0
  0
LINE
  5
578E
100
AcDbEntity
  8
0
100
AcDbLine
 10
2096.458151
 20
1034.299525
 30
0.0
 11
2098.414115
 21
1038.993838
 31
0.0
  0
ARC
  5
578F
100
AcDbEntity
  8
0
100
AcDbCircle
 10
2088.945331
 20
1045.068755
 30
0.0
 40
11.25
100
AcDbArc
 50
81.03947
 51
98.96053
  0
LINE
  5
5790
100
AcDbEntity
  8
0
100
AcDbLine
 10
2056.445331
 20
1081.092173
 30
0.0
 11
2056.445331
 21
1103.068755
 31
0.0
  0
LINE
  5
5791
100
AcDbEntity
  8
0
100
AcDbLine
 10
2060.457978
 20
1078.568755
 30
0.0
 11
2068.183292
 21
1078.568755
 31
0.0
  0
LINE
  5
5792
100
AcDbEntity
  8
0
100
AcDbLine
 10
2109.707369
 20
1078.568755
 30
0.0
 11
2117.432683
 21
1078.568755
 31
0.0
  0
LINE
  5
5793
100
AcDbEntity
  8
0
100
AcDbLine
 10
2121.445331
 20
1081.092173
 30
0.0
 11
2121.445331
 21
1103.068755
 31
0.0
  0
LINE
  5
5794
100
AcDbEntity
  8
0
100
AcDbLine
 10
2120.631181
 20
1076.474901
 30
0.0
 11
2114.506891
 21
1059.648554
 31
0.0
  0
ARC
  5
5795
100
AcDbEntity
  8
0
100
AcDbCircle
 10
2107.945331
 20
1081.092173
 30
0.0
 40
13.5
100
AcDbArc
 50
340.0
 51
0.0
  0
ARC
  5
5796
100
AcDbEntity
  8
0
100
AcDbCircle
 10
2069.945331
 20
1081.092173
 30
0.0
 40
13.5
100
AcDbArc
 50
180.0
 51
200.0
  0
LINE
  5
5797
100
AcDbEntity
  8
0
100
AcDbLine
 10
2057.25948
 20
1076.474901
 30
0.0
 11
2063.38377
 21
1059.648554
 31
0.0
  0
LINE
  5
579A
100
AcDbEntity
  8
0
100
AcDbLine
 10
2110.985067
 20
1103.068755
 30
0.0
 11
2126.445331
 21
1103.068755
 31
0.0
  0
ELLIPSE
  5
579B
100
AcDbEntity
  8
0
100
AcDbEllipse
 10
2088.945331
 20
1139.232211
 30
0.0
 11
-5.0
 21
0.0
 31
0.0
210
0.0
220
0.0
230
1.0
 40
0.767309
 41
0.0
 42
6.283185307179586
  0
LINE
  5
579C
100
AcDbEntity
  8
0
100
AcDbLine
 10
2079.300955
 20
1127.068755
 30
0.0
 11
2098.589706
 21
1127.068755
 31
0.0
  0
LINE
  5
579D
100
AcDbEntity
  8
0
100
AcDbLine
 10
2076.445331
 20
1109.672622
 30
0.0
 11
2076.445331
 21
1143.068755
 31
0.0
  0
LINE
  5
579E
100
AcDbEntity
  8
0
100
AcDbLine
 10
2101.445331
 20
1109.672622
 30
0.0
 11
2101.445331
 21
1143.068755
 31
0.0
  0
LINE
  5
579F
100
AcDbEntity
  8
0
100
AcDbLine
 10
2101.445331
 20
1127.068755
 30
0.0
 11
2126.445331
 21
1127.068755
 31
0.0
  0
ARC
  5
57A0
100
AcDbEntity
  8
0
100
AcDbCircle
 10
2066.905594
 20
1101.068755
 30
0.0
 40
2.0
100
AcDbArc
 50
336.682043
 51
90.0
  0
ARC
  5
57A1
100
AcDbEntity
  8
0
100
AcDbCircle
 10
2110.985067
 20
1101.068755
 30
0.0
 40
2.0
100
AcDbArc
 50
90.0
 51
203.317957
  0
LINE
  5
57A2
100
AcDbEntity
  8
0
100
AcDbLine
 10
1738.897017
 20
1109.672622
 30
0.0
 11
1738.897017
 21
1143.068755
 31
0.0
  0
LINE
  5
57A3
100
AcDbEntity
  8
0
100
AcDbLine
 10
1763.897017
 20
1109.672622
 30
0.0
 11
1763.897017
 21
1143.068755
 31
0.0
  0
LINE
  5
57A4
100
AcDbEntity
  8
0
100
AcDbLine
 10
1713.897017
 20
1127.068755
 30
0.0
 11
1713.897017
 21
1115.068755
 31
0.0
  0
LINE
  5
57A5
100
AcDbEntity
  8
0
100
AcDbLine
 10
1788.897017
 20
1127.068755
 30
0.0
 11
1788.897017
 21
1115.068755
 31
0.0
  0
ARC
  5
57AB
100
AcDbEntity
  8
0
100
AcDbCircle
 10
1745.73035
 20
1035.068755
 30
0.0
 40
2.0
100
AcDbArc
 50
202.619865
 51
270.0
  0
ARC
  5
57AF
100
AcDbEntity
  8
0
100
AcDbCircle
 10
1757.063683
 20
1035.068755
 30
0.0
 40
2.0
100
AcDbArc
 50
270.0
 51
337.380135
  0
LINE
  5
57B3
100
AcDbEntity
  8
0
100
AcDbLine
 10
1757.063683
 20
1033.068755
 30
0.0
 11
1745.73035
 21
1033.068755
 31
0.0
  0
LINE
  5
57B4
100
AcDbEntity
  8
0
100
AcDbLine
 10
1745.73035
 20
1033.068755
 30
0.0
 11
1757.063683
 21
1033.068755
 31
0.0
  0
LINE
  5
57B9
100
AcDbEntity
  8
0
100
AcDbLine
 10
1788.897017
 20
1115.068755
 30
0.0
 11
1713.897017
 21
1115.068755
 31
0.0
  0
CIRCLE
  5
57BA
100
AcDbEntity
  8
0
100
AcDbCircle
 10
1751.397017
 20
1091.568755
 30
0.0
 40
22.0
  0
LINE
  5
57BB
100
AcDbEntity
  8
0
100
AcDbLine
 10
1783.897017
 20
1081.092173
 30
0.0
 11
1783.897017
 21
1103.068755
 31
0.0
  0
LINE
  5
57BD
100
AcDbEntity
  8
0
100
AcDbLine
 10
1779.884369
 20
1078.568755
 30
0.0
 11
1772.159055
 21
1078.568755
 31
0.0
  0
LINE
  5
57BE
100
AcDbEntity
  8
0
100
AcDbLine
 10
1783.082867
 20
1076.474901
 30
0.0
 11
1776.958577
 21
1059.648554
 31
0.0
  0
ARC
  5
57BF
100
AcDbEntity
  8
0
100
AcDbCircle
 10
1770.397017
 20
1081.092173
 30
0.0
 40
13.5
100
AcDbArc
 50
340.0
 51
0.0
  0
ARC
  5
57C4
100
AcDbEntity
  8
0
100
AcDbCircle
 10
1773.436753
 20
1101.068755
 30
0.0
 40
2.0
100
AcDbArc
 50
90.0
 51
203.317957
  0
LINE
  5
57C5
100
AcDbEntity
  8
0
100
AcDbLine
 10
1788.897017
 20
1103.068755
 30
0.0
 11
1773.436753
 21
1103.068755
 31
0.0
  0
LINE
  5
57C6
100
AcDbEntity
  8
0
100
AcDbLine
 10
1788.897017
 20
1115.068755
 30
0.0
 11
1788.897017
 21
1103.068755
 31
0.0
  0
LINE
  5
57C7
100
AcDbEntity
  8
0
100
AcDbLine
 10
1718.897017
 20
1081.092173
 30
0.0
 11
1718.897017
 21
1103.068755
 31
0.0
  0
LINE
  5
57C8
100
AcDbEntity
  8
0
100
AcDbLine
 10
1719.711166
 20
1076.474901
 30
0.0
 11
1725.835456
 21
1059.648554
 31
0.0
  0
LINE
  5
57C9
100
AcDbEntity
  8
0
100
AcDbLine
 10
1730.634978
 20
1078.568755
 30
0.0
 11
1722.909664
 21
1078.568755
 31
0.0
  0
ARC
  5
57CE
100
AcDbEntity
  8
0
100
AcDbCircle
 10
1732.397017
 20
1081.092173
 30
0.0
 40
13.5
100
AcDbArc
 50
180.0
 51
200.0
  0
LINE
  5
57CF
100
AcDbEntity
  8
0
100
AcDbLine
 10
1729.35728
 20
1103.068755
 30
0.0
 11
1713.897017
 21
1103.068755
 31
0.0
  0
ARC
  5
57D0
100
AcDbEntity
  8
0
100
AcDbCircle
 10
1729.35728
 20
1101.068755
 30
0.0
 40
2.0
100
AcDbArc
 50
336.682043
 51
90.0
  0
LINE
  5
57D1
100
AcDbEntity
  8
0
100
AcDbLine
 10
1713.897017
 20
1115.068755
 30
0.0
 11
1713.897017
 21
1103.068755
 31
0.0
  0
LINE
  5
57D2
100
AcDbEntity
  8
0
100
AcDbLine
 10
1761.041392
 20
1127.068755
 30
0.0
 11
1741.752641
 21
1127.068755
 31
0.0
  0
LINE
  5
57D3
100
AcDbEntity
  8
0
100
AcDbLine
 10
1773.897017
 20
1143.068755
 30
0.0
 11
1728.897017
 21
1143.068755
 31
0.0
  0
LINE
  5
57D4
100
AcDbEntity
  8
0
100
AcDbLine
 10
1788.897017
 20
1127.068755
 30
0.0
 11
1763.897017
 21
1127.068755
 31
0.0
  0
ARC
  5
57D5
100
AcDbEntity
  8
0
100
AcDbCircle
 10
1776.448992
 20
1125.494724
 30
0.0
 40
8.074051
100
AcDbArc
 50
66.122736
 51
113.877264
  0
LINE
  5
57D6
100
AcDbEntity
  8
0
100
AcDbLine
 10
1786.180788
 20
1133.568755
 30
0.0
 11
1773.180788
 21
1133.568755
 31
0.0
  0
ARC
  5
57D7
100
AcDbEntity
  8
0
100
AcDbCircle
 10
1782.912583
 20
1125.494724
 30
0.0
 40
8.074051
100
AcDbArc
 50
66.122736
 51
113.877264
  0
LINE
  5
57D8
100
AcDbEntity
  8
0
100
AcDbLine
 10
1786.180788
 20
1133.568755
 30
0.0
 11
1786.180788
 21
1127.068755
 31
0.0
  0
LINE
  5
57D9
100
AcDbEntity
  8
0
100
AcDbLine
 10
1779.680788
 20
1132.893765
 30
0.0
 11
1779.680788
 21
1127.068755
 31
0.0
  0
LINE
  5
57DA
100
AcDbEntity
  8
0
100
AcDbLine
 10
1773.180788
 20
1133.568755
 30
0.0
 11
1773.180788
 21
1127.068755
 31
0.0
  0
LINE
  5
57DB
100
AcDbEntity
  8
0
100
AcDbLine
 10
1773.897017
 20
1143.068755
 30
0.0
 11
1777.162642
 21
1133.568755
 31
0.0
  0
LINE
  5
57DD
100
AcDbEntity
  8
0
100
AcDbLine
 10
1738.897017
 20
1127.068755
 30
0.0
 11
1713.897017
 21
1127.068755
 31
0.0
  0
ARC
  5
57DE
100
AcDbEntity
  8
0
100
AcDbCircle
 10
1719.88145
 20
1125.494724
 30
0.0
 40
8.074051
100
AcDbArc
 50
66.122736
 51
113.877264
  0
LINE
  5
57DF
100
AcDbEntity
  8
0
100
AcDbLine
 10
1716.613245
 20
1133.568755
 30
0.0
 11
1729.613245
 21
1133.568755
 31
0.0
  0
LINE
  5
57E0
100
AcDbEntity
  8
0
100
AcDbLine
 10
1729.613245
 20
1133.568755
 30
0.0
 11
1729.613245
 21
1127.068755
 31
0.0
  0
LINE
  5
57E1
100
AcDbEntity
  8
0
100
AcDbLine
 10
1723.113245
 20
1132.893765
 30
0.0
 11
1723.113245
 21
1127.068755
 31
0.0
  0
ARC
  5
57E2
100
AcDbEntity
  8
0
100
AcDbCircle
 10
1726.345041
 20
1125.494724
 30
0.0
 40
8.074051
100
AcDbArc
 50
66.122736
 51
113.877264
  0
LINE
  5
57E3
100
AcDbEntity
  8
0
100
AcDbLine
 10
1728.897017
 20
1143.068755
 30
0.0
 11
1725.631392
 21
1133.568755
 31
0.0
  0
LINE
  5
57E4
100
AcDbEntity
  8
0
100
AcDbLine
 10
1716.613245
 20
1133.568755
 30
0.0
 11
1716.613245
 21
1127.068755
 31
0.0
  0
LINE
  5
57E7
100
AcDbEntity
  8
0
100
AcDbLine
 10
1743.884196
 20
1034.299525
 30
0.0
 11
1739.397017
 21
1045.068755
 31
0.0
  0
LINE
  5
57E9
100
AcDbEntity
  8
0
100
AcDbLine
 10
1758.909837
 20
1034.299525
 30
0.0
 11
1763.397017
 21
1045.068755
 31
0.0
  0
LINE
  5
57EA
100
AcDbEntity
  8
0
100
AcDbLine
 10
1739.397017
 20
1045.068755
 30
0.0
 11
1729.943297
 21
1086.696597
 31
0.0
  0
LINE
  5
57EC
100
AcDbEntity
  8
0
100
AcDbLine
 10
1735.232382
 20
1053.068755
 30
0.0
 11
1735.983485
 21
1053.068755
 31
0.0
  0
ARC
  5
57ED
100
AcDbEntity
  8
0
100
AcDbCircle
 10
1735.232382
 20
1063.068755
 30
0.0
 40
10.0
100
AcDbArc
 50
200.0
 51
270.0
  0
ARC
  5
57EE
100
AcDbEntity
  8
0
100
AcDbCircle
 10
1735.983485
 20
1051.068755
 30
0.0
 40
2.0
100
AcDbArc
 50
12.794903
 51
90.0
  0
ARC
  5
57EF
100
AcDbEntity
  8
0
100
AcDbCircle
 10
1766.810548
 20
1051.068755
 30
0.0
 40
2.0
100
AcDbArc
 50
90.0
 51
167.205097
  0
LINE
  5
57F0
100
AcDbEntity
  8
0
100
AcDbLine
 10
1767.561651
 20
1053.068755
 30
0.0
 11
1766.810548
 21
1053.068755
 31
0.0
  0
ARC
  5
57F1
100
AcDbEntity
  8
0
100
AcDbCircle
 10
1767.561651
 20
1063.068755
 30
0.0
 40
10.0
100
AcDbArc
 50
270.0
 51
340.0
  0
LINE
  5
57F2
100
AcDbEntity
  8
0
100
AcDbLine
 10
1763.397017
 20
1045.068755
 30
0.0
 11
1772.850736
 21
1086.696597
 31
0.0
  0
LINE
  5
57F3
100
AcDbEntity
  8
0
100
AcDbLine
 10
581.162538
 20
557.881704
 30
0.0
 11
637.73108
 21
557.881704
 31
0.0
  0
ARC
  5
57F4
100
AcDbEntity
  8
0
100
AcDbCircle
 10
609.446809
 20
520.381704
 30
0.0
 40
28.0
100
AcDbArc
 50
26.514775
 51
153.485225
  0
LINE
  5
57F5
100
AcDbEntity
  8
0
100
AcDbLine
 10
581.162538
 20
482.881704
 30
0.0
 11
637.73108
 21
482.881704
 31
0.0
  0
CIRCLE
  5
57F6
100
AcDbEntity
  8
0
100
AcDbCircle
 10
609.446809
 20
520.381704
 30
0.0
 40
22.5
  0
CIRCLE
  5
57F7
100
AcDbEntity
  8
0
100
AcDbCircle
 10
609.446809
 20
520.381704
 30
0.0
 40
20.25
  0
ARC
  5
57F8
100
AcDbEntity
  8
0
100
AcDbCircle
 10
609.446809
 20
520.381704
 30
0.0
 40
28.0
100
AcDbArc
 50
206.514775
 51
333.485225
  0
LINE
  5
57FA
100
AcDbEntity
  8
0
100
AcDbLine
 10
577.409538
 20
542.165975
 30
0.0
 11
573.656538
 21
548.665975
 31
0.0
  0
LINE
  5
57FB
100
AcDbEntity
  8
0
100
AcDbLine
 10
588.668538
 20
548.665975
 30
0.0
 11
584.915538
 21
542.165975
 31
0.0
  0
CIRCLE
  5
57FC
100
AcDbEntity
  8
0
100
AcDbCircle
 10
581.162538
 20
548.665975
 30
0.0
 40
6.30876
  0
LINE
  5
57FD
100
AcDbEntity
  8
0
100
AcDbLine
 10
571.946809
 20
548.665975
 30
0.0
 11
571.946809
 21
534.173266
 31
0.0
  0
LINE
  5
57FE
100
AcDbEntity
  8
0
100
AcDbLine
 10
521.946809
 20
567.881704
 30
0.0
 11
521.946809
 21
520.381704
 31
0.0
  0
LINE
  5
57FF
100
AcDbEntity
  8
0
100
AcDbLine
 10
537.946809
 20
567.881704
 30
0.0
 11
537.946809
 21
472.881704
 31
0.0
  0
ARC
  5
5801
100
AcDbEntity
  8
0
100
AcDbCircle
 10
541.946809
 20
541.412833
 30
0.0
 40
4.0
100
AcDbArc
 50
180.0
 51
262.874984
  0
ARC
  5
5802
100
AcDbEntity
  8
0
100
AcDbCircle
 10
541.946809
 20
499.350575
 30
0.0
 40
4.0
100
AcDbArc
 50
97.125016
 51
180.0
  0
LINE
  5
5803
100
AcDbEntity
  8
0
100
AcDbLine
 10
521.946809
 20
520.381704
 30
0.0
 11
521.946809
 21
472.881704
 31
0.0
  0
LINE
  5
5805
100
AcDbEntity
  8
0
100
AcDbLine
 10
537.946809
 20
472.881704
 30
0.0
 11
521.946809
 21
472.881704
 31
0.0
  0
ARC
  5
5806
100
AcDbEntity
  8
0
100
AcDbCircle
 10
569.946809
 20
506.590142
 30
0.0
 40
2.0
100
AcDbArc
 50
0.0
 51
67.11462
  0
ARC
  5
5807
100
AcDbEntity
  8
0
100
AcDbCircle
 10
573.446809
 20
514.881704
 30
0.0
 40
7.0
100
AcDbArc
 50
180.0
 51
270.0
  0
LINE
  5
5808
100
AcDbEntity
  8
0
100
AcDbLine
 10
573.446809
 20
507.881704
 30
0.0
 11
590.738522
 21
507.881704
 31
0.0
  0
LINE
  5
5809
100
AcDbEntity
  8
0
100
AcDbLine
 10
574.662538
 20
495.850433
 30
0.0
 11
581.162538
 21
499.603433
 31
0.0
  0
LINE
  5
580A
100
AcDbEntity
  8
0
100
AcDbLine
 10
581.162538
 20
484.591433
 30
0.0
 11
574.662538
 21
488.344433
 31
0.0
  0
ARC
  5
580B
100
AcDbEntity
  8
0
100
AcDbCircle
 10
581.162538
 20
492.097433
 30
0.0
 40
9.215729
100
AcDbArc
 50
180.0
 51
270.0
  0
LINE
  5
580C
100
AcDbEntity
  8
0
100
AcDbLine
 10
574.662538
 20
488.344433
 30
0.0
 11
574.662538
 21
495.850433
 31
0.0
  0
LINE
  5
580D
100
AcDbEntity
  8
0
100
AcDbLine
 10
571.946809
 20
506.590142
 30
0.0
 11
571.946809
 21
492.097433
 31
0.0
  0
LINE
  5
580E
100
AcDbEntity
  8
0
100
AcDbLine
 10
557.946809
 20
505.381704
 30
0.0
 11
541.45067
 21
503.319687
 31
0.0
  0
LINE
  5
580F
100
AcDbEntity
  8
0
100
AcDbLine
 10
557.946809
 20
505.381704
 30
0.0
 11
571.946809
 21
505.381704
 31
0.0
  0
LINE
  5
5810
100
AcDbEntity
  8
0
100
AcDbLine
 10
587.662538
 20
495.850433
 30
0.0
 11
587.662538
 21
488.344433
 31
0.0
  0
LINE
  5
5811
100
AcDbEntity
  8
0
100
AcDbLine
 10
581.162538
 20
499.603433
 30
0.0
 11
587.662538
 21
495.850433
 31
0.0
  0
LINE
  5
5812
100
AcDbEntity
  8
0
100
AcDbLine
 10
587.662538
 20
488.344433
 30
0.0
 11
581.162538
 21
484.591433
 31
0.0
  0
CIRCLE
  5
5813
100
AcDbEntity
  8
0
100
AcDbCircle
 10
581.162538
 20
492.097433
 30
0.0
 40
6.30876
  0
LINE
  5
5814
100
AcDbEntity
  8
0
100
AcDbLine
 10
573.446809
 20
532.881704
 30
0.0
 11
590.738522
 21
532.881704
 31
0.0
  0
LINE
  5
5815
100
AcDbEntity
  8
0
100
AcDbLine
 10
566.446809
 20
514.881704
 30
0.0
 11
566.446809
 21
525.881704
 31
0.0
  0
LINE
  5
5816
100
AcDbEntity
  8
0
100
AcDbLine
 10
557.946809
 20
535.381704
 30
0.0
 11
541.45067
 21
537.443721
 31
0.0
  0
ARC
  5
5817
100
AcDbEntity
  8
0
100
AcDbCircle
 10
569.946809
 20
534.173266
 30
0.0
 40
2.0
100
AcDbArc
 50
292.88538
 51
0.0
  0
ARC
  5
5818
100
AcDbEntity
  8
0
100
AcDbCircle
 10
573.446809
 20
525.881704
 30
0.0
 40
7.0
100
AcDbArc
 50
90.0
 51
180.0
  0
LINE
  5
5819
100
AcDbEntity
  8
0
100
AcDbLine
 10
571.946809
 20
535.381704
 30
0.0
 11
557.946809
 21
535.381704
 31
0.0
  0
LINE
  5
581A
100
AcDbEntity
  8
0
100
AcDbLine
 10
557.946809
 20
535.381704
 30
0.0
 11
571.946809
 21
535.381704
 31
0.0
  0
LINE
  5
581B
100
AcDbEntity
  8
0
100
AcDbLine
 10
584.915538
 20
542.165975
 30
0.0
 11
577.409538
 21
542.165975
 31
0.0
  0
LINE
  5
581D
100
AcDbEntity
  8
0
100
AcDbLine
 10
537.946809
 20
567.881704
 30
0.0
 11
521.946809
 21
567.881704
 31
0.0
  0
LINE
  5
581E
100
AcDbEntity
  8
0
100
AcDbLine
 10
573.656538
 20
548.665975
 30
0.0
 11
577.409538
 21
555.165975
 31
0.0
  0
ARC
  5
581F
100
AcDbEntity
  8
0
100
AcDbCircle
 10
581.162538
 20
548.665975
 30
0.0
 40
9.215729
100
AcDbArc
 50
90.0
 51
180.0
  0
LINE
  5
5820
100
AcDbEntity
  8
0
100
AcDbLine
 10
577.409538
 20
555.165975
 30
0.0
 11
584.915538
 21
555.165975
 31
0.0
  0
LINE
  5
5821
100
AcDbEntity
  8
0
100
AcDbLine
 10
584.915538
 20
555.165975
 30
0.0
 11
588.668538
 21
548.665975
 31
0.0
  0
LINE
  5
5822
100
AcDbEntity
  8
0
100
AcDbLine
 10
696.946809
 20
567.881704
 30
0.0
 11
696.946809
 21
520.381704
 31
0.0
  0
LINE
  5
5823
100
AcDbEntity
  8
0
100
AcDbLine
 10
644.23108
 20
552.418975
 30
0.0
 11
644.23108
 21
544.912975
 31
0.0
  0
LINE
  5
5824
100
AcDbEntity
  8
0
100
AcDbLine
 10
631.23108
 20
544.912975
 30
0.0
 11
631.23108
 21
552.418975
 31
0.0
  0
CIRCLE
  5
5825
100
AcDbEntity
  8
0
100
AcDbCircle
 10
637.73108
 20
548.665975
 30
0.0
 40
6.30876
  0
LINE
  5
5826
100
AcDbEntity
  8
0
100
AcDbLine
 10
646.946809
 20
548.665975
 30
0.0
 11
646.946809
 21
534.173266
 31
0.0
  0
LINE
  5
5828
100
AcDbEntity
  8
0
100
AcDbLine
 10
680.946809
 20
567.881704
 30
0.0
 11
680.946809
 21
472.881704
 31
0.0
  0
ARC
  5
5829
100
AcDbEntity
  8
0
100
AcDbCircle
 10
676.946809
 20
541.412833
 30
0.0
 40
4.0
100
AcDbArc
 50
277.125016
 51
0.0
  0
ARC
  5
582A
100
AcDbEntity
  8
0
100
AcDbCircle
 10
676.946809
 20
499.350575
 30
0.0
 40
4.0
100
AcDbArc
 50
0.0
 51
82.874984
  0
ARC
  5
582B
100
AcDbEntity
  8
0
100
AcDbCircle
 10
648.946809
 20
506.590142
 30
0.0
 40
2.0
100
AcDbArc
 50
112.88538
 51
180.0
  0
ARC
  5
582C
100
AcDbEntity
  8
0
100
AcDbCircle
 10
645.446809
 20
514.881704
 30
0.0
 40
7.0
100
AcDbArc
 50
270.0
 51
0.0
  0
LINE
  5
582D
100
AcDbEntity
  8
0
100
AcDbLine
 10
628.155096
 20
507.881704
 30
0.0
 11
645.446809
 21
507.881704
 31
0.0
  0
LINE
  5
582E
100
AcDbEntity
  8
0
100
AcDbLine
 10
641.48408
 20
498.597433
 30
0.0
 11
645.23708
 21
492.097433
 31
0.0
  0
LINE
  5
582F
100
AcDbEntity
  8
0
100
AcDbLine
 10
645.23708
 20
492.097433
 30
0.0
 11
641.48408
 21
485.597433
 31
0.0
  0
ARC
  5
5830
100
AcDbEntity
  8
0
100
AcDbCircle
 10
637.73108
 20
492.097433
 30
0.0
 40
9.215729
100
AcDbArc
 50
270.0
 51
0.0
  0
LINE
  5
5831
100
AcDbEntity
  8
0
100
AcDbLine
 10
630.22508
 20
492.097433
 30
0.0
 11
633.97808
 21
498.597433
 31
0.0
  0
LINE
  5
5832
100
AcDbEntity
  8
0
100
AcDbLine
 10
633.97808
 20
498.597433
 30
0.0
 11
641.48408
 21
498.597433
 31
0.0
  0
LINE
  5
5833
100
AcDbEntity
  8
0
100
AcDbLine
 10
641.48408
 20
485.597433
 30
0.0
 11
633.97808
 21
485.597433
 31
0.0
  0
LINE
  5
5834
100
AcDbEntity
  8
0
100
AcDbLine
 10
633.97808
 20
485.597433
 30
0.0
 11
630.22508
 21
492.097433
 31
0.0
  0
CIRCLE
  5
5835
100
AcDbEntity
  8
0
100
AcDbCircle
 10
637.73108
 20
492.097433
 30
0.0
 40
6.30876
  0
LINE
  5
5836
100
AcDbEntity
  8
0
100
AcDbLine
 10
660.946809
 20
505.381704
 30
0.0
 11
646.946809
 21
505.381704
 31
0.0
  0
LINE
  5
5837
100
AcDbEntity
  8
0
100
AcDbLine
 10
646.946809
 20
506.590142
 30
0.0
 11
646.946809
 21
492.097433
 31
0.0
  0
LINE
  5
5838
100
AcDbEntity
  8
0
100
AcDbLine
 10
660.946809
 20
505.381704
 30
0.0
 11
677.442948
 21
503.319687
 31
0.0
  0
LINE
  5
5839
100
AcDbEntity
  8
0
100
AcDbLine
 10
643.944364
 20
525.381704
 30
0.0
 11
645.208245
 21
525.381704
 31
0.0
  0
LINE
  5
583A
100
AcDbEntity
  8
0
100
AcDbLine
 10
628.155096
 20
532.881704
 30
0.0
 11
645.446809
 21
532.881704
 31
0.0
  0
LINE
  5
583B
100
AcDbEntity
  8
0
100
AcDbLine
 10
643.944364
 20
515.381704
 30
0.0
 11
645.208245
 21
515.381704
 31
0.0
  0
POLYLINE
  5
583C
100
AcDbEntity
  8
0
100
AcDb2dPolyline
 66
     1
 10
0.0
 20
0.0
 30
0.0
 70
     1
  0
VERTEX
  5
63AD
100
AcDbEntity
  8
0
100
AcDbVertex
100
AcDb2dVertex
 10
641.3717
 20
520.381704
 30
0.0
 42
0.077085
  0
VERTEX
  5
63AE
100
AcDbEntity
  8
0
100
AcDbVertex
100
AcDb2dVertex
 10
641.676843
 20
518.414216
 30
0.0
 42
0.086906
  0
VERTEX
  5
63AF
100
AcDbEntity
  8
0
100
AcDbVertex
100
AcDb2dVertex
 10
642.495398
 20
516.84617
 30
0.0
 42
0.105719
  0
VERTEX
  5
63B0
100
AcDbEntity
  8
0
100
AcDbVertex
100
AcDb2dVertex
 10
643.795178
 20
515.738758
 30
0.0
 42
0.124385
  0
VERTEX
  5
63B1
100
AcDbEntity
  8
0
100
AcDbVertex
100
AcDb2dVertex
 10
645.208245
 20
515.381704
 30
0.0
 42
0.124385
  0
VERTEX
  5
63B2
100
AcDbEntity
  8
0
100
AcDbVertex
100
AcDb2dVertex
 10
646.621311
 20
515.738758
 30
0.0
 42
0.105719
  0
VERTEX
  5
63B3
100
AcDbEntity
  8
0
100
AcDbVertex
100
AcDb2dVertex
 10
647.921091
 20
516.84617
 30
0.0
 42
0.086906
  0
VERTEX
  5
63B4
100
AcDbEntity
  8
0
100
AcDbVertex
100
AcDb2dVertex
 10
648.739646
 20
518.414216
 30
0.0
 42
0.077085
  0
VERTEX
  5
63B5
100
AcDbEntity
  8
0
100
AcDbVertex
100
AcDb2dVertex
 10
649.044789
 20
520.381704
 30
0.0
 42
0.077085
  0
VERTEX
  5
63B6
100
AcDbEntity
  8
0
100
AcDbVertex
100
AcDb2dVertex
 10
648.739646
 20
522.349192
 30
0.0
 42
0.086906
  0
VERTEX
  5
63B7
100
AcDbEntity
  8
0
100
AcDbVertex
100
AcDb2dVertex
 10
647.921091
 20
523.917238
 30
0.0
 42
0.105719
  0
VERTEX
  5
63B8
100
AcDbEntity
  8
0
100
AcDbVertex
100
AcDb2dVertex
 10
646.621311
 20
525.02465
 30
0.0
 42
0.124385
  0
VERTEX
  5
63B9
100
AcDbEntity
  8
0
100
AcDbVertex
100
AcDb2dVertex
 10
645.208245
 20
525.381704
 30
0.0
 42
0.124385
  0
VERTEX
  5
63BA
100
AcDbEntity
  8
0
100
AcDbVertex
100
AcDb2dVertex
 10
643.795178
 20
525.02465
 30
0.0
 42
0.105719
  0
VERTEX
  5
63BB
100
AcDbEntity
  8
0
100
AcDbVertex
100
AcDb2dVertex
 10
642.495398
 20
523.917238
 30
0.0
 42
0.086906
  0
VERTEX
  5
63BC
100
AcDbEntity
  8
0
100
AcDbVertex
100
AcDb2dVertex
 10
641.676843
 20
522.349192
 30
0.0
 42
0.077085
  0
SEQEND
  5
63BD
100
AcDbEntity
  8
0
  0
LINE
  5
583D
100
AcDbEntity
  8
0
100
AcDbLine
 10
637.73108
 20
541.159975
 30
0.0
 11
631.23108
 21
544.912975
 31
0.0
  0
LINE
  5
583E
100
AcDbEntity
  8
0
100
AcDbLine
 10
644.23108
 20
544.912975
 30
0.0
 11
637.73108
 21
541.159975
 31
0.0
  0
ARC
  5
583F
100
AcDbEntity
  8
0
100
AcDbCircle
 10
643.944364
 20
527.381704
 30
0.0
 40
2.0
100
AcDbArc
 50
180.0
 51
270.0
  0
ARC
  5
5840
100
AcDbEntity
  8
0
100
AcDbCircle
 10
643.944364
 20
513.381704
 30
0.0
 40
2.0
100
AcDbArc
 50
90.0
 51
180.0
  0
ARC
  5
5841
100
AcDbEntity
  8
0
100
AcDbCircle
 10
648.946809
 20
534.173266
 30
0.0
 40
2.0
100
AcDbArc
 50
180.0
 51
247.11462
  0
LINE
  5
5842
100
AcDbEntity
  8
0
100
AcDbLine
 10
660.946809
 20
535.381704
 30
0.0
 11
646.946809
 21
535.381704
 31
0.0
  0
LINE
  5
5843
100
AcDbEntity
  8
0
100
AcDbLine
 10
646.946809
 20
535.381704
 30
0.0
 11
660.946809
 21
535.381704
 31
0.0
  0
ARC
  5
5844
100
AcDbEntity
  8
0
100
AcDbCircle
 10
645.446809
 20
525.881704
 30
0.0
 40
7.0
100
AcDbArc
 50
0.0
 51
90.0
  0
LINE
  5
5845
100
AcDbEntity
  8
0
100
AcDbLine
 10
652.446809
 20
514.881704
 30
0.0
 11
652.446809
 21
525.881704
 31
0.0
  0
LINE
  5
5846
100
AcDbEntity
  8
0
100
AcDbLine
 10
660.946809
 20
535.381704
 30
0.0
 11
677.442948
 21
537.443721
 31
0.0
  0
LINE
  5
5847
100
AcDbEntity
  8
0
100
AcDbLine
 10
696.946809
 20
520.381704
 30
0.0
 11
696.946809
 21
472.881704
 31
0.0
  0
LINE
  5
5849
100
AcDbEntity
  8
0
100
AcDbLine
 10
680.946809
 20
472.881704
 30
0.0
 11
696.946809
 21
472.881704
 31
0.0
  0
ARC
  5
584A
100
AcDbEntity
  8
0
100
AcDbCircle
 10
637.73108
 20
548.665975
 30
0.0
 40
9.215729
100
AcDbArc
 50
0.0
 51
90.0
  0
LINE
  5
584B
100
AcDbEntity
  8
0
100
AcDbLine
 10
637.73108
 20
556.171975
 30
0.0
 11
644.23108
 21
552.418975
 31
0.0
  0
LINE
  5
584C
100
AcDbEntity
  8
0
100
AcDbLine
 10
631.23108
 20
552.418975
 30
0.0
 11
637.73108
 21
556.171975
 31
0.0
  0
LINE
  5
584E
100
AcDbEntity
  8
0
100
AcDbLine
 10
680.946809
 20
567.881704
 30
0.0
 11
696.946809
 21
567.881704
 31
0.0
  0
ARC
  5
584F
100
AcDbEntity
  8
0
100
AcDbCircle
 10
643.430099
 20
276.742074
 30
0.0
 40
12.182091
100
AcDbArc
 50
145.179294
 51
184.820706
  0
ARC
  5
5850
100
AcDbEntity
  8
0
100
AcDbCircle
 10
643.430099
 20
276.742074
 30
0.0
 40
12.182091
100
AcDbArc
 50
145.179294
 51
184.820706
  0
ARC
  5
5851
100
AcDbEntity
  8
0
100
AcDbCircle
 10
625.691662
 20
281.495074
 30
0.0
 40
12.182091
100
AcDbArc
 50
325.179294
 51
4.820706
  0
ARC
  5
5852
100
AcDbEntity
  8
0
100
AcDbCircle
 10
625.691662
 20
281.495074
 30
0.0
 40
12.182091
100
AcDbArc
 50
325.179294
 51
4.820706
  0
LINE
  5
5853
100
AcDbEntity
  8
0
100
AcDbLine
 10
578.9751
 20
281.589425
 30
0.0
 11
628.557274
 21
268.303921
 31
0.0
  0
LINE
  5
5854
100
AcDbEntity
  8
0
100
AcDbLine
 10
634.380703
 20
290.037252
 30
0.0
 11
628.945503
 21
269.75281
 31
0.0
  0
LINE
  5
5855
100
AcDbEntity
  8
0
100
AcDbLine
 10
634.380703
 20
290.037252
 30
0.0
 11
628.945503
 21
269.75281
 31
0.0
  0
LINE
  5
5856
100
AcDbEntity
  8
0
100
AcDbLine
 10
640.176258
 20
288.484338
 30
0.0
 11
634.741058
 21
268.199896
 31
0.0
  0
LINE
  5
5857
100
AcDbEntity
  8
0
100
AcDbLine
 10
628.557274
 20
268.303921
 30
0.0
 11
634.768931
 21
291.486141
 31
0.0
  0
LINE
  5
5859
100
AcDbEntity
  8
0
100
AcDbLine
 10
630.429166
 20
272.501529
 30
0.0
 11
631.291102
 21
275.718316
 31
0.0
  0
LINE
  5
585A
100
AcDbEntity
  8
0
100
AcDbLine
 10
635.692463
 20
274.538975
 30
0.0
 11
631.291102
 21
275.718316
 31
0.0
  0
LINE
  5
585B
100
AcDbEntity
  8
0
100
AcDbLine
 10
634.830527
 20
271.322188
 30
0.0
 11
635.692463
 21
274.538975
 31
0.0
  0
LINE
  5
585C
100
AcDbEntity
  8
0
100
AcDbLine
 10
634.830527
 20
271.322188
 30
0.0
 11
630.429166
 21
272.501529
 31
0.0
  0
LINE
  5
585D
100
AcDbEntity
  8
0
100
AcDbLine
 10
633.720437
 20
267.179275
 30
0.0
 11
634.741058
 21
268.199896
 31
0.0
  0
LINE
  5
585E
100
AcDbEntity
  8
0
100
AcDbLine
 10
629.319076
 20
268.358616
 30
0.0
 11
628.945503
 21
269.75281
 31
0.0
  0
LINE
  5
585F
100
AcDbEntity
  8
0
100
AcDbLine
 10
633.720437
 20
267.179275
 30
0.0
 11
629.319076
 21
268.358616
 31
0.0
  0
ARC
  5
5860
100
AcDbEntity
  8
0
100
AcDbCircle
 10
631.546315
 20
269.98201
 30
0.0
 40
3.54713
100
AcDbArc
 50
322.198744
 51
22.198744
  0
ARC
  5
5861
100
AcDbEntity
  8
0
100
AcDbCircle
 10
632.603289
 20
269.698794
 30
0.0
 40
3.54713
100
AcDbArc
 50
127.801256
 51
187.801256
  0
LINE
  5
5862
100
AcDbEntity
  8
0
100
AcDbLine
 10
586.946809
 20
389.075321
 30
0.0
 11
641.3717
 21
389.075321
 31
0.0
  0
LINE
  5
5863
100
AcDbEntity
  8
0
100
AcDbLine
 10
571.946809
 20
349.075321
 30
0.0
 11
646.946809
 21
349.075321
 31
0.0
  0
LINE
  5
5864
100
AcDbEntity
  8
0
100
AcDbLine
 10
576.311892
 20
324.575321
 30
0.0
 11
642.535548
 21
324.575321
 31
0.0
  0
LINE
  5
5865
100
AcDbEntity
  8
0
100
AcDbLine
 10
587.341763
 20
299.53547
 30
0.0
 11
622.906959
 21
290.005804
 31
0.0
  0
LINE
  5
5866
100
AcDbEntity
  8
0
100
AcDbLine
 10
566.446809
 20
361.075321
 30
0.0
 11
652.446809
 21
361.075321
 31
0.0
  0
LINE
  5
5867
100
AcDbEntity
  8
0
100
AcDbLine
 10
567.946809
 20
373.075321
 30
0.0
 11
650.946809
 21
373.075321
 31
0.0
  0
LINE
  5
5868
100
AcDbEntity
  8
0
100
AcDbLine
 10
571.946809
 20
361.075321
 30
0.0
 11
571.946809
 21
349.075321
 31
0.0
  0
LINE
  5
5869
100
AcDbEntity
  8
0
100
AcDbLine
 10
521.946809
 20
392.075321
 30
0.0
 11
521.946809
 21
344.575321
 31
0.0
  0
LINE
  5
586A
100
AcDbEntity
  8
0
100
AcDbLine
 10
537.946809
 20
392.075321
 30
0.0
 11
537.946809
 21
297.075321
 31
0.0
  0
ARC
  5
586C
100
AcDbEntity
  8
0
100
AcDbCircle
 10
541.946809
 20
326.544192
 30
0.0
 40
4.0
100
AcDbArc
 50
97.125016
 51
180.0
  0
LINE
  5
586D
100
AcDbEntity
  8
0
100
AcDbLine
 10
521.946809
 20
344.575321
 30
0.0
 11
521.946809
 21
297.075321
 31
0.0
  0
LINE
  5
586F
100
AcDbEntity
  8
0
100
AcDbLine
 10
521.946809
 20
297.075321
 30
0.0
 11
537.946809
 21
297.075321
 31
0.0
  0
LINE
  5
5870
100
AcDbEntity
  8
0
100
AcDbLine
 10
574.791112
 20
321.550309
 30
0.0
 11
580.533027
 21
305.774526
 31
0.0
  0
LINE
  5
5871
100
AcDbEntity
  8
0
100
AcDbLine
 10
557.060453
 20
329.331632
 30
0.0
 11
572.166365
 21
287.828481
 31
0.0
  0
ARC
  5
5872
100
AcDbEntity
  8
0
100
AcDbCircle
 10
581.563291
 20
291.248683
 30
0.0
 40
10.0
100
AcDbArc
 50
200.0
 51
255.0
  0
ARC
  5
5873
100
AcDbEntity
  8
0
100
AcDbCircle
 10
589.929953
 20
309.194728
 30
0.0
 40
10.0
100
AcDbArc
 50
200.0
 51
255.0
  0
ARC
  5
5874
100
AcDbEntity
  8
0
100
AcDbCircle
 10
587.946809
 20
326.338591
 30
0.0
 40
14.0
100
AcDbArc
 50
180.0
 51
200.0
  0
LINE
  5
5875
100
AcDbEntity
  8
0
100
AcDbLine
 10
573.946809
 20
349.075321
 30
0.0
 11
573.946809
 21
326.338591
 31
0.0
  0
ARC
  5
5876
100
AcDbEntity
  8
0
100
AcDbCircle
 10
553.301683
 20
327.963551
 30
0.0
 40
4.0
100
AcDbArc
 50
20.0
 51
97.125016
  0
LINE
  5
5877
100
AcDbEntity
  8
0
100
AcDbLine
 10
552.805544
 20
331.932663
 30
0.0
 11
541.45067
 21
330.513303
 31
0.0
  0
ARC
  5
5878
100
AcDbEntity
  8
0
100
AcDbCircle
 10
541.946809
 20
365.60645
 30
0.0
 40
4.0
100
AcDbArc
 50
180.0
 51
262.874984
  0
LINE
  5
587A
100
AcDbEntity
  8
0
100
AcDbLine
 10
521.946809
 20
392.075321
 30
0.0
 11
537.946809
 21
392.075321
 31
0.0
  0
LINE
  5
587B
100
AcDbEntity
  8
0
100
AcDbLine
 10
573.657038
 20
378.884321
 30
0.0
 11
574.854038
 21
379.575321
 31
0.0
  0
ARC
  5
587C
100
AcDbEntity
  8
0
100
AcDbCircle
 10
575.534538
 20
375.881362
 30
0.0
 40
3.541047
100
AcDbArc
 50
57.999406
 51
122.000594
  0
LINE
  5
587D
100
AcDbEntity
  8
0
100
AcDbLine
 10
586.946809
 20
389.075321
 30
0.0
 11
574.550218
 21
379.399933
 31
0.0
  0
LINE
  5
587E
100
AcDbEntity
  8
0
100
AcDbLine
 10
573.657038
 20
373.075321
 30
0.0
 11
573.657038
 21
378.884321
 31
0.0
  0
LINE
  5
587F
100
AcDbEntity
  8
0
100
AcDbLine
 10
571.946809
 20
373.075321
 30
0.0
 11
571.946809
 21
361.075321
 31
0.0
  0
ARC
  5
5880
100
AcDbEntity
  8
0
100
AcDbCircle
 10
567.946809
 20
371.575321
 30
0.0
 40
1.5
100
AcDbArc
 50
90.0
 51
180.0
  0
ARC
  5
5881
100
AcDbEntity
  8
0
100
AcDbCircle
 10
567.946809
 20
372.343262
 30
0.0
 40
1.5
100
AcDbArc
 50
127.971604
 51
180.0
  0
LINE
  5
5882
100
AcDbEntity
  8
0
100
AcDbLine
 10
566.446809
 20
361.075321
 30
0.0
 11
566.446809
 21
359.575321
 31
0.0
  0
LINE
  5
5883
100
AcDbEntity
  8
0
100
AcDbLine
 10
557.946809
 20
359.575321
 30
0.0
 11
541.45067
 21
361.637338
 31
0.0
  0
LINE
  5
5884
100
AcDbEntity
  8
0
100
AcDbLine
 10
566.446809
 20
372.343262
 30
0.0
 11
566.446809
 21
361.075321
 31
0.0
  0
LINE
  5
5885
100
AcDbEntity
  8
0
100
AcDbLine
 10
573.657038
 20
378.702816
 30
0.0
 11
567.023903
 21
373.525735
 31
0.0
  0
LINE
  5
5886
100
AcDbEntity
  8
0
100
AcDbLine
 10
557.946809
 20
359.575321
 30
0.0
 11
571.946809
 21
359.575321
 31
0.0
  0
LINE
  5
5887
100
AcDbEntity
  8
0
100
AcDbLine
 10
587.472038
 20
379.575321
 30
0.0
 11
588.668038
 21
378.884321
 31
0.0
  0
LINE
  5
5888
100
AcDbEntity
  8
0
100
AcDbLine
 10
588.668038
 20
378.884321
 30
0.0
 11
588.668038
 21
373.075321
 31
0.0
  0
LINE
  5
5889
100
AcDbEntity
  8
0
100
AcDbLine
 10
584.915038
 20
378.884321
 30
0.0
 11
584.915038
 21
373.075321
 31
0.0
  0
LINE
  5
588A
100
AcDbEntity
  8
0
100
AcDbLine
 10
577.411038
 20
378.884321
 30
0.0
 11
577.411038
 21
373.075321
 31
0.0
  0
ARC
  5
588B
100
AcDbEntity
  8
0
100
AcDbCircle
 10
581.163038
 20
366.069841
 30
0.0
 40
13.352467
100
AcDbArc
 50
73.680297
 51
106.319703
  0
ARC
  5
588C
100
AcDbEntity
  8
0
100
AcDbCircle
 10
586.791538
 20
375.881362
 30
0.0
 40
3.541047
100
AcDbArc
 50
57.999406
 51
122.000594
  0
LINE
  5
588D
100
AcDbEntity
  8
0
100
AcDbLine
 10
574.854038
 20
379.575321
 30
0.0
 11
587.472038
 21
379.575321
 31
0.0
  0
LINE
  5
588E
100
AcDbEntity
  8
0
100
AcDbLine
 10
586.946809
 20
389.075321
 30
0.0
 11
583.681184
 21
379.575321
 31
0.0
  0
LINE
  5
588F
100
AcDbEntity
  8
0
100
AcDbLine
 10
696.946809
 20
392.075321
 30
0.0
 11
696.946809
 21
344.575321
 31
0.0
  0
LINE
  5
5890
100
AcDbEntity
  8
0
100
AcDbLine
 10
646.946809
 20
361.075321
 30
0.0
 11
646.946809
 21
349.075321
 31
0.0
  0
LINE
  5
5891
100
AcDbEntity
  8
0
100
AcDbLine
 10
680.946809
 20
392.075321
 30
0.0
 11
680.946809
 21
297.075321
 31
0.0
  0
ARC
  5
5893
100
AcDbEntity
  8
0
100
AcDbCircle
 10
676.946809
 20
323.544192
 30
0.0
 40
4.0
100
AcDbArc
 50
0.0
 51
82.874984
  0
LINE
  5
5894
100
AcDbEntity
  8
0
100
AcDbLine
 10
644.102505
 20
321.550309
 30
0.0
 11
633.750908
 21
293.109527
 31
0.0
  0
LINE
  5
5895
100
AcDbEntity
  8
0
100
AcDbLine
 10
639.802685
 20
289.878532
 30
0.0
 11
640.176258
 21
288.484338
 31
0.0
  0
ARC
  5
5896
100
AcDbEntity
  8
0
100
AcDbCircle
 10
634.878539
 20
292.699103
 30
0.0
 40
1.2
100
AcDbArc
 50
160.0
 51
255.0
  0
LINE
  5
5897
100
AcDbEntity
  8
0
100
AcDbLine
 10
634.567956
 20
291.539992
 30
0.0
 11
634.768931
 21
291.486141
 31
0.0
  0
LINE
  5
5898
100
AcDbEntity
  8
0
100
AcDbLine
 10
635.401323
 20
291.057873
 30
0.0
 11
634.380703
 21
290.037252
 31
0.0
  0
LINE
  5
5899
100
AcDbEntity
  8
0
100
AcDbLine
 10
639.802685
 20
289.878532
 30
0.0
 11
635.401323
 21
291.057873
 31
0.0
  0
ARC
  5
589A
100
AcDbEntity
  8
0
100
AcDbCircle
 10
625.49515
 20
299.665062
 30
0.0
 40
10.0
100
AcDbArc
 50
255.0
 51
340.0
  0
LINE
  5
589B
100
AcDbEntity
  8
0
100
AcDbLine
 10
637.830659
 20
282.518832
 30
0.0
 11
638.692594
 21
285.735618
 31
0.0
  0
LINE
  5
589C
100
AcDbEntity
  8
0
100
AcDbLine
 10
637.830659
 20
282.518832
 30
0.0
 11
633.429298
 21
283.698173
 31
0.0
  0
LINE
  5
589D
100
AcDbEntity
  8
0
100
AcDbLine
 10
633.429298
 20
283.698173
 30
0.0
 11
634.291233
 21
286.91496
 31
0.0
  0
LINE
  5
589E
100
AcDbEntity
  8
0
100
AcDbLine
 10
638.692594
 20
285.735618
 30
0.0
 11
634.291233
 21
286.91496
 31
0.0
  0
ARC
  5
589F
100
AcDbEntity
  8
0
100
AcDbCircle
 10
637.575446
 20
288.255138
 30
0.0
 40
3.54713
100
AcDbArc
 50
142.198744
 51
202.198744
  0
ARC
  5
58A0
100
AcDbEntity
  8
0
100
AcDbCircle
 10
636.518472
 20
288.538353
 30
0.0
 40
3.54713
100
AcDbArc
 50
307.801256
 51
7.801256
  0
ARC
  5
58A1
100
AcDbEntity
  8
0
100
AcDbCircle
 10
630.946809
 20
326.338591
 30
0.0
 40
14.0
100
AcDbArc
 50
340.0
 51
0.0
  0
ARC
  5
58A2
100
AcDbEntity
  8
0
100
AcDbCircle
 10
649.864813
 20
324.575321
 30
0.0
 40
5.0
100
AcDbArc
 50
90.0
 51
174.675079
  0
LINE
  5
58A3
100
AcDbEntity
  8
0
100
AcDbLine
 10
660.946809
 20
329.575321
 30
0.0
 11
649.864813
 21
329.575321
 31
0.0
  0
LINE
  5
58A4
100
AcDbEntity
  8
0
100
AcDbLine
 10
644.946809
 20
349.075321
 30
0.0
 11
644.946809
 21
326.338591
 31
0.0
  0
LINE
  5
58A5
100
AcDbEntity
  8
0
100
AcDbLine
 10
660.946809
 20
329.575321
 30
0.0
 11
677.442948
 21
327.513303
 31
0.0
  0
LINE
  5
58A6
100
AcDbEntity
  8
0
100
AcDbLine
 10
696.946809
 20
344.575321
 30
0.0
 11
696.946809
 21
297.075321
 31
0.0
  0
LINE
  5
58A8
100
AcDbEntity
  8
0
100
AcDbLine
 10
680.946809
 20
297.075321
 30
0.0
 11
696.946809
 21
297.075321
 31
0.0
  0
ARC
  5
58A9
100
AcDbEntity
  8
0
100
AcDbCircle
 10
676.946809
 20
365.60645
 30
0.0
 40
4.0
100
AcDbArc
 50
277.125016
 51
0.0
  0
LINE
  5
58AA
100
AcDbEntity
  8
0
100
AcDbLine
 10
645.23658
 20
378.884321
 30
0.0
 11
644.03958
 21
379.575321
 31
0.0
  0
ARC
  5
58AB
100
AcDbEntity
  8
0
100
AcDbCircle
 10
643.35908
 20
375.881362
 30
0.0
 40
3.541047
100
AcDbArc
 50
57.999406
 51
122.000594
  0
LINE
  5
58AC
100
AcDbEntity
  8
0
100
AcDbLine
 10
641.3717
 20
389.075321
 30
0.0
 11
649.044789
 21
381.402233
 31
0.0
  0
LINE
  5
58AD
100
AcDbEntity
  8
0
100
AcDbLine
 10
641.48258
 20
378.884321
 30
0.0
 11
641.48258
 21
373.075321
 31
0.0
  0
LINE
  5
58AE
100
AcDbEntity
  8
0
100
AcDbLine
 10
631.42158
 20
379.575321
 30
0.0
 11
630.22558
 21
378.884321
 31
0.0
  0
ARC
  5
58AF
100
AcDbEntity
  8
0
100
AcDbCircle
 10
632.10208
 20
375.881362
 30
0.0
 40
3.541047
100
AcDbArc
 50
57.999406
 51
122.000594
  0
LINE
  5
58B0
100
AcDbEntity
  8
0
100
AcDbLine
 10
633.97858
 20
378.884321
 30
0.0
 11
633.97858
 21
373.075321
 31
0.0
  0
LINE
  5
58B1
100
AcDbEntity
  8
0
100
AcDbLine
 10
630.22558
 20
378.884321
 30
0.0
 11
630.22558
 21
373.075321
 31
0.0
  0
ARC
  5
58B2
100
AcDbEntity
  8
0
100
AcDbCircle
 10
637.73058
 20
366.069841
 30
0.0
 40
13.352467
100
AcDbArc
 50
73.680297
 51
106.319703
  0
LINE
  5
58B3
100
AcDbEntity
  8
0
100
AcDbLine
 10
644.03958
 20
379.575321
 30
0.0
 11
631.42158
 21
379.575321
 31
0.0
  0
LINE
  5
58B4
100
AcDbEntity
  8
0
100
AcDbLine
 10
631.946809
 20
389.075321
 30
0.0
 11
635.212434
 21
379.575321
 31
0.0
  0
ARC
  5
58B5
100
AcDbEntity
  8
0
100
AcDbCircle
 10
650.946809
 20
371.790768
 30
0.0
 40
1.5
100
AcDbArc
 50
0.0
 51
20.0
  0
LINE
  5
58B6
100
AcDbEntity
  8
0
100
AcDbLine
 10
645.23658
 20
373.075321
 30
0.0
 11
645.23658
 21
378.884321
 31
0.0
  0
LINE
  5
58B7
100
AcDbEntity
  8
0
100
AcDbLine
 10
649.044789
 20
381.402233
 30
0.0
 11
652.356348
 21
372.303799
 31
0.0
  0
ARC
  5
58B8
100
AcDbEntity
  8
0
100
AcDbCircle
 10
650.946809
 20
371.575321
 30
0.0
 40
1.5
100
AcDbArc
 50
0.0
 51
90.0
  0
LINE
  5
58B9
100
AcDbEntity
  8
0
100
AcDbLine
 10
652.446809
 20
361.075321
 30
0.0
 11
652.446809
 21
359.575321
 31
0.0
  0
LINE
  5
58BA
100
AcDbEntity
  8
0
100
AcDbLine
 10
646.946809
 20
359.575321
 30
0.0
 11
660.946809
 21
359.575321
 31
0.0
  0
LINE
  5
58BB
100
AcDbEntity
  8
0
100
AcDbLine
 10
660.946809
 20
359.575321
 30
0.0
 11
646.946809
 21
359.575321
 31
0.0
  0
LINE
  5
58BC
100
AcDbEntity
  8
0
100
AcDbLine
 10
652.446809
 20
371.790768
 30
0.0
 11
652.446809
 21
361.075321
 31
0.0
  0
LINE
  5
58BD
100
AcDbEntity
  8
0
100
AcDbLine
 10
646.946809
 20
373.075321
 30
0.0
 11
646.946809
 21
361.075321
 31
0.0
  0
LINE
  5
58BE
100
AcDbEntity
  8
0
100
AcDbLine
 10
660.946809
 20
359.575321
 30
0.0
 11
677.442948
 21
361.637338
 31
0.0
  0
LINE
  5
58C0
100
AcDbEntity
  8
0
100
AcDbLine
 10
680.946809
 20
392.075321
 30
0.0
 11
696.946809
 21
392.075321
 31
0.0
  0
LINE
  5
58C1
100
AcDbEntity
  8
0
100
AcDbLine
 10
631.946809
 20
757.572468
 30
0.0
 11
577.521917
 21
757.572468
 31
0.0
  0
LINE
  5
58C2
100
AcDbEntity
  8
0
100
AcDbLine
 10
650.946809
 20
741.572468
 30
0.0
 11
567.946809
 21
741.572468
 31
0.0
  0
LINE
  5
58C3
100
AcDbEntity
  8
0
100
AcDbLine
 10
646.946809
 20
717.572468
 30
0.0
 11
571.946809
 21
717.572468
 31
0.0
  0
LINE
  5
58C4
100
AcDbEntity
  8
0
100
AcDbLine
 10
642.581726
 20
693.072468
 30
0.0
 11
576.35807
 21
693.072468
 31
0.0
  0
LINE
  5
58C5
100
AcDbEntity
  8
0
100
AcDbLine
 10
639.918517
 20
650.086572
 30
0.0
 11
590.336343
 21
636.801069
 31
0.0
  0
LINE
  5
58C6
100
AcDbEntity
  8
0
100
AcDbLine
 10
631.551855
 20
668.032617
 30
0.0
 11
595.986658
 21
658.502952
 31
0.0
  0
LINE
  5
58C7
100
AcDbEntity
  8
0
100
AcDbLine
 10
652.446809
 20
729.572468
 30
0.0
 11
566.446809
 21
729.572468
 31
0.0
  0
LINE
  5
58C9
100
AcDbEntity
  8
0
100
AcDbLine
 10
573.946809
 20
717.572468
 30
0.0
 11
573.946809
 21
694.835738
 31
0.0
  0
LINE
  5
58CA
100
AcDbEntity
  8
0
100
AcDbLine
 10
521.946809
 20
713.072468
 30
0.0
 11
521.946809
 21
665.572468
 31
0.0
  0
LINE
  5
58CB
100
AcDbEntity
  8
0
100
AcDbLine
 10
537.946809
 20
760.572468
 30
0.0
 11
537.946809
 21
665.572468
 31
0.0
  0
ARC
  5
58CD
100
AcDbEntity
  8
0
100
AcDbCircle
 10
541.946809
 20
692.04134
 30
0.0
 40
4.0
100
AcDbArc
 50
97.125016
 51
180.0
  0
LINE
  5
58CE
100
AcDbEntity
  8
0
100
AcDbLine
 10
537.946809
 20
665.572468
 30
0.0
 11
521.946809
 21
665.572468
 31
0.0
  0
ARC
  5
58D0
100
AcDbEntity
  8
0
100
AcDbCircle
 10
584.015079
 20
661.196251
 30
0.0
 40
1.2
100
AcDbArc
 50
285.0
 51
20.0
  0
ARC
  5
58D1
100
AcDbEntity
  8
0
100
AcDbCircle
 10
593.398468
 20
668.16221
 30
0.0
 40
10.0
100
AcDbArc
 50
200.0
 51
285.0
  0
LINE
  5
58D2
100
AcDbEntity
  8
0
100
AcDbLine
 10
584.325662
 20
660.03714
 30
0.0
 11
584.124686
 21
659.983289
 31
0.0
  0
LINE
  5
58D3
100
AcDbEntity
  8
0
100
AcDbLine
 10
583.492294
 20
659.555021
 30
0.0
 11
584.512915
 21
658.5344
 31
0.0
  0
ARC
  5
58D4
100
AcDbEntity
  8
0
100
AcDbCircle
 10
581.318172
 20
656.752286
 30
0.0
 40
3.54713
100
AcDbArc
 50
337.801256
 51
37.801256
  0
LINE
  5
58D5
100
AcDbEntity
  8
0
100
AcDbLine
 10
579.090933
 20
658.375679
 30
0.0
 11
578.71736
 21
656.981486
 31
0.0
  0
LINE
  5
58D6
100
AcDbEntity
  8
0
100
AcDbLine
 10
579.090933
 20
658.375679
 30
0.0
 11
583.492294
 21
659.555021
 31
0.0
  0
LINE
  5
58D7
100
AcDbEntity
  8
0
100
AcDbLine
 10
581.062959
 20
651.015979
 30
0.0
 11
580.201023
 21
654.232766
 31
0.0
  0
LINE
  5
58D8
100
AcDbEntity
  8
0
100
AcDbLine
 10
581.062959
 20
651.015979
 30
0.0
 11
585.46432
 21
652.195321
 31
0.0
  0
LINE
  5
58D9
100
AcDbEntity
  8
0
100
AcDbLine
 10
585.46432
 20
652.195321
 30
0.0
 11
584.602384
 21
655.412107
 31
0.0
  0
ARC
  5
58DA
100
AcDbEntity
  8
0
100
AcDbCircle
 10
582.375146
 20
657.035501
 30
0.0
 40
3.54713
100
AcDbArc
 50
172.198744
 51
232.198744
  0
LINE
  5
58DB
100
AcDbEntity
  8
0
100
AcDbLine
 10
580.201023
 20
654.232766
 30
0.0
 11
584.602384
 21
655.412107
 31
0.0
  0
LINE
  5
58DC
100
AcDbEntity
  8
0
100
AcDbLine
 10
588.464451
 20
640.998677
 30
0.0
 11
587.602516
 21
644.215464
 31
0.0
  0
LINE
  5
58DD
100
AcDbEntity
  8
0
100
AcDbLine
 10
589.574542
 20
636.855764
 30
0.0
 11
589.948115
 21
638.249957
 31
0.0
  0
ARC
  5
58DE
100
AcDbEntity
  8
0
100
AcDbCircle
 10
586.290329
 20
638.195942
 30
0.0
 40
3.54713
100
AcDbArc
 50
352.198744
 51
52.198744
  0
LINE
  5
58DF
100
AcDbEntity
  8
0
100
AcDbLine
 10
585.173181
 20
635.676422
 30
0.0
 11
584.15256
 21
636.697043
 31
0.0
  0
ARC
  5
58E0
100
AcDbEntity
  8
0
100
AcDbCircle
 10
587.347303
 20
638.479157
 30
0.0
 40
3.54713
100
AcDbArc
 50
157.801256
 51
217.801256
  0
LINE
  5
58E1
100
AcDbEntity
  8
0
100
AcDbLine
 10
584.06309
 20
639.819336
 30
0.0
 11
583.201155
 21
643.036122
 31
0.0
  0
LINE
  5
58E2
100
AcDbEntity
  8
0
100
AcDbLine
 10
583.201155
 20
643.036122
 30
0.0
 11
587.602516
 21
644.215464
 31
0.0
  0
LINE
  5
58E3
100
AcDbEntity
  8
0
100
AcDbLine
 10
585.173181
 20
635.676422
 30
0.0
 11
589.574542
 21
636.855764
 31
0.0
  0
LINE
  5
58E4
100
AcDbEntity
  8
0
100
AcDbLine
 10
584.06309
 20
639.819336
 30
0.0
 11
588.464451
 21
640.998677
 31
0.0
  0
ARC
  5
58E5
100
AcDbEntity
  8
0
100
AcDbCircle
 10
593.201956
 20
649.992221
 30
0.0
 40
12.182091
100
AcDbArc
 50
175.179294
 51
214.820706
  0
ARC
  5
58E6
100
AcDbEntity
  8
0
100
AcDbCircle
 10
593.201956
 20
649.992221
 30
0.0
 40
12.182091
100
AcDbArc
 50
175.179294
 51
214.820706
  0
LINE
  5
58E7
100
AcDbEntity
  8
0
100
AcDbLine
 10
578.71736
 20
656.981486
 30
0.0
 11
584.15256
 21
636.697043
 31
0.0
  0
ARC
  5
58E8
100
AcDbEntity
  8
0
100
AcDbCircle
 10
575.463519
 20
645.239222
 30
0.0
 40
12.182091
100
AcDbArc
 50
355.179294
 51
34.820706
  0
ARC
  5
58E9
100
AcDbEntity
  8
0
100
AcDbCircle
 10
575.463519
 20
645.239222
 30
0.0
 40
12.182091
100
AcDbArc
 50
355.179294
 51
34.820706
  0
LINE
  5
58EA
100
AcDbEntity
  8
0
100
AcDbLine
 10
584.512915
 20
658.5344
 30
0.0
 11
589.948115
 21
638.249957
 31
0.0
  0
LINE
  5
58EB
100
AcDbEntity
  8
0
100
AcDbLine
 10
584.512915
 20
658.5344
 30
0.0
 11
589.948115
 21
638.249957
 31
0.0
  0
LINE
  5
58EC
100
AcDbEntity
  8
0
100
AcDbLine
 10
590.336343
 20
636.801069
 30
0.0
 11
584.124686
 21
659.983289
 31
0.0
  0
ARC
  5
58ED
100
AcDbEntity
  8
0
100
AcDbCircle
 10
587.946809
 20
694.835738
 30
0.0
 40
14.0
100
AcDbArc
 50
180.0
 51
200.0
  0
ARC
  5
58EE
100
AcDbEntity
  8
0
100
AcDbCircle
 10
569.028805
 20
693.072468
 30
0.0
 40
5.0
100
AcDbArc
 50
5.324921
 51
90.0
  0
LINE
  5
58EF
100
AcDbEntity
  8
0
100
AcDbLine
 10
557.946809
 20
698.072468
 30
0.0
 11
569.028805
 21
698.072468
 31
0.0
  0
LINE
  5
58F0
100
AcDbEntity
  8
0
100
AcDbLine
 10
557.946809
 20
698.072468
 30
0.0
 11
541.45067
 21
696.010451
 31
0.0
  0
LINE
  5
58F1
100
AcDbEntity
  8
0
100
AcDbLine
 10
574.791112
 20
690.047456
 30
0.0
 11
585.14271
 21
661.606675
 31
0.0
  0
ARC
  5
58F2
100
AcDbEntity
  8
0
100
AcDbCircle
 10
541.946809
 20
734.103597
 30
0.0
 40
4.0
100
AcDbArc
 50
180.0
 51
262.874984
  0
LINE
  5
58F3
100
AcDbEntity
  8
0
100
AcDbLine
 10
521.946809
 20
760.572468
 30
0.0
 11
521.946809
 21
713.072468
 31
0.0
  0
LINE
  5
58F5
100
AcDbEntity
  8
0
100
AcDbLine
 10
537.946809
 20
760.572468
 30
0.0
 11
521.946809
 21
760.572468
 31
0.0
  0
LINE
  5
58F6
100
AcDbEntity
  8
0
100
AcDbLine
 10
566.446809
 20
740.287916
 30
0.0
 11
566.446809
 21
729.572468
 31
0.0
  0
LINE
  5
58F7
100
AcDbEntity
  8
0
100
AcDbLine
 10
571.946809
 20
741.572468
 30
0.0
 11
571.946809
 21
729.572468
 31
0.0
  0
LINE
  5
58F8
100
AcDbEntity
  8
0
100
AcDbLine
 10
571.946809
 20
729.572468
 30
0.0
 11
571.946809
 21
717.572468
 31
0.0
  0
LINE
  5
58F9
100
AcDbEntity
  8
0
100
AcDbLine
 10
566.446809
 20
729.572468
 30
0.0
 11
566.446809
 21
728.072468
 31
0.0
  0
LINE
  5
58FA
100
AcDbEntity
  8
0
100
AcDbLine
 10
557.946809
 20
728.072468
 30
0.0
 11
541.45067
 21
730.134486
 31
0.0
  0
LINE
  5
58FB
100
AcDbEntity
  8
0
100
AcDbLine
 10
571.946809
 20
728.072468
 30
0.0
 11
557.946809
 21
728.072468
 31
0.0
  0
LINE
  5
58FC
100
AcDbEntity
  8
0
100
AcDbLine
 10
557.946809
 20
728.072468
 30
0.0
 11
571.946809
 21
728.072468
 31
0.0
  0
LINE
  5
58FD
100
AcDbEntity
  8
0
100
AcDbLine
 10
573.657038
 20
747.381468
 30
0.0
 11
574.854038
 21
748.072468
 31
0.0
  0
ARC
  5
58FE
100
AcDbEntity
  8
0
100
AcDbCircle
 10
575.534538
 20
744.37851
 30
0.0
 40
3.541047
100
AcDbArc
 50
57.999406
 51
122.000594
  0
LINE
  5
58FF
100
AcDbEntity
  8
0
100
AcDbLine
 10
577.521917
 20
757.572468
 30
0.0
 11
569.848829
 21
749.89938
 31
0.0
  0
LINE
  5
5900
100
AcDbEntity
  8
0
100
AcDbLine
 10
573.657038
 20
741.572468
 30
0.0
 11
573.657038
 21
747.381468
 31
0.0
  0
ARC
  5
5901
100
AcDbEntity
  8
0
100
AcDbCircle
 10
567.946809
 20
740.287916
 30
0.0
 40
1.5
100
AcDbArc
 50
160.0
 51
180.0
  0
ARC
  5
5902
100
AcDbEntity
  8
0
100
AcDbCircle
 10
567.946809
 20
740.072468
 30
0.0
 40
1.5
100
AcDbArc
 50
90.0
 51
180.0
  0
LINE
  5
5903
100
AcDbEntity
  8
0
100
AcDbLine
 10
569.848829
 20
749.89938
 30
0.0
 11
566.53727
 21
740.800946
 31
0.0
  0
LINE
  5
5904
100
AcDbEntity
  8
0
100
AcDbLine
 10
587.472038
 20
748.072468
 30
0.0
 11
588.668038
 21
747.381468
 31
0.0
  0
ARC
  5
5905
100
AcDbEntity
  8
0
100
AcDbCircle
 10
581.163038
 20
734.566989
 30
0.0
 40
13.352467
100
AcDbArc
 50
73.680297
 51
106.319703
  0
ARC
  5
5906
100
AcDbEntity
  8
0
100
AcDbCircle
 10
586.791538
 20
744.37851
 30
0.0
 40
3.541047
100
AcDbArc
 50
57.999406
 51
122.000594
  0
LINE
  5
5907
100
AcDbEntity
  8
0
100
AcDbLine
 10
586.946809
 20
757.572468
 30
0.0
 11
583.681184
 21
748.072468
 31
0.0
  0
LINE
  5
5908
100
AcDbEntity
  8
0
100
AcDbLine
 10
574.854038
 20
748.072468
 30
0.0
 11
587.472038
 21
748.072468
 31
0.0
  0
LINE
  5
5909
100
AcDbEntity
  8
0
100
AcDbLine
 10
588.668038
 20
747.381468
 30
0.0
 11
588.668038
 21
741.572468
 31
0.0
  0
LINE
  5
590A
100
AcDbEntity
  8
0
100
AcDbLine
 10
584.915038
 20
747.381468
 30
0.0
 11
584.915038
 21
741.572468
 31
0.0
  0
LINE
  5
590B
100
AcDbEntity
  8
0
100
AcDbLine
 10
577.411038
 20
747.381468
 30
0.0
 11
577.411038
 21
741.572468
 31
0.0
  0
LINE
  5
590C
100
AcDbEntity
  8
0
100
AcDbLine
 10
666.088074
 20
700.42981
 30
0.0
 11
677.442948
 21
699.010451
 31
0.0
  0
ARC
  5
590D
100
AcDbEntity
  8
0
100
AcDbCircle
 10
676.946809
 20
695.04134
 30
0.0
 40
4.0
100
AcDbArc
 50
0.0
 51
82.874984
  0
LINE
  5
590E
100
AcDbEntity
  8
0
100
AcDbLine
 10
644.946809
 20
717.572468
 30
0.0
 11
644.946809
 21
694.835738
 31
0.0
  0
ARC
  5
590F
100
AcDbEntity
  8
0
100
AcDbCircle
 10
665.591935
 20
696.460699
 30
0.0
 40
4.0
100
AcDbArc
 50
82.874984
 51
160.0
  0
LINE
  5
5910
100
AcDbEntity
  8
0
100
AcDbLine
 10
696.946809
 20
713.072468
 30
0.0
 11
696.946809
 21
665.572468
 31
0.0
  0
LINE
  5
5911
100
AcDbEntity
  8
0
100
AcDbLine
 10
680.946809
 20
760.572468
 30
0.0
 11
680.946809
 21
665.572468
 31
0.0
  0
LINE
  5
5913
100
AcDbEntity
  8
0
100
AcDbLine
 10
661.833164
 20
697.828779
 30
0.0
 11
646.727253
 21
656.325629
 31
0.0
  0
ARC
  5
5914
100
AcDbEntity
  8
0
100
AcDbCircle
 10
637.330327
 20
659.74583
 30
0.0
 40
10.0
100
AcDbArc
 50
285.0
 51
340.0
  0
ARC
  5
5915
100
AcDbEntity
  8
0
100
AcDbCircle
 10
630.946809
 20
694.835738
 30
0.0
 40
14.0
100
AcDbArc
 50
340.0
 51
0.0
  0
ARC
  5
5916
100
AcDbEntity
  8
0
100
AcDbCircle
 10
628.963664
 20
677.691875
 30
0.0
 40
10.0
100
AcDbArc
 50
285.0
 51
340.0
  0
LINE
  5
5917
100
AcDbEntity
  8
0
100
AcDbLine
 10
644.102505
 20
690.047456
 30
0.0
 11
638.36059
 21
674.271674
 31
0.0
  0
LINE
  5
5918
100
AcDbEntity
  8
0
100
AcDbLine
 10
696.946809
 20
665.572468
 30
0.0
 11
680.946809
 21
665.572468
 31
0.0
  0
ARC
  5
591A
100
AcDbEntity
  8
0
100
AcDbCircle
 10
676.946809
 20
734.103597
 30
0.0
 40
4.0
100
AcDbArc
 50
277.125016
 51
0.0
  0
LINE
  5
591B
100
AcDbEntity
  8
0
100
AcDbLine
 10
652.446809
 20
740.840409
 30
0.0
 11
652.446809
 21
729.572468
 31
0.0
  0
LINE
  5
591C
100
AcDbEntity
  8
0
100
AcDbLine
 10
646.946809
 20
741.572468
 30
0.0
 11
646.946809
 21
729.572468
 31
0.0
  0
LINE
  5
591D
100
AcDbEntity
  8
0
100
AcDbLine
 10
652.446809
 20
729.572468
 30
0.0
 11
652.446809
 21
728.072468
 31
0.0
  0
LINE
  5
591E
100
AcDbEntity
  8
0
100
AcDbLine
 10
646.946809
 20
729.572468
 30
0.0
 11
646.946809
 21
717.572468
 31
0.0
  0
LINE
  5
591F
100
AcDbEntity
  8
0
100
AcDbLine
 10
660.946809
 20
728.072468
 30
0.0
 11
646.946809
 21
728.072468
 31
0.0
  0
LINE
  5
5920
100
AcDbEntity
  8
0
100
AcDbLine
 10
660.946809
 20
728.072468
 30
0.0
 11
677.442948
 21
730.134486
 31
0.0
  0
LINE
  5
5921
100
AcDbEntity
  8
0
100
AcDbLine
 10
645.23658
 20
747.381468
 30
0.0
 11
644.03958
 21
748.072468
 31
0.0
  0
ARC
  5
5922
100
AcDbEntity
  8
0
100
AcDbCircle
 10
643.35908
 20
744.37851
 30
0.0
 40
3.541047
100
AcDbArc
 50
57.999406
 51
122.000594
  0
LINE
  5
5923
100
AcDbEntity
  8
0
100
AcDbLine
 10
631.946809
 20
757.572468
 30
0.0
 11
644.343399
 21
747.897081
 31
0.0
  0
LINE
  5
5924
100
AcDbEntity
  8
0
100
AcDbLine
 10
631.42158
 20
748.072468
 30
0.0
 11
630.22558
 21
747.381468
 31
0.0
  0
ARC
  5
5925
100
AcDbEntity
  8
0
100
AcDbCircle
 10
632.10208
 20
744.37851
 30
0.0
 40
3.541047
100
AcDbArc
 50
57.999406
 51
122.000594
  0
LINE
  5
5926
100
AcDbEntity
  8
0
100
AcDbLine
 10
631.946809
 20
757.572468
 30
0.0
 11
635.212434
 21
748.072468
 31
0.0
  0
ARC
  5
5927
100
AcDbEntity
  8
0
100
AcDbCircle
 10
637.73058
 20
734.566989
 30
0.0
 40
13.352467
100
AcDbArc
 50
73.680297
 51
106.319703
  0
LINE
  5
5928
100
AcDbEntity
  8
0
100
AcDbLine
 10
644.03958
 20
748.072468
 30
0.0
 11
631.42158
 21
748.072468
 31
0.0
  0
LINE
  5
5929
100
AcDbEntity
  8
0
100
AcDbLine
 10
641.48258
 20
747.381468
 30
0.0
 11
641.48258
 21
741.572468
 31
0.0
  0
LINE
  5
592A
100
AcDbEntity
  8
0
100
AcDbLine
 10
630.22558
 20
747.381468
 30
0.0
 11
630.22558
 21
741.572468
 31
0.0
  0
LINE
  5
592B
100
AcDbEntity
  8
0
100
AcDbLine
 10
633.97858
 20
747.381468
 30
0.0
 11
633.97858
 21
741.572468
 31
0.0
  0
ARC
  5
592C
100
AcDbEntity
  8
0
100
AcDbCircle
 10
650.946809
 20
740.072468
 30
0.0
 40
1.5
100
AcDbArc
 50
0.0
 51
90.0
  0
ARC
  5
592D
100
AcDbEntity
  8
0
100
AcDbCircle
 10
650.946809
 20
740.840409
 30
0.0
 40
1.5
100
AcDbArc
 50
0.0
 51
52.028396
  0
LINE
  5
592E
100
AcDbEntity
  8
0
100
AcDbLine
 10
645.23658
 20
741.572468
 30
0.0
 11
645.23658
 21
747.381468
 31
0.0
  0
LINE
  5
592F
100
AcDbEntity
  8
0
100
AcDbLine
 10
645.23658
 20
747.199964
 30
0.0
 11
651.869715
 21
742.022883
 31
0.0
  0
LINE
  5
5930
100
AcDbEntity
  8
0
100
AcDbLine
 10
696.946809
 20
760.572468
 30
0.0
 11
696.946809
 21
713.072468
 31
0.0
  0
LINE
  5
5932
100
AcDbEntity
  8
0
100
AcDbLine
 10
696.946809
 20
760.572468
 30
0.0
 11
680.946809
 21
760.572468
 31
0.0
  0
LINE
  5
5933
100
AcDbEntity
  8
0
100
AcDbLine
 10
1177.190466
 20
729.072468
 30
0.0
 11
1160.792451
 21
730.71227
 31
0.0
  0
LINE
  5
5934
100
AcDbEntity
  8
0
100
AcDbLine
 10
1177.190466
 20
697.072468
 30
0.0
 11
1160.792451
 21
695.432667
 31
0.0
  0
ARC
  5
593B
100
AcDbEntity
  8
0
100
AcDbCircle
 10
1161.190466
 20
691.452518
 30
0.0
 40
4.0
100
AcDbArc
 50
95.710593
 51
180.0
  0
ARC
  5
593D
100
AcDbEntity
  8
0
100
AcDbCircle
 10
1161.190466
 20
734.692419
 30
0.0
 40
4.0
100
AcDbArc
 50
180.0
 51
264.289407
  0
LINE
  5
5940
100
AcDbEntity
  8
0
100
AcDbLine
 10
1271.690466
 20
718.572468
 30
0.0
 11
1271.690466
 21
695.835738
 31
0.0
  0
LINE
  5
5944
100
AcDbEntity
  8
0
100
AcDbLine
 10
1200.690466
 20
718.572468
 30
0.0
 11
1200.690466
 21
695.835738
 31
0.0
  0
LINE
  5
5945
100
AcDbEntity
  8
0
100
AcDbLine
 10
1296.190466
 20
697.072468
 30
0.0
 11
1312.588481
 21
695.432667
 31
0.0
  0
LINE
  5
5946
100
AcDbEntity
  8
0
100
AcDbLine
 10
1266.662174
 20
651.086572
 30
0.0
 11
1217.08
 21
637.801069
 31
0.0
  0
LINE
  5
5947
100
AcDbEntity
  8
0
100
AcDbLine
 10
1258.295512
 20
669.032617
 30
0.0
 11
1222.730316
 21
659.502952
 31
0.0
  0
LINE
  5
5948
100
AcDbEntity
  8
0
100
AcDbLine
 10
1269.325383
 20
694.072468
 30
0.0
 11
1203.101727
 21
694.072468
 31
0.0
  0
LINE
  5
5949
100
AcDbEntity
  8
0
100
AcDbLine
 10
1201.534769
 20
691.047456
 30
0.0
 11
1211.886367
 21
662.606675
 31
0.0
  0
ARC
  5
594A
100
AcDbEntity
  8
0
100
AcDbCircle
 10
1220.142125
 20
669.16221
 30
0.0
 40
10.0
100
AcDbArc
 50
200.0
 51
285.0
  0
ARC
  5
594B
100
AcDbEntity
  8
0
100
AcDbCircle
 10
1213.033986
 20
639.195942
 30
0.0
 40
3.54713
100
AcDbArc
 50
352.198744
 51
52.198744
  0
LINE
  5
594C
100
AcDbEntity
  8
0
100
AcDbLine
 10
1216.318199
 20
637.855764
 30
0.0
 11
1216.691772
 21
639.249957
 31
0.0
  0
LINE
  5
594D
100
AcDbEntity
  8
0
100
AcDbLine
 10
1215.208108
 20
641.998677
 30
0.0
 11
1214.346173
 21
645.215464
 31
0.0
  0
ARC
  5
594E
100
AcDbEntity
  8
0
100
AcDbCircle
 10
1202.207176
 20
646.239222
 30
0.0
 40
12.182091
100
AcDbArc
 50
355.179294
 51
34.820706
  0
ARC
  5
594F
100
AcDbEntity
  8
0
100
AcDbCircle
 10
1202.207176
 20
646.239222
 30
0.0
 40
12.182091
100
AcDbArc
 50
355.179294
 51
34.820706
  0
LINE
  5
5950
100
AcDbEntity
  8
0
100
AcDbLine
 10
1211.069319
 20
661.03714
 30
0.0
 11
1210.868343
 21
660.983289
 31
0.0
  0
LINE
  5
5951
100
AcDbEntity
  8
0
100
AcDbLine
 10
1210.235951
 20
660.555021
 30
0.0
 11
1211.256572
 21
659.5344
 31
0.0
  0
LINE
  5
5952
100
AcDbEntity
  8
0
100
AcDbLine
 10
1205.83459
 20
659.375679
 30
0.0
 11
1205.461017
 21
657.981486
 31
0.0
  0
LINE
  5
5953
100
AcDbEntity
  8
0
100
AcDbLine
 10
1205.83459
 20
659.375679
 30
0.0
 11
1210.235951
 21
660.555021
 31
0.0
  0
LINE
  5
5954
100
AcDbEntity
  8
0
100
AcDbLine
 10
1206.94468
 20
655.232766
 30
0.0
 11
1211.346041
 21
656.412107
 31
0.0
  0
ARC
  5
5955
100
AcDbEntity
  8
0
100
AcDbCircle
 10
1208.061829
 20
657.752286
 30
0.0
 40
3.54713
100
AcDbArc
 50
337.801256
 51
37.801256
  0
ARC
  5
5956
100
AcDbEntity
  8
0
100
AcDbCircle
 10
1209.118803
 20
658.035501
 30
0.0
 40
3.54713
100
AcDbArc
 50
172.198744
 51
232.198744
  0
ARC
  5
5957
100
AcDbEntity
  8
0
100
AcDbCircle
 10
1219.945613
 20
650.992221
 30
0.0
 40
12.182091
100
AcDbArc
 50
175.179294
 51
214.820706
  0
ARC
  5
5958
100
AcDbEntity
  8
0
100
AcDbCircle
 10
1219.945613
 20
650.992221
 30
0.0
 40
12.182091
100
AcDbArc
 50
175.179294
 51
214.820706
  0
ARC
  5
5959
100
AcDbEntity
  8
0
100
AcDbCircle
 10
1214.09096
 20
639.479157
 30
0.0
 40
3.54713
100
AcDbArc
 50
157.801256
 51
217.801256
  0
LINE
  5
595A
100
AcDbEntity
  8
0
100
AcDbLine
 10
1211.916838
 20
636.676422
 30
0.0
 11
1210.896217
 21
637.697043
 31
0.0
  0
LINE
  5
595B
100
AcDbEntity
  8
0
100
AcDbLine
 10
1210.806747
 20
640.819336
 30
0.0
 11
1209.944812
 21
644.036122
 31
0.0
  0
LINE
  5
595C
100
AcDbEntity
  8
0
100
AcDbLine
 10
1207.806616
 20
652.015979
 30
0.0
 11
1206.94468
 21
655.232766
 31
0.0
  0
LINE
  5
595D
100
AcDbEntity
  8
0
100
AcDbLine
 10
1205.461017
 20
657.981486
 30
0.0
 11
1210.896217
 21
637.697043
 31
0.0
  0
ARC
  5
595E
100
AcDbEntity
  8
0
100
AcDbCircle
 10
1210.758736
 20
662.196251
 30
0.0
 40
1.2
100
AcDbArc
 50
285.0
 51
20.0
  0
LINE
  5
595F
100
AcDbEntity
  8
0
100
AcDbLine
 10
1212.207977
 20
653.195321
 30
0.0
 11
1211.346041
 21
656.412107
 31
0.0
  0
LINE
  5
5960
100
AcDbEntity
  8
0
100
AcDbLine
 10
1209.944812
 20
644.036122
 30
0.0
 11
1214.346173
 21
645.215464
 31
0.0
  0
LINE
  5
5961
100
AcDbEntity
  8
0
100
AcDbLine
 10
1210.806747
 20
640.819336
 30
0.0
 11
1215.208108
 21
641.998677
 31
0.0
  0
LINE
  5
5962
100
AcDbEntity
  8
0
100
AcDbLine
 10
1211.916838
 20
636.676422
 30
0.0
 11
1216.318199
 21
637.855764
 31
0.0
  0
LINE
  5
5963
100
AcDbEntity
  8
0
100
AcDbLine
 10
1207.806616
 20
652.015979
 30
0.0
 11
1212.207977
 21
653.195321
 31
0.0
  0
LINE
  5
5964
100
AcDbEntity
  8
0
100
AcDbLine
 10
1211.256572
 20
659.5344
 30
0.0
 11
1216.691772
 21
639.249957
 31
0.0
  0
LINE
  5
5965
100
AcDbEntity
  8
0
100
AcDbLine
 10
1211.256572
 20
659.5344
 30
0.0
 11
1216.691772
 21
639.249957
 31
0.0
  0
LINE
  5
5966
100
AcDbEntity
  8
0
100
AcDbLine
 10
1217.08
 20
637.801069
 30
0.0
 11
1210.868343
 21
660.983289
 31
0.0
  0
ARC
  5
5967
100
AcDbEntity
  8
0
100
AcDbCircle
 10
1192.339769
 20
687.072468
 30
0.0
 40
10.0
100
AcDbArc
 50
20.0
 51
90.0
  0
LINE
  5
5968
100
AcDbEntity
  8
0
100
AcDbLine
 10
1177.190466
 20
697.072468
 30
0.0
 11
1192.339769
 21
697.072468
 31
0.0
  0
ARC
  5
5969
100
AcDbEntity
  8
0
100
AcDbCircle
 10
1214.690466
 20
695.835738
 30
0.0
 40
14.0
100
AcDbArc
 50
180.0
 51
200.0
  0
LINE
  5
596A
100
AcDbEntity
  8
0
100
AcDbLine
 10
1286.740151
 20
693.782569
 30
0.0
 11
1273.47091
 21
657.325629
 31
0.0
  0
ARC
  5
596B
100
AcDbEntity
  8
0
100
AcDbCircle
 10
1264.073984
 20
660.74583
 30
0.0
 40
10.0
100
AcDbArc
 50
285.0
 51
340.0
  0
LINE
  5
596C
100
AcDbEntity
  8
0
100
AcDbLine
 10
1270.846163
 20
691.047456
 30
0.0
 11
1265.104247
 21
675.271674
 31
0.0
  0
ARC
  5
596D
100
AcDbEntity
  8
0
100
AcDbCircle
 10
1255.707321
 20
678.691875
 30
0.0
 40
10.0
100
AcDbArc
 50
285.0
 51
340.0
  0
ARC
  5
596E
100
AcDbEntity
  8
0
100
AcDbCircle
 10
1291.438614
 20
692.072468
 30
0.0
 40
5.0
100
AcDbArc
 50
90.0
 51
160.0
  0
LINE
  5
596F
100
AcDbEntity
  8
0
100
AcDbLine
 10
1296.190466
 20
697.072468
 30
0.0
 11
1291.438614
 21
697.072468
 31
0.0
  0
ARC
  5
5970
100
AcDbEntity
  8
0
100
AcDbCircle
 10
1257.690466
 20
695.835738
 30
0.0
 40
14.0
100
AcDbArc
 50
340.0
 51
0.0
  0
ARC
  5
5973
100
AcDbEntity
  8
0
100
AcDbCircle
 10
1312.190466
 20
691.452518
 30
0.0
 40
4.0
100
AcDbArc
 50
0.0
 51
84.289407
  0
LINE
  5
5974
100
AcDbEntity
  8
0
100
AcDbLine
 10
1296.190466
 20
729.072468
 30
0.0
 11
1312.588481
 21
730.71227
 31
0.0
  0
LINE
  5
5975
100
AcDbEntity
  8
0
100
AcDbLine
 10
1258.690466
 20
758.572468
 30
0.0
 11
1204.265574
 21
758.572468
 31
0.0
  0
LINE
  5
5976
100
AcDbEntity
  8
0
100
AcDbLine
 10
1277.690466
 20
742.572468
 30
0.0
 11
1194.690466
 21
742.572468
 31
0.0
  0
LINE
  5
5977
100
AcDbEntity
  8
0
100
AcDbLine
 10
1273.690466
 20
718.572468
 30
0.0
 11
1198.690466
 21
718.572468
 31
0.0
  0
LINE
  5
5978
100
AcDbEntity
  8
0
100
AcDbLine
 10
1279.190466
 20
730.572468
 30
0.0
 11
1193.190466
 21
730.572468
 31
0.0
  0
LINE
  5
5979
100
AcDbEntity
  8
0
100
AcDbLine
 10
1198.690466
 20
742.572468
 30
0.0
 11
1198.690466
 21
730.572468
 31
0.0
  0
LINE
  5
597A
100
AcDbEntity
  8
0
100
AcDbLine
 10
1193.190466
 20
741.287916
 30
0.0
 11
1193.190466
 21
730.572468
 31
0.0
  0
LINE
  5
597B
100
AcDbEntity
  8
0
100
AcDbLine
 10
1198.690466
 20
729.072468
 30
0.0
 11
1177.190466
 21
729.072468
 31
0.0
  0
LINE
  5
597C
100
AcDbEntity
  8
0
100
AcDbLine
 10
1193.190466
 20
730.572468
 30
0.0
 11
1193.190466
 21
729.072468
 31
0.0
  0
LINE
  5
597D
100
AcDbEntity
  8
0
100
AcDbLine
 10
1198.690466
 20
730.572468
 30
0.0
 11
1198.690466
 21
718.572468
 31
0.0
  0
LINE
  5
597E
100
AcDbEntity
  8
0
100
AcDbLine
 10
1204.265574
 20
758.572468
 30
0.0
 11
1196.592486
 21
750.89938
 31
0.0
  0
ARC
  5
597F
100
AcDbEntity
  8
0
100
AcDbCircle
 10
1194.690466
 20
741.072468
 30
0.0
 40
1.5
100
AcDbArc
 50
90.0
 51
180.0
  0
ARC
  5
5980
100
AcDbEntity
  8
0
100
AcDbCircle
 10
1194.690466
 20
741.287916
 30
0.0
 40
1.5
100
AcDbArc
 50
160.0
 51
180.0
  0
LINE
  5
5981
100
AcDbEntity
  8
0
100
AcDbLine
 10
1196.592486
 20
750.89938
 30
0.0
 11
1193.280927
 21
741.800946
 31
0.0
  0
LINE
  5
5982
100
AcDbEntity
  8
0
100
AcDbLine
 10
1215.411695
 20
748.381468
 30
0.0
 11
1215.411695
 21
742.572468
 31
0.0
  0
LINE
  5
5983
100
AcDbEntity
  8
0
100
AcDbLine
 10
1214.215695
 20
749.072468
 30
0.0
 11
1215.411695
 21
748.381468
 31
0.0
  0
LINE
  5
5984
100
AcDbEntity
  8
0
100
AcDbLine
 10
1211.658695
 20
748.381468
 30
0.0
 11
1211.658695
 21
742.572468
 31
0.0
  0
LINE
  5
5985
100
AcDbEntity
  8
0
100
AcDbLine
 10
1200.400695
 20
742.572468
 30
0.0
 11
1200.400695
 21
748.381468
 31
0.0
  0
LINE
  5
5986
100
AcDbEntity
  8
0
100
AcDbLine
 10
1204.154695
 20
748.381468
 30
0.0
 11
1204.154695
 21
742.572468
 31
0.0
  0
LINE
  5
5987
100
AcDbEntity
  8
0
100
AcDbLine
 10
1200.400695
 20
748.381468
 30
0.0
 11
1201.597695
 21
749.072468
 31
0.0
  0
ARC
  5
5988
100
AcDbEntity
  8
0
100
AcDbCircle
 10
1202.278195
 20
745.37851
 30
0.0
 40
3.541047
100
AcDbArc
 50
57.999406
 51
122.000594
  0
ARC
  5
5989
100
AcDbEntity
  8
0
100
AcDbCircle
 10
1207.906695
 20
735.566989
 30
0.0
 40
13.352467
100
AcDbArc
 50
73.680297
 51
106.319703
  0
LINE
  5
598A
100
AcDbEntity
  8
0
100
AcDbLine
 10
1213.690466
 20
758.572468
 30
0.0
 11
1210.424841
 21
749.072468
 31
0.0
  0
LINE
  5
598B
100
AcDbEntity
  8
0
100
AcDbLine
 10
1201.597695
 20
749.072468
 30
0.0
 11
1214.215695
 21
749.072468
 31
0.0
  0
ARC
  5
598C
100
AcDbEntity
  8
0
100
AcDbCircle
 10
1213.535195
 20
745.37851
 30
0.0
 40
3.541047
100
AcDbArc
 50
57.999406
 51
122.000594
  0
LINE
  5
598D
100
AcDbEntity
  8
0
100
AcDbLine
 10
1279.190466
 20
741.840409
 30
0.0
 11
1279.190466
 21
730.572468
 31
0.0
  0
LINE
  5
598E
100
AcDbEntity
  8
0
100
AcDbLine
 10
1273.690466
 20
742.572468
 30
0.0
 11
1273.690466
 21
730.572468
 31
0.0
  0
LINE
  5
598F
100
AcDbEntity
  8
0
100
AcDbLine
 10
1279.190466
 20
730.572468
 30
0.0
 11
1279.190466
 21
729.072468
 31
0.0
  0
LINE
  5
5990
100
AcDbEntity
  8
0
100
AcDbLine
 10
1273.690466
 20
730.572468
 30
0.0
 11
1273.690466
 21
718.572468
 31
0.0
  0
LINE
  5
5991
100
AcDbEntity
  8
0
100
AcDbLine
 10
1296.190466
 20
729.072468
 30
0.0
 11
1273.690466
 21
729.072468
 31
0.0
  0
LINE
  5
5992
100
AcDbEntity
  8
0
100
AcDbLine
 10
1258.690466
 20
758.572468
 30
0.0
 11
1271.087056
 21
748.897081
 31
0.0
  0
LINE
  5
5993
100
AcDbEntity
  8
0
100
AcDbLine
 10
1270.783237
 20
749.072468
 30
0.0
 11
1258.165237
 21
749.072468
 31
0.0
  0
ARC
  5
5994
100
AcDbEntity
  8
0
100
AcDbCircle
 10
1264.474237
 20
735.566989
 30
0.0
 40
13.352467
100
AcDbArc
 50
73.680297
 51
106.319703
  0
LINE
  5
5995
100
AcDbEntity
  8
0
100
AcDbLine
 10
1258.690466
 20
758.572468
 30
0.0
 11
1261.956091
 21
749.072468
 31
0.0
  0
LINE
  5
5996
100
AcDbEntity
  8
0
100
AcDbLine
 10
1260.722237
 20
748.381468
 30
0.0
 11
1260.722237
 21
742.572468
 31
0.0
  0
LINE
  5
5997
100
AcDbEntity
  8
0
100
AcDbLine
 10
1256.969237
 20
748.381468
 30
0.0
 11
1256.969237
 21
742.572468
 31
0.0
  0
LINE
  5
5998
100
AcDbEntity
  8
0
100
AcDbLine
 10
1258.165237
 20
749.072468
 30
0.0
 11
1256.969237
 21
748.381468
 31
0.0
  0
ARC
  5
5999
100
AcDbEntity
  8
0
100
AcDbCircle
 10
1258.845737
 20
745.37851
 30
0.0
 40
3.541047
100
AcDbArc
 50
57.999406
 51
122.000594
  0
LINE
  5
599A
100
AcDbEntity
  8
0
100
AcDbLine
 10
1268.226237
 20
748.381468
 30
0.0
 11
1268.226237
 21
742.572468
 31
0.0
  0
LINE
  5
599B
100
AcDbEntity
  8
0
100
AcDbLine
 10
1271.980237
 20
742.572468
 30
0.0
 11
1271.980237
 21
748.381468
 31
0.0
  0
LINE
  5
599C
100
AcDbEntity
  8
0
100
AcDbLine
 10
1271.980237
 20
748.199964
 30
0.0
 11
1278.613372
 21
743.022883
 31
0.0
  0
ARC
  5
599D
100
AcDbEntity
  8
0
100
AcDbCircle
 10
1277.690466
 20
741.840409
 30
0.0
 40
1.5
100
AcDbArc
 50
0.0
 51
52.028396
  0
ARC
  5
599E
100
AcDbEntity
  8
0
100
AcDbCircle
 10
1277.690466
 20
741.072468
 30
0.0
 40
1.5
100
AcDbArc
 50
0.0
 51
90.0
  0
LINE
  5
599F
100
AcDbEntity
  8
0
100
AcDbLine
 10
1271.980237
 20
748.381468
 30
0.0
 11
1270.783237
 21
749.072468
 31
0.0
  0
ARC
  5
59A0
100
AcDbEntity
  8
0
100
AcDbCircle
 10
1270.102737
 20
745.37851
 30
0.0
 40
3.541047
100
AcDbArc
 50
57.999406
 51
122.000594
  0
ARC
  5
59A2
100
AcDbEntity
  8
0
100
AcDbCircle
 10
1312.190466
 20
734.692419
 30
0.0
 40
4.0
100
AcDbArc
 50
275.710593
 51
0.0
  0
LINE
  5
59A5
100
AcDbEntity
  8
0
100
AcDbLine
 10
1271.974737
 20
552.418975
 30
0.0
 11
1271.974737
 21
544.912975
 31
0.0
  0
LINE
  5
59A6
100
AcDbEntity
  8
0
100
AcDbLine
 10
1258.974737
 20
544.912975
 30
0.0
 11
1258.974737
 21
552.418975
 31
0.0
  0
CIRCLE
  5
59A7
100
AcDbEntity
  8
0
100
AcDbCircle
 10
1265.474737
 20
548.665975
 30
0.0
 40
6.30876
  0
LINE
  5
59A8
100
AcDbEntity
  8
0
100
AcDbLine
 10
1274.690466
 20
548.665975
 30
0.0
 11
1274.690466
 21
534.173266
 31
0.0
  0
LINE
  5
59AC
100
AcDbEntity
  8
0
100
AcDbLine
 10
1205.153195
 20
542.165975
 30
0.0
 11
1201.400195
 21
548.665975
 31
0.0
  0
LINE
  5
59AD
100
AcDbEntity
  8
0
100
AcDbLine
 10
1199.690466
 20
548.665975
 30
0.0
 11
1199.690466
 21
534.173266
 31
0.0
  0
LINE
  5
59B1
100
AcDbEntity
  8
0
100
AcDbLine
 10
1216.412195
 20
548.665975
 30
0.0
 11
1212.659195
 21
542.165975
 31
0.0
  0
CIRCLE
  5
59B2
100
AcDbEntity
  8
0
100
AcDbCircle
 10
1208.906195
 20
548.665975
 30
0.0
 40
6.30876
  0
ARC
  5
59B3
100
AcDbEntity
  8
0
100
AcDbCircle
 10
1237.190466
 20
520.381704
 30
0.0
 40
28.0
100
AcDbArc
 50
26.514775
 51
153.485225
  0
LINE
  5
59B4
100
AcDbEntity
  8
0
100
AcDbLine
 10
1177.190466
 20
536.381704
 30
0.0
 11
1160.792451
 21
538.021505
 31
0.0
  0
LINE
  5
59B5
100
AcDbEntity
  8
0
100
AcDbLine
 10
1177.190466
 20
504.381704
 30
0.0
 11
1160.792451
 21
502.741902
 31
0.0
  0
ARC
  5
59BA
100
AcDbEntity
  8
0
100
AcDbCircle
 10
1161.190466
 20
498.761754
 30
0.0
 40
4.0
100
AcDbArc
 50
95.710593
 51
180.0
  0
ARC
  5
59BB
100
AcDbEntity
  8
0
100
AcDbCircle
 10
1161.190466
 20
542.001654
 30
0.0
 40
4.0
100
AcDbArc
 50
180.0
 51
264.289407
  0
LINE
  5
59BC
100
AcDbEntity
  8
0
100
AcDbLine
 10
1296.190466
 20
536.381704
 30
0.0
 11
1312.588481
 21
538.021505
 31
0.0
  0
LINE
  5
59BD
100
AcDbEntity
  8
0
100
AcDbLine
 10
1296.190466
 20
504.381704
 30
0.0
 11
1312.588481
 21
502.741902
 31
0.0
  0
CIRCLE
  5
59BE
100
AcDbEntity
  8
0
100
AcDbCircle
 10
1237.190466
 20
520.381704
 30
0.0
 40
20.25
  0
CIRCLE
  5
59BF
100
AcDbEntity
  8
0
100
AcDbCircle
 10
1237.190466
 20
520.381704
 30
0.0
 40
22.5
  0
LINE
  5
59C0
100
AcDbEntity
  8
0
100
AcDbLine
 10
1208.906195
 20
482.881704
 30
0.0
 11
1265.474737
 21
482.881704
 31
0.0
  0
ARC
  5
59C1
100
AcDbEntity
  8
0
100
AcDbCircle
 10
1237.190466
 20
520.381704
 30
0.0
 40
28.0
100
AcDbArc
 50
206.514775
 51
333.485225
  0
ARC
  5
59C2
100
AcDbEntity
  8
0
100
AcDbCircle
 10
1197.690466
 20
506.590142
 30
0.0
 40
2.0
100
AcDbArc
 50
0.0
 51
67.11462
  0
ARC
  5
59C3
100
AcDbEntity
  8
0
100
AcDbCircle
 10
1201.190466
 20
514.881704
 30
0.0
 40
7.0
100
AcDbArc
 50
180.0
 51
270.0
  0
LINE
  5
59C4
100
AcDbEntity
  8
0
100
AcDbLine
 10
1177.190466
 20
504.381704
 30
0.0
 11
1199.690466
 21
504.381704
 31
0.0
  0
LINE
  5
59C5
100
AcDbEntity
  8
0
100
AcDbLine
 10
1177.190466
 20
504.381704
 30
0.0
 11
1181.942318
 21
504.381704
 31
0.0
  0
LINE
  5
59C6
100
AcDbEntity
  8
0
100
AcDbLine
 10
1215.406195
 20
495.850433
 30
0.0
 11
1215.406195
 21
488.344433
 31
0.0
  0
LINE
  5
59C7
100
AcDbEntity
  8
0
100
AcDbLine
 10
1202.406195
 20
495.850433
 30
0.0
 11
1208.906195
 21
499.603433
 31
0.0
  0
LINE
  5
59C8
100
AcDbEntity
  8
0
100
AcDbLine
 10
1202.406195
 20
488.344433
 30
0.0
 11
1202.406195
 21
495.850433
 31
0.0
  0
LINE
  5
59C9
100
AcDbEntity
  8
0
100
AcDbLine
 10
1208.906195
 20
484.591433
 30
0.0
 11
1202.406195
 21
488.344433
 31
0.0
  0
ARC
  5
59CA
100
AcDbEntity
  8
0
100
AcDbCircle
 10
1208.906195
 20
492.097433
 30
0.0
 40
9.215729
100
AcDbArc
 50
180.0
 51
270.0
  0
LINE
  5
59CB
100
AcDbEntity
  8
0
100
AcDbLine
 10
1199.690466
 20
506.590142
 30
0.0
 11
1199.690466
 21
492.097433
 31
0.0
  0
LINE
  5
59CC
100
AcDbEntity
  8
0
100
AcDbLine
 10
1201.190466
 20
507.881704
 30
0.0
 11
1218.482179
 21
507.881704
 31
0.0
  0
LINE
  5
59CD
100
AcDbEntity
  8
0
100
AcDbLine
 10
1208.906195
 20
499.603433
 30
0.0
 11
1215.406195
 21
495.850433
 31
0.0
  0
LINE
  5
59CE
100
AcDbEntity
  8
0
100
AcDbLine
 10
1215.406195
 20
488.344433
 30
0.0
 11
1208.906195
 21
484.591433
 31
0.0
  0
CIRCLE
  5
59CF
100
AcDbEntity
  8
0
100
AcDbCircle
 10
1208.906195
 20
492.097433
 30
0.0
 40
6.30876
  0
ARC
  5
59D0
100
AcDbEntity
  8
0
100
AcDbCircle
 10
1201.190466
 20
525.881704
 30
0.0
 40
7.0
100
AcDbArc
 50
90.0
 51
180.0
  0
LINE
  5
59D1
100
AcDbEntity
  8
0
100
AcDbLine
 10
1177.190466
 20
536.381704
 30
0.0
 11
1199.690466
 21
536.381704
 31
0.0
  0
LINE
  5
59D2
100
AcDbEntity
  8
0
100
AcDbLine
 10
1194.190466
 20
514.881704
 30
0.0
 11
1194.190466
 21
525.881704
 31
0.0
  0
LINE
  5
59D3
100
AcDbEntity
  8
0
100
AcDbLine
 10
1212.659195
 20
542.165975
 30
0.0
 11
1205.153195
 21
542.165975
 31
0.0
  0
ARC
  5
59D4
100
AcDbEntity
  8
0
100
AcDbCircle
 10
1197.690466
 20
534.173266
 30
0.0
 40
2.0
100
AcDbArc
 50
292.88538
 51
0.0
  0
LINE
  5
59D5
100
AcDbEntity
  8
0
100
AcDbLine
 10
1201.190466
 20
532.881704
 30
0.0
 11
1218.482179
 21
532.881704
 31
0.0
  0
ARC
  5
59D6
100
AcDbEntity
  8
0
100
AcDbCircle
 10
1276.690466
 20
506.590142
 30
0.0
 40
2.0
100
AcDbArc
 50
112.88538
 51
180.0
  0
ARC
  5
59D7
100
AcDbEntity
  8
0
100
AcDbCircle
 10
1273.190466
 20
514.881704
 30
0.0
 40
7.0
100
AcDbArc
 50
270.0
 51
0.0
  0
LINE
  5
59D8
100
AcDbEntity
  8
0
100
AcDbLine
 10
1255.898753
 20
507.881704
 30
0.0
 11
1273.190466
 21
507.881704
 31
0.0
  0
LINE
  5
59D9
100
AcDbEntity
  8
0
100
AcDbLine
 10
1261.721737
 20
498.597433
 30
0.0
 11
1269.227737
 21
498.597433
 31
0.0
  0
LINE
  5
59DA
100
AcDbEntity
  8
0
100
AcDbLine
 10
1269.227737
 20
485.597433
 30
0.0
 11
1261.721737
 21
485.597433
 31
0.0
  0
ARC
  5
59DB
100
AcDbEntity
  8
0
100
AcDbCircle
 10
1265.474737
 20
492.097433
 30
0.0
 40
9.215729
100
AcDbArc
 50
270.0
 51
0.0
  0
CIRCLE
  5
59DC
100
AcDbEntity
  8
0
100
AcDbCircle
 10
1265.474737
 20
492.097433
 30
0.0
 40
6.30876
  0
LINE
  5
59DD
100
AcDbEntity
  8
0
100
AcDbLine
 10
1257.968737
 20
492.097433
 30
0.0
 11
1261.721737
 21
498.597433
 31
0.0
  0
LINE
  5
59DE
100
AcDbEntity
  8
0
100
AcDbLine
 10
1261.721737
 20
485.597433
 30
0.0
 11
1257.968737
 21
492.097433
 31
0.0
  0
LINE
  5
59DF
100
AcDbEntity
  8
0
100
AcDbLine
 10
1296.190466
 20
504.381704
 30
0.0
 11
1274.690466
 21
504.381704
 31
0.0
  0
LINE
  5
59E0
100
AcDbEntity
  8
0
100
AcDbLine
 10
1269.227737
 20
498.597433
 30
0.0
 11
1272.980737
 21
492.097433
 31
0.0
  0
LINE
  5
59E1
100
AcDbEntity
  8
0
100
AcDbLine
 10
1272.980737
 20
492.097433
 30
0.0
 11
1269.227737
 21
485.597433
 31
0.0
  0
LINE
  5
59E2
100
AcDbEntity
  8
0
100
AcDbLine
 10
1274.690466
 20
506.590142
 30
0.0
 11
1274.690466
 21
492.097433
 31
0.0
  0
LINE
  5
59E3
100
AcDbEntity
  8
0
100
AcDbLine
 10
1271.974737
 20
544.912975
 30
0.0
 11
1265.474737
 21
541.159975
 31
0.0
  0
LINE
  5
59E4
100
AcDbEntity
  8
0
100
AcDbLine
 10
1255.898753
 20
532.881704
 30
0.0
 11
1273.190466
 21
532.881704
 31
0.0
  0
LINE
  5
59E5
100
AcDbEntity
  8
0
100
AcDbLine
 10
1265.474737
 20
541.159975
 30
0.0
 11
1258.974737
 21
544.912975
 31
0.0
  0
ARC
  5
59E6
100
AcDbEntity
  8
0
100
AcDbCircle
 10
1276.690466
 20
534.173266
 30
0.0
 40
2.0
100
AcDbArc
 50
180.0
 51
247.11462
  0
ARC
  5
59E7
100
AcDbEntity
  8
0
100
AcDbCircle
 10
1271.688022
 20
527.381704
 30
0.0
 40
2.0
100
AcDbArc
 50
180.0
 51
270.0
  0
LINE
  5
59E8
100
AcDbEntity
  8
0
100
AcDbLine
 10
1271.688022
 20
525.381704
 30
0.0
 11
1272.951902
 21
525.381704
 31
0.0
  0
ARC
  5
59E9
100
AcDbEntity
  8
0
100
AcDbCircle
 10
1273.190466
 20
525.881704
 30
0.0
 40
7.0
100
AcDbArc
 50
0.0
 51
90.0
  0
LINE
  5
59EA
100
AcDbEntity
  8
0
100
AcDbLine
 10
1274.690466
 20
536.381704
 30
0.0
 11
1296.190466
 21
536.381704
 31
0.0
  0
ARC
  5
59EB
100
AcDbEntity
  8
0
100
AcDbCircle
 10
1271.688022
 20
513.381704
 30
0.0
 40
2.0
100
AcDbArc
 50
90.0
 51
180.0
  0
LINE
  5
59EC
100
AcDbEntity
  8
0
100
AcDbLine
 10
1271.688022
 20
515.381704
 30
0.0
 11
1272.951902
 21
515.381704
 31
0.0
  0
LINE
  5
59ED
100
AcDbEntity
  8
0
100
AcDbLine
 10
1280.190466
 20
514.881704
 30
0.0
 11
1280.190466
 21
525.881704
 31
0.0
  0
POLYLINE
  5
59EE
100
AcDbEntity
  8
0
100
AcDb2dPolyline
 66
     1
 10
0.0
 20
0.0
 30
0.0
 70
     1
  0
VERTEX
  5
63BE
100
AcDbEntity
  8
0
100
AcDbVertex
100
AcDb2dVertex
 10
1269.115358
 20
520.381704
 30
0.0
 42
0.077085
  0
VERTEX
  5
63BF
100
AcDbEntity
  8
0
100
AcDbVertex
100
AcDb2dVertex
 10
1269.4205
 20
518.414216
 30
0.0
 42
0.086906
  0
VERTEX
  5
63C0
100
AcDbEntity
  8
0
100
AcDbVertex
100
AcDb2dVertex
 10
1270.239055
 20
516.84617
 30
0.0
 42
0.105719
  0
VERTEX
  5
63C1
100
AcDbEntity
  8
0
100
AcDbVertex
100
AcDb2dVertex
 10
1271.538835
 20
515.738758
 30
0.0
 42
0.124385
  0
VERTEX
  5
63C2
100
AcDbEntity
  8
0
100
AcDbVertex
100
AcDb2dVertex
 10
1272.951902
 20
515.381704
 30
0.0
 42
0.124385
  0
VERTEX
  5
63C3
100
AcDbEntity
  8
0
100
AcDbVertex
100
AcDb2dVertex
 10
1274.364968
 20
515.738758
 30
0.0
 42
0.105719
  0
VERTEX
  5
63C4
100
AcDbEntity
  8
0
100
AcDbVertex
100
AcDb2dVertex
 10
1275.664748
 20
516.84617
 30
0.0
 42
0.086906
  0
VERTEX
  5
63C5
100
AcDbEntity
  8
0
100
AcDbVertex
100
AcDb2dVertex
 10
1276.483303
 20
518.414216
 30
0.0
 42
0.077085
  0
VERTEX
  5
63C6
100
AcDbEntity
  8
0
100
AcDbVertex
100
AcDb2dVertex
 10
1276.788446
 20
520.381704
 30
0.0
 42
0.077085
  0
VERTEX
  5
63C7
100
AcDbEntity
  8
0
100
AcDbVertex
100
AcDb2dVertex
 10
1276.483303
 20
522.349192
 30
0.0
 42
0.086906
  0
VERTEX
  5
63C8
100
AcDbEntity
  8
0
100
AcDbVertex
100
AcDb2dVertex
 10
1275.664748
 20
523.917238
 30
0.0
 42
0.105719
  0
VERTEX
  5
63C9
100
AcDbEntity
  8
0
100
AcDbVertex
100
AcDb2dVertex
 10
1274.364968
 20
525.02465
 30
0.0
 42
0.124385
  0
VERTEX
  5
63CA
100
AcDbEntity
  8
0
100
AcDbVertex
100
AcDb2dVertex
 10
1272.951902
 20
525.381704
 30
0.0
 42
0.124385
  0
VERTEX
  5
63CB
100
AcDbEntity
  8
0
100
AcDbVertex
100
AcDb2dVertex
 10
1271.538835
 20
525.02465
 30
0.0
 42
0.105719
  0
VERTEX
  5
63CC
100
AcDbEntity
  8
0
100
AcDbVertex
100
AcDb2dVertex
 10
1270.239055
 20
523.917238
 30
0.0
 42
0.086906
  0
VERTEX
  5
63CD
100
AcDbEntity
  8
0
100
AcDbVertex
100
AcDb2dVertex
 10
1269.4205
 20
522.349192
 30
0.0
 42
0.077085
  0
SEQEND
  5
63CE
100
AcDbEntity
  8
0
  0
ARC
  5
59F2
100
AcDbEntity
  8
0
100
AcDbCircle
 10
1312.190466
 20
498.761754
 30
0.0
 40
4.0
100
AcDbArc
 50
0.0
 51
84.289407
  0
LINE
  5
59F6
100
AcDbEntity
  8
0
100
AcDbLine
 10
1208.906195
 20
557.881704
 30
0.0
 11
1265.474737
 21
557.881704
 31
0.0
  0
LINE
  5
59F7
100
AcDbEntity
  8
0
100
AcDbLine
 10
1205.153195
 20
555.165975
 30
0.0
 11
1212.659195
 21
555.165975
 31
0.0
  0
LINE
  5
59F8
100
AcDbEntity
  8
0
100
AcDbLine
 10
1201.400195
 20
548.665975
 30
0.0
 11
1205.153195
 21
555.165975
 31
0.0
  0
ARC
  5
59F9
100
AcDbEntity
  8
0
100
AcDbCircle
 10
1208.906195
 20
548.665975
 30
0.0
 40
9.215729
100
AcDbArc
 50
90.0
 51
180.0
  0
LINE
  5
59FA
100
AcDbEntity
  8
0
100
AcDbLine
 10
1212.659195
 20
555.165975
 30
0.0
 11
1216.412195
 21
548.665975
 31
0.0
  0
LINE
  5
59FB
100
AcDbEntity
  8
0
100
AcDbLine
 10
1265.474737
 20
556.171975
 30
0.0
 11
1271.974737
 21
552.418975
 31
0.0
  0
ARC
  5
59FC
100
AcDbEntity
  8
0
100
AcDbCircle
 10
1265.474737
 20
548.665975
 30
0.0
 40
9.215729
100
AcDbArc
 50
0.0
 51
90.0
  0
LINE
  5
59FD
100
AcDbEntity
  8
0
100
AcDbLine
 10
1258.974737
 20
552.418975
 30
0.0
 11
1265.474737
 21
556.171975
 31
0.0
  0
ARC
  5
5A00
100
AcDbEntity
  8
0
100
AcDbCircle
 10
1253.435319
 20
282.495074
 30
0.0
 40
12.182091
100
AcDbArc
 50
325.179294
 51
4.820706
  0
ARC
  5
5A01
100
AcDbEntity
  8
0
100
AcDbCircle
 10
1253.435319
 20
282.495074
 30
0.0
 40
12.182091
100
AcDbArc
 50
325.179294
 51
4.820706
  0
ARC
  5
5A02
100
AcDbEntity
  8
0
100
AcDbCircle
 10
1271.173756
 20
277.742074
 30
0.0
 40
12.182091
100
AcDbArc
 50
145.179294
 51
184.820706
  0
ARC
  5
5A03
100
AcDbEntity
  8
0
100
AcDbCircle
 10
1271.173756
 20
277.742074
 30
0.0
 40
12.182091
100
AcDbArc
 50
145.179294
 51
184.820706
  0
LINE
  5
5A04
100
AcDbEntity
  8
0
100
AcDbLine
 10
1267.919915
 20
289.484338
 30
0.0
 11
1262.484715
 21
269.199896
 31
0.0
  0
LINE
  5
5A05
100
AcDbEntity
  8
0
100
AcDbLine
 10
1262.12436
 20
291.037252
 30
0.0
 11
1256.68916
 21
270.75281
 31
0.0
  0
LINE
  5
5A06
100
AcDbEntity
  8
0
100
AcDbLine
 10
1262.12436
 20
291.037252
 30
0.0
 11
1256.68916
 21
270.75281
 31
0.0
  0
LINE
  5
5A07
100
AcDbEntity
  8
0
100
AcDbLine
 10
1256.300931
 20
269.303921
 30
0.0
 11
1262.512588
 21
292.486141
 31
0.0
  0
LINE
  5
5A08
100
AcDbEntity
  8
0
100
AcDbLine
 10
1206.718757
 20
282.589425
 30
0.0
 11
1256.300931
 21
269.303921
 31
0.0
  0
LINE
  5
5A0A
100
AcDbEntity
  8
0
100
AcDbLine
 10
1263.43612
 20
275.538975
 30
0.0
 11
1259.034759
 21
276.718316
 31
0.0
  0
LINE
  5
5A0B
100
AcDbEntity
  8
0
100
AcDbLine
 10
1262.574184
 20
272.322188
 30
0.0
 11
1263.43612
 21
275.538975
 31
0.0
  0
LINE
  5
5A0C
100
AcDbEntity
  8
0
100
AcDbLine
 10
1261.464094
 20
268.179275
 30
0.0
 11
1262.484715
 21
269.199896
 31
0.0
  0
ARC
  5
5A0D
100
AcDbEntity
  8
0
100
AcDbCircle
 10
1259.289972
 20
270.98201
 30
0.0
 40
3.54713
100
AcDbArc
 50
322.198744
 51
22.198744
  0
LINE
  5
5A0E
100
AcDbEntity
  8
0
100
AcDbLine
 10
1257.062733
 20
269.358616
 30
0.0
 11
1256.68916
 21
270.75281
 31
0.0
  0
ARC
  5
5A0F
100
AcDbEntity
  8
0
100
AcDbCircle
 10
1260.346946
 20
270.698794
 30
0.0
 40
3.54713
100
AcDbArc
 50
127.801256
 51
187.801256
  0
LINE
  5
5A10
100
AcDbEntity
  8
0
100
AcDbLine
 10
1258.172823
 20
273.501529
 30
0.0
 11
1259.034759
 21
276.718316
 31
0.0
  0
LINE
  5
5A11
100
AcDbEntity
  8
0
100
AcDbLine
 10
1262.574184
 20
272.322188
 30
0.0
 11
1258.172823
 21
273.501529
 31
0.0
  0
LINE
  5
5A12
100
AcDbEntity
  8
0
100
AcDbLine
 10
1261.464094
 20
268.179275
 30
0.0
 11
1257.062733
 21
269.358616
 31
0.0
  0
LINE
  5
5A13
100
AcDbEntity
  8
0
100
AcDbLine
 10
1177.190466
 20
360.575321
 30
0.0
 11
1160.792451
 21
362.215122
 31
0.0
  0
LINE
  5
5A14
100
AcDbEntity
  8
0
100
AcDbLine
 10
1177.190466
 20
328.575321
 30
0.0
 11
1160.792451
 21
326.935519
 31
0.0
  0
ARC
  5
5A1B
100
AcDbEntity
  8
0
100
AcDbCircle
 10
1161.190466
 20
322.95537
 30
0.0
 40
4.0
100
AcDbArc
 50
95.710593
 51
180.0
  0
ARC
  5
5A1C
100
AcDbEntity
  8
0
100
AcDbCircle
 10
1161.190466
 20
366.195271
 30
0.0
 40
4.0
100
AcDbArc
 50
180.0
 51
264.289407
  0
LINE
  5
5A1F
100
AcDbEntity
  8
0
100
AcDbLine
 10
1296.190466
 20
360.575321
 30
0.0
 11
1312.588481
 21
362.215122
 31
0.0
  0
LINE
  5
5A20
100
AcDbEntity
  8
0
100
AcDbLine
 10
1296.190466
 20
328.575321
 30
0.0
 11
1312.588481
 21
326.935519
 31
0.0
  0
LINE
  5
5A21
100
AcDbEntity
  8
0
100
AcDbLine
 10
1274.690466
 20
362.075321
 30
0.0
 11
1274.690466
 21
350.075321
 31
0.0
  0
LINE
  5
5A22
100
AcDbEntity
  8
0
100
AcDbLine
 10
1199.690466
 20
362.075321
 30
0.0
 11
1199.690466
 21
350.075321
 31
0.0
  0
LINE
  5
5A23
100
AcDbEntity
  8
0
100
AcDbLine
 10
1215.08542
 20
300.53547
 30
0.0
 11
1250.650616
 21
291.005804
 31
0.0
  0
LINE
  5
5A24
100
AcDbEntity
  8
0
100
AcDbLine
 10
1204.055549
 20
325.575321
 30
0.0
 11
1270.279205
 21
325.575321
 31
0.0
  0
LINE
  5
5A25
100
AcDbEntity
  8
0
100
AcDbLine
 10
1199.690466
 20
350.075321
 30
0.0
 11
1274.690466
 21
350.075321
 31
0.0
  0
LINE
  5
5A26
100
AcDbEntity
  8
0
100
AcDbLine
 10
1202.534769
 20
322.550309
 30
0.0
 11
1208.276684
 21
306.774526
 31
0.0
  0
LINE
  5
5A27
100
AcDbEntity
  8
0
100
AcDbLine
 10
1186.640781
 20
325.285421
 30
0.0
 11
1199.910022
 21
288.828481
 31
0.0
  0
ARC
  5
5A28
100
AcDbEntity
  8
0
100
AcDbCircle
 10
1209.306948
 20
292.248683
 30
0.0
 40
10.0
100
AcDbArc
 50
200.0
 51
255.0
  0
ARC
  5
5A29
100
AcDbEntity
  8
0
100
AcDbCircle
 10
1217.673611
 20
310.194728
 30
0.0
 40
10.0
100
AcDbArc
 50
200.0
 51
255.0
  0
ARC
  5
5A2A
100
AcDbEntity
  8
0
100
AcDbCircle
 10
1181.942318
 20
323.575321
 30
0.0
 40
5.0
100
AcDbArc
 50
20.0
 51
90.0
  0
LINE
  5
5A2B
100
AcDbEntity
  8
0
100
AcDbLine
 10
1177.190466
 20
328.575321
 30
0.0
 11
1181.942318
 21
328.575321
 31
0.0
  0
ARC
  5
5A2C
100
AcDbEntity
  8
0
100
AcDbCircle
 10
1215.690466
 20
327.338591
 30
0.0
 40
14.0
100
AcDbArc
 50
180.0
 51
200.0
  0
LINE
  5
5A2D
100
AcDbEntity
  8
0
100
AcDbLine
 10
1201.690466
 20
350.075321
 30
0.0
 11
1201.690466
 21
327.338591
 31
0.0
  0
LINE
  5
5A2E
100
AcDbEntity
  8
0
100
AcDbLine
 10
1271.846163
 20
322.550309
 30
0.0
 11
1261.494565
 21
294.109527
 31
0.0
  0
LINE
  5
5A2F
100
AcDbEntity
  8
0
100
AcDbLine
 10
1267.546342
 20
290.878532
 30
0.0
 11
1263.144981
 21
292.057873
 31
0.0
  0
ARC
  5
5A30
100
AcDbEntity
  8
0
100
AcDbCircle
 10
1264.262129
 20
289.538353
 30
0.0
 40
3.54713
100
AcDbArc
 50
307.801256
 51
7.801256
  0
LINE
  5
5A31
100
AcDbEntity
  8
0
100
AcDbLine
 10
1263.144981
 20
292.057873
 30
0.0
 11
1262.12436
 21
291.037252
 31
0.0
  0
LINE
  5
5A32
100
AcDbEntity
  8
0
100
AcDbLine
 10
1262.311613
 20
292.539992
 30
0.0
 11
1262.512588
 21
292.486141
 31
0.0
  0
ARC
  5
5A33
100
AcDbEntity
  8
0
100
AcDbCircle
 10
1262.622196
 20
293.699103
 30
0.0
 40
1.2
100
AcDbArc
 50
160.0
 51
255.0
  0
ARC
  5
5A34
100
AcDbEntity
  8
0
100
AcDbCircle
 10
1253.238807
 20
300.665062
 30
0.0
 40
10.0
100
AcDbArc
 50
255.0
 51
340.0
  0
LINE
  5
5A35
100
AcDbEntity
  8
0
100
AcDbLine
 10
1265.574316
 20
283.518832
 30
0.0
 11
1266.436251
 21
286.735618
 31
0.0
  0
LINE
  5
5A36
100
AcDbEntity
  8
0
100
AcDbLine
 10
1265.574316
 20
283.518832
 30
0.0
 11
1261.172955
 21
284.698173
 31
0.0
  0
LINE
  5
5A37
100
AcDbEntity
  8
0
100
AcDbLine
 10
1261.172955
 20
284.698173
 30
0.0
 11
1262.03489
 21
287.91496
 31
0.0
  0
LINE
  5
5A38
100
AcDbEntity
  8
0
100
AcDbLine
 10
1266.436251
 20
286.735618
 30
0.0
 11
1262.03489
 21
287.91496
 31
0.0
  0
ARC
  5
5A39
100
AcDbEntity
  8
0
100
AcDbCircle
 10
1265.319103
 20
289.255138
 30
0.0
 40
3.54713
100
AcDbArc
 50
142.198744
 51
202.198744
  0
LINE
  5
5A3A
100
AcDbEntity
  8
0
100
AcDbLine
 10
1267.546342
 20
290.878532
 30
0.0
 11
1267.919915
 21
289.484338
 31
0.0
  0
ARC
  5
5A3B
100
AcDbEntity
  8
0
100
AcDbCircle
 10
1258.690466
 20
327.338591
 30
0.0
 40
14.0
100
AcDbArc
 50
340.0
 51
0.0
  0
ARC
  5
5A3C
100
AcDbEntity
  8
0
100
AcDbCircle
 10
1281.041163
 20
318.575321
 30
0.0
 40
10.0
100
AcDbArc
 50
90.0
 51
160.0
  0
LINE
  5
5A3D
100
AcDbEntity
  8
0
100
AcDbLine
 10
1296.190466
 20
328.575321
 30
0.0
 11
1281.041163
 21
328.575321
 31
0.0
  0
LINE
  5
5A3E
100
AcDbEntity
  8
0
100
AcDbLine
 10
1272.690466
 20
350.075321
 30
0.0
 11
1272.690466
 21
327.338591
 31
0.0
  0
LINE
  5
5A3F
100
AcDbEntity
  8
0
100
AcDbLine
 10
1214.690466
 20
390.075321
 30
0.0
 11
1269.115358
 21
390.075321
 31
0.0
  0
LINE
  5
5A40
100
AcDbEntity
  8
0
100
AcDbLine
 10
1195.690466
 20
374.075321
 30
0.0
 11
1278.690466
 21
374.075321
 31
0.0
  0
LINE
  5
5A41
100
AcDbEntity
  8
0
100
AcDbLine
 10
1194.190466
 20
362.075321
 30
0.0
 11
1280.190466
 21
362.075321
 31
0.0
  0
LINE
  5
5A42
100
AcDbEntity
  8
0
100
AcDbLine
 10
1201.400695
 20
379.702816
 30
0.0
 11
1194.76756
 21
374.525735
 31
0.0
  0
LINE
  5
5A43
100
AcDbEntity
  8
0
100
AcDbLine
 10
1177.190466
 20
360.575321
 30
0.0
 11
1199.690466
 21
360.575321
 31
0.0
  0
ARC
  5
5A44
100
AcDbEntity
  8
0
100
AcDbCircle
 10
1195.690466
 20
373.343262
 30
0.0
 40
1.5
100
AcDbArc
 50
127.971604
 51
180.0
  0
ARC
  5
5A45
100
AcDbEntity
  8
0
100
AcDbCircle
 10
1195.690466
 20
372.575321
 30
0.0
 40
1.5
100
AcDbArc
 50
90.0
 51
180.0
  0
LINE
  5
5A46
100
AcDbEntity
  8
0
100
AcDbLine
 10
1194.190466
 20
362.075321
 30
0.0
 11
1194.190466
 21
360.575321
 31
0.0
  0
LINE
  5
5A47
100
AcDbEntity
  8
0
100
AcDbLine
 10
1194.190466
 20
373.343262
 30
0.0
 11
1194.190466
 21
362.075321
 31
0.0
  0
LINE
  5
5A48
100
AcDbEntity
  8
0
100
AcDbLine
 10
1216.411695
 20
379.884321
 30
0.0
 11
1216.411695
 21
374.075321
 31
0.0
  0
LINE
  5
5A49
100
AcDbEntity
  8
0
100
AcDbLine
 10
1215.215695
 20
380.575321
 30
0.0
 11
1216.411695
 21
379.884321
 31
0.0
  0
LINE
  5
5A4A
100
AcDbEntity
  8
0
100
AcDbLine
 10
1212.658695
 20
379.884321
 30
0.0
 11
1212.658695
 21
374.075321
 31
0.0
  0
LINE
  5
5A4B
100
AcDbEntity
  8
0
100
AcDbLine
 10
1201.400695
 20
379.884321
 30
0.0
 11
1202.597695
 21
380.575321
 31
0.0
  0
ARC
  5
5A4C
100
AcDbEntity
  8
0
100
AcDbCircle
 10
1203.278195
 20
376.881362
 30
0.0
 40
3.541047
100
AcDbArc
 50
57.999406
 51
122.000594
  0
LINE
  5
5A4D
100
AcDbEntity
  8
0
100
AcDbLine
 10
1205.154695
 20
379.884321
 30
0.0
 11
1205.154695
 21
374.075321
 31
0.0
  0
LINE
  5
5A4E
100
AcDbEntity
  8
0
100
AcDbLine
 10
1201.400695
 20
374.075321
 30
0.0
 11
1201.400695
 21
379.884321
 31
0.0
  0
ARC
  5
5A4F
100
AcDbEntity
  8
0
100
AcDbCircle
 10
1208.906695
 20
367.069841
 30
0.0
 40
13.352467
100
AcDbArc
 50
73.680297
 51
106.319703
  0
LINE
  5
5A50
100
AcDbEntity
  8
0
100
AcDbLine
 10
1199.690466
 20
374.075321
 30
0.0
 11
1199.690466
 21
362.075321
 31
0.0
  0
ARC
  5
5A51
100
AcDbEntity
  8
0
100
AcDbCircle
 10
1214.535195
 20
376.881362
 30
0.0
 40
3.541047
100
AcDbArc
 50
57.999406
 51
122.000594
  0
LINE
  5
5A52
100
AcDbEntity
  8
0
100
AcDbLine
 10
1202.597695
 20
380.575321
 30
0.0
 11
1215.215695
 21
380.575321
 31
0.0
  0
LINE
  5
5A53
100
AcDbEntity
  8
0
100
AcDbLine
 10
1214.690466
 20
390.075321
 30
0.0
 11
1211.424841
 21
380.575321
 31
0.0
  0
LINE
  5
5A54
100
AcDbEntity
  8
0
100
AcDbLine
 10
1214.690466
 20
390.075321
 30
0.0
 11
1202.293875
 21
380.399933
 31
0.0
  0
ARC
  5
5A55
100
AcDbEntity
  8
0
100
AcDbCircle
 10
1265.474237
 20
367.069841
 30
0.0
 40
13.352467
100
AcDbArc
 50
73.680297
 51
106.319703
  0
LINE
  5
5A56
100
AcDbEntity
  8
0
100
AcDbLine
 10
1271.783237
 20
380.575321
 30
0.0
 11
1259.165237
 21
380.575321
 31
0.0
  0
LINE
  5
5A57
100
AcDbEntity
  8
0
100
AcDbLine
 10
1261.722237
 20
379.884321
 30
0.0
 11
1261.722237
 21
374.075321
 31
0.0
  0
LINE
  5
5A58
100
AcDbEntity
  8
0
100
AcDbLine
 10
1257.969237
 20
379.884321
 30
0.0
 11
1257.969237
 21
374.075321
 31
0.0
  0
LINE
  5
5A59
100
AcDbEntity
  8
0
100
AcDbLine
 10
1259.165237
 20
380.575321
 30
0.0
 11
1257.969237
 21
379.884321
 31
0.0
  0
ARC
  5
5A5A
100
AcDbEntity
  8
0
100
AcDbCircle
 10
1259.845737
 20
376.881362
 30
0.0
 40
3.541047
100
AcDbArc
 50
57.999406
 51
122.000594
  0
LINE
  5
5A5B
100
AcDbEntity
  8
0
100
AcDbLine
 10
1259.690466
 20
390.075321
 30
0.0
 11
1262.956091
 21
380.575321
 31
0.0
  0
LINE
  5
5A5C
100
AcDbEntity
  8
0
100
AcDbLine
 10
1272.980237
 20
379.884321
 30
0.0
 11
1271.783237
 21
380.575321
 31
0.0
  0
ARC
  5
5A5D
100
AcDbEntity
  8
0
100
AcDbCircle
 10
1271.102737
 20
376.881362
 30
0.0
 40
3.541047
100
AcDbArc
 50
57.999406
 51
122.000594
  0
LINE
  5
5A5E
100
AcDbEntity
  8
0
100
AcDbLine
 10
1272.980237
 20
374.075321
 30
0.0
 11
1272.980237
 21
379.884321
 31
0.0
  0
LINE
  5
5A5F
100
AcDbEntity
  8
0
100
AcDbLine
 10
1269.226237
 20
379.884321
 30
0.0
 11
1269.226237
 21
374.075321
 31
0.0
  0
LINE
  5
5A60
100
AcDbEntity
  8
0
100
AcDbLine
 10
1276.788446
 20
382.402233
 30
0.0
 11
1280.100005
 21
373.303799
 31
0.0
  0
ARC
  5
5A61
100
AcDbEntity
  8
0
100
AcDbCircle
 10
1278.690466
 20
372.790768
 30
0.0
 40
1.5
100
AcDbArc
 50
0.0
 51
20.0
  0
ARC
  5
5A62
100
AcDbEntity
  8
0
100
AcDbCircle
 10
1278.690466
 20
372.575321
 30
0.0
 40
1.5
100
AcDbArc
 50
0.0
 51
90.0
  0
LINE
  5
5A63
100
AcDbEntity
  8
0
100
AcDbLine
 10
1280.190466
 20
362.075321
 30
0.0
 11
1280.190466
 21
360.575321
 31
0.0
  0
LINE
  5
5A64
100
AcDbEntity
  8
0
100
AcDbLine
 10
1274.690466
 20
360.575321
 30
0.0
 11
1296.190466
 21
360.575321
 31
0.0
  0
LINE
  5
5A65
100
AcDbEntity
  8
0
100
AcDbLine
 10
1280.190466
 20
372.790768
 30
0.0
 11
1280.190466
 21
362.075321
 31
0.0
  0
LINE
  5
5A66
100
AcDbEntity
  8
0
100
AcDbLine
 10
1274.690466
 20
374.075321
 30
0.0
 11
1274.690466
 21
362.075321
 31
0.0
  0
LINE
  5
5A67
100
AcDbEntity
  8
0
100
AcDbLine
 10
1269.115358
 20
390.075321
 30
0.0
 11
1276.788446
 21
382.402233
 31
0.0
  0
LINE
  5
5A68
100
AcDbEntity
  8
0
100
AcDbLine
 10
1334.190466
 20
394.575321
 30
0.0
 11
1334.190466
 21
344.575321
 31
0.0
  0
LINE
  5
5A69
100
AcDbEntity
  8
0
100
AcDbLine
 10
1316.190466
 20
394.575321
 30
0.0
 11
1316.190466
 21
294.575321
 31
0.0
  0
LINE
  5
5A6B
100
AcDbEntity
  8
0
100
AcDbLine
 10
1334.190466
 20
344.575321
 30
0.0
 11
1334.190466
 21
294.575321
 31
0.0
  0
ARC
  5
5A6E
100
AcDbEntity
  8
0
100
AcDbCircle
 10
1312.190466
 20
322.95537
 30
0.0
 40
4.0
100
AcDbArc
 50
0.0
 51
84.289407
  0
ARC
  5
5A6F
100
AcDbEntity
  8
0
100
AcDbCircle
 10
1312.190466
 20
366.195271
 30
0.0
 40
4.0
100
AcDbArc
 50
275.710593
 51
0.0
  0
LINE
  5
5A75
100
AcDbEntity
  8
0
100
AcDbLine
 10
1971.397545
 20
721.072468
 30
0.0
 11
1971.397545
 21
698.335738
 31
0.0
  0
LINE
  5
5A76
100
AcDbEntity
  8
0
100
AcDbLine
 10
1900.397545
 20
721.072468
 30
0.0
 11
1900.397545
 21
698.335738
 31
0.0
  0
ARC
  5
5A7C
100
AcDbEntity
  8
0
100
AcDbCircle
 10
1893.866699
 20
684.572468
 30
0.0
 40
10.0
100
AcDbArc
 50
20.0
 51
90.0
  0
LINE
  5
5A80
100
AcDbEntity
  8
0
100
AcDbLine
 10
1846.397545
 20
687.572468
 30
0.0
 11
1871.397545
 21
694.572468
 31
0.0
  0
LINE
  5
5A81
100
AcDbEntity
  8
0
100
AcDbLine
 10
1871.397545
 20
694.572468
 30
0.0
 11
1893.866699
 21
694.572468
 31
0.0
  0
LINE
  5
5A82
100
AcDbEntity
  8
0
100
AcDbLine
 10
1969.032462
 20
696.572468
 30
0.0
 11
1902.808806
 21
696.572468
 31
0.0
  0
ARC
  5
5A83
100
AcDbEntity
  8
0
100
AcDbCircle
 10
1963.781063
 20
663.24583
 30
0.0
 40
10.0
100
AcDbArc
 50
285.0
 51
340.0
  0
LINE
  5
5A84
100
AcDbEntity
  8
0
100
AcDbLine
 10
1970.553242
 20
693.547456
 30
0.0
 11
1964.811327
 21
677.771674
 31
0.0
  0
ARC
  5
5A85
100
AcDbEntity
  8
0
100
AcDbCircle
 10
1955.4144
 20
681.191875
 30
0.0
 40
10.0
100
AcDbArc
 50
285.0
 51
340.0
  0
LINE
  5
5A86
100
AcDbEntity
  8
0
100
AcDbLine
 10
1901.241848
 20
693.547456
 30
0.0
 11
1911.593446
 21
665.106675
 31
0.0
  0
LINE
  5
5A87
100
AcDbEntity
  8
0
100
AcDbLine
 10
1958.002591
 20
671.532617
 30
0.0
 11
1922.437395
 21
662.002952
 31
0.0
  0
LINE
  5
5A88
100
AcDbEntity
  8
0
100
AcDbLine
 10
1966.369253
 20
653.586572
 30
0.0
 11
1916.787079
 21
640.301069
 31
0.0
  0
LINE
  5
5A89
100
AcDbEntity
  8
0
100
AcDbLine
 10
1906.651759
 20
657.732766
 30
0.0
 11
1911.053121
 21
658.912107
 31
0.0
  0
ARC
  5
5A8A
100
AcDbEntity
  8
0
100
AcDbCircle
 10
1907.768908
 20
660.252286
 30
0.0
 40
3.54713
100
AcDbArc
 50
337.801256
 51
37.801256
  0
LINE
  5
5A8B
100
AcDbEntity
  8
0
100
AcDbLine
 10
1910.776398
 20
663.53714
 30
0.0
 11
1910.575422
 21
663.483289
 31
0.0
  0
LINE
  5
5A8C
100
AcDbEntity
  8
0
100
AcDbLine
 10
1909.94303
 20
663.055021
 30
0.0
 11
1910.963651
 21
662.0344
 31
0.0
  0
LINE
  5
5A8D
100
AcDbEntity
  8
0
100
AcDbLine
 10
1905.541669
 20
661.875679
 30
0.0
 11
1909.94303
 21
663.055021
 31
0.0
  0
LINE
  5
5A8E
100
AcDbEntity
  8
0
100
AcDbLine
 10
1907.513695
 20
654.515979
 30
0.0
 11
1911.915056
 21
655.695321
 31
0.0
  0
LINE
  5
5A8F
100
AcDbEntity
  8
0
100
AcDbLine
 10
1911.915056
 20
655.695321
 30
0.0
 11
1911.053121
 21
658.912107
 31
0.0
  0
LINE
  5
5A90
100
AcDbEntity
  8
0
100
AcDbLine
 10
1907.513695
 20
654.515979
 30
0.0
 11
1906.651759
 21
657.732766
 31
0.0
  0
LINE
  5
5A91
100
AcDbEntity
  8
0
100
AcDbLine
 10
1905.541669
 20
661.875679
 30
0.0
 11
1905.168096
 21
660.481486
 31
0.0
  0
ARC
  5
5A92
100
AcDbEntity
  8
0
100
AcDbCircle
 10
1908.825882
 20
660.535501
 30
0.0
 40
3.54713
100
AcDbArc
 50
172.198744
 51
232.198744
  0
ARC
  5
5A93
100
AcDbEntity
  8
0
100
AcDbCircle
 10
1910.465815
 20
664.696251
 30
0.0
 40
1.2
100
AcDbArc
 50
285.0
 51
20.0
  0
ARC
  5
5A94
100
AcDbEntity
  8
0
100
AcDbCircle
 10
1919.849204
 20
671.66221
 30
0.0
 40
10.0
100
AcDbArc
 50
200.0
 51
285.0
  0
LINE
  5
5A95
100
AcDbEntity
  8
0
100
AcDbLine
 10
1914.915188
 20
644.498677
 30
0.0
 11
1914.053252
 21
647.715464
 31
0.0
  0
LINE
  5
5A96
100
AcDbEntity
  8
0
100
AcDbLine
 10
1910.513826
 20
643.319336
 30
0.0
 11
1909.651891
 21
646.536122
 31
0.0
  0
LINE
  5
5A97
100
AcDbEntity
  8
0
100
AcDbLine
 10
1909.651891
 20
646.536122
 30
0.0
 11
1914.053252
 21
647.715464
 31
0.0
  0
LINE
  5
5A98
100
AcDbEntity
  8
0
100
AcDbLine
 10
1910.513826
 20
643.319336
 30
0.0
 11
1914.915188
 21
644.498677
 31
0.0
  0
LINE
  5
5A99
100
AcDbEntity
  8
0
100
AcDbLine
 10
1916.025278
 20
640.355764
 30
0.0
 11
1916.398851
 21
641.749957
 31
0.0
  0
LINE
  5
5A9A
100
AcDbEntity
  8
0
100
AcDbLine
 10
1911.623917
 20
639.176422
 30
0.0
 11
1910.603296
 21
640.197043
 31
0.0
  0
LINE
  5
5A9B
100
AcDbEntity
  8
0
100
AcDbLine
 10
1911.623917
 20
639.176422
 30
0.0
 11
1916.025278
 21
640.355764
 31
0.0
  0
ARC
  5
5A9C
100
AcDbEntity
  8
0
100
AcDbCircle
 10
1913.798039
 20
641.979157
 30
0.0
 40
3.54713
100
AcDbArc
 50
157.801256
 51
217.801256
  0
ARC
  5
5A9D
100
AcDbEntity
  8
0
100
AcDbCircle
 10
1912.741065
 20
641.695942
 30
0.0
 40
3.54713
100
AcDbArc
 50
352.198744
 51
52.198744
  0
ARC
  5
5A9E
100
AcDbEntity
  8
0
100
AcDbCircle
 10
1919.652692
 20
653.492221
 30
0.0
 40
12.182091
100
AcDbArc
 50
175.179294
 51
214.820706
  0
ARC
  5
5A9F
100
AcDbEntity
  8
0
100
AcDbCircle
 10
1919.652692
 20
653.492221
 30
0.0
 40
12.182091
100
AcDbArc
 50
175.179294
 51
214.820706
  0
ARC
  5
5AA0
100
AcDbEntity
  8
0
100
AcDbCircle
 10
1901.914255
 20
648.739222
 30
0.0
 40
12.182091
100
AcDbArc
 50
355.179294
 51
34.820706
  0
ARC
  5
5AA1
100
AcDbEntity
  8
0
100
AcDbCircle
 10
1901.914255
 20
648.739222
 30
0.0
 40
12.182091
100
AcDbArc
 50
355.179294
 51
34.820706
  0
LINE
  5
5AA2
100
AcDbEntity
  8
0
100
AcDbLine
 10
1905.168096
 20
660.481486
 30
0.0
 11
1910.603296
 21
640.197043
 31
0.0
  0
LINE
  5
5AA3
100
AcDbEntity
  8
0
100
AcDbLine
 10
1916.787079
 20
640.301069
 30
0.0
 11
1910.575422
 21
663.483289
 31
0.0
  0
LINE
  5
5AA4
100
AcDbEntity
  8
0
100
AcDbLine
 10
1910.963651
 20
662.0344
 30
0.0
 11
1916.398851
 21
641.749957
 31
0.0
  0
LINE
  5
5AA5
100
AcDbEntity
  8
0
100
AcDbLine
 10
1910.963651
 20
662.0344
 30
0.0
 11
1916.398851
 21
641.749957
 31
0.0
  0
ARC
  5
5AA6
100
AcDbEntity
  8
0
100
AcDbCircle
 10
1914.397545
 20
698.335738
 30
0.0
 40
14.0
100
AcDbArc
 50
180.0
 51
200.0
  0
LINE
  5
5AA7
100
AcDbEntity
  8
0
100
AcDbLine
 10
1984.627379
 20
691.282569
 30
0.0
 11
1973.177989
 21
659.825629
 31
0.0
  0
LINE
  5
5AA9
100
AcDbEntity
  8
0
100
AcDbLine
 10
2025.397545
 20
687.572468
 30
0.0
 11
2000.397545
 21
694.572468
 31
0.0
  0
LINE
  5
5AAA
100
AcDbEntity
  8
0
100
AcDbLine
 10
2000.397545
 20
694.572468
 30
0.0
 11
1989.325842
 21
694.572468
 31
0.0
  0
ARC
  5
5AAB
100
AcDbEntity
  8
0
100
AcDbCircle
 10
1957.397545
 20
698.335738
 30
0.0
 40
14.0
100
AcDbArc
 50
340.0
 51
0.0
  0
ARC
  5
5AAC
100
AcDbEntity
  8
0
100
AcDbCircle
 10
1989.325842
 20
689.572468
 30
0.0
 40
5.0
100
AcDbArc
 50
90.0
 51
160.0
  0
LINE
  5
5AAD
100
AcDbEntity
  8
0
100
AcDbLine
 10
1903.972653
 20
761.072468
 30
0.0
 11
1896.299565
 21
753.39938
 31
0.0
  0
LINE
  5
5AAE
100
AcDbEntity
  8
0
100
AcDbLine
 10
1977.397545
 20
745.072468
 30
0.0
 11
1894.397545
 21
745.072468
 31
0.0
  0
LINE
  5
5AAF
100
AcDbEntity
  8
0
100
AcDbLine
 10
1898.397545
 20
731.572468
 30
0.0
 11
1871.397545
 21
731.572468
 31
0.0
  0
LINE
  5
5AB0
100
AcDbEntity
  8
0
100
AcDbLine
 10
1978.897545
 20
733.072468
 30
0.0
 11
1892.897545
 21
733.072468
 31
0.0
  0
LINE
  5
5AB2
100
AcDbEntity
  8
0
100
AcDbLine
 10
1896.299565
 20
753.39938
 30
0.0
 11
1892.988006
 21
744.300946
 31
0.0
  0
LINE
  5
5AB3
100
AcDbEntity
  8
0
100
AcDbLine
 10
1871.397545
 20
731.572468
 30
0.0
 11
1846.397545
 21
738.572468
 31
0.0
  0
ARC
  5
5AB4
100
AcDbEntity
  8
0
100
AcDbCircle
 10
1894.397545
 20
743.787916
 30
0.0
 40
1.5
100
AcDbArc
 50
160.0
 51
180.0
  0
LINE
  5
5AB5
100
AcDbEntity
  8
0
100
AcDbLine
 10
1892.897545
 20
733.072468
 30
0.0
 11
1892.897545
 21
731.572468
 31
0.0
  0
LINE
  5
5AB6
100
AcDbEntity
  8
0
100
AcDbLine
 10
1892.897545
 20
743.787916
 30
0.0
 11
1892.897545
 21
733.072468
 31
0.0
  0
ARC
  5
5AB7
100
AcDbEntity
  8
0
100
AcDbCircle
 10
1894.397545
 20
743.572468
 30
0.0
 40
1.5
100
AcDbArc
 50
90.0
 51
180.0
  0
ARC
  5
5AB9
100
AcDbEntity
  8
0
100
AcDbCircle
 10
1964.181316
 20
738.066989
 30
0.0
 40
13.352467
100
AcDbArc
 50
73.680297
 51
106.319703
  0
LINE
  5
5ABA
100
AcDbEntity
  8
0
100
AcDbLine
 10
1970.490316
 20
751.572468
 30
0.0
 11
1957.872316
 21
751.572468
 31
0.0
  0
LINE
  5
5ABB
100
AcDbEntity
  8
0
100
AcDbLine
 10
1958.397545
 20
761.072468
 30
0.0
 11
1970.794136
 21
751.397081
 31
0.0
  0
LINE
  5
5ABC
100
AcDbEntity
  8
0
100
AcDbLine
 10
1973.397545
 20
721.072468
 30
0.0
 11
1898.397545
 21
721.072468
 31
0.0
  0
LINE
  5
5ABD
100
AcDbEntity
  8
0
100
AcDbLine
 10
1958.397545
 20
761.072468
 30
0.0
 11
1961.66317
 21
751.572468
 31
0.0
  0
LINE
  5
5ABE
100
AcDbEntity
  8
0
100
AcDbLine
 10
1913.397545
 20
761.072468
 30
0.0
 11
1910.13192
 21
751.572468
 31
0.0
  0
LINE
  5
5ABF
100
AcDbEntity
  8
0
100
AcDbLine
 10
1913.922774
 20
751.572468
 30
0.0
 11
1915.118774
 21
750.881468
 31
0.0
  0
ARC
  5
5AC0
100
AcDbEntity
  8
0
100
AcDbCircle
 10
1913.242274
 20
747.87851
 30
0.0
 40
3.541047
100
AcDbArc
 50
57.999406
 51
122.000594
  0
ARC
  5
5AC1
100
AcDbEntity
  8
0
100
AcDbCircle
 10
1901.985274
 20
747.87851
 30
0.0
 40
3.541047
100
AcDbArc
 50
57.999406
 51
122.000594
  0
LINE
  5
5AC2
100
AcDbEntity
  8
0
100
AcDbLine
 10
1900.107774
 20
750.881468
 30
0.0
 11
1901.304774
 21
751.572468
 31
0.0
  0
ARC
  5
5AC3
100
AcDbEntity
  8
0
100
AcDbCircle
 10
1907.613774
 20
738.066989
 30
0.0
 40
13.352467
100
AcDbArc
 50
73.680297
 51
106.319703
  0
LINE
  5
5AC4
100
AcDbEntity
  8
0
100
AcDbLine
 10
1901.304774
 20
751.572468
 30
0.0
 11
1913.922774
 21
751.572468
 31
0.0
  0
LINE
  5
5AC5
100
AcDbEntity
  8
0
100
AcDbLine
 10
1915.118774
 20
750.881468
 30
0.0
 11
1915.118774
 21
745.072468
 31
0.0
  0
LINE
  5
5AC6
100
AcDbEntity
  8
0
100
AcDbLine
 10
1911.365774
 20
750.881468
 30
0.0
 11
1911.365774
 21
745.072468
 31
0.0
  0
LINE
  5
5AC7
100
AcDbEntity
  8
0
100
AcDbLine
 10
1903.861774
 20
750.881468
 30
0.0
 11
1903.861774
 21
745.072468
 31
0.0
  0
LINE
  5
5AC8
100
AcDbEntity
  8
0
100
AcDbLine
 10
1900.107774
 20
745.072468
 30
0.0
 11
1900.107774
 21
750.881468
 31
0.0
  0
LINE
  5
5AC9
100
AcDbEntity
  8
0
100
AcDbLine
 10
1898.397545
 20
733.072468
 30
0.0
 11
1898.397545
 21
721.072468
 31
0.0
  0
LINE
  5
5ACA
100
AcDbEntity
  8
0
100
AcDbLine
 10
1898.397545
 20
745.072468
 30
0.0
 11
1898.397545
 21
733.072468
 31
0.0
  0
LINE
  5
5ACB
100
AcDbEntity
  8
0
100
AcDbLine
 10
1957.872316
 20
751.572468
 30
0.0
 11
1956.676316
 21
750.881468
 31
0.0
  0
ARC
  5
5ACC
100
AcDbEntity
  8
0
100
AcDbCircle
 10
1958.552816
 20
747.87851
 30
0.0
 40
3.541047
100
AcDbArc
 50
57.999406
 51
122.000594
  0
LINE
  5
5ACD
100
AcDbEntity
  8
0
100
AcDbLine
 10
1960.429316
 20
750.881468
 30
0.0
 11
1960.429316
 21
745.072468
 31
0.0
  0
LINE
  5
5ACE
100
AcDbEntity
  8
0
100
AcDbLine
 10
1956.676316
 20
750.881468
 30
0.0
 11
1956.676316
 21
745.072468
 31
0.0
  0
LINE
  5
5ACF
100
AcDbEntity
  8
0
100
AcDbLine
 10
1958.397545
 20
761.072468
 30
0.0
 11
1903.972653
 21
761.072468
 31
0.0
  0
LINE
  5
5AD0
100
AcDbEntity
  8
0
100
AcDbLine
 10
2000.397545
 20
731.572468
 30
0.0
 11
2025.397545
 21
738.572468
 31
0.0
  0
ARC
  5
5AD1
100
AcDbEntity
  8
0
100
AcDbCircle
 10
1969.809816
 20
747.87851
 30
0.0
 40
3.541047
100
AcDbArc
 50
57.999406
 51
122.000594
  0
LINE
  5
5AD2
100
AcDbEntity
  8
0
100
AcDbLine
 10
1971.687316
 20
750.881468
 30
0.0
 11
1970.490316
 21
751.572468
 31
0.0
  0
LINE
  5
5AD3
100
AcDbEntity
  8
0
100
AcDbLine
 10
1971.687316
 20
750.699964
 30
0.0
 11
1978.320451
 21
745.522883
 31
0.0
  0
LINE
  5
5AD4
100
AcDbEntity
  8
0
100
AcDbLine
 10
1971.687316
 20
745.072468
 30
0.0
 11
1971.687316
 21
750.881468
 31
0.0
  0
LINE
  5
5AD5
100
AcDbEntity
  8
0
100
AcDbLine
 10
1967.933316
 20
750.881468
 30
0.0
 11
1967.933316
 21
745.072468
 31
0.0
  0
LINE
  5
5AD6
100
AcDbEntity
  8
0
100
AcDbLine
 10
1978.897545
 20
744.340409
 30
0.0
 11
1978.897545
 21
731.572468
 31
0.0
  0
LINE
  5
5AD7
100
AcDbEntity
  8
0
100
AcDbLine
 10
1973.397545
 20
733.072468
 30
0.0
 11
1973.397545
 21
721.072468
 31
0.0
  0
LINE
  5
5AD8
100
AcDbEntity
  8
0
100
AcDbLine
 10
2000.397545
 20
731.572468
 30
0.0
 11
1973.397545
 21
731.572468
 31
0.0
  0
ARC
  5
5AD9
100
AcDbEntity
  8
0
100
AcDbCircle
 10
1977.397545
 20
743.572468
 30
0.0
 40
1.5
100
AcDbArc
 50
0.0
 51
90.0
  0
ARC
  5
5ADA
100
AcDbEntity
  8
0
100
AcDbCircle
 10
1977.397545
 20
744.340409
 30
0.0
 40
1.5
100
AcDbArc
 50
0.0
 51
52.028396
  0
LINE
  5
5ADB
100
AcDbEntity
  8
0
100
AcDbLine
 10
1973.397545
 20
745.072468
 30
0.0
 11
1973.397545
 21
733.072468
 31
0.0
  0
LINE
  5
5ADF
100
AcDbEntity
  8
0
100
AcDbLine
 10
1970.681816
 20
552.418975
 30
0.0
 11
1970.681816
 21
544.912975
 31
0.0
  0
LINE
  5
5AE0
100
AcDbEntity
  8
0
100
AcDbLine
 10
1957.681816
 20
544.912975
 30
0.0
 11
1957.681816
 21
552.418975
 31
0.0
  0
CIRCLE
  5
5AE1
100
AcDbEntity
  8
0
100
AcDbCircle
 10
1964.181816
 20
548.665975
 30
0.0
 40
6.30876
  0
LINE
  5
5AE2
100
AcDbEntity
  8
0
100
AcDbLine
 10
1915.119274
 20
548.665975
 30
0.0
 11
1911.366274
 21
542.165975
 31
0.0
  0
LINE
  5
5AE3
100
AcDbEntity
  8
0
100
AcDbLine
 10
1903.860274
 20
542.165975
 30
0.0
 11
1900.107274
 21
548.665975
 31
0.0
  0
CIRCLE
  5
5AE4
100
AcDbEntity
  8
0
100
AcDbCircle
 10
1907.613274
 20
548.665975
 30
0.0
 40
6.30876
  0
LINE
  5
5AE5
100
AcDbEntity
  8
0
100
AcDbLine
 10
1973.397545
 20
548.665975
 30
0.0
 11
1973.397545
 21
534.173266
 31
0.0
  0
LINE
  5
5AE6
100
AcDbEntity
  8
0
100
AcDbLine
 10
1898.397545
 20
548.665975
 30
0.0
 11
1898.397545
 21
534.173266
 31
0.0
  0
ARC
  5
5AE7
100
AcDbEntity
  8
0
100
AcDbCircle
 10
1935.897545
 20
520.381704
 30
0.0
 40
28.0
100
AcDbArc
 50
26.514775
 51
153.485225
  0
ARC
  5
5AF0
100
AcDbEntity
  8
0
100
AcDbCircle
 10
1896.397545
 20
534.173266
 30
0.0
 40
2.0
100
AcDbArc
 50
292.88538
 51
0.0
  0
ARC
  5
5AF1
100
AcDbEntity
  8
0
100
AcDbCircle
 10
1896.397545
 20
506.590142
 30
0.0
 40
2.0
100
AcDbArc
 50
0.0
 51
67.11462
  0
ARC
  5
5AF2
100
AcDbEntity
  8
0
100
AcDbCircle
 10
1899.897545
 20
525.881704
 30
0.0
 40
7.0
100
AcDbArc
 50
90.0
 51
180.0
  0
ARC
  5
5AF3
100
AcDbEntity
  8
0
100
AcDbCircle
 10
1899.897545
 20
514.881704
 30
0.0
 40
7.0
100
AcDbArc
 50
180.0
 51
270.0
  0
LINE
  5
5AF4
100
AcDbEntity
  8
0
100
AcDbLine
 10
1871.397545
 20
538.881704
 30
0.0
 11
1898.397545
 21
538.881704
 31
0.0
  0
ARC
  5
5AF5
100
AcDbEntity
  8
0
100
AcDbCircle
 10
1907.613274
 20
492.097433
 30
0.0
 40
9.215729
100
AcDbArc
 50
180.0
 51
270.0
  0
LINE
  5
5AF6
100
AcDbEntity
  8
0
100
AcDbLine
 10
1871.397545
 20
501.881704
 30
0.0
 11
1898.397545
 21
501.881704
 31
0.0
  0
LINE
  5
5AFA
100
AcDbEntity
  8
0
100
AcDbLine
 10
1846.397545
 20
494.881704
 30
0.0
 11
1871.397545
 21
501.881704
 31
0.0
  0
LINE
  5
5AFB
100
AcDbEntity
  8
0
100
AcDbLine
 10
1871.397545
 20
538.881704
 30
0.0
 11
1846.397545
 21
545.881704
 31
0.0
  0
LINE
  5
5AFC
100
AcDbEntity
  8
0
100
AcDbLine
 10
1892.897545
 20
514.881704
 30
0.0
 11
1892.897545
 21
525.881704
 31
0.0
  0
LINE
  5
5AFE
100
AcDbEntity
  8
0
100
AcDbLine
 10
1970.681816
 20
544.912975
 30
0.0
 11
1964.181816
 21
541.159975
 31
0.0
  0
LINE
  5
5AFF
100
AcDbEntity
  8
0
100
AcDbLine
 10
1954.605832
 20
532.881704
 30
0.0
 11
1971.897545
 21
532.881704
 31
0.0
  0
LINE
  5
5B00
100
AcDbEntity
  8
0
100
AcDbLine
 10
1954.605832
 20
507.881704
 30
0.0
 11
1971.897545
 21
507.881704
 31
0.0
  0
LINE
  5
5B01
100
AcDbEntity
  8
0
100
AcDbLine
 10
1960.428816
 20
498.597433
 30
0.0
 11
1967.934816
 21
498.597433
 31
0.0
  0
LINE
  5
5B02
100
AcDbEntity
  8
0
100
AcDbLine
 10
1967.934816
 20
485.597433
 30
0.0
 11
1960.428816
 21
485.597433
 31
0.0
  0
ARC
  5
5B03
100
AcDbEntity
  8
0
100
AcDbCircle
 10
1964.181816
 20
492.097433
 30
0.0
 40
9.215729
100
AcDbArc
 50
270.0
 51
0.0
  0
CIRCLE
  5
5B04
100
AcDbEntity
  8
0
100
AcDbCircle
 10
1964.181816
 20
492.097433
 30
0.0
 40
6.30876
  0
CIRCLE
  5
5B05
100
AcDbEntity
  8
0
100
AcDbCircle
 10
1935.897545
 20
520.381704
 30
0.0
 40
22.5
  0
CIRCLE
  5
5B06
100
AcDbEntity
  8
0
100
AcDbCircle
 10
1935.897545
 20
520.381704
 30
0.0
 40
20.25
  0
LINE
  5
5B07
100
AcDbEntity
  8
0
100
AcDbLine
 10
1907.613274
 20
482.881704
 30
0.0
 11
1964.181816
 21
482.881704
 31
0.0
  0
ARC
  5
5B08
100
AcDbEntity
  8
0
100
AcDbCircle
 10
1935.897545
 20
520.381704
 30
0.0
 40
28.0
100
AcDbArc
 50
206.514775
 51
333.485225
  0
LINE
  5
5B09
100
AcDbEntity
  8
0
100
AcDbLine
 10
1899.897545
 20
507.881704
 30
0.0
 11
1917.189258
 21
507.881704
 31
0.0
  0
LINE
  5
5B0A
100
AcDbEntity
  8
0
100
AcDbLine
 10
1907.613274
 20
499.603433
 30
0.0
 11
1914.113274
 21
495.850433
 31
0.0
  0
LINE
  5
5B0B
100
AcDbEntity
  8
0
100
AcDbLine
 10
1914.113274
 20
495.850433
 30
0.0
 11
1914.113274
 21
488.344433
 31
0.0
  0
LINE
  5
5B0C
100
AcDbEntity
  8
0
100
AcDbLine
 10
1901.113274
 20
488.344433
 30
0.0
 11
1901.113274
 21
495.850433
 31
0.0
  0
LINE
  5
5B0D
100
AcDbEntity
  8
0
100
AcDbLine
 10
1901.113274
 20
495.850433
 30
0.0
 11
1907.613274
 21
499.603433
 31
0.0
  0
LINE
  5
5B0E
100
AcDbEntity
  8
0
100
AcDbLine
 10
1914.113274
 20
488.344433
 30
0.0
 11
1907.613274
 21
484.591433
 31
0.0
  0
LINE
  5
5B0F
100
AcDbEntity
  8
0
100
AcDbLine
 10
1907.613274
 20
484.591433
 30
0.0
 11
1901.113274
 21
488.344433
 31
0.0
  0
CIRCLE
  5
5B10
100
AcDbEntity
  8
0
100
AcDbCircle
 10
1907.613274
 20
492.097433
 30
0.0
 40
6.30876
  0
LINE
  5
5B11
100
AcDbEntity
  8
0
100
AcDbLine
 10
1898.397545
 20
506.590142
 30
0.0
 11
1898.397545
 21
492.097433
 31
0.0
  0
LINE
  5
5B12
100
AcDbEntity
  8
0
100
AcDbLine
 10
1956.675816
 20
492.097433
 30
0.0
 11
1960.428816
 21
498.597433
 31
0.0
  0
LINE
  5
5B13
100
AcDbEntity
  8
0
100
AcDbLine
 10
1960.428816
 20
485.597433
 30
0.0
 11
1956.675816
 21
492.097433
 31
0.0
  0
LINE
  5
5B14
100
AcDbEntity
  8
0
100
AcDbLine
 10
1911.366274
 20
542.165975
 30
0.0
 11
1903.860274
 21
542.165975
 31
0.0
  0
LINE
  5
5B15
100
AcDbEntity
  8
0
100
AcDbLine
 10
1899.897545
 20
532.881704
 30
0.0
 11
1917.189258
 21
532.881704
 31
0.0
  0
LINE
  5
5B16
100
AcDbEntity
  8
0
100
AcDbLine
 10
1964.181816
 20
541.159975
 30
0.0
 11
1957.681816
 21
544.912975
 31
0.0
  0
ARC
  5
5B17
100
AcDbEntity
  8
0
100
AcDbCircle
 10
1975.397545
 20
506.590142
 30
0.0
 40
2.0
100
AcDbArc
 50
112.88538
 51
180.0
  0
ARC
  5
5B18
100
AcDbEntity
  8
0
100
AcDbCircle
 10
1971.897545
 20
514.881704
 30
0.0
 40
7.0
100
AcDbArc
 50
270.0
 51
0.0
  0
LINE
  5
5B19
100
AcDbEntity
  8
0
100
AcDbLine
 10
2025.397545
 20
494.881704
 30
0.0
 11
2000.397545
 21
501.881704
 31
0.0
  0
LINE
  5
5B1A
100
AcDbEntity
  8
0
100
AcDbLine
 10
1967.934816
 20
498.597433
 30
0.0
 11
1971.687816
 21
492.097433
 31
0.0
  0
LINE
  5
5B1B
100
AcDbEntity
  8
0
100
AcDbLine
 10
1971.687816
 20
492.097433
 30
0.0
 11
1967.934816
 21
485.597433
 31
0.0
  0
LINE
  5
5B1C
100
AcDbEntity
  8
0
100
AcDbLine
 10
2000.397545
 20
501.881704
 30
0.0
 11
1973.397545
 21
501.881704
 31
0.0
  0
LINE
  5
5B1D
100
AcDbEntity
  8
0
100
AcDbLine
 10
1973.397545
 20
506.590142
 30
0.0
 11
1973.397545
 21
492.097433
 31
0.0
  0
LINE
  5
5B1E
100
AcDbEntity
  8
0
100
AcDbLine
 10
2000.397545
 20
538.881704
 30
0.0
 11
2025.397545
 21
545.881704
 31
0.0
  0
ARC
  5
5B1F
100
AcDbEntity
  8
0
100
AcDbCircle
 10
1975.397545
 20
534.173266
 30
0.0
 40
2.0
100
AcDbArc
 50
180.0
 51
247.11462
  0
LINE
  5
5B20
100
AcDbEntity
  8
0
100
AcDbLine
 10
1970.395101
 20
525.381704
 30
0.0
 11
1971.658981
 21
525.381704
 31
0.0
  0
ARC
  5
5B21
100
AcDbEntity
  8
0
100
AcDbCircle
 10
1970.395101
 20
527.381704
 30
0.0
 40
2.0
100
AcDbArc
 50
180.0
 51
270.0
  0
ARC
  5
5B22
100
AcDbEntity
  8
0
100
AcDbCircle
 10
1971.897545
 20
525.881704
 30
0.0
 40
7.0
100
AcDbArc
 50
0.0
 51
90.0
  0
LINE
  5
5B23
100
AcDbEntity
  8
0
100
AcDbLine
 10
1970.395101
 20
515.381704
 30
0.0
 11
1971.658981
 21
515.381704
 31
0.0
  0
ARC
  5
5B24
100
AcDbEntity
  8
0
100
AcDbCircle
 10
1970.395101
 20
513.381704
 30
0.0
 40
2.0
100
AcDbArc
 50
90.0
 51
180.0
  0
LINE
  5
5B25
100
AcDbEntity
  8
0
100
AcDbLine
 10
1978.897545
 20
514.881704
 30
0.0
 11
1978.897545
 21
525.881704
 31
0.0
  0
POLYLINE
  5
5B26
100
AcDbEntity
  8
0
100
AcDb2dPolyline
 66
     1
 10
0.0
 20
0.0
 30
0.0
 70
     1
  0
VERTEX
  5
63CF
100
AcDbEntity
  8
0
100
AcDbVertex
100
AcDb2dVertex
 10
1967.822437
 20
520.381704
 30
0.0
 42
0.077085
  0
VERTEX
  5
63D0
100
AcDbEntity
  8
0
100
AcDbVertex
100
AcDb2dVertex
 10
1968.127579
 20
518.414216
 30
0.0
 42
0.086906
  0
VERTEX
  5
63D1
100
AcDbEntity
  8
0
100
AcDbVertex
100
AcDb2dVertex
 10
1968.946134
 20
516.84617
 30
0.0
 42
0.105719
  0
VERTEX
  5
63D2
100
AcDbEntity
  8
0
100
AcDbVertex
100
AcDb2dVertex
 10
1970.245914
 20
515.738758
 30
0.0
 42
0.124385
  0
VERTEX
  5
63D3
100
AcDbEntity
  8
0
100
AcDbVertex
100
AcDb2dVertex
 10
1971.658981
 20
515.381704
 30
0.0
 42
0.124385
  0
VERTEX
  5
63D4
100
AcDbEntity
  8
0
100
AcDbVertex
100
AcDb2dVertex
 10
1973.072047
 20
515.738758
 30
0.0
 42
0.105719
  0
VERTEX
  5
63D5
100
AcDbEntity
  8
0
100
AcDbVertex
100
AcDb2dVertex
 10
1974.371827
 20
516.84617
 30
0.0
 42
0.086906
  0
VERTEX
  5
63D6
100
AcDbEntity
  8
0
100
AcDbVertex
100
AcDb2dVertex
 10
1975.190382
 20
518.414216
 30
0.0
 42
0.077085
  0
VERTEX
  5
63D7
100
AcDbEntity
  8
0
100
AcDbVertex
100
AcDb2dVertex
 10
1975.495525
 20
520.381704
 30
0.0
 42
0.077085
  0
VERTEX
  5
63D8
100
AcDbEntity
  8
0
100
AcDbVertex
100
AcDb2dVertex
 10
1975.190382
 20
522.349192
 30
0.0
 42
0.086906
  0
VERTEX
  5
63D9
100
AcDbEntity
  8
0
100
AcDbVertex
100
AcDb2dVertex
 10
1974.371827
 20
523.917238
 30
0.0
 42
0.105719
  0
VERTEX
  5
63DA
100
AcDbEntity
  8
0
100
AcDbVertex
100
AcDb2dVertex
 10
1973.072047
 20
525.02465
 30
0.0
 42
0.124385
  0
VERTEX
  5
63DB
100
AcDbEntity
  8
0
100
AcDbVertex
100
AcDb2dVertex
 10
1971.658981
 20
525.381704
 30
0.0
 42
0.124385
  0
VERTEX
  5
63DC
100
AcDbEntity
  8
0
100
AcDbVertex
100
AcDb2dVertex
 10
1970.245914
 20
525.02465
 30
0.0
 42
0.105719
  0
VERTEX
  5
63DD
100
AcDbEntity
  8
0
100
AcDbVertex
100
AcDb2dVertex
 10
1968.946134
 20
523.917238
 30
0.0
 42
0.086906
  0
VERTEX
  5
63DE
100
AcDbEntity
  8
0
100
AcDbVertex
100
AcDb2dVertex
 10
1968.127579
 20
522.349192
 30
0.0
 42
0.077085
  0
SEQEND
  5
63DF
100
AcDbEntity
  8
0
  0
LINE
  5
5B27
100
AcDbEntity
  8
0
100
AcDbLine
 10
1973.397545
 20
538.881704
 30
0.0
 11
2000.397545
 21
538.881704
 31
0.0
  0
ARC
  5
5B2A
100
AcDbEntity
  8
0
100
AcDbCircle
 10
1907.613274
 20
548.665975
 30
0.0
 40
9.215729
100
AcDbArc
 50
90.0
 51
180.0
  0
LINE
  5
5B2D
100
AcDbEntity
  8
0
100
AcDbLine
 10
1964.181816
 20
556.171975
 30
0.0
 11
1970.681816
 21
552.418975
 31
0.0
  0
ARC
  5
5B2E
100
AcDbEntity
  8
0
100
AcDbCircle
 10
1964.181816
 20
548.665975
 30
0.0
 40
9.215729
100
AcDbArc
 50
0.0
 51
90.0
  0
LINE
  5
5B2F
100
AcDbEntity
  8
0
100
AcDbLine
 10
1907.613274
 20
557.881704
 30
0.0
 11
1964.181816
 21
557.881704
 31
0.0
  0
LINE
  5
5B30
100
AcDbEntity
  8
0
100
AcDbLine
 10
1903.860274
 20
555.165975
 30
0.0
 11
1911.366274
 21
555.165975
 31
0.0
  0
LINE
  5
5B31
100
AcDbEntity
  8
0
100
AcDbLine
 10
1911.366274
 20
555.165975
 30
0.0
 11
1915.119274
 21
548.665975
 31
0.0
  0
LINE
  5
5B32
100
AcDbEntity
  8
0
100
AcDbLine
 10
1900.107274
 20
548.665975
 30
0.0
 11
1903.860274
 21
555.165975
 31
0.0
  0
LINE
  5
5B33
100
AcDbEntity
  8
0
100
AcDbLine
 10
1957.681816
 20
552.418975
 30
0.0
 11
1964.181816
 21
556.171975
 31
0.0
  0
ARC
  5
5B36
100
AcDbEntity
  8
0
100
AcDbCircle
 10
1952.142398
 20
284.995074
 30
0.0
 40
12.182091
100
AcDbArc
 50
325.179294
 51
4.820706
  0
ARC
  5
5B37
100
AcDbEntity
  8
0
100
AcDbCircle
 10
1952.142398
 20
284.995074
 30
0.0
 40
12.182091
100
AcDbArc
 50
325.179294
 51
4.820706
  0
ARC
  5
5B38
100
AcDbEntity
  8
0
100
AcDbCircle
 10
1969.880835
 20
280.242074
 30
0.0
 40
12.182091
100
AcDbArc
 50
145.179294
 51
184.820706
  0
ARC
  5
5B39
100
AcDbEntity
  8
0
100
AcDbCircle
 10
1969.880835
 20
280.242074
 30
0.0
 40
12.182091
100
AcDbArc
 50
145.179294
 51
184.820706
  0
LINE
  5
5B3A
100
AcDbEntity
  8
0
100
AcDbLine
 10
1905.425837
 20
285.089425
 30
0.0
 11
1955.00801
 21
271.803921
 31
0.0
  0
LINE
  5
5B3C
100
AcDbEntity
  8
0
100
AcDbLine
 10
1966.626994
 20
291.984338
 30
0.0
 11
1961.191794
 21
271.699896
 31
0.0
  0
LINE
  5
5B3D
100
AcDbEntity
  8
0
100
AcDbLine
 10
1955.00801
 20
271.803921
 30
0.0
 11
1961.219667
 21
294.986141
 31
0.0
  0
LINE
  5
5B3E
100
AcDbEntity
  8
0
100
AcDbLine
 10
1960.831439
 20
293.537252
 30
0.0
 11
1955.396239
 21
273.25281
 31
0.0
  0
LINE
  5
5B3F
100
AcDbEntity
  8
0
100
AcDbLine
 10
1960.831439
 20
293.537252
 30
0.0
 11
1955.396239
 21
273.25281
 31
0.0
  0
LINE
  5
5B42
100
AcDbEntity
  8
0
100
AcDbLine
 10
1828.397545
 20
344.575321
 30
0.0
 11
1828.397545
 21
282.075321
 31
0.0
  0
LINE
  5
5B47
100
AcDbEntity
  8
0
100
AcDbLine
 10
1961.281263
 20
274.822188
 30
0.0
 11
1962.143199
 21
278.038975
 31
0.0
  0
LINE
  5
5B48
100
AcDbEntity
  8
0
100
AcDbLine
 10
1956.879902
 20
276.001529
 30
0.0
 11
1957.741838
 21
279.218316
 31
0.0
  0
LINE
  5
5B49
100
AcDbEntity
  8
0
100
AcDbLine
 10
1962.143199
 20
278.038975
 30
0.0
 11
1957.741838
 21
279.218316
 31
0.0
  0
LINE
  5
5B4A
100
AcDbEntity
  8
0
100
AcDbLine
 10
1961.281263
 20
274.822188
 30
0.0
 11
1956.879902
 21
276.001529
 31
0.0
  0
LINE
  5
5B4B
100
AcDbEntity
  8
0
100
AcDbLine
 10
1960.171173
 20
270.679275
 30
0.0
 11
1961.191794
 21
271.699896
 31
0.0
  0
LINE
  5
5B4C
100
AcDbEntity
  8
0
100
AcDbLine
 10
1955.769812
 20
271.858616
 30
0.0
 11
1955.396239
 21
273.25281
 31
0.0
  0
LINE
  5
5B4D
100
AcDbEntity
  8
0
100
AcDbLine
 10
1960.171173
 20
270.679275
 30
0.0
 11
1955.769812
 21
271.858616
 31
0.0
  0
ARC
  5
5B4E
100
AcDbEntity
  8
0
100
AcDbCircle
 10
1957.997051
 20
273.48201
 30
0.0
 40
3.54713
100
AcDbArc
 50
322.198744
 51
22.198744
  0
ARC
  5
5B4F
100
AcDbEntity
  8
0
100
AcDbCircle
 10
1959.054025
 20
273.198794
 30
0.0
 40
3.54713
100
AcDbArc
 50
127.801256
 51
187.801256
  0
LINE
  5
5B51
100
AcDbEntity
  8
0
100
AcDbLine
 10
1900.107774
 20
382.202816
 30
0.0
 11
1893.474639
 21
377.025735
 31
0.0
  0
LINE
  5
5B52
100
AcDbEntity
  8
0
100
AcDbLine
 10
1871.397545
 20
363.075321
 30
0.0
 11
1898.397545
 21
363.075321
 31
0.0
  0
LINE
  5
5B53
100
AcDbEntity
  8
0
100
AcDbLine
 10
1887.167711
 20
322.785421
 30
0.0
 11
1898.617101
 21
291.328481
 31
0.0
  0
LINE
  5
5B54
100
AcDbEntity
  8
0
100
AcDbLine
 10
1892.897545
 20
364.575321
 30
0.0
 11
1978.897545
 21
364.575321
 31
0.0
  0
LINE
  5
5B55
100
AcDbEntity
  8
0
100
AcDbLine
 10
1894.397545
 20
376.575321
 30
0.0
 11
1977.397545
 21
376.575321
 31
0.0
  0
LINE
  5
5B56
100
AcDbEntity
  8
0
100
AcDbLine
 10
1828.397545
 20
407.075321
 30
0.0
 11
1828.397545
 21
344.575321
 31
0.0
  0
LINE
  5
5B57
100
AcDbEntity
  8
0
100
AcDbLine
 10
1846.397545
 20
407.075321
 30
0.0
 11
1846.397545
 21
282.075321
 31
0.0
  0
LINE
  5
5B58
100
AcDbEntity
  8
0
100
AcDbLine
 10
1846.397545
 20
319.075321
 30
0.0
 11
1871.397545
 21
326.075321
 31
0.0
  0
ARC
  5
5B59
100
AcDbEntity
  8
0
100
AcDbCircle
 10
1882.469248
 20
321.075321
 30
0.0
 40
5.0
100
AcDbArc
 50
20.0
 51
90.0
  0
LINE
  5
5B5A
100
AcDbEntity
  8
0
100
AcDbLine
 10
1871.397545
 20
326.075321
 30
0.0
 11
1882.469248
 21
326.075321
 31
0.0
  0
LINE
  5
5B5C
100
AcDbEntity
  8
0
100
AcDbLine
 10
1871.397545
 20
363.075321
 30
0.0
 11
1846.397545
 21
370.075321
 31
0.0
  0
ARC
  5
5B5D
100
AcDbEntity
  8
0
100
AcDbCircle
 10
1894.397545
 20
375.075321
 30
0.0
 40
1.5
100
AcDbArc
 50
90.0
 51
180.0
  0
ARC
  5
5B5E
100
AcDbEntity
  8
0
100
AcDbCircle
 10
1894.397545
 20
375.843262
 30
0.0
 40
1.5
100
AcDbArc
 50
127.971604
 51
180.0
  0
LINE
  5
5B5F
100
AcDbEntity
  8
0
100
AcDbLine
 10
1892.897545
 20
375.843262
 30
0.0
 11
1892.897545
 21
363.075321
 31
0.0
  0
LINE
  5
5B61
100
AcDbEntity
  8
0
100
AcDbLine
 10
1973.397545
 20
364.575321
 30
0.0
 11
1973.397545
 21
352.575321
 31
0.0
  0
LINE
  5
5B62
100
AcDbEntity
  8
0
100
AcDbLine
 10
1898.397545
 20
364.575321
 30
0.0
 11
1898.397545
 21
352.575321
 31
0.0
  0
LINE
  5
5B64
100
AcDbEntity
  8
0
100
AcDbLine
 10
1898.397545
 20
352.575321
 30
0.0
 11
1973.397545
 21
352.575321
 31
0.0
  0
LINE
  5
5B65
100
AcDbEntity
  8
0
100
AcDbLine
 10
1902.762628
 20
328.075321
 30
0.0
 11
1968.986284
 21
328.075321
 31
0.0
  0
LINE
  5
5B66
100
AcDbEntity
  8
0
100
AcDbLine
 10
1970.553242
 20
325.050309
 30
0.0
 11
1960.201644
 21
296.609527
 31
0.0
  0
LINE
  5
5B67
100
AcDbEntity
  8
0
100
AcDbLine
 10
1901.241848
 20
325.050309
 30
0.0
 11
1906.983763
 21
309.274526
 31
0.0
  0
LINE
  5
5B68
100
AcDbEntity
  8
0
100
AcDbLine
 10
1913.792499
 20
303.03547
 30
0.0
 11
1949.357695
 21
293.505804
 31
0.0
  0
ARC
  5
5B69
100
AcDbEntity
  8
0
100
AcDbCircle
 10
1916.38069
 20
312.694728
 30
0.0
 40
10.0
100
AcDbArc
 50
200.0
 51
255.0
  0
ARC
  5
5B6A
100
AcDbEntity
  8
0
100
AcDbCircle
 10
1908.014027
 20
294.748683
 30
0.0
 40
10.0
100
AcDbArc
 50
200.0
 51
255.0
  0
LINE
  5
5B6B
100
AcDbEntity
  8
0
100
AcDbLine
 10
1966.253421
 20
293.378532
 30
0.0
 11
1966.626994
 21
291.984338
 31
0.0
  0
ARC
  5
5B6C
100
AcDbEntity
  8
0
100
AcDbCircle
 10
1961.329275
 20
296.199103
 30
0.0
 40
1.2
100
AcDbArc
 50
160.0
 51
255.0
  0
LINE
  5
5B6D
100
AcDbEntity
  8
0
100
AcDbLine
 10
1961.018692
 20
295.039992
 30
0.0
 11
1961.219667
 21
294.986141
 31
0.0
  0
LINE
  5
5B6E
100
AcDbEntity
  8
0
100
AcDbLine
 10
1961.85206
 20
294.557873
 30
0.0
 11
1960.831439
 21
293.537252
 31
0.0
  0
ARC
  5
5B6F
100
AcDbEntity
  8
0
100
AcDbCircle
 10
1951.945886
 20
303.165062
 30
0.0
 40
10.0
100
AcDbArc
 50
255.0
 51
340.0
  0
LINE
  5
5B70
100
AcDbEntity
  8
0
100
AcDbLine
 10
1966.253421
 20
293.378532
 30
0.0
 11
1961.85206
 21
294.557873
 31
0.0
  0
LINE
  5
5B71
100
AcDbEntity
  8
0
100
AcDbLine
 10
1964.281395
 20
286.018832
 30
0.0
 11
1959.880034
 21
287.198173
 31
0.0
  0
LINE
  5
5B72
100
AcDbEntity
  8
0
100
AcDbLine
 10
1964.281395
 20
286.018832
 30
0.0
 11
1965.14333
 21
289.235618
 31
0.0
  0
LINE
  5
5B73
100
AcDbEntity
  8
0
100
AcDbLine
 10
1965.14333
 20
289.235618
 30
0.0
 11
1960.741969
 21
290.41496
 31
0.0
  0
LINE
  5
5B74
100
AcDbEntity
  8
0
100
AcDbLine
 10
1959.880034
 20
287.198173
 30
0.0
 11
1960.741969
 21
290.41496
 31
0.0
  0
ARC
  5
5B75
100
AcDbEntity
  8
0
100
AcDbCircle
 10
1964.026182
 20
291.755138
 30
0.0
 40
3.54713
100
AcDbArc
 50
142.198744
 51
202.198744
  0
ARC
  5
5B76
100
AcDbEntity
  8
0
100
AcDbCircle
 10
1962.969208
 20
292.038353
 30
0.0
 40
3.54713
100
AcDbArc
 50
307.801256
 51
7.801256
  0
ARC
  5
5B77
100
AcDbEntity
  8
0
100
AcDbCircle
 10
1914.397545
 20
329.838591
 30
0.0
 40
14.0
100
AcDbArc
 50
180.0
 51
200.0
  0
LINE
  5
5B78
100
AcDbEntity
  8
0
100
AcDbLine
 10
1900.397545
 20
352.575321
 30
0.0
 11
1900.397545
 21
329.838591
 31
0.0
  0
LINE
  5
5B79
100
AcDbEntity
  8
0
100
AcDbLine
 10
2025.397545
 20
319.075321
 30
0.0
 11
2000.397545
 21
326.075321
 31
0.0
  0
ARC
  5
5B7A
100
AcDbEntity
  8
0
100
AcDbCircle
 10
1977.928391
 20
316.075321
 30
0.0
 40
10.0
100
AcDbArc
 50
90.0
 51
160.0
  0
ARC
  5
5B7B
100
AcDbEntity
  8
0
100
AcDbCircle
 10
1957.397545
 20
329.838591
 30
0.0
 40
14.0
100
AcDbArc
 50
340.0
 51
0.0
  0
LINE
  5
5B7C
100
AcDbEntity
  8
0
100
AcDbLine
 10
1971.397545
 20
352.575321
 30
0.0
 11
1971.397545
 21
329.838591
 31
0.0
  0
LINE
  5
5B7D
100
AcDbEntity
  8
0
100
AcDbLine
 10
2000.397545
 20
326.075321
 30
0.0
 11
1977.928391
 21
326.075321
 31
0.0
  0
LINE
  5
5B7E
100
AcDbEntity
  8
0
100
AcDbLine
 10
1913.397545
 20
392.575321
 30
0.0
 11
1967.822437
 21
392.575321
 31
0.0
  0
ARC
  5
5B7F
100
AcDbEntity
  8
0
100
AcDbCircle
 10
1964.181316
 20
369.569841
 30
0.0
 40
13.352467
100
AcDbArc
 50
73.680297
 51
106.319703
  0
LINE
  5
5B80
100
AcDbEntity
  8
0
100
AcDbLine
 10
1970.490316
 20
383.075321
 30
0.0
 11
1957.872316
 21
383.075321
 31
0.0
  0
LINE
  5
5B81
100
AcDbEntity
  8
0
100
AcDbLine
 10
1913.922774
 20
383.075321
 30
0.0
 11
1915.118774
 21
382.384321
 31
0.0
  0
LINE
  5
5B82
100
AcDbEntity
  8
0
100
AcDbLine
 10
1915.118774
 20
382.384321
 30
0.0
 11
1915.118774
 21
376.575321
 31
0.0
  0
LINE
  5
5B83
100
AcDbEntity
  8
0
100
AcDbLine
 10
1911.365774
 20
382.384321
 30
0.0
 11
1911.365774
 21
376.575321
 31
0.0
  0
ARC
  5
5B84
100
AcDbEntity
  8
0
100
AcDbCircle
 10
1913.242274
 20
379.381362
 30
0.0
 40
3.541047
100
AcDbArc
 50
57.999406
 51
122.000594
  0
LINE
  5
5B85
100
AcDbEntity
  8
0
100
AcDbLine
 10
1900.107774
 20
376.575321
 30
0.0
 11
1900.107774
 21
382.384321
 31
0.0
  0
LINE
  5
5B86
100
AcDbEntity
  8
0
100
AcDbLine
 10
1903.861774
 20
382.384321
 30
0.0
 11
1903.861774
 21
376.575321
 31
0.0
  0
ARC
  5
5B87
100
AcDbEntity
  8
0
100
AcDbCircle
 10
1901.985274
 20
379.381362
 30
0.0
 40
3.541047
100
AcDbArc
 50
57.999406
 51
122.000594
  0
LINE
  5
5B88
100
AcDbEntity
  8
0
100
AcDbLine
 10
1900.107774
 20
382.384321
 30
0.0
 11
1901.304774
 21
383.075321
 31
0.0
  0
ARC
  5
5B89
100
AcDbEntity
  8
0
100
AcDbCircle
 10
1907.613774
 20
369.569841
 30
0.0
 40
13.352467
100
AcDbArc
 50
73.680297
 51
106.319703
  0
LINE
  5
5B8A
100
AcDbEntity
  8
0
100
AcDbLine
 10
1901.304774
 20
383.075321
 30
0.0
 11
1913.922774
 21
383.075321
 31
0.0
  0
LINE
  5
5B8B
100
AcDbEntity
  8
0
100
AcDbLine
 10
1898.397545
 20
376.575321
 30
0.0
 11
1898.397545
 21
364.575321
 31
0.0
  0
LINE
  5
5B8C
100
AcDbEntity
  8
0
100
AcDbLine
 10
1913.397545
 20
392.575321
 30
0.0
 11
1901.000954
 21
382.899933
 31
0.0
  0
LINE
  5
5B8D
100
AcDbEntity
  8
0
100
AcDbLine
 10
1913.397545
 20
392.575321
 30
0.0
 11
1910.13192
 21
383.075321
 31
0.0
  0
LINE
  5
5B8E
100
AcDbEntity
  8
0
100
AcDbLine
 10
1960.429316
 20
382.384321
 30
0.0
 11
1960.429316
 21
376.575321
 31
0.0
  0
LINE
  5
5B8F
100
AcDbEntity
  8
0
100
AcDbLine
 10
1956.676316
 20
382.384321
 30
0.0
 11
1956.676316
 21
376.575321
 31
0.0
  0
LINE
  5
5B90
100
AcDbEntity
  8
0
100
AcDbLine
 10
1957.872316
 20
383.075321
 30
0.0
 11
1956.676316
 21
382.384321
 31
0.0
  0
ARC
  5
5B91
100
AcDbEntity
  8
0
100
AcDbCircle
 10
1958.552816
 20
379.381362
 30
0.0
 40
3.541047
100
AcDbArc
 50
57.999406
 51
122.000594
  0
LINE
  5
5B92
100
AcDbEntity
  8
0
100
AcDbLine
 10
1958.397545
 20
392.575321
 30
0.0
 11
1961.66317
 21
383.075321
 31
0.0
  0
LINE
  5
5B93
100
AcDbEntity
  8
0
100
AcDbLine
 10
2000.397545
 20
363.075321
 30
0.0
 11
2025.397545
 21
370.075321
 31
0.0
  0
ARC
  5
5B94
100
AcDbEntity
  8
0
100
AcDbCircle
 10
1977.397545
 20
375.290768
 30
0.0
 40
1.5
100
AcDbArc
 50
0.0
 51
20.0
  0
ARC
  5
5B95
100
AcDbEntity
  8
0
100
AcDbCircle
 10
1977.397545
 20
375.075321
 30
0.0
 40
1.5
100
AcDbArc
 50
0.0
 51
90.0
  0
LINE
  5
5B96
100
AcDbEntity
  8
0
100
AcDbLine
 10
1967.933316
 20
382.384321
 30
0.0
 11
1967.933316
 21
376.575321
 31
0.0
  0
LINE
  5
5B97
100
AcDbEntity
  8
0
100
AcDbLine
 10
1971.687316
 20
376.575321
 30
0.0
 11
1971.687316
 21
382.384321
 31
0.0
  0
ARC
  5
5B98
100
AcDbEntity
  8
0
100
AcDbCircle
 10
1969.809816
 20
379.381362
 30
0.0
 40
3.541047
100
AcDbArc
 50
57.999406
 51
122.000594
  0
LINE
  5
5B99
100
AcDbEntity
  8
0
100
AcDbLine
 10
1971.687316
 20
382.384321
 30
0.0
 11
1970.490316
 21
383.075321
 31
0.0
  0
LINE
  5
5B9A
100
AcDbEntity
  8
0
100
AcDbLine
 10
1975.495525
 20
384.902233
 30
0.0
 11
1978.807084
 21
375.803799
 31
0.0
  0
LINE
  5
5B9B
100
AcDbEntity
  8
0
100
AcDbLine
 10
1978.897545
 20
364.575321
 30
0.0
 11
1978.897545
 21
363.075321
 31
0.0
  0
LINE
  5
5B9C
100
AcDbEntity
  8
0
100
AcDbLine
 10
1978.897545
 20
375.290768
 30
0.0
 11
1978.897545
 21
364.575321
 31
0.0
  0
LINE
  5
5B9D
100
AcDbEntity
  8
0
100
AcDbLine
 10
1973.397545
 20
376.575321
 30
0.0
 11
1973.397545
 21
364.575321
 31
0.0
  0
LINE
  5
5B9E
100
AcDbEntity
  8
0
100
AcDbLine
 10
1967.822437
 20
392.575321
 30
0.0
 11
1975.495525
 21
384.902233
 31
0.0
  0
LINE
  5
5B9F
100
AcDbEntity
  8
0
100
AcDbLine
 10
1973.397545
 20
363.075321
 30
0.0
 11
2000.397545
 21
363.075321
 31
0.0
  0
CIRCLE
  5
5CAE
100
AcDbEntity
  8
0
100
AcDbCircle
 10
828.950905
 20
319.777942
 30
0.0
 40
7.5
  0
CIRCLE
  5
5CAF
100
AcDbEntity
  8
0
100
AcDbCircle
 10
779.550905
 20
319.777942
 30
0.0
 40
7.5
  0
CIRCLE
  5
5CB1
100
AcDbEntity
  8
0
100
AcDbCircle
 10
804.250905
 20
344.575321
 30
0.0
 40
47.5
  0
CIRCLE
  5
5CB2
100
AcDbEntity
  8
0
100
AcDbCircle
 10
1005.792204
 20
344.575321
 30
0.0
 40
50.0
  0
CIRCLE
  5
5CBE
100
AcDbEntity
  8
0
100
AcDbCircle
 10
1032.292204
 20
318.042322
 30
0.0
 40
7.5
  0
CIRCLE
  5
5CD6
100
AcDbEntity
  8
0
100
AcDbCircle
 10
979.292204
 20
318.042322
 30
0.0
 40
7.5
  0
CIRCLE
  5
5CE3
100
AcDbEntity
  8
0
100
AcDbCircle
 10
779.550905
 20
369.3727
 30
0.0
 40
7.5
  0
CIRCLE
  5
5CE8
100
AcDbEntity
  8
0
100
AcDbCircle
 10
1032.292204
 20
371.108319
 30
0.0
 40
7.5
  0
CIRCLE
  5
5CE9
100
AcDbEntity
  8
0
100
AcDbCircle
 10
828.950905
 20
369.3727
 30
0.0
 40
7.5
  0
CIRCLE
  5
5CF2
100
AcDbEntity
  8
0
100
AcDbCircle
 10
979.292204
 20
371.108319
 30
0.0
 40
7.5
  0
INSERT
  5
5CF3
100
AcDbEntity
  8
0
100
AcDbBlockReference
  2
YA
 10
1123.182216
 20
344.575321
 30
0.0
 41
2.284817
 42
2.284817
 43
2.284817
  0
CIRCLE
  5
5D0F
100
AcDbEntity
  8
0
100
AcDbCircle
 10
1679.467184
 20
344.575321
 30
0.0
 40
62.5
  0
CIRCLE
  5
5D11
100
AcDbEntity
  8
0
100
AcDbCircle
 10
1647.667184
 20
312.735723
 30
0.0
 40
9.5
  0
CIRCLE
  5
5D53
100
AcDbEntity
  8
0
100
AcDbCircle
 10
1711.267184
 20
312.735723
 30
0.0
 40
9.5
  0
CIRCLE
  5
5D5B
100
AcDbEntity
  8
0
100
AcDbCircle
 10
1647.667184
 20
376.414919
 30
0.0
 40
9.5
  0
CIRCLE
  5
5D82
100
AcDbEntity
  8
0
100
AcDbCircle
 10
1711.267184
 20
376.414919
 30
0.0
 40
9.5
  0
LINE
  5
5D98
100
AcDbEntity
  8
0
100
AcDbLine
 10
798.119881
 20
268.303921
 30
0.0
 11
800.637569
 21
268.303921
 31
0.0
  0
LINE
  5
5D99
100
AcDbEntity
  8
0
100
AcDbLine
 10
792.250905
 20
288.005804
 30
0.0
 11
792.250905
 21
279.895031
 31
0.0
  0
POLYLINE
  5
5DA1
100
AcDbEntity
  8
0
100
AcDb2dPolyline
 66
     1
 10
0.0
 20
0.0
 30
0.0
  0
VERTEX
  5
63E0
100
AcDbEntity
  8
0
100
AcDbVertex
100
AcDb2dVertex
 10
802.498672
 20
289.741235
 30
0.0
  0
VERTEX
  5
63E1
100
AcDbEntity
  8
0
100
AcDbVertex
100
AcDb2dVertex
 10
795.503137
 20
285.702362
 30
0.0
  0
SEQEND
  5
63E2
100
AcDbEntity
  8
0
  0
ARC
  5
5DA2
100
AcDbEntity
  8
0
100
AcDbCircle
 10
804.250905
 20
278.628532
 30
0.0
 40
11.25
100
AcDbArc
 50
81.03947
 51
98.96053
  0
POLYLINE
  5
5DA3
100
AcDbEntity
  8
0
100
AcDb2dPolyline
 66
     1
 10
0.0
 20
0.0
 30
0.0
  0
VERTEX
  5
63E3
100
AcDbEntity
  8
0
100
AcDbVertex
100
AcDb2dVertex
 10
812.998672
 20
285.702362
 30
0.0
  0
VERTEX
  5
63E4
100
AcDbEntity
  8
0
100
AcDbVertex
100
AcDb2dVertex
 10
806.003137
 20
289.741235
 30
0.0
  0
SEQEND
  5
63E5
100
AcDbEntity
  8
0
  0
ARC
  5
5DA4
100
AcDbEntity
  8
0
100
AcDbCircle
 10
804.250905
 20
278.628532
 30
0.0
 40
11.25
100
AcDbArc
 50
21.03947
 51
38.96053
  0
POLYLINE
  5
5DA5
100
AcDbEntity
  8
0
100
AcDb2dPolyline
 66
     1
 10
0.0
 20
0.0
 30
0.0
  0
VERTEX
  5
63E6
100
AcDbEntity
  8
0
100
AcDbVertex
100
AcDb2dVertex
 10
814.750905
 20
274.303243
 30
0.0
  0
VERTEX
  5
63E7
100
AcDbEntity
  8
0
100
AcDbVertex
100
AcDb2dVertex
 10
814.750905
 20
282.667405
 30
0.0
  0
SEQEND
  5
63E8
100
AcDbEntity
  8
0
  0
ARC
  5
5DA6
100
AcDbEntity
  8
0
100
AcDbCircle
 10
804.250905
 20
278.342117
 30
0.0
 40
11.25
100
AcDbArc
 50
321.03947
 51
338.96053
  0
POLYLINE
  5
5DA7
100
AcDbEntity
  8
0
100
AcDb2dPolyline
 66
     1
 10
0.0
 20
0.0
 30
0.0
  0
VERTEX
  5
63E9
100
AcDbEntity
  8
0
100
AcDbVertex
100
AcDb2dVertex
 10
806.003137
 20
267.229413
 30
0.0
  0
VERTEX
  5
63EA
100
AcDbEntity
  8
0
100
AcDbVertex
100
AcDb2dVertex
 10
812.998672
 20
271.268287
 30
0.0
  0
SEQEND
  5
63EB
100
AcDbEntity
  8
0
  0
ARC
  5
5DA8
100
AcDbEntity
  8
0
100
AcDbCircle
 10
804.250905
 20
278.342117
 30
0.0
 40
11.25
100
AcDbArc
 50
261.03947
 51
278.96053
  0
POLYLINE
  5
5DA9
100
AcDbEntity
  8
0
100
AcDb2dPolyline
 66
     1
 10
0.0
 20
0.0
 30
0.0
  0
VERTEX
  5
63EC
100
AcDbEntity
  8
0
100
AcDbVertex
100
AcDb2dVertex
 10
795.503137
 20
271.268287
 30
0.0
  0
VERTEX
  5
63ED
100
AcDbEntity
  8
0
100
AcDbVertex
100
AcDb2dVertex
 10
802.498672
 20
267.229413
 30
0.0
  0
SEQEND
  5
63EE
100
AcDbEntity
  8
0
  0
ARC
  5
5DAA
100
AcDbEntity
  8
0
100
AcDbCircle
 10
804.250905
 20
278.342117
 30
0.0
 40
11.25
100
AcDbArc
 50
201.03947
 51
218.96053
  0
POLYLINE
  5
5DAB
100
AcDbEntity
  8
0
100
AcDb2dPolyline
 66
     1
 10
0.0
 20
0.0
 30
0.0
  0
VERTEX
  5
63EF
100
AcDbEntity
  8
0
100
AcDbVertex
100
AcDb2dVertex
 10
793.750905
 20
282.667405
 30
0.0
  0
VERTEX
  5
63F0
100
AcDbEntity
  8
0
100
AcDbVertex
100
AcDb2dVertex
 10
793.750905
 20
274.303243
 30
0.0
  0
SEQEND
  5
63F1
100
AcDbEntity
  8
0
  0
ARC
  5
5DAC
100
AcDbEntity
  8
0
100
AcDbCircle
 10
804.250905
 20
278.628532
 30
0.0
 40
11.25
100
AcDbArc
 50
141.03947
 51
158.96053
  0
ARC
  5
5DB2
100
AcDbEntity
  8
0
100
AcDbCircle
 10
788.08627
 20
300.005804
 30
0.0
 40
10.0
100
AcDbArc
 50
200.0
 51
270.0
  0
LINE
  5
5DB3
100
AcDbEntity
  8
0
100
AcDbLine
 10
774.781622
 20
307.32198
 30
0.0
 11
778.689344
 21
296.585603
 31
0.0
  0
LINE
  5
5DC4
100
AcDbEntity
  8
0
100
AcDbLine
 10
788.08627
 20
290.005804
 30
0.0
 11
790.250905
 21
290.005804
 31
0.0
  0
ARC
  5
5DCB
100
AcDbEntity
  8
0
100
AcDbCircle
 10
790.250905
 20
288.005804
 30
0.0
 40
2.0
100
AcDbArc
 50
0.0
 51
90.0
  0
ARC
  5
5DCC
100
AcDbEntity
  8
0
100
AcDbCircle
 10
820.415539
 20
300.005804
 30
0.0
 40
10.0
100
AcDbArc
 50
270.0
 51
340.0
  0
LINE
  5
5DCD
100
AcDbEntity
  8
0
100
AcDbLine
 10
833.720187
 20
307.32198
 30
0.0
 11
829.812465
 21
296.585603
 31
0.0
  0
LINE
  5
5DCF
100
AcDbEntity
  8
0
100
AcDbLine
 10
820.415539
 20
290.005804
 30
0.0
 11
818.250905
 21
290.005804
 31
0.0
  0
ARC
  5
5DD0
100
AcDbEntity
  8
0
100
AcDbCircle
 10
818.250905
 20
288.005804
 30
0.0
 40
2.0
100
AcDbArc
 50
90.0
 51
180.0
  0
CIRCLE
  5
5DD1
100
AcDbEntity
  8
0
100
AcDbCircle
 10
378.205349
 20
344.575321
 30
0.0
 40
47.5
  0
ARC
  5
5DD2
100
AcDbEntity
  8
0
100
AcDbCircle
 10
362.040715
 20
300.005804
 30
0.0
 40
10.0
100
AcDbArc
 50
200.0
 51
270.0
  0
POLYLINE
  5
5DD8
100
AcDbEntity
  8
0
100
AcDb2dPolyline
 66
     1
 10
0.0
 20
0.0
 30
0.0
  0
VERTEX
  5
63F2
100
AcDbEntity
  8
0
100
AcDbVertex
100
AcDb2dVertex
 10
381.818684
 20
268.303921
 30
0.0
  0
VERTEX
  5
63F3
100
AcDbEntity
  8
0
100
AcDbVertex
100
AcDb2dVertex
 10
379.957582
 20
267.229413
 30
0.0
  0
SEQEND
  5
63F4
100
AcDbEntity
  8
0
  0
LINE
  5
5DDE
100
AcDbEntity
  8
0
100
AcDbLine
 10
384.410157
 20
268.303921
 30
0.0
 11
372.000542
 21
268.303921
 31
0.0
  0
LINE
  5
5DE0
100
AcDbEntity
  8
0
100
AcDbLine
 10
370.175531
 20
269.485791
 30
0.0
 11
366.205349
 21
278.342117
 31
0.0
  0
ARC
  5
5DE1
100
AcDbEntity
  8
0
100
AcDbCircle
 10
378.205349
 20
278.342117
 30
0.0
 40
11.25
100
AcDbArc
 50
261.03947
 51
278.96053
  0
POLYLINE
  5
5DE2
100
AcDbEntity
  8
0
100
AcDb2dPolyline
 66
     1
 10
0.0
 20
0.0
 30
0.0
  0
VERTEX
  5
63F5
100
AcDbEntity
  8
0
100
AcDbVertex
100
AcDb2dVertex
 10
376.453116
 20
267.229413
 30
0.0
  0
VERTEX
  5
63F6
100
AcDbEntity
  8
0
100
AcDbVertex
100
AcDb2dVertex
 10
374.592014
 20
268.303921
 30
0.0
  0
SEQEND
  5
63F7
100
AcDbEntity
  8
0
  0
ARC
  5
5DE4
100
AcDbEntity
  8
0
100
AcDbCircle
 10
372.000542
 20
270.303921
 30
0.0
 40
2.0
100
AcDbArc
 50
204.146108
 51
270.0
  0
CIRCLE
  5
5DE5
100
AcDbEntity
  8
0
100
AcDbCircle
 10
402.905349
 20
319.777942
 30
0.0
 40
7.5
  0
ARC
  5
5DE9
100
AcDbEntity
  8
0
100
AcDbCircle
 10
394.369984
 20
300.005804
 30
0.0
 40
10.0
100
AcDbArc
 50
270.0
 51
340.0
  0
LINE
  5
5DEA
100
AcDbEntity
  8
0
100
AcDbLine
 10
407.674632
 20
307.32198
 30
0.0
 11
403.76691
 21
296.585603
 31
0.0
  0
LINE
  5
5DF1
100
AcDbEntity
  8
0
100
AcDbLine
 10
348.736067
 20
307.32198
 30
0.0
 11
352.643789
 21
296.585603
 31
0.0
  0
CIRCLE
  5
5DF2
100
AcDbEntity
  8
0
100
AcDbCircle
 10
353.505349
 20
319.777942
 30
0.0
 40
7.5
  0
CIRCLE
  5
5DF3
100
AcDbEntity
  8
0
100
AcDbCircle
 10
402.905349
 20
369.3727
 30
0.0
 40
7.5
  0
CIRCLE
  5
5DF4
100
AcDbEntity
  8
0
100
AcDbCircle
 10
353.505349
 20
369.3727
 30
0.0
 40
7.5
  0
LINE
  5
5DF9
100
AcDbEntity
  8
0
100
AcDbLine
 10
366.205349
 20
278.342117
 30
0.0
 11
365.742334
 21
298.739491
 31
0.0
  0
LINE
  5
5DFA
100
AcDbEntity
  8
0
100
AcDbLine
 10
362.040715
 20
290.005804
 30
0.0
 11
363.985471
 21
290.005804
 31
0.0
  0
ARC
  5
5DFB
100
AcDbEntity
  8
0
100
AcDbCircle
 10
363.985471
 20
288.005804
 30
0.0
 40
2.0
100
AcDbArc
 50
1.300377
 51
90.0
  0
ARC
  5
5DFC
100
AcDbEntity
  8
0
100
AcDbCircle
 10
384.410157
 20
270.303921
 30
0.0
 40
2.0
100
AcDbArc
 50
270.0
 51
335.853892
  0
LINE
  5
5DFD
100
AcDbEntity
  8
0
100
AcDbLine
 10
390.205349
 20
278.342117
 30
0.0
 11
390.668365
 21
298.739491
 31
0.0
  0
LINE
  5
5DFF
100
AcDbEntity
  8
0
100
AcDbLine
 10
386.235167
 20
269.485791
 30
0.0
 11
390.205349
 21
278.342117
 31
0.0
  0
ARC
  5
5E01
100
AcDbEntity
  8
0
100
AcDbCircle
 10
392.425228
 20
288.005804
 30
0.0
 40
2.0
100
AcDbArc
 50
90.0
 51
178.699623
  0
LINE
  5
5E02
100
AcDbEntity
  8
0
100
AcDbLine
 10
394.369984
 20
290.005804
 30
0.0
 11
392.425228
 21
290.005804
 31
0.0
  0
LINE
  5
5E03
100
AcDbEntity
  8
0
100
AcDbLine
 10
386.037533
 20
283.875909
 30
0.0
 11
370.373166
 21
283.875909
 31
0.0
  0
LINE
  5
5E43
100
AcDbEntity
  8
0
100
AcDbLine
 10
1846.397545
 20
407.075321
 30
0.0
 11
1828.397545
 21
407.075321
 31
0.0
  0
LINE
  5
5E44
100
AcDbEntity
  8
0
100
AcDbLine
 10
1846.397545
 20
282.075321
 30
0.0
 11
1828.397545
 21
282.075321
 31
0.0
  0
LINE
  5
5E45
100
AcDbEntity
  8
0
100
AcDbLine
 10
2025.397545
 20
407.075321
 30
0.0
 11
2043.397545
 21
407.075321
 31
0.0
  0
LINE
  5
5E46
100
AcDbEntity
  8
0
100
AcDbLine
 10
2025.397545
 20
407.075321
 30
0.0
 11
2025.397545
 21
282.075321
 31
0.0
  0
LINE
  5
5E47
100
AcDbEntity
  8
0
100
AcDbLine
 10
2025.397545
 20
282.075321
 30
0.0
 11
2043.397545
 21
282.075321
 31
0.0
  0
LINE
  5
5E49
100
AcDbEntity
  8
0
100
AcDbLine
 10
2043.397545
 20
344.575321
 30
0.0
 11
2043.397545
 21
282.075321
 31
0.0
  0
LINE
  5
5E61
100
AcDbEntity
  8
0
100
AcDbLine
 10
2043.397545
 20
407.075321
 30
0.0
 11
2043.397545
 21
344.575321
 31
0.0
  0
LINE
  5
5E63
100
AcDbEntity
  8
0
100
AcDbLine
 10
1334.190466
 20
394.575321
 30
0.0
 11
1316.190466
 21
394.575321
 31
0.0
  0
LINE
  5
5E64
100
AcDbEntity
  8
0
100
AcDbLine
 10
1334.190466
 20
294.575321
 30
0.0
 11
1316.190466
 21
294.575321
 31
0.0
  0
LINE
  5
5E88
100
AcDbEntity
  8
0
100
AcDbLine
 10
1157.190466
 20
394.575321
 30
0.0
 11
1157.190466
 21
294.575321
 31
0.0
  0
LINE
  5
5E89
100
AcDbEntity
  8
0
100
AcDbLine
 10
1139.190466
 20
394.575321
 30
0.0
 11
1157.190466
 21
394.575321
 31
0.0
  0
LINE
  5
5E8A
100
AcDbEntity
  8
0
100
AcDbLine
 10
1139.190466
 20
294.575321
 30
0.0
 11
1157.190466
 21
294.575321
 31
0.0
  0
LINE
  5
5E8B
100
AcDbEntity
  8
0
100
AcDbLine
 10
1139.190466
 20
394.575321
 30
0.0
 11
1139.190466
 21
344.575321
 31
0.0
  0
LINE
  5
5E8C
100
AcDbEntity
  8
0
100
AcDbLine
 10
1139.190466
 20
344.575321
 30
0.0
 11
1139.190466
 21
294.575321
 31
0.0
  0
LINE
  5
5E8D
100
AcDbEntity
  8
0
100
AcDbLine
 10
1139.190466
 20
570.381704
 30
0.0
 11
1139.190466
 21
520.381704
 31
0.0
  0
LINE
  5
5E8E
100
AcDbEntity
  8
0
100
AcDbLine
 10
1157.190466
 20
570.381704
 30
0.0
 11
1157.190466
 21
470.381704
 31
0.0
  0
LINE
  5
5E8F
100
AcDbEntity
  8
0
100
AcDbLine
 10
1139.190466
 20
470.381704
 30
0.0
 11
1157.190466
 21
470.381704
 31
0.0
  0
LINE
  5
5E90
100
AcDbEntity
  8
0
100
AcDbLine
 10
1139.190466
 20
520.381704
 30
0.0
 11
1139.190466
 21
470.381704
 31
0.0
  0
LINE
  5
5E92
100
AcDbEntity
  8
0
100
AcDbLine
 10
1139.190466
 20
570.381704
 30
0.0
 11
1157.190466
 21
570.381704
 31
0.0
  0
LINE
  5
5E94
100
AcDbEntity
  8
0
100
AcDbLine
 10
1316.190466
 20
570.381704
 30
0.0
 11
1316.190466
 21
470.381704
 31
0.0
  0
LINE
  5
5E95
100
AcDbEntity
  8
0
100
AcDbLine
 10
1334.190466
 20
570.381704
 30
0.0
 11
1334.190466
 21
520.381704
 31
0.0
  0
LINE
  5
5E96
100
AcDbEntity
  8
0
100
AcDbLine
 10
1334.190466
 20
520.381704
 30
0.0
 11
1334.190466
 21
470.381704
 31
0.0
  0
LINE
  5
5E97
100
AcDbEntity
  8
0
100
AcDbLine
 10
1334.190466
 20
470.381704
 30
0.0
 11
1316.190466
 21
470.381704
 31
0.0
  0
ARC
  5
5E99
100
AcDbEntity
  8
0
100
AcDbCircle
 10
1312.190466
 20
542.001654
 30
0.0
 40
4.0
100
AcDbArc
 50
275.710593
 51
0.0
  0
LINE
  5
5E9A
100
AcDbEntity
  8
0
100
AcDbLine
 10
1334.190466
 20
570.381704
 30
0.0
 11
1316.190466
 21
570.381704
 31
0.0
  0
LINE
  5
5E9B
100
AcDbEntity
  8
0
100
AcDbLine
 10
1846.397545
 20
457.881704
 30
0.0
 11
1828.397545
 21
457.881704
 31
0.0
  0
LINE
  5
5E9C
100
AcDbEntity
  8
0
100
AcDbLine
 10
1846.397545
 20
582.881704
 30
0.0
 11
1828.397545
 21
582.881704
 31
0.0
  0
LINE
  5
5E9D
100
AcDbEntity
  8
0
100
AcDbLine
 10
1828.397545
 20
582.881704
 30
0.0
 11
1828.397545
 21
520.381704
 31
0.0
  0
LINE
  5
5E9E
100
AcDbEntity
  8
0
100
AcDbLine
 10
1828.397545
 20
520.381704
 30
0.0
 11
1828.397545
 21
457.881704
 31
0.0
  0
LINE
  5
5E9F
100
AcDbEntity
  8
0
100
AcDbLine
 10
1846.397545
 20
582.881704
 30
0.0
 11
1846.397545
 21
457.881704
 31
0.0
  0
LINE
  5
5EA0
100
AcDbEntity
  8
0
100
AcDbLine
 10
2043.397545
 20
582.881704
 30
0.0
 11
2043.397545
 21
520.381704
 31
0.0
  0
LINE
  5
5EA1
100
AcDbEntity
  8
0
100
AcDbLine
 10
2025.397545
 20
582.881704
 30
0.0
 11
2025.397545
 21
457.881704
 31
0.0
  0
LINE
  5
5EA2
100
AcDbEntity
  8
0
100
AcDbLine
 10
2043.397545
 20
520.381704
 30
0.0
 11
2043.397545
 21
457.881704
 31
0.0
  0
LINE
  5
5EA3
100
AcDbEntity
  8
0
100
AcDbLine
 10
2025.397545
 20
457.881704
 30
0.0
 11
2043.397545
 21
457.881704
 31
0.0
  0
LINE
  5
5EA4
100
AcDbEntity
  8
0
100
AcDbLine
 10
2025.397545
 20
582.881704
 30
0.0
 11
2043.397545
 21
582.881704
 31
0.0
  0
LINE
  5
5EA5
100
AcDbEntity
  8
0
100
AcDbLine
 10
1139.190466
 20
763.072468
 30
0.0
 11
1139.190466
 21
713.072468
 31
0.0
  0
LINE
  5
5EA6
100
AcDbEntity
  8
0
100
AcDbLine
 10
1157.190466
 20
763.072468
 30
0.0
 11
1157.190466
 21
663.072468
 31
0.0
  0
LINE
  5
5EA7
100
AcDbEntity
  8
0
100
AcDbLine
 10
1139.190466
 20
663.072468
 30
0.0
 11
1157.190466
 21
663.072468
 31
0.0
  0
LINE
  5
5EA8
100
AcDbEntity
  8
0
100
AcDbLine
 10
1139.190466
 20
713.072468
 30
0.0
 11
1139.190466
 21
663.072468
 31
0.0
  0
LINE
  5
5EAA
100
AcDbEntity
  8
0
100
AcDbLine
 10
1139.190466
 20
763.072468
 30
0.0
 11
1157.190466
 21
763.072468
 31
0.0
  0
LINE
  5
5EAC
100
AcDbEntity
  8
0
100
AcDbLine
 10
1316.190466
 20
763.072468
 30
0.0
 11
1316.190466
 21
663.072468
 31
0.0
  0
LINE
  5
5EAD
100
AcDbEntity
  8
0
100
AcDbLine
 10
1334.190466
 20
763.072468
 30
0.0
 11
1334.190466
 21
713.072468
 31
0.0
  0
LINE
  5
5EAE
100
AcDbEntity
  8
0
100
AcDbLine
 10
1334.190466
 20
713.072468
 30
0.0
 11
1334.190466
 21
663.072468
 31
0.0
  0
LINE
  5
5EAF
100
AcDbEntity
  8
0
100
AcDbLine
 10
1334.190466
 20
663.072468
 30
0.0
 11
1316.190466
 21
663.072468
 31
0.0
  0
LINE
  5
5EB2
100
AcDbEntity
  8
0
100
AcDbLine
 10
1334.190466
 20
763.072468
 30
0.0
 11
1316.190466
 21
763.072468
 31
0.0
  0
LINE
  5
5EB3
100
AcDbEntity
  8
0
100
AcDbLine
 10
1846.397545
 20
650.572468
 30
0.0
 11
1828.397545
 21
650.572468
 31
0.0
  0
LINE
  5
5EB4
100
AcDbEntity
  8
0
100
AcDbLine
 10
1846.397545
 20
775.572468
 30
0.0
 11
1828.397545
 21
775.572468
 31
0.0
  0
LINE
  5
5EB5
100
AcDbEntity
  8
0
100
AcDbLine
 10
1828.397545
 20
775.572468
 30
0.0
 11
1828.397545
 21
713.072468
 31
0.0
  0
LINE
  5
5EB6
100
AcDbEntity
  8
0
100
AcDbLine
 10
1828.397545
 20
713.072468
 30
0.0
 11
1828.397545
 21
650.572468
 31
0.0
  0
LINE
  5
5EB7
100
AcDbEntity
  8
0
100
AcDbLine
 10
1846.397545
 20
775.572468
 30
0.0
 11
1846.397545
 21
650.572468
 31
0.0
  0
LINE
  5
5EB8
100
AcDbEntity
  8
0
100
AcDbLine
 10
2043.397545
 20
775.572468
 30
0.0
 11
2043.397545
 21
713.072468
 31
0.0
  0
LINE
  5
5EB9
100
AcDbEntity
  8
0
100
AcDbLine
 10
2025.397545
 20
775.572468
 30
0.0
 11
2025.397545
 21
650.572468
 31
0.0
  0
LINE
  5
5EBA
100
AcDbEntity
  8
0
100
AcDbLine
 10
2043.397545
 20
713.072468
 30
0.0
 11
2043.397545
 21
650.572468
 31
0.0
  0
LINE
  5
5EBB
100
AcDbEntity
  8
0
100
AcDbLine
 10
2025.397545
 20
650.572468
 30
0.0
 11
2043.397545
 21
650.572468
 31
0.0
  0
LINE
  5
5EBC
100
AcDbEntity
  8
0
100
AcDbLine
 10
2025.397545
 20
775.572468
 30
0.0
 11
2043.397545
 21
775.572468
 31
0.0
  0
TEXT
  5
5EC2
100
AcDbEntity
  8
0
100
AcDbText
 10
1022.815386
 20
897.568394
 30
0.0
 40
28.0
  1
TLV  UFO3BN (PT)
 72
     4
 11
1208.015386
 21
909.568394
 31
0.0
100
AcDbText
  0
ARC
  5
5EC6
100
AcDbEntity
  8
0
100
AcDbCircle
 10
569.822092
 20
1442.19841
 30
0.0
 40
3.541047
100
AcDbArc
 50
57.999406
 51
122.000594
  0
LINE
  5
5EC7
100
AcDbEntity
  8
0
100
AcDbLine
 10
571.809471
 20
1455.392368
 30
0.0
 11
564.136383
 21
1447.71928
 31
0.0
  0
LINE
  5
5EC8
100
AcDbEntity
  8
0
100
AcDbLine
 10
569.141592
 20
1445.892368
 30
0.0
 11
581.759592
 21
1445.892368
 31
0.0
  0
LINE
  5
5EC9
100
AcDbEntity
  8
0
100
AcDbLine
 10
645.234363
 20
1439.392368
 30
0.0
 11
562.234363
 21
1439.392368
 31
0.0
  0
LINE
  5
5ECA
100
AcDbEntity
  8
0
100
AcDbLine
 10
641.234363
 20
1415.392368
 30
0.0
 11
566.234363
 21
1415.392368
 31
0.0
  0
LINE
  5
5ECB
100
AcDbEntity
  8
0
100
AcDbLine
 10
646.734363
 20
1427.392368
 30
0.0
 11
560.734363
 21
1427.392368
 31
0.0
  0
LINE
  5
5ECC
100
AcDbEntity
  8
0
100
AcDbLine
 10
573.012675
 20
1369.142368
 30
0.0
 11
568.456051
 21
1369.142368
 31
0.0
  0
LINE
  5
5ECD
100
AcDbEntity
  8
0
100
AcDbLine
 10
573.012675
 20
1361.523046
 30
0.0
 11
568.456051
 21
1361.523046
 31
0.0
  0
LINE
  5
5ECE
100
AcDbEntity
  8
0
100
AcDbLine
 10
573.012675
 20
1364.853309
 30
0.0
 11
568.456051
 21
1364.853309
 31
0.0
  0
LINE
  5
5ECF
100
AcDbEntity
  8
0
100
AcDbLine
 10
573.012675
 20
1349.931428
 30
0.0
 11
568.456051
 21
1349.931428
 31
0.0
  0
LINE
  5
5ED0
100
AcDbEntity
  8
0
100
AcDbLine
 10
573.012675
 20
1353.26169
 30
0.0
 11
568.456051
 21
1353.26169
 31
0.0
  0
LINE
  5
5ED1
100
AcDbEntity
  8
0
100
AcDbLine
 10
573.012675
 20
1345.642368
 30
0.0
 11
568.456051
 21
1345.642368
 31
0.0
  0
LINE
  5
5ED2
100
AcDbEntity
  8
0
100
AcDbLine
 10
569.337437
 20
1388.618292
 30
0.0
 11
576.335101
 21
1369.392368
 31
0.0
  0
LINE
  5
5ED4
100
AcDbEntity
  8
0
100
AcDbLine
 10
560.734363
 20
1427.392368
 30
0.0
 11
560.734363
 21
1425.892368
 31
0.0
  0
LINE
  5
5ED5
100
AcDbEntity
  8
0
100
AcDbLine
 10
566.234363
 20
1427.392368
 30
0.0
 11
566.234363
 21
1415.392368
 31
0.0
  0
LINE
  5
5ED6
100
AcDbEntity
  8
0
100
AcDbLine
 10
568.456051
 20
1349.931428
 30
0.0
 11
568.456051
 21
1353.26169
 31
0.0
  0
LINE
  5
5ED7
100
AcDbEntity
  8
0
100
AcDbLine
 10
567.734363
 20
1367.892368
 30
0.0
 11
567.734363
 21
1346.892368
 31
0.0
  0
LINE
  5
5ED8
100
AcDbEntity
  8
0
100
AcDbLine
 10
567.734363
 20
1367.892368
 30
0.0
 11
567.734363
 21
1346.892368
 31
0.0
  0
LINE
  5
5ED9
100
AcDbEntity
  8
0
100
AcDbLine
 10
568.456051
 20
1345.642368
 30
0.0
 11
567.734363
 21
1346.892368
 31
0.0
  0
ARC
  5
5EDA
100
AcDbEntity
  8
0
100
AcDbCircle
 10
571.281493
 20
1347.786898
 30
0.0
 40
3.54713
100
AcDbArc
 50
142.801256
 51
202.801256
  0
LINE
  5
5EDB
100
AcDbEntity
  8
0
100
AcDbLine
 10
568.456051
 20
1369.142368
 30
0.0
 11
567.734363
 21
1367.892368
 31
0.0
  0
LINE
  5
5EDC
100
AcDbEntity
  8
0
100
AcDbLine
 10
568.456051
 20
1361.523046
 30
0.0
 11
568.456051
 21
1364.853309
 31
0.0
  0
ARC
  5
5EDD
100
AcDbEntity
  8
0
100
AcDbCircle
 10
571.281493
 20
1366.997838
 30
0.0
 40
3.54713
100
AcDbArc
 50
157.198744
 51
217.198744
  0
ARC
  5
5EDE
100
AcDbEntity
  8
0
100
AcDbCircle
 10
579.916454
 20
1357.392368
 30
0.0
 40
12.182091
100
AcDbArc
 50
160.179294
 51
199.820706
  0
ARC
  5
5EDF
100
AcDbEntity
  8
0
100
AcDbCircle
 10
579.916454
 20
1357.392368
 30
0.0
 40
12.182091
100
AcDbArc
 50
160.179294
 51
199.820706
  0
LINE
  5
5EE0
100
AcDbEntity
  8
0
100
AcDbLine
 10
566.234363
 20
1425.892368
 30
0.0
 11
552.734363
 21
1425.892368
 31
0.0
  0
LINE
  5
5EE1
100
AcDbEntity
  8
0
100
AcDbLine
 10
552.734363
 20
1425.892368
 30
0.0
 11
552.734363
 21
1410.892368
 31
0.0
  0
ARC
  5
5EE2
100
AcDbEntity
  8
0
100
AcDbCircle
 10
566.734363
 20
1393.892368
 30
0.0
 40
2.0
100
AcDbArc
 50
0.0
 51
90.0
  0
LINE
  5
5EE3
100
AcDbEntity
  8
0
100
AcDbLine
 10
566.734363
 20
1395.892368
 30
0.0
 11
552.734363
 21
1395.892368
 31
0.0
  0
ARC
  5
5EE4
100
AcDbEntity
  8
0
100
AcDbCircle
 10
578.734363
 20
1392.038493
 30
0.0
 40
10.0
100
AcDbArc
 50
180.0
 51
200.0
  0
LINE
  5
5EE5
100
AcDbEntity
  8
0
100
AcDbLine
 10
552.734363
 20
1410.892368
 30
0.0
 11
552.734363
 21
1395.892368
 31
0.0
  0
LINE
  5
5EE6
100
AcDbEntity
  8
0
100
AcDbLine
 10
568.734363
 20
1392.038493
 30
0.0
 11
568.734363
 21
1415.392368
 31
0.0
  0
LINE
  5
5EE7
100
AcDbEntity
  8
0
100
AcDbLine
 10
567.944592
 20
1439.392368
 30
0.0
 11
567.944592
 21
1445.201368
 31
0.0
  0
LINE
  5
5EE8
100
AcDbEntity
  8
0
100
AcDbLine
 10
567.944592
 20
1445.201368
 30
0.0
 11
569.141592
 21
1445.892368
 31
0.0
  0
ARC
  5
5EE9
100
AcDbEntity
  8
0
100
AcDbCircle
 10
562.234363
 20
1438.107816
 30
0.0
 40
1.5
100
AcDbArc
 50
160.0
 51
180.0
  0
LINE
  5
5EEA
100
AcDbEntity
  8
0
100
AcDbLine
 10
560.734363
 20
1438.107816
 30
0.0
 11
560.734363
 21
1427.392368
 31
0.0
  0
ARC
  5
5EEB
100
AcDbEntity
  8
0
100
AcDbCircle
 10
562.234363
 20
1437.892368
 30
0.0
 40
1.5
100
AcDbArc
 50
90.0
 51
180.0
  0
LINE
  5
5EEC
100
AcDbEntity
  8
0
100
AcDbLine
 10
566.234363
 20
1439.392368
 30
0.0
 11
566.234363
 21
1427.392368
 31
0.0
  0
LINE
  5
5EED
100
AcDbEntity
  8
0
100
AcDbLine
 10
564.136383
 20
1447.71928
 30
0.0
 11
560.824824
 21
1438.620846
 31
0.0
  0
LINE
  5
5EEE
100
AcDbEntity
  8
0
100
AcDbLine
 10
646.734363
 20
1427.392368
 30
0.0
 11
646.734363
 21
1425.892368
 31
0.0
  0
LINE
  5
5EEF
100
AcDbEntity
  8
0
100
AcDbLine
 10
641.234363
 20
1427.392368
 30
0.0
 11
641.234363
 21
1415.392368
 31
0.0
  0
ARC
  5
5EF0
100
AcDbEntity
  8
0
100
AcDbCircle
 10
628.166397
 20
1355.392368
 30
0.0
 40
10.0
100
AcDbArc
 50
270.0
 51
340.0
  0
LINE
  5
5EF1
100
AcDbEntity
  8
0
100
AcDbLine
 10
573.012675
 20
1349.931428
 30
0.0
 11
573.012675
 21
1353.26169
 31
0.0
  0
LINE
  5
5EF2
100
AcDbEntity
  8
0
100
AcDbLine
 10
573.734363
 20
1369.392368
 30
0.0
 11
573.734363
 21
1345.392368
 31
0.0
  0
LINE
  5
5EF3
100
AcDbEntity
  8
0
100
AcDbLine
 10
573.734363
 20
1367.892368
 30
0.0
 11
573.734363
 21
1346.892368
 31
0.0
  0
LINE
  5
5EF4
100
AcDbEntity
  8
0
100
AcDbLine
 10
628.166397
 20
1345.392368
 30
0.0
 11
573.734363
 21
1345.392368
 31
0.0
  0
LINE
  5
5EF5
100
AcDbEntity
  8
0
100
AcDbLine
 10
573.012675
 20
1345.642368
 30
0.0
 11
573.734363
 21
1346.892368
 31
0.0
  0
ARC
  5
5EF6
100
AcDbEntity
  8
0
100
AcDbCircle
 10
570.187233
 20
1347.786898
 30
0.0
 40
3.54713
100
AcDbArc
 50
337.198744
 51
37.198744
  0
LINE
  5
5EF7
100
AcDbEntity
  8
0
100
AcDbLine
 10
653.069999
 20
1394.576408
 30
0.0
 11
637.563324
 21
1351.972167
 31
0.0
  0
LINE
  5
5EF8
100
AcDbEntity
  8
0
100
AcDbLine
 10
634.631289
 20
1389.235436
 30
0.0
 11
629.803854
 21
1375.972167
 31
0.0
  0
LINE
  5
5EF9
100
AcDbEntity
  8
0
100
AcDbLine
 10
620.406928
 20
1369.392368
 30
0.0
 11
573.734363
 21
1369.392368
 31
0.0
  0
LINE
  5
5EFA
100
AcDbEntity
  8
0
100
AcDbLine
 10
573.012675
 20
1369.142368
 30
0.0
 11
573.734363
 21
1367.892368
 31
0.0
  0
LINE
  5
5EFB
100
AcDbEntity
  8
0
100
AcDbLine
 10
573.012675
 20
1361.523046
 30
0.0
 11
573.012675
 21
1364.853309
 31
0.0
  0
ARC
  5
5EFC
100
AcDbEntity
  8
0
100
AcDbCircle
 10
570.187233
 20
1366.997838
 30
0.0
 40
3.54713
100
AcDbArc
 50
322.801256
 51
22.801256
  0
ARC
  5
5EFD
100
AcDbEntity
  8
0
100
AcDbCircle
 10
561.552272
 20
1357.392368
 30
0.0
 40
12.182091
100
AcDbArc
 50
340.179294
 51
19.820706
  0
ARC
  5
5EFE
100
AcDbEntity
  8
0
100
AcDbCircle
 10
561.552272
 20
1357.392368
 30
0.0
 40
12.182091
100
AcDbArc
 50
340.179294
 51
19.820706
  0
ARC
  5
5EFF
100
AcDbEntity
  8
0
100
AcDbCircle
 10
620.406928
 20
1379.392368
 30
0.0
 40
10.0
100
AcDbArc
 50
270.0
 51
340.0
  0
LINE
  5
5F00
100
AcDbEntity
  8
0
100
AcDbLine
 10
632.221715
 20
1390.892368
 30
0.0
 11
571.120127
 21
1390.892368
 31
0.0
  0
ARC
  5
5F01
100
AcDbEntity
  8
0
100
AcDbCircle
 10
625.234363
 20
1392.655638
 30
0.0
 40
10.0
100
AcDbArc
 50
340.0
 51
0.0
  0
LINE
  5
5F02
100
AcDbEntity
  8
0
100
AcDbLine
 10
635.234363
 20
1392.655638
 30
0.0
 11
635.234363
 21
1415.392368
 31
0.0
  0
LINE
  5
5F03
100
AcDbEntity
  8
0
100
AcDbLine
 10
655.734363
 20
1425.892368
 30
0.0
 11
641.234363
 21
1425.892368
 31
0.0
  0
LINE
  5
5F04
100
AcDbEntity
  8
0
100
AcDbLine
 10
655.734363
 20
1425.892368
 30
0.0
 11
655.734363
 21
1410.892368
 31
0.0
  0
LINE
  5
5F05
100
AcDbEntity
  8
0
100
AcDbLine
 10
655.734363
 20
1395.892368
 30
0.0
 11
654.949385
 21
1395.892368
 31
0.0
  0
ARC
  5
5F06
100
AcDbEntity
  8
0
100
AcDbCircle
 10
654.949385
 20
1393.892368
 30
0.0
 40
2.0
100
AcDbArc
 50
90.0
 51
160.0
  0
LINE
  5
5F07
100
AcDbEntity
  8
0
100
AcDbLine
 10
655.734363
 20
1410.892368
 30
0.0
 11
655.734363
 21
1395.892368
 31
0.0
  0
LINE
  5
5F08
100
AcDbEntity
  8
0
100
AcDbLine
 10
639.524134
 20
1445.019864
 30
0.0
 11
646.157269
 21
1439.842783
 31
0.0
  0
LINE
  5
5F09
100
AcDbEntity
  8
0
100
AcDbLine
 10
626.234363
 20
1455.392368
 30
0.0
 11
571.809471
 21
1455.392368
 31
0.0
  0
LINE
  5
5F0A
100
AcDbEntity
  8
0
100
AcDbLine
 10
579.202592
 20
1445.201368
 30
0.0
 11
579.202592
 21
1439.392368
 31
0.0
  0
LINE
  5
5F0B
100
AcDbEntity
  8
0
100
AcDbLine
 10
582.955592
 20
1445.201368
 30
0.0
 11
582.955592
 21
1439.392368
 31
0.0
  0
ARC
  5
5F0C
100
AcDbEntity
  8
0
100
AcDbCircle
 10
581.079092
 20
1442.19841
 30
0.0
 40
3.541047
100
AcDbArc
 50
57.999406
 51
122.000594
  0
LINE
  5
5F0D
100
AcDbEntity
  8
0
100
AcDbLine
 10
581.759592
 20
1445.892368
 30
0.0
 11
582.955592
 21
1445.201368
 31
0.0
  0
LINE
  5
5F0E
100
AcDbEntity
  8
0
100
AcDbLine
 10
571.698592
 20
1445.201368
 30
0.0
 11
571.698592
 21
1439.392368
 31
0.0
  0
LINE
  5
5F0F
100
AcDbEntity
  8
0
100
AcDbLine
 10
581.234363
 20
1455.392368
 30
0.0
 11
577.968738
 21
1445.892368
 31
0.0
  0
ARC
  5
5F10
100
AcDbEntity
  8
0
100
AcDbCircle
 10
575.450592
 20
1432.386889
 30
0.0
 40
13.352467
100
AcDbArc
 50
73.680297
 51
106.319703
  0
LINE
  5
5F11
100
AcDbEntity
  8
0
100
AcDbLine
 10
638.327134
 20
1445.892368
 30
0.0
 11
625.709134
 21
1445.892368
 31
0.0
  0
LINE
  5
5F12
100
AcDbEntity
  8
0
100
AcDbLine
 10
624.513134
 20
1445.201368
 30
0.0
 11
624.513134
 21
1439.392368
 31
0.0
  0
LINE
  5
5F13
100
AcDbEntity
  8
0
100
AcDbLine
 10
628.266134
 20
1445.201368
 30
0.0
 11
628.266134
 21
1439.392368
 31
0.0
  0
LINE
  5
5F14
100
AcDbEntity
  8
0
100
AcDbLine
 10
639.524134
 20
1439.392368
 30
0.0
 11
639.524134
 21
1445.201368
 31
0.0
  0
LINE
  5
5F15
100
AcDbEntity
  8
0
100
AcDbLine
 10
635.770134
 20
1445.201368
 30
0.0
 11
635.770134
 21
1439.392368
 31
0.0
  0
ARC
  5
5F16
100
AcDbEntity
  8
0
100
AcDbCircle
 10
632.018134
 20
1432.386889
 30
0.0
 40
13.352467
100
AcDbArc
 50
73.680297
 51
106.319703
  0
ARC
  5
5F17
100
AcDbEntity
  8
0
100
AcDbCircle
 10
626.389634
 20
1442.19841
 30
0.0
 40
3.541047
100
AcDbArc
 50
57.999406
 51
122.000594
  0
LINE
  5
5F18
100
AcDbEntity
  8
0
100
AcDbLine
 10
625.709134
 20
1445.892368
 30
0.0
 11
624.513134
 21
1445.201368
 31
0.0
  0
ARC
  5
5F19
100
AcDbEntity
  8
0
100
AcDbCircle
 10
637.646634
 20
1442.19841
 30
0.0
 40
3.541047
100
AcDbArc
 50
57.999406
 51
122.000594
  0
LINE
  5
5F1A
100
AcDbEntity
  8
0
100
AcDbLine
 10
639.524134
 20
1445.201368
 30
0.0
 11
638.327134
 21
1445.892368
 31
0.0
  0
LINE
  5
5F1B
100
AcDbEntity
  8
0
100
AcDbLine
 10
626.234363
 20
1455.392368
 30
0.0
 11
638.630954
 21
1445.71698
 31
0.0
  0
LINE
  5
5F1C
100
AcDbEntity
  8
0
100
AcDbLine
 10
626.234363
 20
1455.392368
 30
0.0
 11
629.499988
 21
1445.892368
 31
0.0
  0
LINE
  5
5F1D
100
AcDbEntity
  8
0
100
AcDbLine
 10
646.734363
 20
1438.660309
 30
0.0
 11
646.734363
 21
1427.392368
 31
0.0
  0
ARC
  5
5F1E
100
AcDbEntity
  8
0
100
AcDbCircle
 10
645.234363
 20
1437.892368
 30
0.0
 40
1.5
100
AcDbArc
 50
0.0
 51
90.0
  0
ARC
  5
5F1F
100
AcDbEntity
  8
0
100
AcDbCircle
 10
645.234363
 20
1438.660309
 30
0.0
 40
1.5
100
AcDbArc
 50
0.0
 51
52.028396
  0
LINE
  5
5F20
100
AcDbEntity
  8
0
100
AcDbLine
 10
641.234363
 20
1439.392368
 30
0.0
 11
641.234363
 21
1427.392368
 31
0.0
  0
LINE
  5
5F23
100
AcDbEntity
  8
0
100
AcDbLine
 10
1013.624387
 20
284.875909
 30
0.0
 11
997.96002
 21
284.875909
 31
0.0
  0
ARC
  5
5F24
100
AcDbEntity
  8
0
100
AcDbCircle
 10
999.587396
 20
271.303921
 30
0.0
 40
2.0
100
AcDbArc
 50
204.146108
 51
270.0
  0
LINE
  5
5F25
100
AcDbEntity
  8
0
100
AcDbLine
 10
993.792204
 20
279.342117
 30
0.0
 11
993.411066
 21
296.132494
 31
0.0
  0
LINE
  5
5F27
100
AcDbEntity
  8
0
100
AcDbLine
 10
997.762386
 20
270.485791
 30
0.0
 11
993.792204
 21
279.342117
 31
0.0
  0
ARC
  5
5F29
100
AcDbEntity
  8
0
100
AcDbCircle
 10
991.572325
 20
289.005804
 30
0.0
 40
2.0
100
AcDbArc
 50
1.300377
 51
90.0
  0
LINE
  5
5F2A
100
AcDbEntity
  8
0
100
AcDbLine
 10
989.627569
 20
291.005804
 30
0.0
 11
991.572325
 21
291.005804
 31
0.0
  0
ARC
  5
5F2B
100
AcDbEntity
  8
0
100
AcDbCircle
 10
989.627569
 20
301.005804
 30
0.0
 40
10.0
100
AcDbArc
 50
200.0
 51
270.0
  0
LINE
  5
5F2C
100
AcDbEntity
  8
0
100
AcDbLine
 10
1017.792204
 20
279.342117
 30
0.0
 11
1018.173341
 21
296.132494
 31
0.0
  0
LINE
  5
5F2E
100
AcDbEntity
  8
0
100
AcDbLine
 10
1013.822022
 20
270.485791
 30
0.0
 11
1017.792204
 21
279.342117
 31
0.0
  0
ARC
  5
5F30
100
AcDbEntity
  8
0
100
AcDbCircle
 10
1011.997011
 20
271.303921
 30
0.0
 40
2.0
100
AcDbArc
 50
270.0
 51
335.853892
  0
POLYLINE
  5
5F31
100
AcDbEntity
  8
0
100
AcDb2dPolyline
 66
     1
 10
0.0
 20
0.0
 30
0.0
  0
VERTEX
  5
63F8
100
AcDbEntity
  8
0
100
AcDbVertex
100
AcDb2dVertex
 10
1004.039971
 20
268.229413
 30
0.0
  0
VERTEX
  5
63F9
100
AcDbEntity
  8
0
100
AcDbVertex
100
AcDb2dVertex
 10
1002.178868
 20
269.303921
 30
0.0
  0
SEQEND
  5
63FA
100
AcDbEntity
  8
0
  0
ARC
  5
5F32
100
AcDbEntity
  8
0
100
AcDbCircle
 10
1005.792204
 20
279.342117
 30
0.0
 40
11.25
100
AcDbArc
 50
261.03947
 51
278.96053
  0
LINE
  5
5F33
100
AcDbEntity
  8
0
100
AcDbLine
 10
1011.997011
 20
269.303921
 30
0.0
 11
999.587396
 21
269.303921
 31
0.0
  0
POLYLINE
  5
5F34
100
AcDbEntity
  8
0
100
AcDb2dPolyline
 66
     1
 10
0.0
 20
0.0
 30
0.0
  0
VERTEX
  5
63FB
100
AcDbEntity
  8
0
100
AcDbVertex
100
AcDb2dVertex
 10
1009.405539
 20
269.303921
 30
0.0
  0
VERTEX
  5
63FC
100
AcDbEntity
  8
0
100
AcDbVertex
100
AcDb2dVertex
 10
1007.544436
 20
268.229413
 30
0.0
  0
SEQEND
  5
63FD
100
AcDbEntity
  8
0
  0
LINE
  5
5F35
100
AcDbEntity
  8
0
100
AcDbLine
 10
1021.956838
 20
291.005804
 30
0.0
 11
1020.012082
 21
291.005804
 31
0.0
  0
ARC
  5
5F36
100
AcDbEntity
  8
0
100
AcDbCircle
 10
1020.012082
 20
289.005804
 30
0.0
 40
2.0
100
AcDbArc
 50
90.0
 51
178.699623
  0
ARC
  5
5F37
100
AcDbEntity
  8
0
100
AcDbCircle
 10
1021.956838
 20
301.005804
 30
0.0
 40
10.0
100
AcDbArc
 50
270.0
 51
340.0
  0
LINE
  5
5F38
100
AcDbEntity
  8
0
100
AcDbLine
 10
1033.247062
 20
302.787395
 30
0.0
 11
1031.353764
 21
297.585603
 31
0.0
  0
LINE
  5
5F39
100
AcDbEntity
  8
0
100
AcDbLine
 10
978.337345
 20
302.787395
 30
0.0
 11
980.230643
 21
297.585603
 31
0.0
  0
ARC
  5
5F42
100
AcDbEntity
  8
0
100
AcDbCircle
 10
1436.576256
 20
279.342117
 30
0.0
 40
11.25
100
AcDbArc
 50
261.03947
 51
278.96053
  0
ARC
  5
5F48
100
AcDbEntity
  8
0
100
AcDbCircle
 10
1420.411622
 20
301.005804
 30
0.0
 40
10.0
100
AcDbArc
 50
200.0
 51
270.0
  0
CIRCLE
  5
5F49
100
AcDbEntity
  8
0
100
AcDbCircle
 10
1436.576256
 20
344.575321
 30
0.0
 40
50.0
  0
CIRCLE
  5
5F4A
100
AcDbEntity
  8
0
100
AcDbCircle
 10
1410.076256
 20
318.042322
 30
0.0
 40
7.5
  0
CIRCLE
  5
5F4B
100
AcDbEntity
  8
0
100
AcDbCircle
 10
1410.076256
 20
371.108319
 30
0.0
 40
7.5
  0
LINE
  5
5F4D
100
AcDbEntity
  8
0
100
AcDbLine
 10
1464.031114
 20
302.787395
 30
0.0
 11
1462.137817
 21
297.585603
 31
0.0
  0
CIRCLE
  5
5F4E
100
AcDbEntity
  8
0
100
AcDbCircle
 10
1463.076256
 20
318.042322
 30
0.0
 40
7.5
  0
ARC
  5
5F50
100
AcDbEntity
  8
0
100
AcDbCircle
 10
1452.740891
 20
301.005804
 30
0.0
 40
10.0
100
AcDbArc
 50
270.0
 51
340.0
  0
LINE
  5
5F51
100
AcDbEntity
  8
0
100
AcDbLine
 10
1452.740891
 20
291.005804
 30
0.0
 11
1450.576256
 21
291.005804
 31
0.0
  0
LINE
  5
5F54
100
AcDbEntity
  8
0
100
AcDbLine
 10
1420.411622
 20
291.005804
 30
0.0
 11
1422.576256
 21
291.005804
 31
0.0
  0
CIRCLE
  5
5F55
100
AcDbEntity
  8
0
100
AcDbCircle
 10
1463.076256
 20
371.108319
 30
0.0
 40
7.5
  0
LINE
  5
5F56
100
AcDbEntity
  8
0
100
AcDbLine
 10
1409.121398
 20
302.787395
 30
0.0
 11
1411.014695
 21
297.585603
 31
0.0
  0
ARC
  5
5F6E
100
AcDbEntity
  8
0
100
AcDbCircle
 10
1422.576256
 20
289.005804
 30
0.0
 40
2.0
100
AcDbArc
 50
0.0
 51
90.0
  0
ARC
  5
5F6F
100
AcDbEntity
  8
0
100
AcDbCircle
 10
1450.576256
 20
289.005804
 30
0.0
 40
2.0
100
AcDbArc
 50
90.0
 51
180.0
  0
LINE
  5
5F73
100
AcDbEntity
  8
0
100
AcDbLine
 10
1685.671991
 20
271.803921
 30
0.0
 11
1673.262377
 21
271.803921
 31
0.0
  0
LINE
  5
5F75
100
AcDbEntity
  8
0
100
AcDbLine
 10
1671.437366
 20
272.985791
 30
0.0
 11
1667.467184
 21
281.842117
 31
0.0
  0
ARC
  5
5F77
100
AcDbEntity
  8
0
100
AcDbCircle
 10
1673.262377
 20
273.803921
 30
0.0
 40
2.0
100
AcDbArc
 50
204.146108
 51
270.0
  0
POLYLINE
  5
5F78
100
AcDbEntity
  8
0
100
AcDb2dPolyline
 66
     1
 10
0.0
 20
0.0
 30
0.0
  0
VERTEX
  5
63FE
100
AcDbEntity
  8
0
100
AcDbVertex
100
AcDb2dVertex
 10
1683.080519
 20
271.803921
 30
0.0
  0
VERTEX
  5
63FF
100
AcDbEntity
  8
0
100
AcDbVertex
100
AcDb2dVertex
 10
1681.219417
 20
270.729413
 30
0.0
  0
SEQEND
  5
6400
100
AcDbEntity
  8
0
  0
ARC
  5
5F79
100
AcDbEntity
  8
0
100
AcDbCircle
 10
1679.467184
 20
281.842117
 30
0.0
 40
11.25
100
AcDbArc
 50
261.03947
 51
278.96053
  0
POLYLINE
  5
5F7A
100
AcDbEntity
  8
0
100
AcDb2dPolyline
 66
     1
 10
0.0
 20
0.0
 30
0.0
  0
VERTEX
  5
6401
100
AcDbEntity
  8
0
100
AcDbVertex
100
AcDb2dVertex
 10
1677.714951
 20
270.729413
 30
0.0
  0
VERTEX
  5
6402
100
AcDbEntity
  8
0
100
AcDbVertex
100
AcDb2dVertex
 10
1675.853849
 20
271.803921
 30
0.0
  0
SEQEND
  5
6403
100
AcDbEntity
  8
0
  0
ARC
  5
5F7B
100
AcDbEntity
  8
0
100
AcDbCircle
 10
1685.671991
 20
273.803921
 30
0.0
 40
2.0
100
AcDbArc
 50
270.0
 51
335.853892
  0
LINE
  5
5F7D
100
AcDbEntity
  8
0
100
AcDbLine
 10
1687.497002
 20
272.985791
 30
0.0
 11
1691.467184
 21
281.842117
 31
0.0
  0
LINE
  5
5F8A
100
AcDbEntity
  8
0
100
AcDbLine
 10
1667.467184
 20
281.842117
 30
0.0
 11
1667.317155
 21
283.26768
 31
0.0
  0
LINE
  5
5F8B
100
AcDbEntity
  8
0
100
AcDbLine
 10
1691.467184
 20
281.842117
 30
0.0
 11
1691.617213
 21
283.26768
 31
0.0
  0
CIRCLE
  5
5F8C
100
AcDbEntity
  8
0
100
AcDbCircle
 10
2155.315434
 20
344.575321
 30
0.0
 40
62.5
  0
ARC
  5
5F93
100
AcDbEntity
  8
0
100
AcDbCircle
 10
2155.315434
 20
281.842117
 30
0.0
 40
11.25
100
AcDbArc
 50
261.03947
 51
278.96053
  0
CIRCLE
  5
5F9B
100
AcDbEntity
  8
0
100
AcDbCircle
 10
2123.515434
 20
312.735723
 30
0.0
 40
9.5
  0
CIRCLE
  5
5F9C
100
AcDbEntity
  8
0
100
AcDbCircle
 10
2123.515434
 20
376.414919
 30
0.0
 40
9.5
  0
CIRCLE
  5
5F9E
100
AcDbEntity
  8
0
100
AcDbCircle
 10
2187.115434
 20
312.735723
 30
0.0
 40
9.5
  0
CIRCLE
  5
5F9F
100
AcDbEntity
  8
0
100
AcDbCircle
 10
2187.115434
 20
376.414919
 30
0.0
 40
9.5
  0
INSERT
  5
5FB4
100
AcDbEntity
  8
0
100
AcDbBlockReference
  2
YA
 10
1123.182216
 20
520.381704
 30
0.0
 41
2.284817
 42
2.284817
 43
2.284817
  0
INSERT
  5
5FB6
100
AcDbEntity
  8
0
100
AcDbBlockReference
  2
YA
 10
1350.190466
 20
713.072468
 30
0.0
 41
-2.284817
 42
2.284817
 43
2.284817
  0
INSERT
  5
5FB7
100
AcDbEntity
  8
0
100
AcDbBlockReference
  2
YA
 10
505.938559
 20
520.381704
 30
0.0
 41
2.284817
 42
2.284817
 43
2.284817
  0
INSERT
  5
5FB8
100
AcDbEntity
  8
0
100
AcDbBlockReference
  2
YA
 10
505.938559
 20
344.575321
 30
0.0
 41
2.284817
 42
2.284817
 43
2.284817
  0
INSERT
  5
5FB9
100
AcDbEntity
  8
0
100
AcDbBlockReference
  2
YA
 10
1812.389295
 20
520.381704
 30
0.0
 41
2.284817
 42
2.284817
 43
2.284817
  0
INSERT
  5
5FBA
100
AcDbEntity
  8
0
100
AcDbBlockReference
  2
YA
 10
1812.389295
 20
344.575321
 30
0.0
 41
2.284817
 42
2.284817
 43
2.284817
  0
INSERT
  5
5FBB
100
AcDbEntity
  8
0
100
AcDbBlockReference
  2
YA
 10
712.946809
 20
713.072468
 30
0.0
 41
-2.284817
 42
2.284817
 43
2.284817
  0
INSERT
  5
5FBC
100
AcDbEntity
  8
0
100
AcDbBlockReference
  2
YA
 10
2059.397545
 20
713.072468
 30
0.0
 41
-2.284817
 42
2.284817
 43
2.284817
  0
LINE
  5
5FBF
100
AcDbEntity
  8
0
100
AcDbLine
 10
1957.397545
 20
1462.392368
 30
0.0
 11
1960.66317
 21
1452.892368
 31
0.0
  0
LINE
  5
5FC0
100
AcDbEntity
  8
0
100
AcDbLine
 10
1902.972653
 20
1462.392368
 30
0.0
 11
1895.299565
 21
1454.71928
 31
0.0
  0
LINE
  5
5FC1
100
AcDbEntity
  8
0
100
AcDbLine
 10
1912.397545
 20
1462.392368
 30
0.0
 11
1909.13192
 21
1452.892368
 31
0.0
  0
LINE
  5
5FC2
100
AcDbEntity
  8
0
100
AcDbLine
 10
1957.397545
 20
1462.392368
 30
0.0
 11
1969.794136
 21
1452.71698
 31
0.0
  0
ARC
  5
5FC3
100
AcDbEntity
  8
0
100
AcDbCircle
 10
1963.181316
 20
1439.386889
 30
0.0
 40
13.352467
100
AcDbArc
 50
73.680297
 51
106.319703
  0
LINE
  5
5FC4
100
AcDbEntity
  8
0
100
AcDbLine
 10
1969.490316
 20
1452.892368
 30
0.0
 11
1956.872316
 21
1452.892368
 31
0.0
  0
LINE
  5
5FC5
100
AcDbEntity
  8
0
100
AcDbLine
 10
1976.397545
 20
1446.392368
 30
0.0
 11
1893.397545
 21
1446.392368
 31
0.0
  0
LINE
  5
5FC6
100
AcDbEntity
  8
0
100
AcDbLine
 10
1977.897545
 20
1434.392368
 30
0.0
 11
1891.897545
 21
1434.392368
 31
0.0
  0
LINE
  5
5FC7
100
AcDbEntity
  8
0
100
AcDbLine
 10
1972.397545
 20
1422.392368
 30
0.0
 11
1897.397545
 21
1422.392368
 31
0.0
  0
LINE
  5
5FC8
100
AcDbEntity
  8
0
100
AcDbLine
 10
1965.794471
 20
1396.235436
 30
0.0
 11
1960.967036
 21
1382.972167
 31
0.0
  0
ARC
  5
5FC9
100
AcDbEntity
  8
0
100
AcDbCircle
 10
1959.329579
 20
1362.392368
 30
0.0
 40
10.0
100
AcDbArc
 50
270.0
 51
340.0
  0
ARC
  5
5FCB
100
AcDbEntity
  8
0
100
AcDbCircle
 10
1951.57011
 20
1386.392368
 30
0.0
 40
10.0
100
AcDbArc
 50
270.0
 51
340.0
  0
LINE
  5
5FCC
100
AcDbEntity
  8
0
100
AcDbLine
 10
1900.500619
 20
1395.618292
 30
0.0
 11
1907.498283
 21
1376.392368
 31
0.0
  0
LINE
  5
5FCD
100
AcDbEntity
  8
0
100
AcDbLine
 10
1951.57011
 20
1376.392368
 30
0.0
 11
1904.897545
 21
1376.392368
 31
0.0
  0
LINE
  5
5FCE
100
AcDbEntity
  8
0
100
AcDbLine
 10
1959.329579
 20
1352.392368
 30
0.0
 11
1904.897545
 21
1352.392368
 31
0.0
  0
LINE
  5
5FCF
100
AcDbEntity
  8
0
100
AcDbLine
 10
1904.175857
 20
1376.142368
 30
0.0
 11
1899.619233
 21
1376.142368
 31
0.0
  0
LINE
  5
5FD0
100
AcDbEntity
  8
0
100
AcDbLine
 10
1904.175857
 20
1376.142368
 30
0.0
 11
1904.897545
 21
1374.892368
 31
0.0
  0
LINE
  5
5FD1
100
AcDbEntity
  8
0
100
AcDbLine
 10
1899.619233
 20
1376.142368
 30
0.0
 11
1898.897545
 21
1374.892368
 31
0.0
  0
LINE
  5
5FD2
100
AcDbEntity
  8
0
100
AcDbLine
 10
1904.175857
 20
1368.523046
 30
0.0
 11
1904.175857
 21
1371.853309
 31
0.0
  0
LINE
  5
5FD3
100
AcDbEntity
  8
0
100
AcDbLine
 10
1899.619233
 20
1368.523046
 30
0.0
 11
1899.619233
 21
1371.853309
 31
0.0
  0
LINE
  5
5FD4
100
AcDbEntity
  8
0
100
AcDbLine
 10
1904.175857
 20
1368.523046
 30
0.0
 11
1899.619233
 21
1368.523046
 31
0.0
  0
LINE
  5
5FD5
100
AcDbEntity
  8
0
100
AcDbLine
 10
1904.175857
 20
1371.853309
 30
0.0
 11
1899.619233
 21
1371.853309
 31
0.0
  0
LINE
  5
5FD6
100
AcDbEntity
  8
0
100
AcDbLine
 10
1904.175857
 20
1356.931428
 30
0.0
 11
1899.619233
 21
1356.931428
 31
0.0
  0
LINE
  5
5FD7
100
AcDbEntity
  8
0
100
AcDbLine
 10
1904.175857
 20
1360.26169
 30
0.0
 11
1899.619233
 21
1360.26169
 31
0.0
  0
LINE
  5
5FD8
100
AcDbEntity
  8
0
100
AcDbLine
 10
1904.175857
 20
1356.931428
 30
0.0
 11
1904.175857
 21
1360.26169
 31
0.0
  0
LINE
  5
5FD9
100
AcDbEntity
  8
0
100
AcDbLine
 10
1899.619233
 20
1356.931428
 30
0.0
 11
1899.619233
 21
1360.26169
 31
0.0
  0
ARC
  5
5FDA
100
AcDbEntity
  8
0
100
AcDbCircle
 10
1892.715454
 20
1364.392368
 30
0.0
 40
12.182091
100
AcDbArc
 50
340.179294
 51
19.820706
  0
ARC
  5
5FDB
100
AcDbEntity
  8
0
100
AcDbCircle
 10
1892.715454
 20
1364.392368
 30
0.0
 40
12.182091
100
AcDbArc
 50
340.179294
 51
19.820706
  0
ARC
  5
5FDC
100
AcDbEntity
  8
0
100
AcDbCircle
 10
1911.079636
 20
1364.392368
 30
0.0
 40
12.182091
100
AcDbArc
 50
160.179294
 51
199.820706
  0
ARC
  5
5FDD
100
AcDbEntity
  8
0
100
AcDbCircle
 10
1911.079636
 20
1364.392368
 30
0.0
 40
12.182091
100
AcDbArc
 50
160.179294
 51
199.820706
  0
LINE
  5
5FDE
100
AcDbEntity
  8
0
100
AcDbLine
 10
1904.175857
 20
1352.642368
 30
0.0
 11
1904.897545
 21
1353.892368
 31
0.0
  0
LINE
  5
5FDF
100
AcDbEntity
  8
0
100
AcDbLine
 10
1899.619233
 20
1352.642368
 30
0.0
 11
1898.897545
 21
1353.892368
 31
0.0
  0
LINE
  5
5FE0
100
AcDbEntity
  8
0
100
AcDbLine
 10
1904.175857
 20
1352.642368
 30
0.0
 11
1899.619233
 21
1352.642368
 31
0.0
  0
ARC
  5
5FE1
100
AcDbEntity
  8
0
100
AcDbCircle
 10
1901.350415
 20
1354.786898
 30
0.0
 40
3.54713
100
AcDbArc
 50
337.198744
 51
37.198744
  0
ARC
  5
5FE2
100
AcDbEntity
  8
0
100
AcDbCircle
 10
1902.444675
 20
1354.786898
 30
0.0
 40
3.54713
100
AcDbArc
 50
142.801256
 51
202.801256
  0
ARC
  5
5FE3
100
AcDbEntity
  8
0
100
AcDbCircle
 10
1901.350415
 20
1373.997838
 30
0.0
 40
3.54713
100
AcDbArc
 50
322.801256
 51
22.801256
  0
ARC
  5
5FE4
100
AcDbEntity
  8
0
100
AcDbCircle
 10
1902.444675
 20
1373.997838
 30
0.0
 40
3.54713
100
AcDbArc
 50
157.198744
 51
217.198744
  0
LINE
  5
5FE5
100
AcDbEntity
  8
0
100
AcDbLine
 10
1904.897545
 20
1376.392368
 30
0.0
 11
1904.897545
 21
1352.392368
 31
0.0
  0
LINE
  5
5FE6
100
AcDbEntity
  8
0
100
AcDbLine
 10
1898.897545
 20
1374.892368
 30
0.0
 11
1898.897545
 21
1353.892368
 31
0.0
  0
LINE
  5
5FE7
100
AcDbEntity
  8
0
100
AcDbLine
 10
1898.897545
 20
1374.892368
 30
0.0
 11
1898.897545
 21
1353.892368
 31
0.0
  0
LINE
  5
5FE8
100
AcDbEntity
  8
0
100
AcDbLine
 10
1904.897545
 20
1374.892368
 30
0.0
 11
1904.897545
 21
1353.892368
 31
0.0
  0
LINE
  5
5FE9
100
AcDbEntity
  8
0
100
AcDbLine
 10
1895.299565
 20
1454.71928
 30
0.0
 11
1891.988006
 21
1445.620846
 31
0.0
  0
LINE
  5
5FEA
100
AcDbEntity
  8
0
100
AcDbLine
 10
1897.397545
 20
1432.892368
 30
0.0
 11
1879.397545
 21
1432.892368
 31
0.0
  0
LINE
  5
5FEB
100
AcDbEntity
  8
0
100
AcDbLine
 10
1902.948655
 20
1388.892368
 30
0.0
 11
1879.397545
 21
1388.892368
 31
0.0
  0
LINE
  5
5FEC
100
AcDbEntity
  8
0
100
AcDbLine
 10
1879.397545
 20
1410.892368
 30
0.0
 11
1879.397545
 21
1432.892368
 31
0.0
  0
LINE
  5
5FED
100
AcDbEntity
  8
0
100
AcDbLine
 10
1879.397545
 20
1388.892368
 30
0.0
 11
1879.397545
 21
1410.892368
 31
0.0
  0
ARC
  5
5FEE
100
AcDbEntity
  8
0
100
AcDbCircle
 10
1893.397545
 20
1444.892368
 30
0.0
 40
1.5
100
AcDbArc
 50
90.0
 51
180.0
  0
ARC
  5
5FEF
100
AcDbEntity
  8
0
100
AcDbCircle
 10
1893.397545
 20
1445.107816
 30
0.0
 40
1.5
100
AcDbArc
 50
160.0
 51
180.0
  0
LINE
  5
5FF0
100
AcDbEntity
  8
0
100
AcDbLine
 10
1891.897545
 20
1434.392368
 30
0.0
 11
1891.897545
 21
1432.892368
 31
0.0
  0
LINE
  5
5FF1
100
AcDbEntity
  8
0
100
AcDbLine
 10
1891.897545
 20
1445.107816
 30
0.0
 11
1891.897545
 21
1434.392368
 31
0.0
  0
LINE
  5
5FF2
100
AcDbEntity
  8
0
100
AcDbLine
 10
1899.897545
 20
1399.038493
 30
0.0
 11
1899.897545
 21
1422.392368
 31
0.0
  0
LINE
  5
5FF3
100
AcDbEntity
  8
0
100
AcDbLine
 10
1963.384897
 20
1397.892368
 30
0.0
 11
1902.283309
 21
1397.892368
 31
0.0
  0
ARC
  5
5FF4
100
AcDbEntity
  8
0
100
AcDbCircle
 10
1909.897545
 20
1399.038493
 30
0.0
 40
10.0
100
AcDbArc
 50
180.0
 51
200.0
  0
LINE
  5
5FF5
100
AcDbEntity
  8
0
100
AcDbLine
 10
1914.118774
 20
1452.201368
 30
0.0
 11
1914.118774
 21
1446.392368
 31
0.0
  0
LINE
  5
5FF6
100
AcDbEntity
  8
0
100
AcDbLine
 10
1900.304774
 20
1452.892368
 30
0.0
 11
1912.922774
 21
1452.892368
 31
0.0
  0
ARC
  5
5FF7
100
AcDbEntity
  8
0
100
AcDbCircle
 10
1906.613774
 20
1439.386889
 30
0.0
 40
13.352467
100
AcDbArc
 50
73.680297
 51
106.319703
  0
LINE
  5
5FF8
100
AcDbEntity
  8
0
100
AcDbLine
 10
1910.365774
 20
1452.201368
 30
0.0
 11
1910.365774
 21
1446.392368
 31
0.0
  0
LINE
  5
5FF9
100
AcDbEntity
  8
0
100
AcDbLine
 10
1902.861774
 20
1452.201368
 30
0.0
 11
1902.861774
 21
1446.392368
 31
0.0
  0
LINE
  5
5FFA
100
AcDbEntity
  8
0
100
AcDbLine
 10
1899.107774
 20
1446.392368
 30
0.0
 11
1899.107774
 21
1452.201368
 31
0.0
  0
ARC
  5
5FFB
100
AcDbEntity
  8
0
100
AcDbCircle
 10
1900.985274
 20
1449.19841
 30
0.0
 40
3.541047
100
AcDbArc
 50
57.999406
 51
122.000594
  0
LINE
  5
5FFC
100
AcDbEntity
  8
0
100
AcDbLine
 10
1899.107774
 20
1452.201368
 30
0.0
 11
1900.304774
 21
1452.892368
 31
0.0
  0
ARC
  5
5FFD
100
AcDbEntity
  8
0
100
AcDbCircle
 10
1912.242274
 20
1449.19841
 30
0.0
 40
3.541047
100
AcDbArc
 50
57.999406
 51
122.000594
  0
LINE
  5
5FFE
100
AcDbEntity
  8
0
100
AcDbLine
 10
1912.922774
 20
1452.892368
 30
0.0
 11
1914.118774
 21
1452.201368
 31
0.0
  0
LINE
  5
5FFF
100
AcDbEntity
  8
0
100
AcDbLine
 10
1897.397545
 20
1434.392368
 30
0.0
 11
1897.397545
 21
1422.392368
 31
0.0
  0
LINE
  5
6000
100
AcDbEntity
  8
0
100
AcDbLine
 10
1897.397545
 20
1446.392368
 30
0.0
 11
1897.397545
 21
1434.392368
 31
0.0
  0
LINE
  5
6001
100
AcDbEntity
  8
0
100
AcDbLine
 10
1959.429316
 20
1452.201368
 30
0.0
 11
1959.429316
 21
1446.392368
 31
0.0
  0
LINE
  5
6002
100
AcDbEntity
  8
0
100
AcDbLine
 10
1955.676316
 20
1452.201368
 30
0.0
 11
1955.676316
 21
1446.392368
 31
0.0
  0
LINE
  5
6003
100
AcDbEntity
  8
0
100
AcDbLine
 10
1956.872316
 20
1452.892368
 30
0.0
 11
1955.676316
 21
1452.201368
 31
0.0
  0
ARC
  5
6004
100
AcDbEntity
  8
0
100
AcDbCircle
 10
1957.552816
 20
1449.19841
 30
0.0
 40
3.541047
100
AcDbArc
 50
57.999406
 51
122.000594
  0
LINE
  5
6005
100
AcDbEntity
  8
0
100
AcDbLine
 10
1979.137598
 20
1387.576408
 30
0.0
 11
1968.726506
 21
1358.972167
 31
0.0
  0
LINE
  5
6006
100
AcDbEntity
  8
0
100
AcDbLine
 10
1991.397545
 20
1410.892368
 30
0.0
 11
1991.397545
 21
1432.892368
 31
0.0
  0
LINE
  5
6007
100
AcDbEntity
  8
0
100
AcDbLine
 10
1966.397545
 20
1399.655638
 30
0.0
 11
1966.397545
 21
1422.392368
 31
0.0
  0
ARC
  5
6008
100
AcDbEntity
  8
0
100
AcDbCircle
 10
1956.397545
 20
1399.655638
 30
0.0
 40
10.0
100
AcDbArc
 50
340.0
 51
0.0
  0
LINE
  5
6009
100
AcDbEntity
  8
0
100
AcDbLine
 10
1991.397545
 20
1388.892368
 30
0.0
 11
1981.016983
 21
1388.892368
 31
0.0
  0
ARC
  5
600A
100
AcDbEntity
  8
0
100
AcDbCircle
 10
1981.016983
 20
1386.892368
 30
0.0
 40
2.0
100
AcDbArc
 50
90.0
 51
160.0
  0
LINE
  5
600B
100
AcDbEntity
  8
0
100
AcDbLine
 10
1991.397545
 20
1388.892368
 30
0.0
 11
1991.397545
 21
1410.892368
 31
0.0
  0
LINE
  5
600C
100
AcDbEntity
  8
0
100
AcDbLine
 10
1970.687316
 20
1452.019864
 30
0.0
 11
1977.320451
 21
1446.842783
 31
0.0
  0
ARC
  5
600D
100
AcDbEntity
  8
0
100
AcDbCircle
 10
1976.397545
 20
1445.660309
 30
0.0
 40
1.5
100
AcDbArc
 50
0.0
 51
52.028396
  0
ARC
  5
600E
100
AcDbEntity
  8
0
100
AcDbCircle
 10
1976.397545
 20
1444.892368
 30
0.0
 40
1.5
100
AcDbArc
 50
0.0
 51
90.0
  0
LINE
  5
600F
100
AcDbEntity
  8
0
100
AcDbLine
 10
1970.687316
 20
1446.392368
 30
0.0
 11
1970.687316
 21
1452.201368
 31
0.0
  0
LINE
  5
6010
100
AcDbEntity
  8
0
100
AcDbLine
 10
1966.933316
 20
1452.201368
 30
0.0
 11
1966.933316
 21
1446.392368
 31
0.0
  0
ARC
  5
6011
100
AcDbEntity
  8
0
100
AcDbCircle
 10
1968.809816
 20
1449.19841
 30
0.0
 40
3.541047
100
AcDbArc
 50
57.999406
 51
122.000594
  0
LINE
  5
6012
100
AcDbEntity
  8
0
100
AcDbLine
 10
1970.687316
 20
1452.201368
 30
0.0
 11
1969.490316
 21
1452.892368
 31
0.0
  0
LINE
  5
6013
100
AcDbEntity
  8
0
100
AcDbLine
 10
1977.897545
 20
1434.392368
 30
0.0
 11
1977.897545
 21
1432.892368
 31
0.0
  0
LINE
  5
6014
100
AcDbEntity
  8
0
100
AcDbLine
 10
1972.397545
 20
1434.392368
 30
0.0
 11
1972.397545
 21
1422.392368
 31
0.0
  0
LINE
  5
6015
100
AcDbEntity
  8
0
100
AcDbLine
 10
1991.397545
 20
1432.892368
 30
0.0
 11
1972.397545
 21
1432.892368
 31
0.0
  0
LINE
  5
6016
100
AcDbEntity
  8
0
100
AcDbLine
 10
1977.897545
 20
1445.660309
 30
0.0
 11
1977.897545
 21
1434.392368
 31
0.0
  0
LINE
  5
6017
100
AcDbEntity
  8
0
100
AcDbLine
 10
1972.397545
 20
1446.392368
 30
0.0
 11
1972.397545
 21
1434.392368
 31
0.0
  0
LINE
  5
6018
100
AcDbEntity
  8
0
100
AcDbLine
 10
1957.397545
 20
1462.392368
 30
0.0
 11
1902.972653
 21
1462.392368
 31
0.0
  0
ARC
  5
6019
100
AcDbEntity
  8
0
100
AcDbCircle
 10
1964.181816
 20
1268.98885
 30
0.0
 40
9.215729
100
AcDbArc
 50
0.0
 51
90.0
  0
LINE
  5
601A
100
AcDbEntity
  8
0
100
AcDbLine
 10
1964.181816
 20
1276.49485
 30
0.0
 11
1970.681816
 21
1272.74185
 31
0.0
  0
LINE
  5
601B
100
AcDbEntity
  8
0
100
AcDbLine
 10
1954.605832
 20
1253.204579
 30
0.0
 11
1971.897545
 21
1253.204579
 31
0.0
  0
CIRCLE
  5
601C
100
AcDbEntity
  8
0
100
AcDbCircle
 10
1964.181816
 20
1268.98885
 30
0.0
 40
6.30876
  0
LINE
  5
601D
100
AcDbEntity
  8
0
100
AcDbLine
 10
1970.681816
 20
1265.23585
 30
0.0
 11
1964.181816
 21
1261.48285
 31
0.0
  0
LINE
  5
601E
100
AcDbEntity
  8
0
100
AcDbLine
 10
1960.428816
 20
1218.920308
 30
0.0
 11
1967.934816
 21
1218.920308
 31
0.0
  0
LINE
  5
601F
100
AcDbEntity
  8
0
100
AcDbLine
 10
1954.605832
 20
1228.204579
 30
0.0
 11
1971.897545
 21
1228.204579
 31
0.0
  0
LINE
  5
6020
100
AcDbEntity
  8
0
100
AcDbLine
 10
1967.934816
 20
1205.920308
 30
0.0
 11
1960.428816
 21
1205.920308
 31
0.0
  0
ARC
  5
6021
100
AcDbEntity
  8
0
100
AcDbCircle
 10
1964.181816
 20
1212.420308
 30
0.0
 40
9.215729
100
AcDbArc
 50
270.0
 51
0.0
  0
CIRCLE
  5
6022
100
AcDbEntity
  8
0
100
AcDbCircle
 10
1964.181816
 20
1212.420308
 30
0.0
 40
6.30876
  0
LINE
  5
6024
100
AcDbEntity
  8
0
100
AcDbLine
 10
1898.397545
 20
1226.913017
 30
0.0
 11
1898.397545
 21
1212.420308
 31
0.0
  0
LINE
  5
6025
100
AcDbEntity
  8
0
100
AcDbLine
 10
1879.397545
 20
1218.704579
 30
0.0
 11
1879.397545
 21
1240.704579
 31
0.0
  0
ARC
  5
6026
100
AcDbEntity
  8
0
100
AcDbCircle
 10
1935.897545
 20
1240.704579
 30
0.0
 40
28.0
100
AcDbArc
 50
206.514775
 51
333.485225
  0
CIRCLE
  5
6027
100
AcDbEntity
  8
0
100
AcDbCircle
 10
1935.897545
 20
1240.704579
 30
0.0
 40
22.5
  0
CIRCLE
  5
6028
100
AcDbEntity
  8
0
100
AcDbCircle
 10
1935.897545
 20
1240.704579
 30
0.0
 40
20.25
  0
LINE
  5
6029
100
AcDbEntity
  8
0
100
AcDbLine
 10
1879.397545
 20
1218.704579
 30
0.0
 11
1898.397545
 21
1218.704579
 31
0.0
  0
LINE
  5
602A
100
AcDbEntity
  8
0
100
AcDbLine
 10
1907.613274
 20
1203.204579
 30
0.0
 11
1964.181816
 21
1203.204579
 31
0.0
  0
LINE
  5
602B
100
AcDbEntity
  8
0
100
AcDbLine
 10
1901.113274
 20
1216.173308
 30
0.0
 11
1907.613274
 21
1219.926308
 31
0.0
  0
LINE
  5
602C
100
AcDbEntity
  8
0
100
AcDbLine
 10
1907.613274
 20
1219.926308
 30
0.0
 11
1914.113274
 21
1216.173308
 31
0.0
  0
LINE
  5
602D
100
AcDbEntity
  8
0
100
AcDbLine
 10
1907.613274
 20
1204.914308
 30
0.0
 11
1901.113274
 21
1208.667308
 31
0.0
  0
LINE
  5
602E
100
AcDbEntity
  8
0
100
AcDbLine
 10
1914.113274
 20
1208.667308
 30
0.0
 11
1907.613274
 21
1204.914308
 31
0.0
  0
ARC
  5
602F
100
AcDbEntity
  8
0
100
AcDbCircle
 10
1907.613274
 20
1212.420308
 30
0.0
 40
9.215729
100
AcDbArc
 50
180.0
 51
270.0
  0
CIRCLE
  5
6030
100
AcDbEntity
  8
0
100
AcDbCircle
 10
1907.613274
 20
1212.420308
 30
0.0
 40
6.30876
  0
LINE
  5
6031
100
AcDbEntity
  8
0
100
AcDbLine
 10
1901.113274
 20
1208.667308
 30
0.0
 11
1901.113274
 21
1216.173308
 31
0.0
  0
LINE
  5
6032
100
AcDbEntity
  8
0
100
AcDbLine
 10
1914.113274
 20
1216.173308
 30
0.0
 11
1914.113274
 21
1208.667308
 31
0.0
  0
LINE
  5
6033
100
AcDbEntity
  8
0
100
AcDbLine
 10
1956.675816
 20
1212.420308
 30
0.0
 11
1960.428816
 21
1218.920308
 31
0.0
  0
LINE
  5
6034
100
AcDbEntity
  8
0
100
AcDbLine
 10
1960.428816
 20
1205.920308
 30
0.0
 11
1956.675816
 21
1212.420308
 31
0.0
  0
LINE
  5
6035
100
AcDbEntity
  8
0
100
AcDbLine
 10
1879.397545
 20
1262.704579
 30
0.0
 11
1898.397545
 21
1262.704579
 31
0.0
  0
ARC
  5
6036
100
AcDbEntity
  8
0
100
AcDbCircle
 10
1899.897545
 20
1246.204579
 30
0.0
 40
7.0
100
AcDbArc
 50
90.0
 51
180.0
  0
ARC
  5
6037
100
AcDbEntity
  8
0
100
AcDbCircle
 10
1899.897545
 20
1235.204579
 30
0.0
 40
7.0
100
AcDbArc
 50
180.0
 51
270.0
  0
LINE
  5
6038
100
AcDbEntity
  8
0
100
AcDbLine
 10
1892.897545
 20
1235.204579
 30
0.0
 11
1892.897545
 21
1246.204579
 31
0.0
  0
LINE
  5
6039
100
AcDbEntity
  8
0
100
AcDbLine
 10
1879.397545
 20
1240.704579
 30
0.0
 11
1879.397545
 21
1262.704579
 31
0.0
  0
LINE
  5
603A
100
AcDbEntity
  8
0
100
AcDbLine
 10
1964.181816
 20
1261.48285
 30
0.0
 11
1957.681816
 21
1265.23585
 31
0.0
  0
LINE
  5
603B
100
AcDbEntity
  8
0
100
AcDbLine
 10
1915.119274
 20
1268.98885
 30
0.0
 11
1911.366274
 21
1262.48885
 31
0.0
  0
LINE
  5
603C
100
AcDbEntity
  8
0
100
AcDbLine
 10
1903.860274
 20
1262.48885
 30
0.0
 11
1900.107274
 21
1268.98885
 31
0.0
  0
LINE
  5
603D
100
AcDbEntity
  8
0
100
AcDbLine
 10
1898.397545
 20
1268.98885
 30
0.0
 11
1898.397545
 21
1254.496141
 31
0.0
  0
ARC
  5
603E
100
AcDbEntity
  8
0
100
AcDbCircle
 10
1935.897545
 20
1240.704579
 30
0.0
 40
28.0
100
AcDbArc
 50
26.514775
 51
153.485225
  0
CIRCLE
  5
603F
100
AcDbEntity
  8
0
100
AcDbCircle
 10
1907.613274
 20
1268.98885
 30
0.0
 40
6.30876
  0
LINE
  5
6040
100
AcDbEntity
  8
0
100
AcDbLine
 10
1911.366274
 20
1262.48885
 30
0.0
 11
1903.860274
 21
1262.48885
 31
0.0
  0
ARC
  5
6041
100
AcDbEntity
  8
0
100
AcDbCircle
 10
1896.397545
 20
1254.496141
 30
0.0
 40
2.0
100
AcDbArc
 50
292.88538
 51
0.0
  0
LINE
  5
6042
100
AcDbEntity
  8
0
100
AcDbLine
 10
1899.897545
 20
1253.204579
 30
0.0
 11
1917.189258
 21
1253.204579
 31
0.0
  0
ARC
  5
6043
100
AcDbEntity
  8
0
100
AcDbCircle
 10
1896.397545
 20
1226.913017
 30
0.0
 40
2.0
100
AcDbArc
 50
0.0
 51
67.11462
  0
LINE
  5
6044
100
AcDbEntity
  8
0
100
AcDbLine
 10
1899.897545
 20
1228.204579
 30
0.0
 11
1917.189258
 21
1228.204579
 31
0.0
  0
LINE
  5
6045
100
AcDbEntity
  8
0
100
AcDbLine
 10
1907.613274
 20
1278.204579
 30
0.0
 11
1964.181816
 21
1278.204579
 31
0.0
  0
LINE
  5
6046
100
AcDbEntity
  8
0
100
AcDbLine
 10
1903.860274
 20
1275.48885
 30
0.0
 11
1911.366274
 21
1275.48885
 31
0.0
  0
ARC
  5
6047
100
AcDbEntity
  8
0
100
AcDbCircle
 10
1907.613274
 20
1268.98885
 30
0.0
 40
9.215729
100
AcDbArc
 50
90.0
 51
180.0
  0
LINE
  5
6048
100
AcDbEntity
  8
0
100
AcDbLine
 10
1900.107274
 20
1268.98885
 30
0.0
 11
1903.860274
 21
1275.48885
 31
0.0
  0
LINE
  5
6049
100
AcDbEntity
  8
0
100
AcDbLine
 10
1911.366274
 20
1275.48885
 30
0.0
 11
1915.119274
 21
1268.98885
 31
0.0
  0
LINE
  5
604A
100
AcDbEntity
  8
0
100
AcDbLine
 10
1957.681816
 20
1265.23585
 30
0.0
 11
1957.681816
 21
1272.74185
 31
0.0
  0
LINE
  5
604B
100
AcDbEntity
  8
0
100
AcDbLine
 10
1957.681816
 20
1272.74185
 30
0.0
 11
1964.181816
 21
1276.49485
 31
0.0
  0
LINE
  5
604C
100
AcDbEntity
  8
0
100
AcDbLine
 10
1991.397545
 20
1218.704579
 30
0.0
 11
1991.397545
 21
1240.704579
 31
0.0
  0
LINE
  5
604D
100
AcDbEntity
  8
0
100
AcDbLine
 10
1973.397545
 20
1226.913017
 30
0.0
 11
1973.397545
 21
1212.420308
 31
0.0
  0
LINE
  5
604E
100
AcDbEntity
  8
0
100
AcDbLine
 10
1967.934816
 20
1218.920308
 30
0.0
 11
1971.687816
 21
1212.420308
 31
0.0
  0
LINE
  5
604F
100
AcDbEntity
  8
0
100
AcDbLine
 10
1973.397545
 20
1218.704579
 30
0.0
 11
1991.397545
 21
1218.704579
 31
0.0
  0
LINE
  5
6050
100
AcDbEntity
  8
0
100
AcDbLine
 10
1971.687816
 20
1212.420308
 30
0.0
 11
1967.934816
 21
1205.920308
 31
0.0
  0
LINE
  5
6051
100
AcDbEntity
  8
0
100
AcDbLine
 10
1973.397545
 20
1268.98885
 30
0.0
 11
1973.397545
 21
1254.496141
 31
0.0
  0
LINE
  5
6052
100
AcDbEntity
  8
0
100
AcDbLine
 10
1973.397545
 20
1262.704579
 30
0.0
 11
1991.397545
 21
1262.704579
 31
0.0
  0
ARC
  5
6053
100
AcDbEntity
  8
0
100
AcDbCircle
 10
1975.397545
 20
1254.496141
 30
0.0
 40
2.0
100
AcDbArc
 50
180.0
 51
247.11462
  0
ARC
  5
6054
100
AcDbEntity
  8
0
100
AcDbCircle
 10
1970.395101
 20
1247.704579
 30
0.0
 40
2.0
100
AcDbArc
 50
180.0
 51
270.0
  0
LINE
  5
6055
100
AcDbEntity
  8
0
100
AcDbLine
 10
1970.395101
 20
1245.704579
 30
0.0
 11
1971.658981
 21
1245.704579
 31
0.0
  0
ARC
  5
6056
100
AcDbEntity
  8
0
100
AcDbCircle
 10
1971.897545
 20
1246.204579
 30
0.0
 40
7.0
100
AcDbArc
 50
0.0
 51
90.0
  0
LINE
  5
6057
100
AcDbEntity
  8
0
100
AcDbLine
 10
1970.395101
 20
1235.704579
 30
0.0
 11
1971.658981
 21
1235.704579
 31
0.0
  0
ARC
  5
6058
100
AcDbEntity
  8
0
100
AcDbCircle
 10
1970.395101
 20
1233.704579
 30
0.0
 40
2.0
100
AcDbArc
 50
90.0
 51
180.0
  0
ARC
  5
6059
100
AcDbEntity
  8
0
100
AcDbCircle
 10
1975.397545
 20
1226.913017
 30
0.0
 40
2.0
100
AcDbArc
 50
112.88538
 51
180.0
  0
ARC
  5
605A
100
AcDbEntity
  8
0
100
AcDbCircle
 10
1971.897545
 20
1235.204579
 30
0.0
 40
7.0
100
AcDbArc
 50
270.0
 51
0.0
  0
LINE
  5
605B
100
AcDbEntity
  8
0
100
AcDbLine
 10
1991.397545
 20
1240.704579
 30
0.0
 11
1991.397545
 21
1262.704579
 31
0.0
  0
POLYLINE
  5
605C
100
AcDbEntity
  8
0
100
AcDb2dPolyline
 66
     1
 10
0.0
 20
0.0
 30
0.0
 70
     1
  0
VERTEX
  5
6404
100
AcDbEntity
  8
0
100
AcDbVertex
100
AcDb2dVertex
 10
1967.822437
 20
1240.704579
 30
0.0
 42
0.077085
  0
VERTEX
  5
6405
100
AcDbEntity
  8
0
100
AcDbVertex
100
AcDb2dVertex
 10
1968.127579
 20
1238.737091
 30
0.0
 42
0.086906
  0
VERTEX
  5
6406
100
AcDbEntity
  8
0
100
AcDbVertex
100
AcDb2dVertex
 10
1968.946134
 20
1237.169045
 30
0.0
 42
0.105719
  0
VERTEX
  5
6407
100
AcDbEntity
  8
0
100
AcDbVertex
100
AcDb2dVertex
 10
1970.245914
 20
1236.061633
 30
0.0
 42
0.124385
  0
VERTEX
  5
6408
100
AcDbEntity
  8
0
100
AcDbVertex
100
AcDb2dVertex
 10
1971.658981
 20
1235.704579
 30
0.0
 42
0.124385
  0
VERTEX
  5
6409
100
AcDbEntity
  8
0
100
AcDbVertex
100
AcDb2dVertex
 10
1973.072047
 20
1236.061633
 30
0.0
 42
0.105719
  0
VERTEX
  5
640A
100
AcDbEntity
  8
0
100
AcDbVertex
100
AcDb2dVertex
 10
1974.371827
 20
1237.169045
 30
0.0
 42
0.086906
  0
VERTEX
  5
640B
100
AcDbEntity
  8
0
100
AcDbVertex
100
AcDb2dVertex
 10
1975.190382
 20
1238.737091
 30
0.0
 42
0.077085
  0
VERTEX
  5
640C
100
AcDbEntity
  8
0
100
AcDbVertex
100
AcDb2dVertex
 10
1975.495525
 20
1240.704579
 30
0.0
 42
0.077085
  0
VERTEX
  5
640D
100
AcDbEntity
  8
0
100
AcDbVertex
100
AcDb2dVertex
 10
1975.190382
 20
1242.672067
 30
0.0
 42
0.086906
  0
VERTEX
  5
640E
100
AcDbEntity
  8
0
100
AcDbVertex
100
AcDb2dVertex
 10
1974.371827
 20
1244.240113
 30
0.0
 42
0.105719
  0
VERTEX
  5
640F
100
AcDbEntity
  8
0
100
AcDbVertex
100
AcDb2dVertex
 10
1973.072047
 20
1245.347525
 30
0.0
 42
0.124385
  0
VERTEX
  5
6410
100
AcDbEntity
  8
0
100
AcDbVertex
100
AcDb2dVertex
 10
1971.658981
 20
1245.704579
 30
0.0
 42
0.124385
  0
VERTEX
  5
6411
100
AcDbEntity
  8
0
100
AcDbVertex
100
AcDb2dVertex
 10
1970.245914
 20
1245.347525
 30
0.0
 42
0.105719
  0
VERTEX
  5
6412
100
AcDbEntity
  8
0
100
AcDbVertex
100
AcDb2dVertex
 10
1968.946134
 20
1244.240113
 30
0.0
 42
0.086906
  0
VERTEX
  5
6413
100
AcDbEntity
  8
0
100
AcDbVertex
100
AcDb2dVertex
 10
1968.127579
 20
1242.672067
 30
0.0
 42
0.077085
  0
SEQEND
  5
6414
100
AcDbEntity
  8
0
  0
LINE
  5
605D
100
AcDbEntity
  8
0
100
AcDbLine
 10
1978.897545
 20
1235.204579
 30
0.0
 11
1978.897545
 21
1246.204579
 31
0.0
  0
LINE
  5
605E
100
AcDbEntity
  8
0
100
AcDbLine
 10
1970.681816
 20
1272.74185
 30
0.0
 11
1970.681816
 21
1265.23585
 31
0.0
  0
INSERT
  5
605F
100
AcDbEntity
  8
0
100
AcDbBlockReference
  2
YA
 10
1863.397545
 20
1240.704579
 30
0.0
 41
2.284817
 42
2.284817
 43
2.284817
  0
INSERT
  5
6060
100
AcDbEntity
  8
0
100
AcDbBlockReference
  2
YA
 10
1863.397545
 20
1091.568755
 30
0.0
 41
2.284817
 42
2.284817
 43
2.284817
  0
INSERT
  5
6061
100
AcDbEntity
  8
0
100
AcDbBlockReference
  2
YA
 10
2006.397545
 20
1410.892368
 30
0.0
 41
-2.284817
 42
2.284817
 43
2.284817
  0
INSERT
  5
6062
100
AcDbEntity
  8
0
100
AcDbBlockReference
  2
YA
 10
1166.690466
 20
1240.704579
 30
0.0
 41
2.284817
 42
2.284817
 43
2.284817
  0
INSERT
  5
6063
100
AcDbEntity
  8
0
100
AcDbBlockReference
  2
YA
 10
1166.690466
 20
1091.568755
 30
0.0
 41
2.284817
 42
2.284817
 43
2.284817
  0
INSERT
  5
6064
100
AcDbEntity
  8
0
100
AcDbBlockReference
  2
YA
 10
536.734363
 20
1240.704579
 30
0.0
 41
2.284817
 42
2.284817
 43
2.284817
  0
INSERT
  5
6065
100
AcDbEntity
  8
0
100
AcDbBlockReference
  2
YA
 10
536.734363
 20
1091.568755
 30
0.0
 41
2.284817
 42
2.284817
 43
2.284817
  0
INSERT
  5
6066
100
AcDbEntity
  8
0
100
AcDbBlockReference
  2
YA
 10
1305.690466
 20
1410.892368
 30
0.0
 41
-2.284817
 42
2.284817
 43
2.284817
  0
INSERT
  5
6067
100
AcDbEntity
  8
0
100
AcDbBlockReference
  2
YA
 10
670.734363
 20
1410.892368
 30
0.0
 41
-2.284817
 42
2.284817
 43
2.284817
  0
TEXT
  5
6068
100
AcDbEntity
  8
0
100
AcDbText
 10
1215.236245
 20
204.628931
 30
0.0
 40
20.0
  1
20A
 72
     4
 11
1241.902912
 21
214.628931
 31
0.0
100
AcDbText
  0
TEXT
  5
606E
100
AcDbEntity
  8
0
100
AcDbText
 10
589.39735
 20
203.628931
 30
0.0
 40
20.0
  1
15A
 72
     4
 11
614.159255
 21
213.628931
 31
0.0
100
AcDbText
  0
TEXT
  5
606F
100
AcDbEntity
  8
0
100
AcDbText
 10
1913.943324
 20
207.128931
 30
0.0
 40
20.0
  1
25A
 72
     4
 11
1940.609991
 21
217.128931
 31
0.0
100
AcDbText
  0
TEXT
  5
6070
100
AcDbEntity
  8
0
100
AcDbText
 10
589.39735
 20
963.001289
 30
0.0
 40
20.0
  1
15A
 72
     4
 11
614.159255
 21
973.001289
 31
0.0
100
AcDbText
  0
TEXT
  5
6071
100
AcDbEntity
  8
0
100
AcDbText
 10
1215.236245
 20
964.001289
 30
0.0
 40
20.0
  1
20A
 72
     4
 11
1241.902912
 21
974.001289
 31
0.0
100
AcDbText
  0
TEXT
  5
6072
100
AcDbEntity
  8
0
100
AcDbText
 10
1913.943324
 20
966.501289
 30
0.0
 40
20.0
  1
25A
 72
     4
 11
1940.609991
 21
976.501289
 31
0.0
100
AcDbText
  0
ELLIPSE
  5
60DB
100
AcDbEntity
  8
0
100
AcDbEllipse
 10
804.250905
 20
279.895031
 30
0.0
 11
-11.99999999999988
 21
0.0
 31
0.0
210
0.0
220
0.0
230
1.0
 40
0.965926
 41
3.141592653589793
 42
6.283185307179586
  0
LINE
  5
60DC
100
AcDbEntity
  8
0
100
AcDbLine
 10
796.255456
 20
269.580098
 30
0.0
 11
795.628052
 21
271.196167
 31
0.0
  0
ARC
  5
60DD
100
AcDbEntity
  8
0
100
AcDbCircle
 10
798.119881
 20
270.303921
 30
0.0
 40
2.0
100
AcDbArc
 50
201.217635
 51
270.0
  0
ARC
  5
60DE
100
AcDbEntity
  8
0
100
AcDbCircle
 10
804.250905
 20
279.807873
 30
0.0
 40
11.25
100
AcDbArc
 50
81.03947
 51
98.96053
  0
POLYLINE
  5
60DF
100
AcDbEntity
  8
0
100
AcDb2dPolyline
 66
     1
 10
0.0
 20
0.0
 30
0.0
  0
VERTEX
  5
6415
100
AcDbEntity
  8
0
100
AcDbVertex
100
AcDb2dVertex
 10
802.498672
 20
290.920576
 30
0.0
  0
VERTEX
  5
6416
100
AcDbEntity
  8
0
100
AcDbVertex
100
AcDb2dVertex
 10
795.503137
 20
286.881703
 30
0.0
  0
SEQEND
  5
6417
100
AcDbEntity
  8
0
  0
ARC
  5
60E0
100
AcDbEntity
  8
0
100
AcDbCircle
 10
804.250905
 20
279.807873
 30
0.0
 40
11.25
100
AcDbArc
 50
141.03947
 51
158.96053
  0
POLYLINE
  5
60E1
100
AcDbEntity
  8
0
100
AcDb2dPolyline
 66
     1
 10
0.0
 20
0.0
 30
0.0
  0
VERTEX
  5
6418
100
AcDbEntity
  8
0
100
AcDbVertex
100
AcDb2dVertex
 10
812.998672
 20
286.881703
 30
0.0
  0
VERTEX
  5
6419
100
AcDbEntity
  8
0
100
AcDbVertex
100
AcDb2dVertex
 10
806.003137
 20
290.920576
 30
0.0
  0
SEQEND
  5
641A
100
AcDbEntity
  8
0
  0
ARC
  5
60E2
100
AcDbEntity
  8
0
100
AcDbCircle
 10
804.250905
 20
279.807873
 30
0.0
 40
11.25
100
AcDbArc
 50
21.03947
 51
38.96053
  0
LINE
  5
60E3
100
AcDbEntity
  8
0
100
AcDbLine
 10
795.503137
 20
286.881703
 30
0.0
 11
795.503137
 21
285.702362
 31
0.0
  0
LINE
  5
60E4
100
AcDbEntity
  8
0
100
AcDbLine
 10
793.750905
 20
283.846747
 30
0.0
 11
793.750905
 21
282.667405
 31
0.0
  0
LINE
  5
60E5
100
AcDbEntity
  8
0
100
AcDbLine
 10
802.498672
 20
290.920576
 30
0.0
 11
802.498672
 21
289.741235
 31
0.0
  0
LINE
  5
60E6
100
AcDbEntity
  8
0
100
AcDbLine
 10
806.003137
 20
290.920576
 30
0.0
 11
806.003137
 21
289.741235
 31
0.0
  0
LINE
  5
60E7
100
AcDbEntity
  8
0
100
AcDbLine
 10
812.998672
 20
286.881703
 30
0.0
 11
812.998672
 21
285.702362
 31
0.0
  0
LINE
  5
60E8
100
AcDbEntity
  8
0
100
AcDbLine
 10
814.750905
 20
283.846747
 30
0.0
 11
814.750905
 21
282.667405
 31
0.0
  0
LINE
  5
60E9
100
AcDbEntity
  8
0
100
AcDbLine
 10
816.250905
 20
288.005804
 30
0.0
 11
816.250905
 21
279.895031
 31
0.0
  0
LINE
  5
60EA
100
AcDbEntity
  8
0
100
AcDbLine
 10
812.246353
 20
269.580098
 30
0.0
 11
812.873757
 21
271.196167
 31
0.0
  0
ARC
  5
60EB
100
AcDbEntity
  8
0
100
AcDbCircle
 10
810.381928
 20
270.303921
 30
0.0
 40
2.0
100
AcDbArc
 50
270.0
 51
338.782365
  0
LINE
  5
60EC
100
AcDbEntity
  8
0
100
AcDbLine
 10
810.381928
 20
268.303921
 30
0.0
 11
807.86424
 21
268.303921
 31
0.0
  0
LINE
  5
60ED
100
AcDbEntity
  8
0
100
AcDbLine
 10
814.750905
 20
276.031328
 30
0.0
 11
816.250905
 21
279.895031
 31
0.0
  0
LINE
  5
60EE
100
AcDbEntity
  8
0
100
AcDbLine
 10
793.750905
 20
276.031328
 30
0.0
 11
792.250905
 21
279.895031
 31
0.0
  0
ARC
  5
6100
100
AcDbEntity
  8
0
100
AcDbCircle
 10
2155.315434
 20
281.842117
 30
0.0
 40
11.25
100
AcDbArc
 50
321.03947
 51
338.96053
  0
LINE
  5
6101
100
AcDbEntity
  8
0
100
AcDbLine
 10
2147.319986
 20
273.080098
 30
0.0
 11
2146.692581
 21
274.696167
 31
0.0
  0
LINE
  5
6102
100
AcDbEntity
  8
0
100
AcDbLine
 10
2163.310882
 20
273.080098
 30
0.0
 11
2163.938287
 21
274.696167
 31
0.0
  0
LINE
  5
6103
100
AcDbEntity
  8
0
100
AcDbLine
 10
2161.446458
 20
271.803921
 30
0.0
 11
2158.928769
 21
271.803921
 31
0.0
  0
ARC
  5
6104
100
AcDbEntity
  8
0
100
AcDbCircle
 10
2161.446458
 20
273.803921
 30
0.0
 40
2.0
100
AcDbArc
 50
270.0
 51
338.782365
  0
ARC
  5
6105
100
AcDbEntity
  8
0
100
AcDbCircle
 10
2149.184411
 20
273.803921
 30
0.0
 40
2.0
100
AcDbArc
 50
201.217635
 51
270.0
  0
LINE
  5
6106
100
AcDbEntity
  8
0
100
AcDbLine
 10
2149.184411
 20
271.803921
 30
0.0
 11
2151.702099
 21
271.803921
 31
0.0
  0
ARC
  5
6107
100
AcDbEntity
  8
0
100
AcDbCircle
 10
2155.315434
 20
281.842117
 30
0.0
 40
11.25
100
AcDbArc
 50
201.03947
 51
218.96053
  0
POLYLINE
  5
6108
100
AcDbEntity
  8
0
100
AcDb2dPolyline
 66
     1
 10
0.0
 20
0.0
 30
0.0
  0
VERTEX
  5
641B
100
AcDbEntity
  8
0
100
AcDbVertex
100
AcDb2dVertex
 10
2157.067667
 20
270.729413
 30
0.0
  0
VERTEX
  5
641C
100
AcDbEntity
  8
0
100
AcDbVertex
100
AcDb2dVertex
 10
2164.063201
 20
274.768287
 30
0.0
  0
SEQEND
  5
641D
100
AcDbEntity
  8
0
  0
POLYLINE
  5
6109
100
AcDbEntity
  8
0
100
AcDb2dPolyline
 66
     1
 10
0.0
 20
0.0
 30
0.0
  0
VERTEX
  5
641E
100
AcDbEntity
  8
0
100
AcDbVertex
100
AcDb2dVertex
 10
2146.567667
 20
274.768287
 30
0.0
  0
VERTEX
  5
641F
100
AcDbEntity
  8
0
100
AcDbVertex
100
AcDb2dVertex
 10
2153.563201
 20
270.729413
 30
0.0
  0
SEQEND
  5
6420
100
AcDbEntity
  8
0
  0
POLYLINE
  5
610A
100
AcDbEntity
  8
0
100
AcDb2dPolyline
 66
     1
 10
0.0
 20
0.0
 30
0.0
  0
VERTEX
  5
6421
100
AcDbEntity
  8
0
100
AcDbVertex
100
AcDb2dVertex
 10
2144.815434
 20
282.963634
 30
0.0
  0
VERTEX
  5
6422
100
AcDbEntity
  8
0
100
AcDbVertex
100
AcDb2dVertex
 10
2144.815434
 20
277.803243
 30
0.0
  0
SEQEND
  5
6423
100
AcDbEntity
  8
0
  0
LINE
  5
610B
100
AcDbEntity
  8
0
100
AcDbLine
 10
2144.815434
 20
279.531328
 30
0.0
 11
2143.381336
 21
283.225282
 31
0.0
  0
POLYLINE
  5
610C
100
AcDbEntity
  8
0
100
AcDb2dPolyline
 66
     1
 10
0.0
 20
0.0
 30
0.0
  0
VERTEX
  5
6424
100
AcDbEntity
  8
0
100
AcDbVertex
100
AcDb2dVertex
 10
2165.815434
 20
277.803243
 30
0.0
  0
VERTEX
  5
6425
100
AcDbEntity
  8
0
100
AcDbVertex
100
AcDb2dVertex
 10
2165.815434
 20
282.963634
 30
0.0
  0
SEQEND
  5
6426
100
AcDbEntity
  8
0
  0
LINE
  5
610D
100
AcDbEntity
  8
0
100
AcDbLine
 10
2165.815434
 20
279.531328
 30
0.0
 11
2167.315434
 21
283.395031
 31
0.0
  0
LINE
  5
6112
100
AcDbEntity
  8
0
100
AcDbLine
 10
1420.411622
 20
291.005804
 30
0.0
 11
1422.576256
 21
291.005804
 31
0.0
  0
LINE
  5
6113
100
AcDbEntity
  8
0
100
AcDbLine
 10
1448.576256
 20
289.005804
 30
0.0
 11
1448.576256
 21
280.895031
 31
0.0
  0
LINE
  5
6114
100
AcDbEntity
  8
0
100
AcDbLine
 10
1424.576256
 20
289.005804
 30
0.0
 11
1424.576256
 21
280.895031
 31
0.0
  0
POLYLINE
  5
6115
100
AcDbEntity
  8
0
100
AcDb2dPolyline
 66
     1
 10
0.0
 20
0.0
 30
0.0
  0
VERTEX
  5
6427
100
AcDbEntity
  8
0
100
AcDbVertex
100
AcDb2dVertex
 10
1426.076256
 20
283.667405
 30
0.0
  0
VERTEX
  5
6428
100
AcDbEntity
  8
0
100
AcDbVertex
100
AcDb2dVertex
 10
1426.076256
 20
275.303243
 30
0.0
  0
SEQEND
  5
6429
100
AcDbEntity
  8
0
  0
POLYLINE
  5
6116
100
AcDbEntity
  8
0
100
AcDb2dPolyline
 66
     1
 10
0.0
 20
0.0
 30
0.0
  0
VERTEX
  5
642A
100
AcDbEntity
  8
0
100
AcDbVertex
100
AcDb2dVertex
 10
1447.076256
 20
275.303243
 30
0.0
  0
VERTEX
  5
642B
100
AcDbEntity
  8
0
100
AcDbVertex
100
AcDb2dVertex
 10
1447.076256
 20
283.667405
 30
0.0
  0
SEQEND
  5
642C
100
AcDbEntity
  8
0
  0
ELLIPSE
  5
6117
100
AcDbEntity
  8
0
100
AcDbEllipse
 10
1436.576256
 20
280.895031
 30
0.0
 11
-11.99999999999988
 21
0.0
 31
0.0
210
0.0
220
0.0
230
1.0
 40
0.965926
 41
3.141592653589793
 42
6.283185307179586
  0
ARC
  5
6118
100
AcDbEntity
  8
0
100
AcDbCircle
 10
1436.576256
 20
279.342117
 30
0.0
 40
11.25
100
AcDbArc
 50
321.03947
 51
338.96053
  0
LINE
  5
6119
100
AcDbEntity
  8
0
100
AcDbLine
 10
1426.076256
 20
277.031328
 30
0.0
 11
1424.576256
 21
280.895031
 31
0.0
  0
LINE
  5
611A
100
AcDbEntity
  8
0
100
AcDbLine
 10
1428.580808
 20
270.580098
 30
0.0
 11
1427.953404
 21
272.196167
 31
0.0
  0
LINE
  5
611B
100
AcDbEntity
  8
0
100
AcDbLine
 10
1444.571705
 20
270.580098
 30
0.0
 11
1445.199109
 21
272.196167
 31
0.0
  0
LINE
  5
611C
100
AcDbEntity
  8
0
100
AcDbLine
 10
1442.70728
 20
269.303921
 30
0.0
 11
1440.189591
 21
269.303921
 31
0.0
  0
ARC
  5
611D
100
AcDbEntity
  8
0
100
AcDbCircle
 10
1442.70728
 20
271.303921
 30
0.0
 40
2.0
100
AcDbArc
 50
270.0
 51
338.782365
  0
ARC
  5
611E
100
AcDbEntity
  8
0
100
AcDbCircle
 10
1430.445233
 20
271.303921
 30
0.0
 40
2.0
100
AcDbArc
 50
201.217635
 51
270.0
  0
LINE
  5
611F
100
AcDbEntity
  8
0
100
AcDbLine
 10
1430.445233
 20
269.303921
 30
0.0
 11
1432.962921
 21
269.303921
 31
0.0
  0
ARC
  5
6120
100
AcDbEntity
  8
0
100
AcDbCircle
 10
1436.576256
 20
279.342117
 30
0.0
 40
11.25
100
AcDbArc
 50
201.03947
 51
218.96053
  0
POLYLINE
  5
6121
100
AcDbEntity
  8
0
100
AcDb2dPolyline
 66
     1
 10
0.0
 20
0.0
 30
0.0
  0
VERTEX
  5
642D
100
AcDbEntity
  8
0
100
AcDbVertex
100
AcDb2dVertex
 10
1427.828489
 20
272.268287
 30
0.0
  0
VERTEX
  5
642E
100
AcDbEntity
  8
0
100
AcDbVertex
100
AcDb2dVertex
 10
1434.824023
 20
268.229413
 30
0.0
  0
SEQEND
  5
642F
100
AcDbEntity
  8
0
  0
POLYLINE
  5
6122
100
AcDbEntity
  8
0
100
AcDb2dPolyline
 66
     1
 10
0.0
 20
0.0
 30
0.0
  0
VERTEX
  5
6430
100
AcDbEntity
  8
0
100
AcDbVertex
100
AcDb2dVertex
 10
1438.328489
 20
268.229413
 30
0.0
  0
VERTEX
  5
6431
100
AcDbEntity
  8
0
100
AcDbVertex
100
AcDb2dVertex
 10
1445.324023
 20
272.268287
 30
0.0
  0
SEQEND
  5
6432
100
AcDbEntity
  8
0
  0
LINE
  5
6123
100
AcDbEntity
  8
0
100
AcDbLine
 10
1447.076256
 20
277.031328
 30
0.0
 11
1448.576256
 21
280.895031
 31
0.0
  0
ARC
  5
6124
100
AcDbEntity
  8
0
100
AcDbCircle
 10
1436.576256
 20
280.807873
 30
0.0
 40
11.25
100
AcDbArc
 50
21.03947
 51
38.96053
  0
ARC
  5
6125
100
AcDbEntity
  8
0
100
AcDbCircle
 10
1436.576256
 20
279.628532
 30
0.0
 40
11.25
100
AcDbArc
 50
21.03947
 51
38.96053
  0
LINE
  5
6126
100
AcDbEntity
  8
0
100
AcDbLine
 10
1445.324023
 20
287.881703
 30
0.0
 11
1445.324023
 21
286.702362
 31
0.0
  0
LINE
  5
6127
100
AcDbEntity
  8
0
100
AcDbLine
 10
1438.328489
 20
291.920576
 30
0.0
 11
1438.328489
 21
290.741235
 31
0.0
  0
LINE
  5
6128
100
AcDbEntity
  8
0
100
AcDbLine
 10
1434.824023
 20
291.920576
 30
0.0
 11
1434.824023
 21
290.741235
 31
0.0
  0
LINE
  5
6129
100
AcDbEntity
  8
0
100
AcDbLine
 10
1426.076256
 20
284.846747
 30
0.0
 11
1426.076256
 21
283.667405
 31
0.0
  0
LINE
  5
612A
100
AcDbEntity
  8
0
100
AcDbLine
 10
1427.828489
 20
287.881703
 30
0.0
 11
1427.828489
 21
286.702362
 31
0.0
  0
POLYLINE
  5
612B
100
AcDbEntity
  8
0
100
AcDb2dPolyline
 66
     1
 10
0.0
 20
0.0
 30
0.0
  0
VERTEX
  5
6433
100
AcDbEntity
  8
0
100
AcDbVertex
100
AcDb2dVertex
 10
1445.324023
 20
287.881703
 30
0.0
  0
VERTEX
  5
6434
100
AcDbEntity
  8
0
100
AcDbVertex
100
AcDb2dVertex
 10
1438.328489
 20
291.920576
 30
0.0
  0
SEQEND
  5
6435
100
AcDbEntity
  8
0
  0
ARC
  5
612C
100
AcDbEntity
  8
0
100
AcDbCircle
 10
1436.576256
 20
280.807873
 30
0.0
 40
11.25
100
AcDbArc
 50
141.03947
 51
158.96053
  0
POLYLINE
  5
612D
100
AcDbEntity
  8
0
100
AcDb2dPolyline
 66
     1
 10
0.0
 20
0.0
 30
0.0
  0
VERTEX
  5
6436
100
AcDbEntity
  8
0
100
AcDbVertex
100
AcDb2dVertex
 10
1434.824023
 20
291.920576
 30
0.0
  0
VERTEX
  5
6437
100
AcDbEntity
  8
0
100
AcDbVertex
100
AcDb2dVertex
 10
1427.828489
 20
287.881703
 30
0.0
  0
SEQEND
  5
6438
100
AcDbEntity
  8
0
  0
ARC
  5
612E
100
AcDbEntity
  8
0
100
AcDbCircle
 10
1436.576256
 20
280.807873
 30
0.0
 40
11.25
100
AcDbArc
 50
81.03947
 51
98.96053
  0
POLYLINE
  5
612F
100
AcDbEntity
  8
0
100
AcDb2dPolyline
 66
     1
 10
0.0
 20
0.0
 30
0.0
  0
VERTEX
  5
6439
100
AcDbEntity
  8
0
100
AcDbVertex
100
AcDb2dVertex
 10
1445.324023
 20
286.702362
 30
0.0
  0
VERTEX
  5
643A
100
AcDbEntity
  8
0
100
AcDbVertex
100
AcDb2dVertex
 10
1438.328489
 20
290.741235
 30
0.0
  0
SEQEND
  5
643B
100
AcDbEntity
  8
0
  0
ARC
  5
6130
100
AcDbEntity
  8
0
100
AcDbCircle
 10
1436.576256
 20
279.628532
 30
0.0
 40
11.25
100
AcDbArc
 50
141.03947
 51
158.96053
  0
POLYLINE
  5
6131
100
AcDbEntity
  8
0
100
AcDb2dPolyline
 66
     1
 10
0.0
 20
0.0
 30
0.0
  0
VERTEX
  5
643C
100
AcDbEntity
  8
0
100
AcDbVertex
100
AcDb2dVertex
 10
1434.824023
 20
290.741235
 30
0.0
  0
VERTEX
  5
643D
100
AcDbEntity
  8
0
100
AcDbVertex
100
AcDb2dVertex
 10
1427.828489
 20
286.702362
 30
0.0
  0
SEQEND
  5
643E
100
AcDbEntity
  8
0
  0
ARC
  5
6132
100
AcDbEntity
  8
0
100
AcDbCircle
 10
1436.576256
 20
279.628532
 30
0.0
 40
11.25
100
AcDbArc
 50
81.03947
 51
98.96053
  0
LINE
  5
6133
100
AcDbEntity
  8
0
100
AcDbLine
 10
1447.076256
 20
284.846747
 30
0.0
 11
1447.076256
 21
283.667405
 31
0.0
  0
LINE
  5
6135
100
AcDbEntity
  8
0
100
AcDbLine
 10
1452.740891
 20
291.005804
 30
0.0
 11
1450.576256
 21
291.005804
 31
0.0
  0
LINE
  5
614A
100
AcDbEntity
  8
0
100
AcDbLine
 10
781.750905
 20
389.075321
 30
0.0
 11
780.617706
 21
385.778742
 31
0.0
  0
LINE
  5
614B
100
AcDbEntity
  8
0
100
AcDbLine
 10
826.750905
 20
389.075321
 30
0.0
 11
827.884104
 21
385.778742
 31
0.0
  0
LINE
  5
614C
100
AcDbEntity
  8
0
100
AcDbLine
 10
781.750905
 20
389.075321
 30
0.0
 11
787.637657
 21
389.075321
 31
0.0
  0
LINE
  5
614D
100
AcDbEntity
  8
0
100
AcDbLine
 10
820.864152
 20
389.075321
 30
0.0
 11
826.750905
 21
389.075321
 31
0.0
  0
LINE
  5
614E
100
AcDbEntity
  8
0
100
AcDbLine
 10
355.705349
 20
389.075321
 30
0.0
 11
354.57215
 21
385.778742
 31
0.0
  0
LINE
  5
614F
100
AcDbEntity
  8
0
100
AcDbLine
 10
355.705349
 20
389.075321
 30
0.0
 11
361.592102
 21
389.075321
 31
0.0
  0
LINE
  5
6150
100
AcDbEntity
  8
0
100
AcDbLine
 10
400.705349
 20
389.075321
 30
0.0
 11
401.838548
 21
385.778742
 31
0.0
  0
LINE
  5
6151
100
AcDbEntity
  8
0
100
AcDbLine
 10
394.818597
 20
389.075321
 30
0.0
 11
400.705349
 21
389.075321
 31
0.0
  0
VIEWPORT
  5
41
100
AcDbEntity
 67
     1
  8
0
100
AcDbViewport
 10
117.358407
 20
73.5
 30
0.0
 40
234.716814
 41
147.0
 68
    -1
 69
     1
1001
ACAD
1000
MVIEW
1002
{
1070
    16
1010
0.0
1020
0.0
1030
0.0
1010
0.0
1020
0.0
1030
1.0
1040
0.0
1040
147.0
1040
117.358407
1040
73.5
1040
50.0
1040
0.0
1040
0.0
1070
     0
1070
   100
1070
     1
1070
     1
1070
     0
1070
     0
1070
     0
1070
     0
1040
0.0
1040
0.0
1040
0.0
1040
1.0
1040
1.0
1040
0.0
1040
0.0
1070
     0
1002
{
1002
}
1002
}
  0
ENDSEC
  0
SECTION
  2
OBJECTS
  0
DICTIONARY
  5
C
100
AcDbDictionary
  3
ACAD_GROUP
350
D
  3
ACAD_MLINESTYLE
350
E
  0
DICTIONARY
  5
D
102
{ACAD_REACTORS
330
C
102
}
100
AcDbDictionary
  0
DICTIONARY
  5
E
102
{ACAD_REACTORS
330
C
102
}
100
AcDbDictionary
  3
STANDARD
350
1B
  0
MLINESTYLE
  5
1B
102
{ACAD_REACTORS
330
E
102
}
100
AcDbMlineStyle
  2
STANDARD
 70
     0
  3

 62
     0
 51
90.0
 52
90.0
 71
     2
 49
0.5
 62
   256
  6
BYLAYER
 49
-0.5
 62
   256
  6
BYLAYER
  0
ENDSEC
  0
EOF
